  0
SECTION
  2
HEADER
  9
$ACADVER
  1
AC1009
  9
$INSBASE
 10
0.0
 20
0.0
 30
0.0
  9
$EXTMIN
 10
-242.43842311723799
 20
-170.88655501561789
 30
-0.0015258207003583
  9
$EXTMAX
 10
477.60548219287188
 20
899.63356227370241
 30
0.0000000349246037
  9
$LIMMIN
 10
0.0
 20
0.0
  9
$LIMMAX
 10
0.0
 20
0.0
  9
$ORTHOMODE
 70
     0
  9
$REGENMODE
 70
     1
  9
$FILLMODE
 70
     1
  9
$QTEXTMODE
 70
     0
  9
$MIRRTEXT
 70
     1
  9
$DRAGMODE
 70
     2
  9
$LTSCALE
 40
20.32
  9
$OSMODE
 70
   231
  9
$ATTMODE
 70
     1
  9
$TEXTSIZE
 40
0.0
  9
$TRACEWID
 40
1.0
  9
$TEXTSTYLE
  7
STANDARD
  9
$CLAYER
  8
DATA
  9
$CELTYPE
  6
BYLAYER
  9
$CECOLOR
 62
   256
  9
$DIMSCALE
 40
1.0
  9
$DIMASZ
 40
0.18
  9
$DIMEXO
 40
0.0625
  9
$DIMDLI
 40
0.38
  9
$DIMRND
 40
0.0
  9
$DIMDLE
 40
0.0
  9
$DIMEXE
 40
0.18
  9
$DIMTP
 40
0.0
  9
$DIMTM
 40
0.0
  9
$DIMTXT
 40
0.18
  9
$DIMCEN
 40
0.09
  9
$DIMTSZ
 40
0.0
  9
$DIMTOL
 70
     0
  9
$DIMLIM
 70
     0
  9
$DIMTIH
 70
     1
  9
$DIMTOH
 70
     1
  9
$DIMSE1
 70
     0
  9
$DIMSE2
 70
     0
  9
$DIMTAD
 70
     0
  9
$DIMZIN
 70
     0
  9
$DIMBLK
  1

  9
$DIMASO
 70
     1
  9
$DIMSHO
 70
     1
  9
$DIMPOST
  1

  9
$DIMAPOST
  1

  9
$DIMALT
 70
     0
  9
$DIMALTD
 70
     2
  9
$DIMALTF
 40
25.399999999999999
  9
$DIMLFAC
 40
1.0
  9
$DIMTOFL
 70
     0
  9
$DIMTVP
 40
0.0
  9
$DIMTIX
 70
     0
  9
$DIMSOXD
 70
     0
  9
$DIMSAH
 70
     0
  9
$DIMBLK1
  1

  9
$DIMBLK2
  1

  9
$DIMSTYLE
  2
STANDARD
  9
$DIMCLRD
 70
     0
  9
$DIMCLRE
 70
     0
  9
$DIMCLRT
 70
     0
  9
$DIMTFAC
 40
1.0
  9
$DIMGAP
 40
0.09
  9
$LUNITS
 70
     2
  9
$LUPREC
 70
     4
  9
$SKETCHINC
 40
0.1
  9
$FILLETRAD
 40
0.0
  9
$AUNITS
 70
     0
  9
$AUPREC
 70
     0
  9
$MENU
  1
acad
  9
$ELEVATION
 40
0.0
  9
$PELEVATION
 40
0.0
  9
$THICKNESS
 40
0.0
  9
$LIMCHECK
 70
     0
  9
$BLIPMODE
 70
     0
  9
$CHAMFERA
 40
0.0
  9
$CHAMFERB
 40
0.0
  9
$SKPOLY
 70
     0
  9
$TDCREATE
 40
2454490.7557291668
  9
$TDUPDATE
 40
2454490.7579983328
  9
$TDINDWG
 40
0.0002432755
  9
$TDUSRTIMER
 40
0.0002431019
  9
$USRTIMER
 70
     1
  9
$ANGBASE
 50
0.0
  9
$ANGDIR
 70
     0
  9
$PDMODE
 70
     1
  9
$PDSIZE
 40
-2.0
  9
$PLINEWID
 40
0.0
  9
$COORDS
 70
     1
  9
$SPLFRAME
 70
     0
  9
$SPLINETYPE
 70
     6
  9
$SPLINESEGS
 70
     8
  9
$ATTDIA
 70
     0
  9
$ATTREQ
 70
     1
  9
$HANDLING
 70
     1
  9
$HANDSEED
  5
26D
  9
$SURFTAB1
 70
     6
  9
$SURFTAB2
 70
     6
  9
$SURFTYPE
 70
     6
  9
$SURFU
 70
     6
  9
$SURFV
 70
     6
  9
$UCSNAME
  2

  9
$UCSORG
 10
0.0
 20
0.0
 30
0.0
  9
$UCSXDIR
 10
1.0
 20
0.0
 30
0.0
  9
$UCSYDIR
 10
0.0
 20
1.0
 30
0.0
  9
$PUCSNAME
  2

  9
$PUCSORG
 10
0.0
 20
0.0
 30
0.0
  9
$PUCSXDIR
 10
1.0
 20
0.0
 30
0.0
  9
$PUCSYDIR
 10
0.0
 20
1.0
 30
0.0
  9
$USERI1
 70
     0
  9
$USERI2
 70
     0
  9
$USERI3
 70
     0
  9
$USERI4
 70
     0
  9
$USERI5
 70
     0
  9
$USERR1
 40
0.0
  9
$USERR2
 40
0.0
  9
$USERR3
 40
0.0
  9
$USERR4
 40
0.0
  9
$USERR5
 40
0.0
  9
$WORLDVIEW
 70
     1
  9
$SHADEDGE
 70
     3
  9
$SHADEDIF
 70
    70
  9
$TILEMODE
 70
     1
  9
$MAXACTVP
 70
    64
  9
$PLIMCHECK
 70
     0
  9
$PEXTMIN
 10
1.0000000000000000E+020
 20
1.0000000000000000E+020
 30
1.0000000000000000E+020
  9
$PEXTMAX
 10
-1.0000000000000000E+020
 20
-1.0000000000000000E+020
 30
-1.0000000000000000E+020
  9
$PLIMMIN
 10
0.0
 20
0.0
  9
$PLIMMAX
 10
12.0
 20
9.0
  9
$UNITMODE
 70
     0
  9
$VISRETAIN
 70
     0
  9
$PLINEGEN
 70
     1
  9
$PSLTSCALE
 70
     0
  0
ENDSEC
  0
SECTION
  2
TABLES
  0
TABLE
  2
VPORT
 70
     1
  0
VPORT
  2
*ACTIVE
 70
     0
 10
0.0
 20
0.0
 11
1.0
 21
1.0
 12
117.5835295378169
 22
364.3735036290422
 13
0.0
 23
0.0
 14
1.0
 24
1.0
 15
0.0
 25
0.0
 16
0.0
 26
0.0
 36
1.0
 17
0.0
 27
0.0
 37
0.0
 40
1079.4041016651649
 41
1.6703601108033239
 42
50.0
 43
0.0
 44
0.0
 50
0.0
 51
0.0
 71
     0
 72
  2000
 73
     1
 74
     1
 75
     0
 76
     0
 77
     0
 78
     0
  0
ENDTAB
  0
TABLE
  2
LTYPE
 70
    11
  0
LTYPE
  2
CONTINUOUS
 70
     0
  3
Solid line
 72
    65
 73
     0
 40
0.0
  0
ENDTAB
  0
TABLE
  2
LAYER
 70
     5
  0
LAYER
  2
0
 70
     0
 62
     7
  6
CONTINUOUS
  0
LAYER
  2
DATA
 70
     0
 62
     7
  6
CONTINUOUS
  0
LAYER
  2
HIBINO-BASE
 70
     0
 62
     7
  6
CONTINUOUS
  0
LAYER
  2
SPEC
 70
     0
 62
     7
  6
CONTINUOUS
  0
LAYER
  2
DIMNSIONS
 70
     0
 62
     7
  6
CONTINUOUS
  0
ENDTAB
  0
TABLE
  2
STYLE
 70
     2
  0
STYLE
  2
STANDARD
 70
     0
 40
0.0
 41
1.0
 50
0.0
 71
     0
 42
0.0
  3
txt
  4
BIGFONT.SHX
  0
ENDTAB
  0
TABLE
  2
VIEW
 70
     0
  0
ENDTAB
  0
TABLE
  2
UCS
 70
     0
  0
ENDTAB
  0
TABLE
  2
APPID
 70
     1
  0
APPID
  2
ACAD
 70
     0
  0
ENDTAB
  0
TABLE
  2
DIMSTYLE
 70
     1
  0
DIMSTYLE
  2
STANDARD
 70
     0
  3

  4

  5

  6

  7

 40
1.0
 41
0.18
 42
0.0625
 43
0.38
 44
0.18
 45
0.0
 46
0.0
 47
0.0
 48
0.0
140
0.18
141
0.09
142
0.0
143
25.399999999999999
144
1.0
145
0.0
146
1.0
147
0.09
 71
     0
 72
     0
 73
     1
 74
     1
 75
     0
 76
     0
 77
     0
 78
     0
170
     0
171
     2
172
     0
173
     0
174
     0
175
     0
176
     0
177
     0
178
     0
  0
ENDTAB
  0
ENDSEC
  0
SECTION
  2
BLOCKS
  0
BLOCK
  8
0
  2
$MODEL_SPACE
 70
     0
 10
0.0
 20
0.0
 30
0.0
  3
$MODEL_SPACE
  1

  0
ENDBLK
  5
240
  8
0
  0
BLOCK
 67
     1
  8
0
  2
$PAPER_SPACE
 70
     0
 10
0.0
 20
0.0
 30
0.0
  3
$PAPER_SPACE
  1

  0
ENDBLK
  5
23C
 67
     1
  8
0
  0
ENDSEC
  0
SECTION
  2
ENTITIES
  0
LINE
  5
2C
  8
HIBINO-BASE
  6
CONTINUOUS
 62
     7
 10
-242.4164521385637
 20
899.60095924994152
 30
0.0
 11
477.58350786143609
 21
899.60095924994152
 31
0.0
  0
LINE
  5
2D
  8
HIBINO-BASE
  6
CONTINUOUS
 62
     7
 10
477.58350786143609
 20
-140.39896075005851
 30
0.0
 11
-242.4164521385637
 21
-140.39896075005851
 31
0.0
  0
LINE
  5
2E
  8
HIBINO-BASE
  6
CONTINUOUS
 62
     7
 10
-242.4164521385637
 20
-140.39896075005851
 30
0.0
 11
-242.4164521385637
 21
899.60095924994152
 31
0.0
  0
TEXT
  5
2F
  8
HIBINO-BASE
 62
     7
 10
-213.6804321385639
 20
-166.03362035005861
 30
0.0
 40
14.400130546874999
  1
Hibino Corporation
 41
0.7
 11
-213.6804321385639
 21
-151.63348980318361
 31
0.0
 73
     3
  0
LINE
  5
30
  8
HIBINO-BASE
  6
CONTINUOUS
 62
     7
 10
477.58350786143609
 20
899.60095924994152
 30
0.0
 11
477.58350786143609
 21
-140.39896075005851
 31
0.0
  0
LINE
  5
31
  8
HIBINO-BASE
  6
CONTINUOUS
 62
     7
 10
117.5835278614362
 20
-50.398980750058577
 30
0.0
 11
477.58350786143609
 21
-50.398980750058577
 31
0.0
  0
LINE
  5
32
  8
HIBINO-BASE
  6
CONTINUOUS
 62
     7
 10
117.5835278614362
 20
-140.39896075005851
 30
0.0
 11
117.5835278614362
 21
-50.398980750058577
 31
0.0
  0
TEXT
  5
33
  8
HIBINO-BASE
 62
     7
 10
121.18348786143621
 20
-61.198993550058532
 30
0.0
 40
7.2001037500000002
  1
NOTE
 41
0.7
 11
121.18348786143621
 21
-53.998889800058528
 31
0.0
 73
     3
  0
LINE
  5
34
  8
HIBINO-BASE
  6
CONTINUOUS
 62
     7
 10
257.58352786143621
 20
-140.39896075005851
 30
0.0
 11
257.58352786143621
 21
-50.398980750058577
 31
0.0
  0
TEXT
  5
35
  8
HIBINO-BASE
 62
     7
 10
261.18352786143612
 20
-61.198993550058532
 30
0.0
 40
7.2001037500000002
  1
TITLE
 41
0.7
 11
261.18352786143612
 21
-53.998889800058528
 31
0.0
 73
     3
  0
TEXT
  5
36
  8
HIBINO-BASE
 62
     7
 10
317.85704786143617
 20
-166.03362035005861
 30
0.0
 40
14.400130546874999
  1
ヒビノ株式会社
 41
0.7
 11
317.85704786143617
 21
-151.63348980318361
 31
0.0
 73
     3
  0
LINE
  5
37
  8
HIBINO-BASE
  6
CONTINUOUS
 62
     7
 10
117.5835278614362
 20
-100.3989807500585
 30
0.0
 11
477.58350786143609
 21
-100.3989807500585
 31
0.0
  0
TEXT
  5
38
  8
HIBINO-BASE
 62
     7
 10
311.18352786143612
 20
-110.97367355005851
 30
0.0
 40
7.2001037500000002
  1
DRAWN
 41
0.7
 11
311.18352786143612
 21
-103.7735698000585
 31
0.0
 73
     3
  0
TEXT
  5
39
  8
HIBINO-BASE
 62
     7
 10
211.18352786143609
 20
-110.97367355005851
 30
0.0
 40
7.2001037500000002
  1
DATE
 41
0.7
 11
211.18352786143609
 21
-103.7735698000585
 31
0.0
 73
     3
  0
TEXT
  5
3A
  8
HIBINO-BASE
 62
     7
 10
121.9834678614362
 20
-110.8767511500585
 30
0.0
 40
6.5153440624999996
  1
図面サイズ
 41
0.7
 11
121.9834678614362
 21
-104.3614070875585
 31
0.0
 73
     3
  0
TEXT
  5
3B
  8
HIBINO-BASE
 62
     7
 10
171.18348786143611
 20
-110.97367355005851
 30
0.0
 40
7.2001037500000002
  1
SCALE
 41
0.7
 11
171.18348786143611
 21
-103.7735698000585
 31
0.0
 73
     3
  0
TEXT
  5
3C
  8
HIBINO-BASE
 62
     7
 10
261.18352786143612
 20
-110.97367355005851
 30
0.0
 40
7.2001037500000002
  1
DESIGN
 41
0.7
 11
261.18352786143612
 21
-103.7735698000585
 31
0.0
 73
     3
  0
TEXT
  5
3D
  8
HIBINO-BASE
 62
     7
 10
411.18346786143621
 20
-110.97367355005851
 30
0.0
 40
7.2001037500000002
  1
DRAWING NO.
 41
0.7
 11
411.18346786143621
 21
-103.7735698000585
 31
0.0
 73
     3
  0
TEXT
  5
3E
  8
HIBINO-BASE
 62
     7
 10
361.18350786143623
 20
-110.97367355005851
 30
0.0
 40
7.2001037500000002
  1
CHECK
 41
0.7
 11
361.18350786143623
 21
-103.7735698000585
 31
0.0
 73
     3
  0
LINE
  5
3F
  8
HIBINO-BASE
  6
CONTINUOUS
 62
     7
 10
175.08346786143619
 20
-135.39898075005851
 30
0.0
 11
190.0835278614361
 21
-120.3989807500585
 31
0.0
  0
TEXT
  5
40
  8
HIBINO-BASE
 62
     7
 10
172.58346786143619
 20
-127.2618175500584
 30
0.0
 40
8.6871459375000004
  1
1
 41
0.7
 11
172.58346786143619
 21
-118.5746716125584
 31
0.0
 73
     3
  0
LINE
  5
41
  8
HIBINO-BASE
  6
CONTINUOUS
 62
     7
 10
167.58346786143619
 20
-140.39896075005851
 30
0.0
 11
167.58346786143619
 21
-100.3989807500585
 31
0.0
  0
LINE
  5
42
  8
HIBINO-BASE
  6
CONTINUOUS
 62
     7
 10
207.58350786143609
 20
-140.39896075005851
 30
0.0
 11
207.58350786143609
 21
-100.3989807500585
 31
0.0
  0
LINE
  5
43
  8
HIBINO-BASE
  6
CONTINUOUS
 62
     7
 10
307.58350786143609
 20
-100.3989807500585
 30
0.0
 11
307.58350786143609
 21
-140.39896075005851
 31
0.0
  0
LINE
  5
44
  8
HIBINO-BASE
  6
CONTINUOUS
 62
     7
 10
407.5835278614361
 20
-100.3989807500585
 30
0.0
 11
407.5835278614361
 21
-140.39896075005851
 31
0.0
  0
LINE
  5
45
  8
HIBINO-BASE
  6
CONTINUOUS
 62
     7
 10
357.5834878614362
 20
-140.39896075005851
 30
0.0
 11
357.5834878614362
 21
-100.3989807500585
 31
0.0
  0
TEXT
  5
46
  8
HIBINO-BASE
 62
     7
 10
133.22708786143619
 20
-130.40509875005839
 30
0.0
 40
13.030703515625
  1
A4
 41
0.7
 11
133.22708786143619
 21
-117.37439523443339
 31
0.0
 73
     3
  0
TEXT
  5
47
  8
HIBINO-BASE
 62
     7
 10
211.00968786143619
 20
-129.70959355005851
 30
0.0
 40
7.2001037500000002
  1
'08.1.
 41
0.7
 11
211.00968786143619
 21
-122.5094898000585
 31
0.0
 73
     3
  0
TEXT
  5
48
  8
HIBINO-BASE
 62
     7
 10
187.5835278614361
 20
-134.7618175500584
 30
0.0
 40
8.6871459375000004
  1
4
 41
0.7
 11
187.5835278614361
 21
-126.0746716125584
 31
0.0
 73
     3
  0
TEXT
  5
49
  8
HIBINO-BASE
 62
     7
 10
315.24444444444441
 20
-128.55600000000001
 30
0.0
 40
7.6012586805555546
  1
N.Sasaki
 41
0.7
 11
315.24444444444441
 21
-120.95474131944439
 31
0.0
 73
     3
  0
LINE
  5
4A
  8
SPEC
  6
CONTINUOUS
 62
     7
 10
-212.41645213856381
 20
859.60095924994152
 30
0.0
 11
294.24961095869651
 21
859.60095924994152
 31
0.0
  0
LINE
  5
4B
  8
SPEC
  6
CONTINUOUS
 62
     7
 10
-212.41645213856381
 20
844.60095924994141
 30
0.0
 11
294.24961095869651
 21
844.60095924994141
 31
0.0
  0
LINE
  5
4C
  8
SPEC
  6
CONTINUOUS
 62
     7
 10
-212.41645213856381
 20
829.60095924994141
 30
0.0
 11
294.24961095869651
 21
829.60095924994141
 31
0.0
  0
LINE
  5
4D
  8
SPEC
  6
CONTINUOUS
 62
     7
 10
-212.41645213856381
 20
859.6009592499413
 30
0.0
 11
-212.41645213856381
 21
469.60099924994142
 31
0.0
  0
TEXT
  5
4E
  8
SPEC
 62
     7
 10
-207.4164521385637
 20
865.17405924994125
 30
0.0
 40
9.7730468749999986
  1
仕様
 41
0.7
 11
-207.4164521385637
 21
874.94710612494123
 31
0.0
 73
     3
  0
TEXT
  5
4F
  8
SPEC
 62
     7
 10
-208.81641213856369
 20
847.75089036105226
 30
0.0
 40
7.6012586805555546
  1
形式
 41
0.7
 11
-208.81641213856369
 21
855.35214904160784
 31
0.0
 73
     3
  0
TEXT
  5
50
  8
SPEC
 62
     7
 10
-208.81641213856369
 20
832.75089036105226
 30
0.0
 40
7.6012586805555546
  1
周波数特性
 41
0.7
 11
-208.81641213856369
 21
840.35214904160784
 31
0.0
 73
     3
  0
TEXT
  5
51
  8
SPEC
 62
     7
 10
-208.81641213856369
 20
787.75089036105226
 30
0.0
 40
7.6012586805555546
  1
指向特性
 41
0.7
 11
-208.81641213856369
 21
795.35214904160784
 31
0.0
 73
     3
  0
LINE
  5
52
  8
SPEC
  6
CONTINUOUS
 62
     7
 10
-212.41645213856381
 20
739.6009592499413
 30
0.0
 11
267.58354786143622
 21
739.6009592499413
 31
0.0
  0
LINE
  5
53
  8
SPEC
  6
CONTINUOUS
 62
     7
 10
-212.41645213856381
 20
769.6009592499413
 30
0.0
 11
294.24961095869651
 21
769.6009592499413
 31
0.0
  0
TEXT
  5
54
  8
SPEC
 62
     7
 10
-208.81641213856369
 20
727.75091036105243
 30
0.0
 40
7.6012586805555546
  1
等価雑音レベル(Aウェイト)
 41
0.7
 11
-208.81641213856369
 21
735.35216904160802
 31
0.0
 73
     3
  0
LINE
  5
55
  8
SPEC
  6
CONTINUOUS
 62
     7
 10
-212.41645213856381
 20
739.6009592499413
 30
0.0
 11
294.24961095869651
 21
739.6009592499413
 31
0.0
  0
TEXT
  5
56
  8
SPEC
 62
     7
 10
-208.81641213856369
 20
517.75091036105243
 30
0.0
 40
7.6012586805555546
  1
使用電源
 41
0.7
 11
-208.81641213856369
 21
525.35216904160791
 31
0.0
 73
     3
  0
LINE
  5
57
  8
SPEC
  6
CONTINUOUS
 62
     7
 10
-212.41645213856381
 20
709.6009592499413
 30
0.0
 11
294.24961095869651
 21
709.6009592499413
 31
0.0
  0
TEXT
  5
58
  8
SPEC
 62
     7
 10
-208.81641213856369
 20
502.75091036105238
 30
0.0
 40
7.6012586805555546
  1
寸法(W×H×D)
 41
0.7
 11
-208.81641213856369
 21
510.35216904160802
 31
0.0
 73
     3
  0
TEXT
  5
59
  8
SPEC
 62
     7
 10
-208.81641213856369
 20
487.75091036105249
 30
0.0
 40
7.6012586805555546
  1
質量
 41
0.7
 11
-208.81641213856369
 21
495.35216904160802
 31
0.0
 73
     3
  0
TEXT
  5
5A
  8
SPEC
 62
     7
 10
-208.81641213856369
 20
472.75091036105249
 30
0.0
 40
7.6012586805555546
  1
付属品 
 41
0.7
 11
-208.81641213856369
 21
480.35216904160802
 31
0.0
 73
     3
  0
LINE
  5
5B
  8
SPEC
  6
CONTINUOUS
 62
     7
 10
-212.41645213856381
 20
499.6009592499413
 30
0.0
 11
294.24961095869651
 21
499.6009592499413
 31
0.0
  0
LINE
  5
5C
  8
SPEC
  6
CONTINUOUS
 62
     7
 10
-212.41645213856381
 20
514.6009592499413
 30
0.0
 11
294.24961095869651
 21
514.6009592499413
 31
0.0
  0
LINE
  5
5D
  8
SPEC
  6
CONTINUOUS
 62
     7
 10
-212.41645213856381
 20
484.60095924994141
 30
0.0
 11
294.24961095869651
 21
484.60095924994141
 31
0.0
  0
LINE
  5
5E
  8
SPEC
  6
CONTINUOUS
 62
     7
 10
-212.41645213856381
 20
469.60099924994142
 30
0.0
 11
294.24961095869651
 21
469.60099924994142
 31
0.0
  0
LINE
  5
5F
  8
SPEC
  6
CONTINUOUS
 62
     7
 10
27.583547861436251
 20
859.6009592499413
 30
0.0
 11
27.583547861436251
 21
469.60099924994142
 31
0.0
  0
LINE
  5
60
  8
SPEC
  6
CONTINUOUS
 62
     7
 10
294.24961095869651
 20
859.6009592499413
 30
0.0
 11
294.24961095869651
 21
469.60099924994142
 31
0.0
  0
TEXT
  5
61
  8
SPEC
 62
     7
 10
31.1835478614362
 20
847.75089036105226
 30
0.0
 40
7.6012586805555546
  1
エレクトレットコンデンサ型 
 41
0.7
 11
31.1835478614362
 21
855.35214904160784
 31
0.0
 73
     3
  0
TEXT
  5
62
  8
SPEC
 62
     7
 10
31.1835478614362
 20
832.75089036105226
 30
0.0
 40
7.6012586805555546
  1
50～17,000Hz
 41
0.7
 11
31.1835478614362
 21
840.35214904160784
 31
0.0
 73
     3
  0
TEXT
  5
63
  8
SPEC
 62
     7
 10
31.1835478614362
 20
787.75089036105226
 30
0.0
 40
7.6012586805555546
  1
MX405LP/C:カーディオイド
 41
0.7
 11
31.1835478614362
 21
795.35214904160784
 31
0.0
 73
     3
  0
TEXT
  5
64
  8
SPEC
 62
     7
 10
31.1835478614362
 20
776.46200147216325
 30
0.0
 40
7.6012586805555546
  1
MX405LP/S:スーパーカーディオイド
 41
0.7
 11
31.1835478614362
 21
784.06326015271895
 31
0.0
 73
     3
  0
TEXT
  5
65
  8
SPEC
 62
     7
 10
31.1835478614362
 20
757.75091036105243
 30
0.0
 40
7.6012586805555546
  1
MX405LP/C:-35dBV/Pa(18mV)
 41
0.7
 11
31.1835478614362
 21
765.35216904160802
 31
0.0
 73
     3
  0
TEXT
  5
66
  8
SPEC
 62
     7
 10
31.1835478614362
 20
746.46202147216366
 30
0.0
 40
7.6012586805555546
  1
MX405LP/S:-34dBV/Pa(21mV)
 41
0.7
 11
31.1835478614362
 21
754.06328015271924
 31
0.0
 73
     3
  0
TEXT
  5
67
  8
SPEC
 62
     7
 10
31.1835478614362
 20
727.75091036105243
 30
0.0
 40
7.6012586805555546
  1
MX405LP/C:28dB SPL
 41
0.7
 11
31.1835478614362
 21
735.35216904160802
 31
0.0
 73
     3
  0
TEXT
  5
68
  8
SPEC
 62
     7
 10
31.1835478614362
 20
716.46202147216366
 30
0.0
 40
7.6012586805555546
  1
MX405LP/S:27dB SPL
 41
0.7
 11
31.1835478614362
 21
724.06328015271924
 31
0.0
 73
     3
  0
TEXT
  5
69
  8
SPEC
 62
     7
 10
31.1835478614362
 20
517.75091036105243
 30
0.0
 40
7.6012586805555546
  1
ファンタム DC48～52V、8.0mA
 41
0.7
 11
31.1835478614362
 21
525.35216904160791
 31
0.0
 73
     3
  0
TEXT
  5
6A
  8
SPEC
 62
     7
 10
31.1835478614362
 20
502.75091036105238
 30
0.0
 40
7.6012586805555546
  1
MX405LP:φ12×154mm、MX400DP:87×43×147mm
 41
0.7
 11
31.1835478614362
 21
510.35216904160802
 31
0.0
 73
     3
  0
TEXT
  5
6B
  8
SPEC
 62
     7
 10
31.1835478614362
 20
487.75091036105249
 30
0.0
 40
7.6012586805555546
  1
約592g(MX405LP:約54g、MX400DP:約538g)
 41
0.7
 11
31.1835478614362
 21
495.35216904160802
 31
0.0
 73
     3
  0
TEXT
  5
6C
  8
SPEC
 62
     7
 10
31.1835478614362
 20
472.75091036105249
 30
0.0
 40
7.6012586805555546
  1
ウィンドスクリーン
 41
0.7
 11
31.1835478614362
 21
480.35216904160802
 31
0.0
 73
     3
  0
TEXT
  5
6D
  8
SPEC
 62
     7
 10
-208.81641213856369
 20
757.75267036105242
 30
0.0
 40
7.6012586805555546
  1
開回路感度(1kHz、1Pa=94dB SPL)
 41
0.7
 11
-208.81641213856369
 21
765.3539290416079
 31
0.0
 73
     3
  0
LINE
  5
6E
  8
SPEC
  6
CONTINUOUS
 62
     7
 10
-212.41645213856381
 20
814.60095924994164
 30
0.0
 11
294.24961095869651
 21
814.60095924994164
 31
0.0
  0
TEXT
  5
6F
  8
SPEC
 62
     7
 10
-208.81641213856369
 20
817.75089036105237
 30
0.0
 40
7.6012586805555546
  1
出力インピーダンス
 41
0.7
 11
-208.81641213856369
 21
825.35214904160796
 31
0.0
 73
     3
  0
TEXT
  5
70
  8
SPEC
 62
     7
 10
31.1835478614362
 20
817.75089036105237
 30
0.0
 40
7.6012586805555546
  1
150Ω(EIA 定格)：170Ω実効
 41
0.7
 11
31.1835478614362
 21
825.35214904160796
 31
0.0
 73
     3
  0
LINE
  5
71
  8
SPEC
  6
CONTINUOUS
 62
     7
 10
-212.41645213856381
 20
799.60095924994152
 30
0.0
 11
294.24961095869651
 21
799.60095924994152
 31
0.0
  0
TEXT
  5
72
  8
SPEC
 62
     7
 10
-208.81641213856369
 20
802.75089036105237
 30
0.0
 40
7.6012586805555546
  1
出力バランス
 41
0.7
 11
-208.81641213856369
 21
810.35214904160784
 31
0.0
 73
     3
  0
TEXT
  5
73
  8
SPEC
 62
     7
 10
31.1835478614362
 20
802.75089036105237
 30
0.0
 40
7.6012586805555546
  1
アクティブバランス
 41
0.7
 11
31.1835478614362
 21
810.35214904160784
 31
0.0
 73
     3
  0
TEXT
  5
74
  8
SPEC
 62
     7
 10
-208.81641213856369
 20
697.75091036105243
 30
0.0
 40
7.6012586805555546
  1
最大音圧レベル(1kHz、1%%%THD、1kΩ負荷)
 41
0.7
 11
-208.81641213856369
 21
705.35216904160802
 31
0.0
 73
     3
  0
LINE
  5
75
  8
SPEC
  6
CONTINUOUS
 62
     7
 10
-212.41645213856381
 20
679.60095924994118
 30
0.0
 11
294.24961095869651
 21
679.60095924994118
 31
0.0
  0
TEXT
  5
76
  8
SPEC
 62
     7
 10
31.1835478614362
 20
697.75091036105243
 30
0.0
 40
7.6012586805555546
  1
MX405LP/C:121dB
 41
0.7
 11
31.1835478614362
 21
705.35216904160802
 31
0.0
 73
     3
  0
TEXT
  5
77
  8
SPEC
 62
     7
 10
31.1835478614362
 20
686.46202147216366
 30
0.0
 40
7.6012586805555546
  1
MX405LP/S:120dB
 41
0.7
 11
31.1835478614362
 21
694.06328015271924
 31
0.0
 73
     3
  0
TEXT
  5
78
  8
SPEC
 62
     7
 10
-208.81641213856369
 20
667.75091036105243
 30
0.0
 40
7.6012586805555546
  1
SN比(94dB SPL、1kHz)
 41
0.7
 11
-208.81641213856369
 21
675.35216904160791
 31
0.0
 73
     3
  0
LINE
  5
79
  8
SPEC
  6
CONTINUOUS
 62
     7
 10
-212.41645213856381
 20
649.6009592499413
 30
0.0
 11
294.24961095869651
 21
649.6009592499413
 31
0.0
  0
TEXT
  5
7A
  8
SPEC
 62
     7
 10
31.1835478614362
 20
667.75091036105243
 30
0.0
 40
7.6012586805555546
  1
MX405LP/C:66dB
 41
0.7
 11
31.1835478614362
 21
675.35216904160791
 31
0.0
 73
     3
  0
TEXT
  5
7B
  8
SPEC
 62
     7
 10
31.1835478614362
 20
656.46202147216366
 30
0.0
 40
7.6012586805555546
  1
MX405LP/S:68dB
 41
0.7
 11
31.1835478614362
 21
664.06328015271924
 31
0.0
 73
     3
  0
TEXT
  5
7C
  8
SPEC
 62
     7
 10
-208.81641213856369
 20
637.75091036105243
 30
0.0
 40
7.6012586805555546
  1
ダイナミックレンジ (1kΩ負荷、1kHz)
 41
0.7
 11
-208.81641213856369
 21
645.35216904160802
 31
0.0
 73
     3
  0
LINE
  5
7D
  8
SPEC
  6
CONTINUOUS
 62
     7
 10
-212.41645213856381
 20
634.6009592499413
 30
0.0
 11
294.24961095869651
 21
634.6009592499413
 31
0.0
  0
TEXT
  5
7E
  8
SPEC
 62
     7
 10
31.1835478614362
 20
637.75091036105243
 30
0.0
 40
7.6012586805555546
  1
93dB
 41
0.7
 11
31.1835478614362
 21
645.35216904160802
 31
0.0
 73
     3
  0
TEXT
  5
7F
  8
SPEC
 62
     7
 10
-208.81641213856369
 20
622.75091036105243
 30
0.0
 40
7.6012586805555546
  1
同相信号除去比(10Hz～100kHz )
 41
0.7
 11
-208.81641213856369
 21
630.35216904160802
 31
0.0
 73
     3
  0
LINE
  5
80
  8
SPEC
  6
CONTINUOUS
 62
     7
 10
-212.41645213856381
 20
619.6009592499413
 30
0.0
 11
294.24961095869651
 21
619.6009592499413
 31
0.0
  0
TEXT
  5
81
  8
SPEC
 62
     7
 10
31.1835478614362
 20
622.75091036105243
 30
0.0
 40
7.6012586805555546
  1
45dB以上
 41
0.7
 11
31.1835478614362
 21
630.35216904160802
 31
0.0
 73
     3
  0
TEXT
  5
82
  8
SPEC
 62
     7
 10
-208.81641213856369
 20
607.75091036105243
 30
0.0
 40
7.6012586805555546
  1
プリアンプ出力クリッピングレベル(1%%%THD)
 41
0.7
 11
-208.81641213856369
 21
615.35216904160802
 31
0.0
 73
     3
  0
LINE
  5
83
  8
SPEC
  6
CONTINUOUS
 62
     7
 10
-212.41645213856381
 20
604.60095924994118
 30
0.0
 11
294.24961095869651
 21
604.60095924994118
 31
0.0
  0
TEXT
  5
84
  8
SPEC
 62
     7
 10
31.1835478614362
 20
607.75091036105243
 30
0.0
 40
7.6012586805555546
  1
-8dBV(0.4V)
 41
0.7
 11
31.1835478614362
 21
615.35216904160802
 31
0.0
 73
     3
  0
TEXT
  5
85
  8
SPEC
 62
     7
 10
-208.81641213856369
 20
592.75091036105243
 30
0.0
 40
7.6012586805555546
  1
コネクタ 
 41
0.7
 11
-208.81641213856369
 21
600.35216904160791
 31
0.0
 73
     3
  0
LINE
  5
86
  8
SPEC
  6
CONTINUOUS
 62
     7
 10
-212.41645213856381
 20
589.6009592499413
 30
0.0
 11
294.24961095869651
 21
589.6009592499413
 31
0.0
  0
TEXT
  5
87
  8
SPEC
 62
     7
 10
31.1835478614362
 20
592.75091036105243
 30
0.0
 40
7.6012586805555546
  1
XLR3ピン、オス
 41
0.7
 11
31.1835478614362
 21
600.35216904160791
 31
0.0
 73
     3
  0
TEXT
  5
88
  8
SPEC
 62
     7
 10
-208.81641213856369
 20
577.75091036105243
 30
0.0
 40
7.6012586805555546
  1
ロジック接続
 41
0.7
 11
-208.81641213856369
 21
585.35216904160802
 31
0.0
 73
     3
  0
LINE
  5
89
  8
SPEC
  6
CONTINUOUS
 62
     7
 10
-212.41645213856381
 20
529.60095924994118
 30
0.0
 11
294.24961095869651
 21
529.60095924994118
 31
0.0
  0
TEXT
  5
8A
  8
SPEC
 62
     7
 10
31.1835478614362
 20
577.75091036105243
 30
0.0
 40
7.6012586805555546
  1
負論理(1.0V以下) TTL compatible
 41
0.7
 11
31.1835478614362
 21
585.35216904160802
 31
0.0
 73
     3
  0
TEXT
  5
8B
  8
SPEC
 62
     7
 10
31.1835478614362
 20
566.46202147216366
 30
0.0
 40
7.6012586805555546
  1
絶対最大電圧：-0.7V～50V
 41
0.7
 11
31.1835478614362
 21
574.06328015271924
 31
0.0
 73
     3
  0
TEXT
  5
8C
  8
SPEC
 62
     7
 10
-128.81641213856381
 20
577.75091036105243
 30
0.0
 40
7.6012586805555546
  1
LED IN
 41
0.7
 11
-128.81641213856381
 21
585.35216904160802
 31
0.0
 73
     3
  0
TEXT
  5
8D
  8
SPEC
 62
     7
 10
31.1835478614362
 20
547.75091036105243
 30
0.0
 40
7.6012586805555546
  1
負論理(1.0V以下) TTL compatible
 41
0.7
 11
31.1835478614362
 21
555.35216904160802
 31
0.0
 73
     3
  0
TEXT
  5
8E
  8
SPEC
 62
     7
 10
31.1835478614362
 20
536.46202147216366
 30
0.0
 40
7.6012586805555546
  1
絶対最大電圧：-0.7V～50V(50V以下、3kΩ負荷)
 41
0.7
 11
31.1835478614362
 21
544.06328015271924
 31
0.0
 73
     3
  0
TEXT
  5
8F
  8
SPEC
 62
     7
 10
-128.81641213856381
 20
547.75091036105243
 30
0.0
 40
7.6012586805555546
  1
Logic OUT
 41
0.7
 11
-128.81641213856381
 21
555.35216904160802
 31
0.0
 73
     3
  0
LINE
  5
90
  8
SPEC
  6
CONTINUOUS
 62
     7
 10
-132.41705570797009
 20
589.6009592499413
 30
0.0
 11
-132.41705570797009
 21
529.60095924994118
 31
0.0
  0
LINE
  5
91
  8
SPEC
  6
CONTINUOUS
 62
     7
 10
-132.41705570797009
 20
559.60095924994118
 30
0.0
 11
294.24961095869651
 21
559.60095924994118
 31
0.0
  0
LINE
  5
92
  8
DIMNSIONS
  6
CONTINUOUS
 62
     7
 10
-15.26109391764532
 20
38.061467447515852
 30
0.0
 11
-52.21627521809679
 21
53.368804742119437
 31
0.0
  0
LINE
  5
93
  8
DIMNSIONS
  6
CONTINUOUS
 62
     7
 10
43.697201988182933
 20
180.3993850377727
 30
0.0
 11
6.7420206877314959
 21
195.7067223323763
 31
0.0
  0
LINE
  5
94
  8
DIMNSIONS
  6
CONTINUOUS
 62
     7
 10
-44.825238985540267
 20
50.307337294603613
 30
0.0
 11
14.13305692028802
 21
192.64525488486041
 31
0.0
  0
LINE
  5
95
  8
DIMNSIONS
  6
CONTINUOUS
 62
     7
 10
-44.825238985540267
 20
50.307337294603613
 30
0.0
 11
-42.995390011542661
 21
63.327389280721889
 31
0.0
  0
LINE
  5
96
  8
DIMNSIONS
  6
CONTINUOUS
 62
     7
 10
-44.825238985540267
 20
50.307337294603613
 30
0.0
 11
-36.730517295910317
 21
60.668108586177247
 31
0.0
  0
LINE
  5
97
  8
DIMNSIONS
  6
CONTINUOUS
 62
     7
 10
14.13305692028802
 20
192.64525488486041
 30
0.0
 11
12.53071788024854
 21
179.5952506477106
 31
0.0
  0
LINE
  5
98
  8
DIMNSIONS
  6
CONTINUOUS
 62
     7
 10
14.13305692028802
 20
192.64525488486041
 30
0.0
 11
6.2203884875633397
 21
182.14478921601381
 31
0.0
  0
TEXT
  5
99
  8
DIMNSIONS
 62
     7
 10
-22.524160871570281
 20
115.858061878863
 30
0.0
 40
8.1442057291666661
  1
154
 50
67.500000000000014
 41
0.7
 11
-30.048425853308519
 21
118.9747144811879
 31
0.0
 73
     3
  0
TEXT
  5
9A
  8
DIMNSIONS
 62
     7
 10
37.583527861436181
 20
-91.321000750058516
 30
0.0
 40
9.7730468749999986
  1
(単位：mm)
 41
0.7
 11
37.583527861436181
 21
-81.547953875058511
 31
0.0
 73
     3
  0
LINE
  5
9B
  8
DIMNSIONS
  6
CONTINUOUS
 62
     7
 10
45.353619298084361
 20
179.1720783906579
 30
0.0
 11
60.66095659268796
 21
216.1272596911094
 31
0.0
  0
LINE
  5
9C
  8
DIMNSIONS
  6
CONTINUOUS
 62
     7
 10
56.440173688219787
 20
174.57987720227689
 30
0.0
 11
71.747510982823414
 21
211.53505850272839
 31
0.0
  0
LINE
  5
9D
  8
DIMNSIONS
  6
CONTINUOUS
 62
     7
 10
68.686043535307533
 20
204.1440222701718
 30
0.0
 11
57.5994891451721
 21
208.7362234585529
 31
0.0
  0
LINE
  5
9E
  8
DIMNSIONS
  6
CONTINUOUS
 62
     7
 10
57.5994891451721
 20
208.7362234585529
 30
0.0
 11
39.121898476361082
 21
216.389892113553
 31
0.0
  0
LINE
  5
9F
  8
DIMNSIONS
  6
CONTINUOUS
 62
     7
 10
57.5994891451721
 20
208.7362234585529
 30
0.0
 11
44.579437159053789
 21
210.5660724325505
 31
0.0
  0
LINE
  5
A0
  8
DIMNSIONS
  6
CONTINUOUS
 62
     7
 10
57.5994891451721
 20
208.7362234585529
 30
0.0
 11
47.238717853598423
 21
216.83094514818279
 31
0.0
  0
LINE
  5
A1
  8
DIMNSIONS
  6
CONTINUOUS
 62
     7
 10
68.686043535307533
 20
204.1440222701718
 30
0.0
 11
89.091256224533225
 21
195.69190643118699
 31
0.0
  0
LINE
  5
A2
  8
DIMNSIONS
  6
CONTINUOUS
 62
     7
 10
68.686043535307533
 20
204.1440222701718
 30
0.0
 11
81.736047772457368
 21
202.54168323013241
 31
0.0
  0
LINE
  5
A3
  8
DIMNSIONS
  6
CONTINUOUS
 62
     7
 10
68.686043535307533
 20
204.1440222701718
 30
0.0
 11
79.186509204154092
 21
196.23135383744719
 31
0.0
  0
TEXT
  5
A4
  8
DIMNSIONS
 62
     7
 10
81.028590128910452
 20
203.88249310909339
 30
0.0
 40
8.1442057291666661
  1
12
 50
337.5
 41
0.7
 11
84.145242731235385
 21
211.4067580908316
 31
0.0
 73
     3
  0
LINE
  5
A5
  8
DIMNSIONS
  6
CONTINUOUS
 62
     7
 10
118.99999997019771
 20
0.0
 30
0.0
 11
187.99999997019759
 21
0.0
 31
0.0
  0
LINE
  5
A6
  8
DIMNSIONS
  6
CONTINUOUS
 62
     7
 10
54.468840528380717
 20
179.2513347520823
 30
0.0
 11
187.99999997019759
 21
179.2513347520823
 31
0.0
  0
LINE
  5
A7
  8
DIMNSIONS
  6
CONTINUOUS
 62
     7
 10
180.0
 20
0.0
 30
0.0
 11
180.0
 21
179.2513347520823
 31
0.0
  0
LINE
  5
A8
  8
DIMNSIONS
  6
CONTINUOUS
 62
     7
 10
180.0
 20
0.0
 30
0.0
 11
176.5970452561248
 21
12.69999999999999
 31
0.0
  0
LINE
  5
A9
  8
DIMNSIONS
  6
CONTINUOUS
 62
     7
 10
180.0
 20
0.0
 30
0.0
 11
183.40295474387531
 21
12.69999999999999
 31
0.0
  0
LINE
  5
AA
  8
DIMNSIONS
  6
CONTINUOUS
 62
     7
 10
180.0
 20
179.2513347520823
 30
0.0
 11
183.40295474387531
 21
166.55133475208231
 31
0.0
  0
LINE
  5
AB
  8
DIMNSIONS
  6
CONTINUOUS
 62
     7
 10
180.0
 20
179.2513347520823
 30
0.0
 11
176.5970452561248
 21
166.55133475208231
 31
0.0
  0
TEXT
  5
AC
  8
DIMNSIONS
 62
     7
 10
175.51833334450919
 20
81.688167376041122
 30
0.0
 40
8.1442057291666661
  1
179
 50
90.0
 41
0.7
 11
167.3741276153425
 21
81.688167376041122
 31
0.0
 73
     3
  0
LINE
  5
AD
  8
DIMNSIONS
  6
CONTINUOUS
 62
     7
 10
47.999999970197671
 20
43.0
 30
0.0
 11
157.99999997019771
 21
43.0
 31
0.0
  0
LINE
  5
AE
  8
DIMNSIONS
  6
CONTINUOUS
 62
     7
 10
118.99999997019771
 20
0.0
 30
0.0
 11
157.99999997019771
 21
0.0
 31
0.0
  0
LINE
  5
AF
  8
DIMNSIONS
  6
CONTINUOUS
 62
     7
 10
150.0
 20
43.0
 30
0.0
 11
150.0
 21
0.0
 31
0.0
  0
LINE
  5
B0
  8
DIMNSIONS
  6
CONTINUOUS
 62
     7
 10
150.0
 20
43.0
 30
0.0
 11
153.40295474387531
 21
30.300000000000011
 31
0.0
  0
LINE
  5
B1
  8
DIMNSIONS
  6
CONTINUOUS
 62
     7
 10
150.0
 20
43.0
 30
0.0
 11
146.59704525612469
 21
30.300000000000011
 31
0.0
  0
LINE
  5
B2
  8
DIMNSIONS
  6
CONTINUOUS
 62
     7
 10
150.0
 20
0.0
 30
0.0
 11
146.59704525612469
 21
12.69999999999999
 31
0.0
  0
LINE
  5
B3
  8
DIMNSIONS
  6
CONTINUOUS
 62
     7
 10
150.0
 20
0.0
 30
0.0
 11
153.40295474387531
 21
12.69999999999999
 31
0.0
  0
TEXT
  5
B4
  8
DIMNSIONS
 62
     7
 10
145.51833334450919
 20
16.2083329968982
 30
0.0
 40
8.1442057291666661
  1
43
 50
90.0
 41
0.7
 11
137.3741276153425
 21
16.2083329968982
 31
0.0
 73
     3
  0
LINE
  5
B5
  8
DIMNSIONS
  6
CONTINUOUS
 62
     7
 10
-37.000000000000021
 20
323.00000002980232
 30
0.0
 11
-37.000000000000021
 21
262.00000002980232
 31
0.0
  0
LINE
  5
B6
  8
DIMNSIONS
  6
CONTINUOUS
 62
     7
 10
109.4999999999999
 20
342.00000002980238
 30
0.0
 11
109.4999999999999
 21
262.00000002980232
 31
0.0
  0
LINE
  5
B7
  8
DIMNSIONS
  6
CONTINUOUS
 62
     7
 10
-37.000000000000021
 20
270.0
 30
0.0
 11
109.4999999999999
 21
270.0
 31
0.0
  0
LINE
  5
B8
  8
DIMNSIONS
  6
CONTINUOUS
 62
     7
 10
-37.000000000000021
 20
270.0
 30
0.0
 11
-24.30000000000004
 21
273.40295474387528
 31
0.0
  0
LINE
  5
B9
  8
DIMNSIONS
  6
CONTINUOUS
 62
     7
 10
-37.000000000000021
 20
270.0
 30
0.0
 11
-24.30000000000004
 21
266.59704525612472
 31
0.0
  0
LINE
  5
BA
  8
DIMNSIONS
  6
CONTINUOUS
 62
     7
 10
109.4999999999999
 20
270.0
 30
0.0
 11
96.799999999999983
 21
266.59704525612472
 31
0.0
  0
LINE
  5
BB
  8
DIMNSIONS
  6
CONTINUOUS
 62
     7
 10
109.4999999999999
 20
270.0
 30
0.0
 11
96.799999999999983
 21
273.40295474387528
 31
0.0
  0
TEXT
  5
BC
  8
DIMNSIONS
 62
     7
 10
28.312499999999972
 20
274.4816666554907
 30
0.0
 40
8.1442057291666661
  1
147
 41
0.7
 11
28.312499999999972
 21
282.62587238465738
 31
0.0
 73
     3
  0
LINE
  5
BD
  8
DIMNSIONS
  6
CONTINUOUS
 62
     7
 10
104.6491083798785
 20
393.4305491897785
 30
0.0
 11
157.99999997019771
 21
393.4305491897785
 31
0.0
  0
LINE
  5
BE
  8
DIMNSIONS
  6
CONTINUOUS
 62
     7
 10
104.6491083798787
 20
306.5694508102215
 30
0.0
 11
157.99999997019771
 21
306.5694508102215
 31
0.0
  0
LINE
  5
BF
  8
DIMNSIONS
  6
CONTINUOUS
 62
     7
 10
150.0
 20
393.4305491897785
 30
0.0
 11
150.0
 21
306.5694508102215
 31
0.0
  0
LINE
  5
C0
  8
DIMNSIONS
  6
CONTINUOUS
 62
     7
 10
150.0
 20
393.4305491897785
 30
0.0
 11
153.40295474387531
 21
380.73054918977851
 31
0.0
  0
LINE
  5
C1
  8
DIMNSIONS
  6
CONTINUOUS
 62
     7
 10
150.0
 20
393.4305491897785
 30
0.0
 11
146.59704525612469
 21
380.73054918977851
 31
0.0
  0
LINE
  5
C2
  8
DIMNSIONS
  6
CONTINUOUS
 62
     7
 10
150.0
 20
306.5694508102215
 30
0.0
 11
146.59704525612469
 21
319.26945081022149
 31
0.0
  0
LINE
  5
C3
  8
DIMNSIONS
  6
CONTINUOUS
 62
     7
 10
150.0
 20
306.5694508102215
 30
0.0
 11
153.40295474387531
 21
319.26945081022149
 31
0.0
  0
TEXT
  5
C4
  8
DIMNSIONS
 62
     7
 10
145.51833334450919
 20
344.70833299689821
 30
0.0
 40
8.1442057291666661
  1
87
 50
90.0
 41
0.7
 11
137.3741276153425
 21
344.70833299689821
 31
0.0
 73
     3
  0
TEXT
  5
C5
  8
DATA
 62
     7
 10
280.91684119476952
 20
-95.87542075005851
 30
0.0
 40
9.7730468749999986
  1
MX405LP/C MX405LP/S + MX400DP
 41
0.7
 11
280.91684119476952
 21
-86.102373875058504
 31
0.0
 73
     3
  0
TEXT
  5
C6
  8
DATA
 62
     7
 10
317.58350786143609
 20
-66.875420750058495
 30
0.0
 40
9.7730468749999986
  1
SHURE
 41
0.7
 11
317.58350786143609
 21
-57.10237387505849
 31
0.0
 73
     3
  0
TEXT
  5
C7
  8
DATA
 62
     7
 10
307.58350786143609
 20
-79.996749638947364
 30
0.0
 40
7.6012586805555546
  1
グ－スネック・マイクロフォン
 41
0.7
 11
307.58350786143609
 21
-72.395490958391804
 31
0.0
 73
     3
  0
LINE
  5
C8
  8
DATA
  6
CONTINUOUS
 62
     7
 10
-7.75
 20
45.0
 30
0.0
 11
7.75
 21
45.0
 31
0.0
  0
LINE
  5
C9
  8
DATA
  6
CONTINUOUS
 62
     7
 10
-5.9999999999999849
 20
47.0
 30
0.0
 11
6.0000000000000142
 21
47.0
 31
0.0
  0
LINE
  5
CA
  8
DATA
  6
CONTINUOUS
 62
     7
 10
-9.4903936203026849
 20
36.29803189848657
 30
0.0
 11
-7.75
 21
45.0
 31
0.0
  0
LINE
  5
CB
  8
DATA
  6
CONTINUOUS
 62
     7
 10
8.8643351485827395
 20
39.428324257086402
 30
0.0
 11
7.75
 21
45.0
 31
0.0
  0
LINE
  5
CC
  8
DATA
  6
CONTINUOUS
 62
     7
 10
6.0000000000000142
 20
47.0
 30
0.0
 11
7.75
 21
45.0
 31
0.0
  0
LINE
  5
CD
  8
DATA
  6
CONTINUOUS
 62
     7
 10
-4.0
 20
49.0
 30
0.0
 11
4.0
 21
49.0
 31
0.0
  0
LINE
  5
CE
  8
DATA
  6
CONTINUOUS
 62
     7
 10
-4.0
 20
49.0
 30
0.0
 11
-5.5
 21
47.0
 31
0.0
  0
LINE
  5
CF
  8
DATA
  6
CONTINUOUS
 62
     7
 10
4.0
 20
49.0
 30
0.0
 11
5.5
 21
47.0
 31
0.0
  0
LINE
  5
D0
  8
DATA
  6
CONTINUOUS
 62
     7
 10
-5.9999999999999849
 20
47.0
 30
0.0
 11
-7.75
 21
45.0
 31
0.0
  0
LINE
  5
D1
  8
DATA
  6
CONTINUOUS
 62
     7
 10
5.0224093497742643
 20
56.325946531441673
 30
0.0
 11
18.77188554152093
 21
89.520118429082444
 31
0.0
  0
LINE
  5
D2
  8
DATA
  6
CONTINUOUS
 62
     7
 10
-1.2163859753385819
 20
60.862606717830019
 30
0.0
 11
11.842789047686271
 21
92.390244171820598
 31
0.0
  0
LINE
  5
D3
  8
DATA
  6
CONTINUOUS
 62
     7
 10
18.77188554152093
 20
89.520118429082444
 30
0.0
 11
11.842789047686271
 21
92.390244171820598
 31
0.0
  0
LINE
  5
D4
  8
DATA
  6
CONTINUOUS
 62
     7
 10
18.501287491447808
 20
90.173399911520633
 30
0.0
 11
18.88397092381291
 21
91.097279444031884
 31
0.0
  0
LINE
  5
D5
  8
DATA
  6
CONTINUOUS
 62
     7
 10
13.070095678672089
 20
94.046661520660678
 30
0.0
 11
12.687412246306989
 21
93.122781988149313
 31
0.0
  0
LINE
  5
D6
  8
DATA
  6
CONTINUOUS
 62
     7
 10
12.496070530124451
 20
92.660842221893731
 30
0.0
 11
12.30472881394191
 21
92.198902455638063
 31
0.0
  0
LINE
  5
D7
  8
DATA
  6
CONTINUOUS
 62
     7
 10
18.309945775265291
 20
89.711460145264937
 30
0.0
 11
12.496070530124451
 21
92.660842221893731
 31
0.0
  0
LINE
  5
D8
  8
DATA
  6
CONTINUOUS
 62
     7
 10
18.054066318744681
 20
90.400275455876695
 30
0.0
 11
17.862724602562139
 21
89.938335689620999
 31
0.0
  0
LINE
  5
D9
  8
DATA
  6
CONTINUOUS
 62
     7
 10
13.134633419010139
 20
92.895906443793237
 30
0.0
 11
12.94329170282759
 21
92.433966677537697
 31
0.0
  0
LINE
  5
DA
  8
DATA
  6
CONTINUOUS
 62
     7
 10
18.501287491447808
 20
90.173399911520633
 30
0.0
 11
12.687412246306989
 21
93.122781988149313
 31
0.0
  0
LINE
  5
DB
  8
DATA
  6
CONTINUOUS
 62
     7
 10
18.88397092381291
 20
91.097279444031884
 30
0.0
 11
13.070095678672089
 21
94.046661520660678
 31
0.0
  0
LINE
  5
DC
  8
DATA
  6
CONTINUOUS
 62
     7
 10
19.075312639995438
 20
91.559219210287566
 30
0.0
 11
19.457996072360551
 21
92.483098742798816
 31
0.0
  0
LINE
  5
DD
  8
DATA
  6
CONTINUOUS
 62
     7
 10
13.64412082721973
 20
95.432480819427553
 30
0.0
 11
13.26143739485464
 21
94.508601286916232
 31
0.0
  0
LINE
  5
DE
  8
DATA
  6
CONTINUOUS
 62
     7
 10
19.075312639995438
 20
91.559219210287566
 30
0.0
 11
13.26143739485464
 21
94.508601286916232
 31
0.0
  0
LINE
  5
DF
  8
DATA
  6
CONTINUOUS
 62
     7
 10
19.457996072360551
 20
92.483098742798816
 30
0.0
 11
13.64412082721973
 21
95.432480819427553
 31
0.0
  0
LINE
  5
E0
  8
DATA
  6
CONTINUOUS
 62
     7
 10
19.64933778854309
 20
92.945038509054484
 30
0.0
 11
20.032021220908192
 21
93.868918041565721
 31
0.0
  0
LINE
  5
E1
  8
DATA
  6
CONTINUOUS
 62
     7
 10
14.218145975767349
 20
96.8183001181945
 30
0.0
 11
13.835462543402249
 21
95.894420585683193
 31
0.0
  0
LINE
  5
E2
  8
DATA
  6
CONTINUOUS
 62
     7
 10
19.64933778854309
 20
92.945038509054484
 30
0.0
 11
13.835462543402249
 21
95.894420585683193
 31
0.0
  0
LINE
  5
E3
  8
DATA
  6
CONTINUOUS
 62
     7
 10
20.032021220908192
 20
93.868918041565721
 30
0.0
 11
14.218145975767349
 21
96.8183001181945
 31
0.0
  0
LINE
  5
E4
  8
DATA
  6
CONTINUOUS
 62
     7
 10
20.223362937090709
 20
94.330857807821417
 30
0.0
 11
20.606046369455811
 21
95.254737340332667
 31
0.0
  0
LINE
  5
E5
  8
DATA
  6
CONTINUOUS
 62
     7
 10
14.79217112431499
 20
98.204119416961433
 30
0.0
 11
14.40948769194989
 21
97.280239884450125
 31
0.0
  0
LINE
  5
E6
  8
DATA
  6
CONTINUOUS
 62
     7
 10
20.223362937090709
 20
94.330857807821417
 30
0.0
 11
14.40948769194989
 21
97.280239884450125
 31
0.0
  0
LINE
  5
E7
  8
DATA
  6
CONTINUOUS
 62
     7
 10
20.606046369455811
 20
95.254737340332667
 30
0.0
 11
14.79217112431499
 21
98.204119416961433
 31
0.0
  0
LINE
  5
E8
  8
DATA
  6
CONTINUOUS
 62
     7
 10
20.79738808563836
 20
95.716677106588364
 30
0.0
 11
21.180071518003452
 21
96.640556639099614
 31
0.0
  0
LINE
  5
E9
  8
DATA
  6
CONTINUOUS
 62
     7
 10
15.366196272862631
 20
99.589938715728366
 30
0.0
 11
14.983512840497539
 21
98.666059183217044
 31
0.0
  0
LINE
  5
EA
  8
DATA
  6
CONTINUOUS
 62
     7
 10
20.79738808563836
 20
95.716677106588364
 30
0.0
 11
14.983512840497539
 21
98.666059183217044
 31
0.0
  0
LINE
  5
EB
  8
DATA
  6
CONTINUOUS
 62
     7
 10
21.180071518003452
 20
96.640556639099614
 30
0.0
 11
15.366196272862631
 21
99.589938715728366
 31
0.0
  0
LINE
  5
EC
  8
DATA
  6
CONTINUOUS
 62
     7
 10
21.371413234186011
 20
97.102496405355296
 30
0.0
 11
21.754096666551089
 21
98.026375937866518
 31
0.0
  0
LINE
  5
ED
  8
DATA
  6
CONTINUOUS
 62
     7
 10
15.94022142141025
 20
100.9757580144952
 30
0.0
 11
15.55753798904516
 21
100.05187848198401
 31
0.0
  0
LINE
  5
EE
  8
DATA
  6
CONTINUOUS
 62
     7
 10
21.371413234186011
 20
97.102496405355296
 30
0.0
 11
15.55753798904516
 21
100.05187848198401
 31
0.0
  0
LINE
  5
EF
  8
DATA
  6
CONTINUOUS
 62
     7
 10
21.754096666551089
 20
98.026375937866518
 30
0.0
 11
15.94022142141025
 21
100.9757580144952
 31
0.0
  0
LINE
  5
F0
  8
DATA
  6
CONTINUOUS
 62
     7
 10
21.945438382733641
 20
98.488315704122215
 30
0.0
 11
22.328121815098712
 21
99.412195236633451
 31
0.0
  0
LINE
  5
F1
  8
DATA
  6
CONTINUOUS
 62
     7
 10
16.514246569957891
 20
102.3615773132622
 30
0.0
 11
16.131563137592789
 21
101.4376977807509
 31
0.0
  0
LINE
  5
F2
  8
DATA
  6
CONTINUOUS
 62
     7
 10
21.945438382733641
 20
98.488315704122215
 30
0.0
 11
16.131563137592789
 21
101.4376977807509
 31
0.0
  0
LINE
  5
F3
  8
DATA
  6
CONTINUOUS
 62
     7
 10
22.328121815098712
 20
99.412195236633451
 30
0.0
 11
16.514246569957891
 21
102.3615773132622
 31
0.0
  0
LINE
  5
F4
  8
DATA
  6
CONTINUOUS
 62
     7
 10
22.519463531281261
 20
99.874135002889133
 30
0.0
 11
22.902146963646349
 21
100.7980145354004
 31
0.0
  0
LINE
  5
F5
  8
DATA
  6
CONTINUOUS
 62
     7
 10
17.088271718505538
 20
103.74739661202911
 30
0.0
 11
16.70558828614044
 21
102.8235170795178
 31
0.0
  0
LINE
  5
F6
  8
DATA
  6
CONTINUOUS
 62
     7
 10
22.519463531281261
 20
99.874135002889133
 30
0.0
 11
16.70558828614044
 21
102.8235170795178
 31
0.0
  0
LINE
  5
F7
  8
DATA
  6
CONTINUOUS
 62
     7
 10
22.902146963646349
 20
100.7980145354004
 30
0.0
 11
17.088271718505538
 21
103.74739661202911
 31
0.0
  0
LINE
  5
F8
  8
DATA
  6
CONTINUOUS
 62
     7
 10
23.093488679828909
 20
101.25995430165609
 30
0.0
 11
23.476172112193989
 21
102.1838338341673
 31
0.0
  0
LINE
  5
F9
  8
DATA
  6
CONTINUOUS
 62
     7
 10
17.662296867053151
 20
105.133215910796
 30
0.0
 11
17.279613434688091
 21
104.2093363782847
 31
0.0
  0
LINE
  5
FA
  8
DATA
  6
CONTINUOUS
 62
     7
 10
23.093488679828909
 20
101.25995430165609
 30
0.0
 11
17.279613434688091
 21
104.2093363782847
 31
0.0
  0
LINE
  5
FB
  8
DATA
  6
CONTINUOUS
 62
     7
 10
23.476172112193989
 20
102.1838338341673
 30
0.0
 11
17.662296867053151
 21
105.133215910796
 31
0.0
  0
LINE
  5
FC
  8
DATA
  6
CONTINUOUS
 62
     7
 10
23.667513828376549
 20
102.645773600423
 30
0.0
 11
24.050197260741609
 21
103.56965313293421
 31
0.0
  0
LINE
  5
FD
  8
DATA
  6
CONTINUOUS
 62
     7
 10
18.236322015600791
 20
106.519035209563
 30
0.0
 11
17.8536385832357
 21
105.59515567705169
 31
0.0
  0
LINE
  5
FE
  8
DATA
  6
CONTINUOUS
 62
     7
 10
23.667513828376549
 20
102.645773600423
 30
0.0
 11
17.8536385832357
 21
105.59515567705169
 31
0.0
  0
LINE
  5
FF
  8
DATA
  6
CONTINUOUS
 62
     7
 10
24.050197260741609
 20
103.56965313293421
 30
0.0
 11
18.236322015600791
 21
106.519035209563
 31
0.0
  0
LINE
  5
100
  8
DATA
  6
CONTINUOUS
 62
     7
 10
24.241538976924161
 20
104.0315928991899
 30
0.0
 11
24.624222409289249
 21
104.9554724317012
 31
0.0
  0
LINE
  5
101
  8
DATA
  6
CONTINUOUS
 62
     7
 10
18.810347164148439
 20
107.9048545083299
 30
0.0
 11
18.427663731783351
 21
106.9809749758186
 31
0.0
  0
LINE
  5
102
  8
DATA
  6
CONTINUOUS
 62
     7
 10
24.241538976924161
 20
104.0315928991899
 30
0.0
 11
18.427663731783351
 21
106.9809749758186
 31
0.0
  0
LINE
  5
103
  8
DATA
  6
CONTINUOUS
 62
     7
 10
24.624222409289249
 20
104.9554724317012
 30
0.0
 11
18.810347164148439
 21
107.9048545083299
 31
0.0
  0
LINE
  5
104
  8
DATA
  6
CONTINUOUS
 62
     7
 10
24.815564125471809
 20
105.41741219795681
 30
0.0
 11
25.19824755783689
 21
106.3412917304681
 31
0.0
  0
LINE
  5
105
  8
DATA
  6
CONTINUOUS
 62
     7
 10
19.384372312696051
 20
109.29067380709679
 30
0.0
 11
19.001688880330988
 21
108.3667942745855
 31
0.0
  0
LINE
  5
106
  8
DATA
  6
CONTINUOUS
 62
     7
 10
24.815564125471809
 20
105.41741219795681
 30
0.0
 11
19.001688880330988
 21
108.3667942745855
 31
0.0
  0
LINE
  5
107
  8
DATA
  6
CONTINUOUS
 62
     7
 10
25.19824755783689
 20
106.3412917304681
 30
0.0
 11
19.384372312696051
 21
109.29067380709679
 31
0.0
  0
LINE
  5
108
  8
DATA
  6
CONTINUOUS
 62
     7
 10
25.38958927401945
 20
106.8032314967238
 30
0.0
 11
25.772272706384541
 21
107.727111029235
 31
0.0
  0
LINE
  5
109
  8
DATA
  6
CONTINUOUS
 62
     7
 10
19.958397461243699
 20
110.6764931058638
 30
0.0
 11
19.575714028878611
 21
109.75261357335251
 31
0.0
  0
LINE
  5
10A
  8
DATA
  6
CONTINUOUS
 62
     7
 10
25.38958927401945
 20
106.8032314967238
 30
0.0
 11
19.575714028878611
 21
109.75261357335251
 31
0.0
  0
LINE
  5
10B
  8
DATA
  6
CONTINUOUS
 62
     7
 10
25.772272706384541
 20
107.727111029235
 30
0.0
 11
19.958397461243699
 21
110.6764931058638
 31
0.0
  0
LINE
  5
10C
  8
DATA
  6
CONTINUOUS
 62
     7
 10
25.963614422567069
 20
108.1890507954907
 30
0.0
 11
26.34629785493216
 21
109.11293032800199
 31
0.0
  0
LINE
  5
10D
  8
DATA
  6
CONTINUOUS
 62
     7
 10
20.532422609791361
 20
112.0623124046307
 30
0.0
 11
20.149739177426259
 21
111.1384328721194
 31
0.0
  0
LINE
  5
10E
  8
DATA
  6
CONTINUOUS
 62
     7
 10
25.963614422567069
 20
108.1890507954907
 30
0.0
 11
20.149739177426259
 21
111.1384328721194
 31
0.0
  0
LINE
  5
10F
  8
DATA
  6
CONTINUOUS
 62
     7
 10
26.34629785493216
 20
109.11293032800199
 30
0.0
 11
20.532422609791361
 21
112.0623124046307
 31
0.0
  0
LINE
  5
110
  8
DATA
  6
CONTINUOUS
 62
     7
 10
26.53763957111471
 20
109.5748700942577
 30
0.0
 11
26.920323003479812
 21
110.4987496267689
 31
0.0
  0
LINE
  5
111
  8
DATA
  6
CONTINUOUS
 62
     7
 10
21.106447758338991
 20
113.44813170339761
 30
0.0
 11
20.723764325973889
 21
112.5242521708863
 31
0.0
  0
LINE
  5
112
  8
DATA
  6
CONTINUOUS
 62
     7
 10
26.53763957111471
 20
109.5748700942577
 30
0.0
 11
20.723764325973889
 21
112.5242521708863
 31
0.0
  0
LINE
  5
113
  8
DATA
  6
CONTINUOUS
 62
     7
 10
26.920323003479812
 20
110.4987496267689
 30
0.0
 11
21.106447758338991
 21
113.44813170339761
 31
0.0
  0
LINE
  5
114
  8
DATA
  6
CONTINUOUS
 62
     7
 10
27.11166471966234
 20
110.96068939302459
 30
0.0
 11
27.494348152027442
 21
111.8845689255358
 31
0.0
  0
LINE
  5
115
  8
DATA
  6
CONTINUOUS
 62
     7
 10
21.68047290688661
 20
114.8339510021646
 30
0.0
 11
21.29778947452154
 21
113.9100714696533
 31
0.0
  0
LINE
  5
116
  8
DATA
  6
CONTINUOUS
 62
     7
 10
27.11166471966234
 20
110.96068939302459
 30
0.0
 11
21.29778947452154
 21
113.9100714696533
 31
0.0
  0
LINE
  5
117
  8
DATA
  6
CONTINUOUS
 62
     7
 10
27.494348152027442
 20
111.8845689255358
 30
0.0
 11
21.68047290688661
 21
114.8339510021646
 31
0.0
  0
LINE
  5
118
  8
DATA
  6
CONTINUOUS
 62
     7
 10
27.685689868209991
 20
112.3465086917915
 30
0.0
 11
28.068373300575061
 21
113.27038822430281
 31
0.0
  0
LINE
  5
119
  8
DATA
  6
CONTINUOUS
 62
     7
 10
22.254498055434251
 20
116.2197703009315
 30
0.0
 11
21.87181462306917
 21
115.29589076842019
 31
0.0
  0
LINE
  5
11A
  8
DATA
  6
CONTINUOUS
 62
     7
 10
27.685689868209991
 20
112.3465086917915
 30
0.0
 11
21.87181462306917
 21
115.29589076842019
 31
0.0
  0
LINE
  5
11B
  8
DATA
  6
CONTINUOUS
 62
     7
 10
28.068373300575061
 20
113.27038822430281
 30
0.0
 11
22.254498055434251
 21
116.2197703009315
 31
0.0
  0
LINE
  5
11C
  8
DATA
  6
CONTINUOUS
 62
     7
 10
28.25971501675761
 20
113.7323279905584
 30
0.0
 11
28.642398449122709
 21
114.6562075230697
 31
0.0
  0
LINE
  5
11D
  8
DATA
  6
CONTINUOUS
 62
     7
 10
22.828523203981891
 20
117.6055895996984
 30
0.0
 11
22.445839771616789
 21
116.6817100671871
 31
0.0
  0
LINE
  5
11E
  8
DATA
  6
CONTINUOUS
 62
     7
 10
28.25971501675761
 20
113.7323279905584
 30
0.0
 11
22.445839771616789
 21
116.6817100671871
 31
0.0
  0
LINE
  5
11F
  8
DATA
  6
CONTINUOUS
 62
     7
 10
28.642398449122709
 20
114.6562075230697
 30
0.0
 11
22.828523203981891
 21
117.6055895996984
 31
0.0
  0
LINE
  5
120
  8
DATA
  6
CONTINUOUS
 62
     7
 10
28.833740165305251
 20
115.11814728932529
 30
0.0
 11
29.216423597670349
 21
116.0420268218366
 31
0.0
  0
LINE
  5
121
  8
DATA
  6
CONTINUOUS
 62
     7
 10
23.402548352529511
 20
118.99140889846539
 30
0.0
 11
23.019864920164441
 21
118.0675293659541
 31
0.0
  0
LINE
  5
122
  8
DATA
  6
CONTINUOUS
 62
     7
 10
28.833740165305251
 20
115.11814728932529
 30
0.0
 11
23.019864920164441
 21
118.0675293659541
 31
0.0
  0
LINE
  5
123
  8
DATA
  6
CONTINUOUS
 62
     7
 10
29.216423597670349
 20
116.0420268218366
 30
0.0
 11
23.402548352529511
 21
118.99140889846539
 31
0.0
  0
LINE
  5
124
  8
DATA
  6
CONTINUOUS
 62
     7
 10
29.407765313852892
 20
116.5039665880923
 30
0.0
 11
29.790448746217962
 21
117.4278461206036
 31
0.0
  0
LINE
  5
125
  8
DATA
  6
CONTINUOUS
 62
     7
 10
23.976573501077151
 20
120.3772281972323
 30
0.0
 11
23.59389006871206
 21
119.45334866472101
 31
0.0
  0
LINE
  5
126
  8
DATA
  6
CONTINUOUS
 62
     7
 10
29.407765313852892
 20
116.5039665880923
 30
0.0
 11
23.59389006871206
 21
119.45334866472101
 31
0.0
  0
LINE
  5
127
  8
DATA
  6
CONTINUOUS
 62
     7
 10
29.790448746217962
 20
117.4278461206036
 30
0.0
 11
23.976573501077151
 21
120.3772281972323
 31
0.0
  0
LINE
  5
128
  8
DATA
  6
CONTINUOUS
 62
     7
 10
29.981790462400511
 20
117.8897858868592
 30
0.0
 11
30.364473894765609
 21
118.81366541937049
 31
0.0
  0
LINE
  5
129
  8
DATA
  6
CONTINUOUS
 62
     7
 10
24.550598649624789
 20
121.7630474959992
 30
0.0
 11
24.16791521725969
 21
120.8391679634879
 31
0.0
  0
LINE
  5
12A
  8
DATA
  6
CONTINUOUS
 62
     7
 10
29.981790462400511
 20
117.8897858868592
 30
0.0
 11
24.16791521725969
 21
120.8391679634879
 31
0.0
  0
LINE
  5
12B
  8
DATA
  6
CONTINUOUS
 62
     7
 10
30.364473894765609
 20
118.81366541937049
 30
0.0
 11
24.550598649624789
 21
121.7630474959992
 31
0.0
  0
LINE
  5
12C
  8
DATA
  6
CONTINUOUS
 62
     7
 10
30.555815610948152
 20
119.27560518562611
 30
0.0
 11
30.93849904331325
 21
120.1994847181374
 31
0.0
  0
LINE
  5
12D
  8
DATA
  6
CONTINUOUS
 62
     7
 10
25.12462379817244
 20
123.14886679476611
 30
0.0
 11
24.741940365807341
 21
122.2249872622549
 31
0.0
  0
LINE
  5
12E
  8
DATA
  6
CONTINUOUS
 62
     7
 10
30.555815610948152
 20
119.27560518562611
 30
0.0
 11
24.741940365807341
 21
122.2249872622549
 31
0.0
  0
LINE
  5
12F
  8
DATA
  6
CONTINUOUS
 62
     7
 10
30.93849904331325
 20
120.1994847181374
 30
0.0
 11
25.12462379817244
 21
123.14886679476611
 31
0.0
  0
LINE
  5
130
  8
DATA
  6
CONTINUOUS
 62
     7
 10
31.129840759495789
 20
120.661424484393
 30
0.0
 11
31.512524191860852
 21
121.5853040169044
 31
0.0
  0
LINE
  5
131
  8
DATA
  6
CONTINUOUS
 62
     7
 10
25.698648946720059
 20
124.5346860935331
 30
0.0
 11
25.315965514354971
 21
123.6108065610218
 31
0.0
  0
LINE
  5
132
  8
DATA
  6
CONTINUOUS
 62
     7
 10
31.129840759495789
 20
120.661424484393
 30
0.0
 11
25.315965514354971
 21
123.6108065610218
 31
0.0
  0
LINE
  5
133
  8
DATA
  6
CONTINUOUS
 62
     7
 10
31.512524191860852
 20
121.5853040169044
 30
0.0
 11
25.698648946720059
 21
124.5346860935331
 31
0.0
  0
LINE
  5
134
  8
DATA
  6
CONTINUOUS
 62
     7
 10
31.703865908043412
 20
122.04724378316
 30
0.0
 11
32.08654934040851
 21
122.97112331567131
 31
0.0
  0
LINE
  5
135
  8
DATA
  6
CONTINUOUS
 62
     7
 10
26.2726740952677
 20
125.9205053923
 30
0.0
 11
25.889990662902591
 21
124.99662585978869
 31
0.0
  0
LINE
  5
136
  8
DATA
  6
CONTINUOUS
 62
     7
 10
31.703865908043412
 20
122.04724378316
 30
0.0
 11
25.889990662902591
 21
124.99662585978869
 31
0.0
  0
LINE
  5
137
  8
DATA
  6
CONTINUOUS
 62
     7
 10
32.08654934040851
 20
122.97112331567131
 30
0.0
 11
26.2726740952677
 21
125.9205053923
 31
0.0
  0
LINE
  5
138
  8
DATA
  6
CONTINUOUS
 62
     7
 10
32.277891056591052
 20
123.4330630819269
 30
0.0
 11
32.660574488956136
 21
124.3569426144382
 31
0.0
  0
LINE
  5
139
  8
DATA
  6
CONTINUOUS
 62
     7
 10
26.84669924381534
 20
127.30632469106691
 30
0.0
 11
26.464015811450238
 21
126.3824451585557
 31
0.0
  0
LINE
  5
13A
  8
DATA
  6
CONTINUOUS
 62
     7
 10
32.277891056591052
 20
123.4330630819269
 30
0.0
 11
26.464015811450238
 21
126.3824451585557
 31
0.0
  0
LINE
  5
13B
  8
DATA
  6
CONTINUOUS
 62
     7
 10
32.660574488956136
 20
124.3569426144382
 30
0.0
 11
26.84669924381534
 21
127.30632469106691
 31
0.0
  0
LINE
  5
13C
  8
DATA
  6
CONTINUOUS
 62
     7
 10
18.628091467292311
 20
91.786094754643614
 30
0.0
 11
18.43674975110978
 21
91.324154988387946
 31
0.0
  0
LINE
  5
13D
  8
DATA
  6
CONTINUOUS
 62
     7
 10
13.708658567557791
 20
94.281725742560198
 30
0.0
 11
13.51731685137524
 21
93.819785976304587
 31
0.0
  0
LINE
  5
13E
  8
DATA
  6
CONTINUOUS
 62
     7
 10
14.28268371610541
 20
95.667545041327131
 30
0.0
 11
14.091341999922861
 21
95.205605275071548
 31
0.0
  0
LINE
  5
13F
  8
DATA
  6
CONTINUOUS
 62
     7
 10
14.856708864653051
 20
97.053364340094106
 30
0.0
 11
14.665367148470491
 21
96.591424573838424
 31
0.0
  0
LINE
  5
140
  8
DATA
  6
CONTINUOUS
 62
     7
 10
15.43073401320069
 20
98.439183638860982
 30
0.0
 11
15.23939229701814
 21
97.977243872605371
 31
0.0
  0
LINE
  5
141
  8
DATA
  6
CONTINUOUS
 62
     7
 10
16.004759161748311
 20
99.825002937627929
 30
0.0
 11
15.81341744556576
 21
99.363063171372303
 31
0.0
  0
LINE
  5
142
  8
DATA
  6
CONTINUOUS
 62
     7
 10
16.578784310295951
 20
101.2108222363948
 30
0.0
 11
16.387442594113391
 21
100.74888247013919
 31
0.0
  0
LINE
  5
143
  8
DATA
  6
CONTINUOUS
 62
     7
 10
17.152809458843588
 20
102.59664153516179
 30
0.0
 11
16.961467742661039
 21
102.1347017689061
 31
0.0
  0
LINE
  5
144
  8
DATA
  6
CONTINUOUS
 62
     7
 10
17.72683460739124
 20
103.9824608339287
 30
0.0
 11
17.535492891208659
 21
103.520521067673
 31
0.0
  0
LINE
  5
145
  8
DATA
  6
CONTINUOUS
 62
     7
 10
18.300859755938848
 20
105.3682801326956
 30
0.0
 11
18.109518039756299
 21
104.90634036644001
 31
0.0
  0
LINE
  5
146
  8
DATA
  6
CONTINUOUS
 62
     7
 10
18.874884904486489
 20
106.75409943146261
 30
0.0
 11
18.683543188303961
 21
106.2921596652069
 31
0.0
  0
LINE
  5
147
  8
DATA
  6
CONTINUOUS
 62
     7
 10
19.44891005303414
 20
108.1399187302295
 30
0.0
 11
19.257568336851591
 21
107.6779789639738
 31
0.0
  0
LINE
  5
148
  8
DATA
  6
CONTINUOUS
 62
     7
 10
20.02293520158176
 20
109.5257380289964
 30
0.0
 11
19.83159348539921
 21
109.0637982627408
 31
0.0
  0
LINE
  5
149
  8
DATA
  6
CONTINUOUS
 62
     7
 10
20.59696035012939
 20
110.9115573277633
 30
0.0
 11
20.405618633946851
 21
110.44961756150769
 31
0.0
  0
LINE
  5
14A
  8
DATA
  6
CONTINUOUS
 62
     7
 10
21.170985498677041
 20
112.29737662653029
 30
0.0
 11
20.979643782494492
 21
111.8354368602746
 31
0.0
  0
LINE
  5
14B
  8
DATA
  6
CONTINUOUS
 62
     7
 10
21.74501064722466
 20
113.6831959252972
 30
0.0
 11
21.553668931042111
 21
113.2212561590416
 31
0.0
  0
LINE
  5
14C
  8
DATA
  6
CONTINUOUS
 62
     7
 10
22.31903579577229
 20
115.0690152240641
 30
0.0
 11
22.127694079589759
 21
114.60707545780851
 31
0.0
  0
LINE
  5
14D
  8
DATA
  6
CONTINUOUS
 62
     7
 10
22.893060944319942
 20
116.45483452283111
 30
0.0
 11
22.701719228137389
 21
115.9928947565754
 31
0.0
  0
LINE
  5
14E
  8
DATA
  6
CONTINUOUS
 62
     7
 10
23.467086092867561
 20
117.840653821598
 30
0.0
 11
23.27574437668504
 21
117.3787140553424
 31
0.0
  0
LINE
  5
14F
  8
DATA
  6
CONTINUOUS
 62
     7
 10
24.041111241415202
 20
119.2264731203649
 30
0.0
 11
23.849769525232659
 21
118.7645333541093
 31
0.0
  0
LINE
  5
150
  8
DATA
  6
CONTINUOUS
 62
     7
 10
24.615136389962839
 20
120.6122924191319
 30
0.0
 11
24.423794673780289
 21
120.15035265287619
 31
0.0
  0
LINE
  5
151
  8
DATA
  6
CONTINUOUS
 62
     7
 10
25.189161538510461
 20
121.99811171789879
 30
0.0
 11
24.997819822327951
 21
121.5361719516432
 31
0.0
  0
LINE
  5
152
  8
DATA
  6
CONTINUOUS
 62
     7
 10
25.763186687058091
 20
123.3839310166658
 30
0.0
 11
25.57184497087556
 21
122.9219912504101
 31
0.0
  0
LINE
  5
153
  8
DATA
  6
CONTINUOUS
 62
     7
 10
26.33721183560575
 20
124.7697503154327
 30
0.0
 11
26.14587011942319
 21
124.30781054917701
 31
0.0
  0
LINE
  5
154
  8
DATA
  6
CONTINUOUS
 62
     7
 10
26.911236984153359
 20
126.15556961419961
 30
0.0
 11
26.719895267970841
 21
125.693629847944
 31
0.0
  0
LINE
  5
155
  8
DATA
  6
CONTINUOUS
 62
     7
 10
27.30863901007098
 20
127.1149829748844
 30
0.0
 11
27.293920416518461
 21
127.0794491467109
 31
0.0
  0
LINE
  5
156
  8
DATA
  6
CONTINUOUS
 62
     7
 10
33.313855971394332
 20
124.6275406645113
 30
0.0
 11
26.38475947755968
 21
127.4976664072495
 31
0.0
  0
LINE
  5
157
  8
DATA
  6
CONTINUOUS
 62
     7
 10
37.95248444526456
 20
131.9064915423096
 30
0.0
 11
28.251749353895999
 21
135.924667582143
 31
0.0
  0
LINE
  5
158
  8
DATA
  6
CONTINUOUS
 62
     7
 10
37.95248444526456
 20
131.9064915423096
 30
0.0
 11
33.313855971394332
 21
124.6275406645113
 31
0.0
  0
LINE
  5
159
  8
DATA
  6
CONTINUOUS
 62
     7
 10
28.251749353895999
 20
135.924667582143
 30
0.0
 11
26.38475947755968
 21
127.4976664072495
 31
0.0
  0
LINE
  5
15A
  8
DATA
  6
CONTINUOUS
 62
     7
 10
38.239497019538348
 20
132.59940119169309
 30
0.0
 11
28.538761928169841
 21
136.6175772315265
 31
0.0
  0
LINE
  5
15B
  8
DATA
  6
CONTINUOUS
 62
     7
 10
38.239497019538348
 20
132.59940119169309
 30
0.0
 11
40.152914181363769
 21
137.21879885424951
 31
0.0
  0
LINE
  5
15C
  8
DATA
  6
CONTINUOUS
 62
     7
 10
40.152914181363769
 20
137.21879885424951
 30
0.0
 11
30.45217908999529
 21
141.236974894083
 31
0.0
  0
LINE
  5
15D
  8
DATA
  6
CONTINUOUS
 62
     7
 10
30.45217908999529
 20
141.236974894083
 30
0.0
 11
28.538761928169841
 21
136.6175772315265
 31
0.0
  0
LINE
  5
15E
  8
DATA
  6
CONTINUOUS
 62
     7
 10
42.257673059371768
 20
142.30013628306159
 30
0.0
 11
32.556937968003282
 21
146.318312322895
 31
0.0
  0
LINE
  5
15F
  8
DATA
  6
CONTINUOUS
 62
     7
 10
42.257673059371768
 20
142.30013628306159
 30
0.0
 11
44.171090221197247
 21
146.91953394561801
 31
0.0
  0
LINE
  5
160
  8
DATA
  6
CONTINUOUS
 62
     7
 10
44.171090221197247
 20
146.91953394561801
 30
0.0
 11
34.470355129828697
 21
150.93770998545151
 31
0.0
  0
LINE
  5
161
  8
DATA
  6
CONTINUOUS
 62
     7
 10
34.470355129828697
 20
150.93770998545151
 30
0.0
 11
32.556937968003282
 21
146.318312322895
 31
0.0
  0
LINE
  5
162
  8
DATA
  6
CONTINUOUS
 62
     7
 10
39.22903464885249
 20
137.60148228661461
 30
0.0
 11
39.803059797400131
 21
138.98730158538149
 31
0.0
  0
LINE
  5
163
  8
DATA
  6
CONTINUOUS
 62
     7
 10
39.99440151358268
 20
139.44924135163711
 30
0.0
 11
40.568426662130307
 21
140.8350606504041
 31
0.0
  0
LINE
  5
164
  8
DATA
  6
CONTINUOUS
 62
     7
 10
40.759768378312863
 20
141.2970004166597
 30
0.0
 11
41.333793526860482
 21
142.68281971542669
 31
0.0
  0
LINE
  5
165
  8
DATA
  6
CONTINUOUS
 62
     7
 10
31.376058622506552
 20
140.85429146171791
 30
0.0
 11
31.95008377105421
 21
142.24011076048481
 31
0.0
  0
LINE
  5
166
  8
DATA
  6
CONTINUOUS
 62
     7
 10
32.141425487236759
 20
142.70205052674041
 30
0.0
 11
32.715450635784372
 21
144.08786982550731
 31
0.0
  0
LINE
  5
167
  8
DATA
  6
CONTINUOUS
 62
     7
 10
32.906792351966907
 20
144.54980959176299
 30
0.0
 11
33.480817500514561
 21
145.93562889053001
 31
0.0
  0
LINE
  5
168
  8
DATA
  6
CONTINUOUS
 62
     7
 10
40.726939329911453
 20
138.60461815301639
 30
0.0
 11
31.02620423854291
 21
142.62279419284991
 31
0.0
  0
LINE
  5
169
  8
DATA
  6
CONTINUOUS
 62
     7
 10
40.918281046093973
 20
139.0665579192721
 30
0.0
 11
31.217545954725441
 21
143.08473395910551
 31
0.0
  0
LINE
  5
16A
  8
DATA
  6
CONTINUOUS
 62
     7
 10
41.4923061946416
 20
140.452377218039
 30
0.0
 11
31.7915711032731
 21
144.47055325787241
 31
0.0
  0
LINE
  5
16B
  8
DATA
  6
CONTINUOUS
 62
     7
 10
41.683647910824149
 20
140.91431698429469
 30
0.0
 11
31.982912819455638
 21
144.93249302412809
 31
0.0
  0
LINE
  5
16C
  8
DATA
  6
CONTINUOUS
 62
     7
 10
41.683647910824149
 20
140.91431698429469
 30
0.0
 11
41.4923061946416
 21
140.452377218039
 31
0.0
  0
LINE
  5
16D
  8
DATA
  6
CONTINUOUS
 62
     7
 10
40.918281046093973
 20
139.0665579192721
 30
0.0
 11
40.726939329911453
 21
138.60461815301639
 31
0.0
  0
LINE
  5
16E
  8
DATA
  6
CONTINUOUS
 62
     7
 10
31.982912819455638
 20
144.93249302412809
 30
0.0
 11
31.7915711032731
 21
144.47055325787241
 31
0.0
  0
LINE
  5
16F
  8
DATA
  6
CONTINUOUS
 62
     7
 10
31.217545954725441
 20
143.08473395910551
 30
0.0
 11
31.02620423854291
 21
142.62279419284991
 31
0.0
  0
LINE
  5
170
  8
DATA
  6
CONTINUOUS
 62
     7
 10
37.77755725328268
 20
132.7907429078756
 30
0.0
 11
37.490544679008892
 21
132.0978332584921
 31
0.0
  0
LINE
  5
171
  8
DATA
  6
CONTINUOUS
 62
     7
 10
29.00070169442548
 20
136.42623551534399
 30
0.0
 11
28.713689120151681
 21
135.7333258659605
 31
0.0
  0
LINE
  5
172
  8
DATA
  6
CONTINUOUS
 62
     7
 10
44.689072678598862
 20
147.51677273691021
 30
0.0
 11
34.526397820974687
 21
151.72629049292621
 31
0.0
  0
LINE
  5
173
  8
DATA
  6
CONTINUOUS
 62
     7
 10
47.064429606679973
 20
151.9448286832841
 30
0.0
 11
35.977875216544547
 21
156.5370298716652
 31
0.0
  0
LINE
  5
174
  8
DATA
  6
CONTINUOUS
 62
     7
 10
47.064429606679973
 20
151.9448286832841
 30
0.0
 11
44.689072678598862
 21
147.51677273691021
 31
0.0
  0
LINE
  5
175
  8
DATA
  6
CONTINUOUS
 62
     7
 10
35.977875216544547
 20
156.5370298716652
 30
0.0
 11
34.526397820974687
 21
151.72629049292621
 31
0.0
  0
LINE
  5
176
  8
DATA
  6
CONTINUOUS
 62
     7
 10
47.638454755227599
 20
153.330647982051
 30
0.0
 11
36.551900365092152
 21
157.9228491704321
 31
0.0
  0
LINE
  5
177
  8
DATA
  6
CONTINUOUS
 62
     7
 10
53.378706240703941
 20
167.18884096972039
 30
0.0
 11
47.064429606679973
 21
151.9448286832841
 31
0.0
  0
LINE
  5
178
  8
DATA
  6
CONTINUOUS
 62
     7
 10
42.29215185056848
 20
171.7810421581014
 30
0.0
 11
35.977875216544547
 21
156.5370298716652
 31
0.0
  0
LINE
  5
179
  8
DATA
  6
CONTINUOUS
 62
     7
 10
52.230655943608653
 20
164.41720237218641
 30
0.0
 11
41.144101553473241
 21
169.00940356056751
 31
0.0
  0
LINE
  5
17A
  8
DATA
  6
CONTINUOUS
 62
     7
 10
52.996022808338857
 20
166.264961437209
 30
0.0
 11
41.909468418203389
 21
170.85716262559009
 31
0.0
  0
LINE
  5
17B
  8
DATA
  6
CONTINUOUS
 62
     7
 10
53.378706240703941
 20
167.18884096972039
 30
0.0
 11
42.29215185056848
 21
171.7810421581014
 31
0.0
  0
LINE
  5
17C
  8
DATA
  6
CONTINUOUS
 62
     7
 10
53.299449906813379
 20
168.30406221841409
 30
0.0
 11
43.136775049189239
 21
172.51357997443009
 31
0.0
  0
LINE
  5
17D
  8
DATA
  6
CONTINUOUS
 62
     7
 10
53.378706240703941
 20
167.18884096972039
 30
0.0
 11
53.299449906813379
 21
168.30406221841409
 31
0.0
  0
LINE
  5
17E
  8
DATA
  6
CONTINUOUS
 62
     7
 10
43.136775049189239
 20
172.51357997443009
 30
0.0
 11
42.29215185056848
 21
171.7810421581014
 31
0.0
  0
LINE
  5
17F
  8
DATA
  6
CONTINUOUS
 62
     7
 10
54.184852388755651
 20
168.983455438032
 30
0.0
 11
53.299449906813379
 21
168.30406221841409
 31
0.0
  0
LINE
  5
180
  8
DATA
  6
CONTINUOUS
 62
     7
 10
55.707635883295907
 20
175.4245004284314
 30
0.0
 11
46.468840558183047
 21
179.2513347520823
 31
0.0
  0
LINE
  5
181
  8
DATA
  6
CONTINUOUS
 62
     7
 10
55.707635883295907
 20
175.4245004284314
 30
0.0
 11
54.144073105434131
 21
169.03660003474289
 31
0.0
  0
LINE
  5
182
  8
DATA
  6
CONTINUOUS
 62
     7
 10
54.144073105434131
 20
169.03660003474289
 30
0.0
 11
43.057518715298663
 21
173.62880122312399
 31
0.0
  0
LINE
  5
183
  8
DATA
  6
CONTINUOUS
 62
     7
 10
46.468840558183047
 20
179.2513347520823
 30
0.0
 11
43.057518715298663
 21
173.62880122312399
 31
0.0
  0
LINE
  5
184
  8
DATA
  6
CONTINUOUS
 62
     7
 10
43.057518715298663
 20
173.62880122312399
 30
0.0
 11
43.136775049189239
 21
172.51357997443009
 31
0.0
  0
LINE
  5
185
  8
DATA
  6
CONTINUOUS
 62
     7
 10
43.709150454941572
 20
147.11087566180061
 30
0.0
 11
43.996163029215403
 21
147.80378531118399
 31
0.0
  0
LINE
  5
186
  8
DATA
  6
CONTINUOUS
 62
     7
 10
34.932294896084372
 20
150.74636826926891
 30
0.0
 11
35.219307470358167
 21
151.43927791865241
 31
0.0
  0
LINE
  5
187
  8
DATA
  6
CONTINUOUS
 62
     7
 10
54.176902153835563
 20
171.7289822983862
 30
0.0
 11
50.481384023790397
 21
173.25971602784659
 31
0.0
  0
LINE
  5
188
  8
DATA
  6
CONTINUOUS
 62
     7
 10
48.633624958767847
 20
174.02508289257671
 30
0.0
 11
44.938106828722667
 21
175.5558166220371
 31
0.0
  0
LINE
  5
189
  8
DATA
  6
CONTINUOUS
 62
     7
 10
53.794218721470472
 20
170.80510276587489
 30
0.0
 11
50.09870059142532
 21
172.33583649533529
 31
0.0
  0
LINE
  5
18A
  8
DATA
  6
CONTINUOUS
 62
     7
 10
48.250941526402762
 20
173.1012033600654
 30
0.0
 11
44.555423396357583
 21
174.63193708952579
 31
0.0
  0
LINE
  5
18B
  8
DATA
  6
CONTINUOUS
 62
     7
 10
50.481384023790397
 20
173.25971602784659
 30
0.0
 11
50.09870059142532
 21
172.33583649533529
 31
0.0
  0
LINE
  5
18C
  8
DATA
  6
CONTINUOUS
 62
     7
 10
48.633624958767847
 20
174.02508289257671
 30
0.0
 11
48.250941526402762
 21
173.1012033600654
 31
0.0
  0
LINE
  5
18D
  8
DATA
  6
CONTINUOUS
 62
     7
 10
44.938106828722667
 20
175.5558166220371
 30
0.0
 11
44.555423396357583
 21
174.63193708952579
 31
0.0
  0
LINE
  5
18E
  8
DATA
  6
CONTINUOUS
 62
     7
 10
54.176902153835563
 20
171.7289822983862
 30
0.0
 11
53.794218721470472
 21
170.80510276587489
 31
0.0
  0
LINE
  5
18F
  8
DATA
  6
CONTINUOUS
 62
     7
 10
19.202116615839941
 20
93.171914053410546
 30
0.0
 11
19.010774899657399
 21
92.709974287154864
 31
0.0
  0
LINE
  5
190
  8
DATA
  6
CONTINUOUS
 62
     7
 10
19.776141764387582
 20
94.557733352177493
 30
0.0
 11
19.58480004820504
 21
94.095793585921797
 31
0.0
  0
LINE
  5
191
  8
DATA
  6
CONTINUOUS
 62
     7
 10
20.350166912935212
 20
95.943552650944397
 30
0.0
 11
20.158825196752691
 21
95.481612884688715
 31
0.0
  0
LINE
  5
192
  8
DATA
  6
CONTINUOUS
 62
     7
 10
20.924192061482842
 20
97.329371949711344
 30
0.0
 11
20.73285034530031
 21
96.867432183455676
 31
0.0
  0
LINE
  5
193
  8
DATA
  6
CONTINUOUS
 62
     7
 10
21.498217210030489
 20
98.715191248478291
 30
0.0
 11
21.30687549384794
 21
98.253251482222595
 31
0.0
  0
LINE
  5
194
  8
DATA
  6
CONTINUOUS
 62
     7
 10
22.072242358578109
 20
100.1010105472452
 30
0.0
 11
21.880900642395591
 21
99.639070780989556
 31
0.0
  0
LINE
  5
195
  8
DATA
  6
CONTINUOUS
 62
     7
 10
22.646267507125749
 20
101.486829846012
 30
0.0
 11
22.454925790943211
 21
101.0248900797564
 31
0.0
  0
LINE
  5
196
  8
DATA
  6
CONTINUOUS
 62
     7
 10
23.22029265567339
 20
102.872649144779
 30
0.0
 11
23.028950939490841
 21
102.41070937852341
 31
0.0
  0
LINE
  5
197
  8
DATA
  6
CONTINUOUS
 62
     7
 10
23.794317804221041
 20
104.25846844354589
 30
0.0
 11
23.602976088038488
 21
103.7965286772903
 31
0.0
  0
LINE
  5
198
  8
DATA
  6
CONTINUOUS
 62
     7
 10
24.36834295276865
 20
105.6442877423128
 30
0.0
 11
24.177001236586111
 21
105.1823479760572
 31
0.0
  0
LINE
  5
199
  8
DATA
  6
CONTINUOUS
 62
     7
 10
24.942368101316308
 20
107.0301070410798
 30
0.0
 11
24.751026385133741
 21
106.56816727482421
 31
0.0
  0
LINE
  5
19A
  8
DATA
  6
CONTINUOUS
 62
     7
 10
25.516393249863938
 20
108.41592633984671
 30
0.0
 11
25.325051533681389
 21
107.9539865735911
 31
0.0
  0
LINE
  5
19B
  8
DATA
  6
CONTINUOUS
 62
     7
 10
26.090418398411561
 20
109.8017456386137
 30
0.0
 11
25.899076682229008
 21
109.339805872358
 31
0.0
  0
LINE
  5
19C
  8
DATA
  6
CONTINUOUS
 62
     7
 10
26.664443546959209
 20
111.1875649373806
 30
0.0
 11
26.473101830776638
 21
110.725625171125
 31
0.0
  0
LINE
  5
19D
  8
DATA
  6
CONTINUOUS
 62
     7
 10
27.238468695506839
 20
112.5733842361475
 30
0.0
 11
27.04712697932429
 21
112.11144446989189
 31
0.0
  0
LINE
  5
19E
  8
DATA
  6
CONTINUOUS
 62
     7
 10
27.812493844054451
 20
113.95920353491449
 30
0.0
 11
27.621152127871941
 21
113.4972637686588
 31
0.0
  0
LINE
  5
19F
  8
DATA
  6
CONTINUOUS
 62
     7
 10
28.38651899260211
 20
115.3450228336814
 30
0.0
 11
28.19517727641956
 21
114.8830830674258
 31
0.0
  0
LINE
  5
1A0
  8
DATA
  6
CONTINUOUS
 62
     7
 10
28.96054414114974
 20
116.7308421324483
 30
0.0
 11
28.769202424967212
 21
116.26890236619271
 31
0.0
  0
LINE
  5
1A1
  8
DATA
  6
CONTINUOUS
 62
     7
 10
29.534569289697391
 20
118.11666143121531
 30
0.0
 11
29.343227573514842
 21
117.6547216649596
 31
0.0
  0
LINE
  5
1A2
  8
DATA
  6
CONTINUOUS
 62
     7
 10
30.10859443824501
 20
119.5024807299821
 30
0.0
 11
29.917252722062461
 21
119.0405409637265
 31
0.0
  0
LINE
  5
1A3
  8
DATA
  6
CONTINUOUS
 62
     7
 10
30.68261958679264
 20
120.8883000287491
 30
0.0
 11
30.491277870610102
 21
120.4263602624934
 31
0.0
  0
LINE
  5
1A4
  8
DATA
  6
CONTINUOUS
 62
     7
 10
31.256644735340291
 20
122.2741193275161
 30
0.0
 11
31.065303019157732
 21
121.81217956126039
 31
0.0
  0
LINE
  5
1A5
  8
DATA
  6
CONTINUOUS
 62
     7
 10
31.830669883887911
 20
123.65993862628289
 30
0.0
 11
31.639328167705351
 21
123.1979988600273
 31
0.0
  0
LINE
  5
1A6
  8
DATA
  6
CONTINUOUS
 62
     7
 10
32.389976438883032
 20
125.0102240968764
 30
0.0
 11
32.213353316253013
 21
124.5838181587943
 31
0.0
  0
LINE
  5
1A7
  8
DATA
  6
CONTINUOUS
 62
     7
 10
-3.4999999999999849
 20
49.0
 30
0.0
 11
-3.4999999999999849
 21
49.382103746877299
 31
0.0
  0
ARC
  5
1A8
  8
DATA
  6
CONTINUOUS
 62
     7
 10
26.5
 20
49.382103746877299
 30
0.0
 40
30.0
 50
157.49999999999989
 51
180.0
  0
ARC
  5
1A9
  8
DATA
  6
CONTINUOUS
 62
     7
 10
23.5
 20
48.67227788413993
 30
0.0
 40
19.999999999999972
 50
157.50000000000011
 51
179.0611032758824
  0
LINE
  5
1AA
  8
DATA
  6
CONTINUOUS
 62
     7
 10
-35.999999999999957
 20
0.0
 30
0.0
 11
108.5
 21
0.0
 31
0.0
  0
LINE
  5
1AB
  8
DATA
  6
CONTINUOUS
 62
     7
 10
13.0
 20
42.0
 30
0.0
 11
40.0
 21
43.0
 31
0.0
  0
ARC
  5
1AC
  8
DATA
  6
CONTINUOUS
 62
     7
 10
-5.2326465323888547
 20
66.709761968422185
 30
0.0
 40
30.70833333333341
 50
255.34846915215169
 51
306.42258495716572
  0
LINE
  5
1AD
  8
DATA
  6
CONTINUOUS
 62
     7
 10
-37.0
 20
9.0
 30
0.0
 11
-37.0
 21
8.0
 31
0.0
  0
LINE
  5
1AE
  8
DATA
  6
CONTINUOUS
 62
     7
 10
109.5
 20
9.0
 30
0.0
 11
72.156903765690444
 21
23.818688981868888
 31
0.0
  0
LINE
  5
1AF
  8
DATA
  6
CONTINUOUS
 62
     7
 10
109.4375
 20
7.5
 30
0.0
 11
-37.000000000000021
 21
7.5
 31
0.0
  0
LINE
  5
1B0
  8
DATA
  6
CONTINUOUS
 62
     7
 10
109.5
 20
9.0
 30
0.0
 11
-37.0
 21
9.0
 31
0.0
  0
LINE
  5
1B1
  8
DATA
  6
CONTINUOUS
 62
     7
 10
109.5
 20
8.0
 30
0.0
 11
-37.0
 21
8.0
 31
0.0
  0
LINE
  5
1B2
  8
DATA
  6
CONTINUOUS
 62
     7
 10
109.5
 20
9.0
 30
0.0
 11
109.5
 21
8.0
 31
0.0
  0
LINE
  5
1B3
  8
DATA
  6
CONTINUOUS
 62
     7
 10
109.4375
 20
7.5
 30
0.0
 11
108.5
 21
0.0
 31
0.0
  0
LINE
  5
1B4
  8
DATA
  6
CONTINUOUS
 62
     7
 10
109.0
 20
8.0
 30
0.0
 11
109.0
 21
7.5
 31
0.0
  0
LINE
  5
1B5
  8
DATA
  6
CONTINUOUS
 62
     7
 10
-35.999999999999957
 20
0.0
 30
0.0
 11
-37.0
 21
7.5
 31
0.0
  0
LINE
  5
1B6
  8
DATA
  6
CONTINUOUS
 62
     7
 10
-36.499999999999972
 20
8.0
 30
0.0
 11
-36.499999999999972
 21
7.5
 31
0.0
  0
LINE
  5
1B7
  8
DATA
  6
CONTINUOUS
 62
     7
 10
-34.999999999999957
 20
25.0
 30
0.0
 11
-37.0
 21
9.0
 31
0.0
  0
LINE
  5
1B8
  8
DATA
  6
CONTINUOUS
 62
     7
 10
-13.0
 20
37.0
 30
0.0
 11
-28.0
 21
32.0
 31
0.0
  0
ARC
  5
1B9
  8
DATA
  6
CONTINUOUS
 62
     7
 10
-24.499999999999972
 20
21.5
 30
0.0
 40
11.067971810589331
 50
108.4349488229221
 51
161.565051177078
  0
LINE
  5
1BA
  8
DATA
  6
CONTINUOUS
 62
     7
 10
40.0
 20
43.0
 30
0.0
 11
97.0
 21
9.0
 31
0.0
  0
LINE
  5
1BB
  8
DATA
  6
CONTINUOUS
 62
     7
 10
-36.399999999999977
 20
3.0
 30
0.0
 11
-38.660254037844368
 21
3.0
 31
0.0
  0
ARC
  5
1BC
  8
DATA
  6
CONTINUOUS
 62
     7
 10
-66.375
 20
-0.1250049999920293
 30
0.0
 40
4.4194173824159408
 50
135.0000000000002
 51
224.9999999999992
  0
ARC
  5
1BD
  8
DATA
  6
CONTINUOUS
 62
     7
 10
-72.625000000000014
 20
6.1249950000080284
 30
0.0
 40
4.4194173824159613
 50
314.99999999999949
 51
45.000183346494218
  0
ARC
  5
1BE
  8
DATA
  6
CONTINUOUS
 62
     7
 10
-61.375000000000021
 20
-0.1250049999920293
 30
0.0
 40
4.4194173824159009
 50
134.99999999999969
 51
224.9999999999994
  0
ARC
  5
1BF
  8
DATA
  6
CONTINUOUS
 62
     7
 10
-67.625000000000014
 20
6.1249950000080284
 30
0.0
 40
4.4194173824159826
 50
314.99999999999972
 51
45.000183346492967
  0
LINE
  5
1C0
  8
DATA
  6
CONTINUOUS
 62
     7
 10
-59.999999999999972
 20
0.0
 30
0.0
 11
-65.792649120287962
 21
0.0
 31
0.0
  0
LINE
  5
1C1
  8
DATA
  6
CONTINUOUS
 62
     7
 10
-70.792649120286796
 20
0.0
 30
0.0
 11
-79.999999999999972
 21
0.0
 31
0.0
  0
LINE
  5
1C2
  8
DATA
  6
CONTINUOUS
 62
     7
 10
-46.535898384862172
 20
0.0
 30
0.0
 11
-65.792649120287962
 21
0.0
 31
0.0
  0
LINE
  5
1C3
  8
DATA
  6
CONTINUOUS
 62
     7
 10
-70.792649120286796
 20
0.0
 30
0.0
 11
-79.999999999999972
 21
0.0
 31
0.0
  0
LINE
  5
1C4
  8
DATA
  6
CONTINUOUS
 62
     7
 10
-41.160254037844361
 20
2.3301270189222119
 30
0.0
 11
-44.035898384862172
 21
0.6698729810778447
 31
0.0
  0
ARC
  5
1C5
  8
DATA
  6
CONTINUOUS
 62
     7
 10
-46.535898384862143
 20
5.000000000000056
 30
0.0
 40
5.000000000000056
 50
269.99999999999972
 51
299.99999999999972
  0
ARC
  5
1C6
  8
DATA
  6
CONTINUOUS
 62
     7
 10
-38.66025403784441
 20
-2.0
 30
0.0
 40
5.0
 50
89.999999999999687
 51
119.9999999999996
  0
LINE
  5
1C7
  8
DATA
  6
CONTINUOUS
 62
     7
 10
-36.399999999999977
 20
7.5
 30
0.0
 11
-36.499999999999972
 21
7.5
 31
0.0
  0
LINE
  5
1C8
  8
DATA
  6
CONTINUOUS
 62
     7
 10
-37.0
 20
7.5
 30
0.0
 11
-38.660254037844368
 21
7.5
 31
0.0
  0
ARC
  5
1C9
  8
DATA
  6
CONTINUOUS
 62
     7
 10
-38.66025403784441
 20
-2.0
 30
0.0
 40
9.5
 50
89.999999999999659
 51
119.9999999999995
  0
LINE
  5
1CA
  8
DATA
  6
CONTINUOUS
 62
     7
 10
-43.410254037844382
 20
6.227241335952157
 30
0.0
 11
-46.285898384862172
 21
4.5669872981078461
 31
0.0
  0
ARC
  5
1CB
  8
DATA
  6
CONTINUOUS
 62
     7
 10
-46.535898384862143
 20
5.000000000000056
 30
0.0
 40
0.500000000000057
 50
270.0
 51
300.00000000000051
  0
LINE
  5
1CC
  8
DATA
  6
CONTINUOUS
 62
     7
 10
-46.535898384862172
 20
4.5
 30
0.0
 11
-63.515177467340607
 21
4.5
 31
0.0
  0
LINE
  5
1CD
  8
DATA
  6
CONTINUOUS
 62
     7
 10
-68.515177467341132
 20
4.5
 30
0.0
 11
-79.999999999999972
 21
4.5
 31
0.0
  0
CIRCLE
  5
1CE
  8
DATA
  6
CONTINUOUS
 62
     7
 10
0.0000000000000284
 20
350.0
 30
0.0
 40
9.9999999999999432
  0
CIRCLE
  5
1CF
  8
DATA
  6
CONTINUOUS
 62
     7
 10
0.0000000000000284
 20
350.0
 30
0.0
 40
12.99999999999994
  0
LINE
  5
1D0
  8
DATA
  6
CONTINUOUS
 62
     7
 10
-37.000000000000021
 20
369.0
 30
0.0
 11
-37.000000000000021
 21
331.0
 31
0.0
  0
ARC
  5
1D1
  8
DATA
  6
CONTINUOUS
 62
     7
 10
-24.337843816631931
 20
366.6540594349687
 30
0.0
 40
12.877640946488111
 50
106.521850489678
 51
169.5037245186885
  0
ARC
  5
1D2
  8
DATA
  6
CONTINUOUS
 62
     7
 10
-24.337843816631931
 20
333.34594056503141
 30
0.0
 40
12.8776409464881
 50
190.4962754813119
 51
253.47814951032211
  0
ARC
  5
1D3
  8
DATA
  6
CONTINUOUS
 62
     7
 10
88.674376484560526
 20
780.77048693586676
 30
0.0
 40
474.34355775672248
 50
255.76082363654371
 51
270.90662181586589
  0
ARC
  5
1D4
  8
DATA
  6
CONTINUOUS
 62
     7
 10
64.093749999999972
 20
350.0
 30
0.0
 40
27.09375
 50
123.8550261282941
 51
236.1449738717059
  0
ARC
  5
1D5
  8
DATA
  6
CONTINUOUS
 62
     7
 10
120.2901639344263
 20
425.09180327868847
 30
0.0
 40
120.8571369054538
 50
233.85211982117639
 51
258.7195473892171
  0
ARC
  5
1D6
  8
DATA
  6
CONTINUOUS
 62
     7
 10
120.2901639344263
 20
274.90819672131158
 30
0.0
 40
120.8571369054538
 50
101.280452610783
 51
126.1478801788236
  0
ARC
  5
1D7
  8
DATA
  6
CONTINUOUS
 62
     7
 10
89.449999999999903
 20
350.0
 30
0.0
 40
40.449999999999918
 50
159.75065668920439
 51
200.24934331079569
  0
ARC
  5
1D8
  8
DATA
  6
CONTINUOUS
 62
     7
 10
111.1137136541405
 20
378.10759224621671
 30
0.0
 40
72.985232618739374
 50
215.23511697716251
 51
245.2559168900645
  0
ARC
  5
1D9
  8
DATA
  6
CONTINUOUS
 62
     7
 10
111.1137136541405
 20
321.8924077537834
 30
0.0
 40
72.985232618739374
 50
114.7440831099355
 51
144.76488302283741
  0
ARC
  5
1DA
  8
DATA
  6
CONTINUOUS
 62
     7
 10
62.086760339236797
 20
350.0
 30
0.0
 40
42.413239660763203
 50
294.24010684926122
 51
342.20787722323269
  0
ARC
  5
1DB
  8
DATA
  6
CONTINUOUS
 62
     7
 10
19.999999999999972
 20
350.0
 30
0.0
 40
24.999999999999961
 50
126.86989764584401
 51
149.85987571022221
  0
ARC
  5
1DC
  8
DATA
  6
CONTINUOUS
 62
     7
 10
19.999999999999972
 20
350.0
 30
0.0
 40
24.999999999999972
 50
210.1401242897777
 51
233.13010235415609
  0
ARC
  5
1DD
  8
DATA
  6
CONTINUOUS
 62
     7
 10
100.1249999999999
 20
350.0
 30
0.0
 40
6.6249999999999689
 50
148.1092081981547
 51
211.8907918018464
  0
ARC
  5
1DE
  8
DATA
  6
CONTINUOUS
 62
     7
 10
110.1596699141101
 20
359.6302475644174
 30
0.0
 40
20.435964937378849
 50
219.97900438246
 51
246.2812003258517
  0
ARC
  5
1DF
  8
DATA
  6
CONTINUOUS
 62
     7
 10
102.7280536428389
 20
342.0
 30
0.0
 40
1.3369368901483609
 50
233.84718228982129
 51
306.15281771014901
  0
ARC
  5
1E0
  8
DATA
  6
CONTINUOUS
 62
     7
 10
110.1596699141101
 20
340.3697524355826
 30
0.0
 40
20.435964937378792
 50
113.7187996741482
 51
140.02099561754019
  0
ARC
  5
1E1
  8
DATA
  6
CONTINUOUS
 62
     7
 10
102.7280536428389
 20
358.0
 30
0.0
 40
1.336936890148392
 50
53.847182289852462
 51
126.1528177101773
  0
ARC
  5
1E2
  8
DATA
  6
CONTINUOUS
 62
     7
 10
100.1249999999999
 20
350.0
 30
0.0
 40
8.6249999999999414
 50
148.10920819815431
 51
211.89079180184601
  0
ARC
  5
1E3
  8
DATA
  6
CONTINUOUS
 62
     7
 10
110.1596699141101
 20
359.6302475644174
 30
0.0
 40
22.43596493737877
 50
219.25979245577801
 51
247.61241339981439
  0
ARC
  5
1E4
  8
DATA
  6
CONTINUOUS
 62
     7
 10
101.0431775082688
 20
362.50162952944117
 30
0.0
 40
1.500000000000048
 50
292.38758660018487
 51
17.792122776765211
  0
ARC
  5
1E5
  8
DATA
  6
CONTINUOUS
 62
     7
 10
62.086760339236797
 20
350.0
 30
0.0
 40
42.413239660763203
 50
17.792122776766991
 51
65.759893150738776
  0
ARC
  5
1E6
  8
DATA
  6
CONTINUOUS
 62
     7
 10
110.1596699141101
 20
340.3697524355826
 30
0.0
 40
22.435964937378721
 50
112.3875866001857
 51
140.74020754422219
  0
ARC
  5
1E7
  8
DATA
  6
CONTINUOUS
 62
     7
 10
101.0431775082687
 20
337.49837047055883
 30
0.0
 40
1.5000000000000311
 50
342.2078772232328
 51
67.612413399812283
  0
ARC
  5
1E8
  8
DATA
  6
CONTINUOUS
 62
     7
 10
62.086760339236797
 20
350.0
 30
0.0
 40
42.413239660763203
 50
347.6388860523108
 51
12.3611139476892
  0
TEXT
  5
1E9
  8
DATA
 62
     7
 10
100.38233333333331
 20
345.76666666666659
 30
0.0
 40
3.7041666666666648
  1
PUSH
 50
90.0
 41
0.7
 11
96.678166666666655
 21
345.76666666666659
 31
0.0
 73
     3
  0
ARC
  5
1EA
  8
DATA
  6
CONTINUOUS
 62
     7
 10
96.156121200650503
 20
392.01387575820479
 30
0.0
 40
1.499999999998755
 50
31.486711039557981
 51
89.093378184161125
  0
ARC
  5
1EB
  8
DATA
  6
CONTINUOUS
 62
     7
 10
88.674376484560526
 20
-80.770486935866884
 30
0.0
 40
474.34355775672242
 50
89.093378184134025
 51
104.23917636345629
  0
ARC
  5
1EC
  8
DATA
  6
CONTINUOUS
 62
     7
 10
96.156121200649864
 20
307.98612424179657
 30
0.0
 40
1.4999999999999361
 50
270.9066218158643
 51
328.51328896041372
  0
ARC
  5
1ED
  8
DATA
  6
CONTINUOUS
 62
     7
 10
27.55999999999997
 20
350.0
 30
0.0
 40
81.940000000000026
 50
328.513288960414
 51
31.486711039586108
  0
ARC
  5
1EE
  8
DATA
  6
CONTINUOUS
 62
     7
 10
78.026576877419686
 20
463.39551633828393
 30
0.0
 40
152.07644363803041
 50
241.30176308549829
 51
270.55513033560862
  0
ARC
  5
1EF
  8
DATA
  6
CONTINUOUS
 62
     7
 10
78.026576877419686
 20
236.6044836617163
 30
0.0
 40
152.07644363803041
 50
89.444869664391362
 51
118.69823691450171
  0
LINE
  5
1F0
  8
DATA
  6
CONTINUOUS
 62
     7
 10
-68.293068127271141
 20
352.25000000000011
 30
0.0
 11
-90.750000000000043
 21
352.25000000000011
 31
0.0
  0
LINE
  5
1F1
  8
DATA
  6
CONTINUOUS
 62
     7
 10
-70.706929852846784
 20
347.75
 30
0.0
 11
-90.750000000000043
 21
347.75
 31
0.0
  0
ARC
  5
1F2
  8
DATA
  6
CONTINUOUS
 62
     7
 10
-66.375000000000014
 20
346.87499500000808
 30
0.0
 40
4.4194173824159213
 50
135.0
 51
224.9999999999994
  0
ARC
  5
1F3
  8
DATA
  6
CONTINUOUS
 62
     7
 10
-72.625000000000014
 20
353.12499500000808
 30
0.0
 40
4.4194173824159613
 50
314.99999999999949
 51
45.000183346494516
  0
ARC
  5
1F4
  8
DATA
  6
CONTINUOUS
 62
     7
 10
-61.375000000000021
 20
346.87499500000808
 30
0.0
 40
4.4194173824159213
 50
135.0
 51
224.9999999999994
  0
ARC
  5
1F5
  8
DATA
  6
CONTINUOUS
 62
     7
 10
-67.625000000000014
 20
353.12499500000808
 30
0.0
 40
4.4194173824159613
 50
314.99999999999949
 51
45.000183346492932
  0
LINE
  5
1F6
  8
DATA
  6
CONTINUOUS
 62
     7
 10
-107.0
 20
240.0
 30
0.0
 11
-88.000000000000043
 21
240.0
 31
0.0
  0
LINE
  5
1F7
  8
DATA
  6
CONTINUOUS
 62
     7
 10
-105.5
 20
287.0
 30
0.0
 11
-89.500000000000043
 21
287.0
 31
0.0
  0
LINE
  5
1F8
  8
DATA
  6
CONTINUOUS
 62
     7
 10
-105.5
 20
287.0
 30
0.0
 11
-107.0
 21
240.0
 31
0.0
  0
LINE
  5
1F9
  8
DATA
  6
CONTINUOUS
 62
     7
 10
-89.500000000000043
 20
287.0
 30
0.0
 11
-88.000000000000043
 21
240.0
 31
0.0
  0
LINE
  5
1FA
  8
DATA
  6
CONTINUOUS
 62
     7
 10
-101.0
 20
319.00000000000011
 30
0.0
 11
-94.000000000000028
 21
319.00000000000011
 31
0.0
  0
LINE
  5
1FB
  8
DATA
  6
CONTINUOUS
 62
     7
 10
-101.0
 20
319.00000000000011
 30
0.0
 11
-101.0
 21
315.0
 31
0.0
  0
LINE
  5
1FC
  8
DATA
  6
CONTINUOUS
 62
     7
 10
-94.000000000000028
 20
319.00000000000011
 30
0.0
 11
-94.000000000000028
 21
315.0
 31
0.0
  0
LINE
  5
1FD
  8
DATA
  6
CONTINUOUS
 62
     7
 10
-104.0
 20
289.0
 30
0.0
 11
-104.0
 21
287.0
 31
0.0
  0
LINE
  5
1FE
  8
DATA
  6
CONTINUOUS
 62
     7
 10
-91.000000000000043
 20
289.0
 30
0.0
 11
-91.000000000000043
 21
287.0
 31
0.0
  0
ARC
  5
1FF
  8
DATA
  6
CONTINUOUS
 62
     7
 10
-273.50000000000063
 20
321.73076923076923
 30
0.0
 40
172.6312638383848
 50
349.07059843726239
 51
357.7655122523816
  0
ARC
  5
200
  8
DATA
  6
CONTINUOUS
 62
     7
 10
78.50000000000054
 20
321.73076923076923
 30
0.0
 40
172.63126383838491
 50
182.23448774761829
 51
190.92940156273761
  0
LINE
  5
201
  8
DATA
  6
CONTINUOUS
 62
     7
 10
-99.750000000000043
 20
319.00000000000011
 30
0.0
 11
-99.750000000000043
 21
343.25
 31
0.0
  0
LINE
  5
202
  8
DATA
  6
CONTINUOUS
 62
     7
 10
-95.250000000000028
 20
319.00000000000011
 30
0.0
 11
-95.250000000000028
 21
343.25
 31
0.0
  0
ARC
  5
203
  8
DATA
  6
CONTINUOUS
 62
     7
 10
-90.750000000000043
 20
343.25
 30
0.0
 40
4.5
 50
90.0
 51
180.0
  0
ARC
  5
204
  8
DATA
  6
CONTINUOUS
 62
     7
 10
-90.750000000000043
 20
343.25
 30
0.0
 40
9.0
 50
90.0
 51
180.0
  0
LINE
  5
205
  8
DATA
  6
CONTINUOUS
 62
     7
 10
-37.000000000000021
 20
352.25000000000011
 30
0.0
 11
-63.293068127271127
 21
352.25000000000011
 31
0.0
  0
LINE
  5
206
  8
DATA
  6
CONTINUOUS
 62
     7
 10
-37.000000000000021
 20
347.75
 30
0.0
 11
-65.706929852847367
 21
347.75
 31
0.0
  0
ENDSEC
  0
EOF
