  0
SECTION
  2
HEADER
  9
$ACADVER
  1
AC1009
  9
$INSBASE
 10
0.0
 20
0.0
 30
0.0
  9
$EXTMIN
 10
-172.51602555695081
 20
-187.06795069916959
 30
-0.0015258207003583
  9
$EXTMAX
 10
367.51690342563143
 20
615.82213726782015
 30
0.0000000349246037
  9
$LIMMIN
 10
0.0
 20
0.0
  9
$LIMMAX
 10
0.0
 20
0.0
  9
$ORTHOMODE
 70
     0
  9
$REGENMODE
 70
     1
  9
$FILLMODE
 70
     1
  9
$QTEXTMODE
 70
     0
  9
$MIRRTEXT
 70
     1
  9
$DRAGMODE
 70
     2
  9
$LTSCALE
 40
15.24
  9
$OSMODE
 70
   231
  9
$ATTMODE
 70
     1
  9
$TEXTSIZE
 40
0.0
  9
$TRACEWID
 40
1.0
  9
$TEXTSTYLE
  7
STANDARD
  9
$CLAYER
  8
DATA
  9
$CELTYPE
  6
BYLAYER
  9
$CECOLOR
 62
   256
  9
$DIMSCALE
 40
1.0
  9
$DIMASZ
 40
0.18
  9
$DIMEXO
 40
0.0625
  9
$DIMDLI
 40
0.38
  9
$DIMRND
 40
0.0
  9
$DIMDLE
 40
0.0
  9
$DIMEXE
 40
0.18
  9
$DIMTP
 40
0.0
  9
$DIMTM
 40
0.0
  9
$DIMTXT
 40
0.18
  9
$DIMCEN
 40
0.09
  9
$DIMTSZ
 40
0.0
  9
$DIMTOL
 70
     0
  9
$DIMLIM
 70
     0
  9
$DIMTIH
 70
     1
  9
$DIMTOH
 70
     1
  9
$DIMSE1
 70
     0
  9
$DIMSE2
 70
     0
  9
$DIMTAD
 70
     0
  9
$DIMZIN
 70
     0
  9
$DIMBLK
  1

  9
$DIMASO
 70
     1
  9
$DIMSHO
 70
     1
  9
$DIMPOST
  1

  9
$DIMAPOST
  1

  9
$DIMALT
 70
     0
  9
$DIMALTD
 70
     2
  9
$DIMALTF
 40
25.399999999999999
  9
$DIMLFAC
 40
1.0
  9
$DIMTOFL
 70
     0
  9
$DIMTVP
 40
0.0
  9
$DIMTIX
 70
     0
  9
$DIMSOXD
 70
     0
  9
$DIMSAH
 70
     0
  9
$DIMBLK1
  1

  9
$DIMBLK2
  1

  9
$DIMSTYLE
  2
STANDARD
  9
$DIMCLRD
 70
     0
  9
$DIMCLRE
 70
     0
  9
$DIMCLRT
 70
     0
  9
$DIMTFAC
 40
1.0
  9
$DIMGAP
 40
0.09
  9
$LUNITS
 70
     2
  9
$LUPREC
 70
     4
  9
$SKETCHINC
 40
0.1
  9
$FILLETRAD
 40
0.0
  9
$AUNITS
 70
     0
  9
$AUPREC
 70
     0
  9
$MENU
  1
acad
  9
$ELEVATION
 40
0.0
  9
$PELEVATION
 40
0.0
  9
$THICKNESS
 40
0.0
  9
$LIMCHECK
 70
     0
  9
$BLIPMODE
 70
     0
  9
$CHAMFERA
 40
0.0
  9
$CHAMFERB
 40
0.0
  9
$SKPOLY
 70
     0
  9
$TDCREATE
 40
2454490.7555092592
  9
$TDUPDATE
 40
2454490.758309132
  9
$TDINDWG
 40
0.0002549306
  9
$TDUSRTIMER
 40
0.0002547569
  9
$USRTIMER
 70
     1
  9
$ANGBASE
 50
0.0
  9
$ANGDIR
 70
     0
  9
$PDMODE
 70
     1
  9
$PDSIZE
 40
-2.0
  9
$PLINEWID
 40
0.0
  9
$COORDS
 70
     1
  9
$SPLFRAME
 70
     0
  9
$SPLINETYPE
 70
     6
  9
$SPLINESEGS
 70
     8
  9
$ATTDIA
 70
     0
  9
$ATTREQ
 70
     1
  9
$HANDLING
 70
     1
  9
$HANDSEED
  5
324
  9
$SURFTAB1
 70
     6
  9
$SURFTAB2
 70
     6
  9
$SURFTYPE
 70
     6
  9
$SURFU
 70
     6
  9
$SURFV
 70
     6
  9
$UCSNAME
  2

  9
$UCSORG
 10
0.0
 20
0.0
 30
0.0
  9
$UCSXDIR
 10
1.0
 20
0.0
 30
0.0
  9
$UCSYDIR
 10
0.0
 20
1.0
 30
0.0
  9
$PUCSNAME
  2

  9
$PUCSORG
 10
0.0
 20
0.0
 30
0.0
  9
$PUCSXDIR
 10
1.0
 20
0.0
 30
0.0
  9
$PUCSYDIR
 10
0.0
 20
1.0
 30
0.0
  9
$USERI1
 70
     0
  9
$USERI2
 70
     0
  9
$USERI3
 70
     0
  9
$USERI4
 70
     0
  9
$USERI5
 70
     0
  9
$USERR1
 40
0.0
  9
$USERR2
 40
0.0
  9
$USERR3
 40
0.0
  9
$USERR4
 40
0.0
  9
$USERR5
 40
0.0
  9
$WORLDVIEW
 70
     1
  9
$SHADEDGE
 70
     3
  9
$SHADEDIF
 70
    70
  9
$TILEMODE
 70
     1
  9
$MAXACTVP
 70
    64
  9
$PLIMCHECK
 70
     0
  9
$PEXTMIN
 10
1.0000000000000000E+020
 20
1.0000000000000000E+020
 30
1.0000000000000000E+020
  9
$PEXTMAX
 10
-1.0000000000000000E+020
 20
-1.0000000000000000E+020
 30
-1.0000000000000000E+020
  9
$PLIMMIN
 10
0.0
 20
0.0
  9
$PLIMMAX
 10
12.0
 20
9.0
  9
$UNITMODE
 70
     0
  9
$VISRETAIN
 70
     0
  9
$PLINEGEN
 70
     1
  9
$PSLTSCALE
 70
     0
  0
ENDSEC
  0
SECTION
  2
TABLES
  0
TABLE
  2
VPORT
 70
     1
  0
VPORT
  2
*ACTIVE
 70
     0
 10
0.0
 20
0.0
 11
1.0
 21
1.0
 12
97.500438934340252
 22
214.3770932843253
 13
0.0
 23
0.0
 14
1.0
 24
1.0
 15
0.0
 25
0.0
 16
0.0
 26
0.0
 36
1.0
 17
0.0
 27
0.0
 37
0.0
 40
809.55307624887348
 41
1.6703601108033239
 42
50.0
 43
0.0
 44
0.0
 50
0.0
 51
0.0
 71
     0
 72
  2000
 73
     1
 74
     1
 75
     0
 76
     0
 77
     0
 78
     0
  0
ENDTAB
  0
TABLE
  2
LTYPE
 70
    11
  0
LTYPE
  2
CONTINUOUS
 70
     0
  3
Solid line
 72
    65
 73
     0
 40
0.0
  0
LTYPE
  2
STYLE_01
 70
     0
  3

 72
    65
 73
     2
 40
0.4166412353515625
 49
0.208282470703125
 49
-0.2083587646484375
  0
ENDTAB
  0
TABLE
  2
LAYER
 70
     5
  0
LAYER
  2
0
 70
     0
 62
     7
  6
CONTINUOUS
  0
LAYER
  2
DATA
 70
     0
 62
     7
  6
CONTINUOUS
  0
LAYER
  2
HIBINO-BASE
 70
     0
 62
     7
  6
CONTINUOUS
  0
LAYER
  2
SPEC
 70
     0
 62
     7
  6
CONTINUOUS
  0
LAYER
  2
DIMNSIONS
 70
     0
 62
     7
  6
CONTINUOUS
  0
ENDTAB
  0
TABLE
  2
STYLE
 70
     2
  0
STYLE
  2
STANDARD
 70
     0
 40
0.0
 41
1.0
 50
0.0
 71
     0
 42
0.0
  3
txt
  4
BIGFONT.SHX
  0
ENDTAB
  0
TABLE
  2
VIEW
 70
     0
  0
ENDTAB
  0
TABLE
  2
UCS
 70
     0
  0
ENDTAB
  0
TABLE
  2
APPID
 70
     1
  0
APPID
  2
ACAD
 70
     0
  0
ENDTAB
  0
TABLE
  2
DIMSTYLE
 70
     1
  0
DIMSTYLE
  2
STANDARD
 70
     0
  3

  4

  5

  6

  7

 40
1.0
 41
0.18
 42
0.0625
 43
0.38
 44
0.18
 45
0.0
 46
0.0
 47
0.0
 48
0.0
140
0.18
141
0.09
142
0.0
143
25.399999999999999
144
1.0
145
0.0
146
1.0
147
0.09
 71
     0
 72
     0
 73
     1
 74
     1
 75
     0
 76
     0
 77
     0
 78
     0
170
     0
171
     2
172
     0
173
     0
174
     0
175
     0
176
     0
177
     0
178
     0
  0
ENDTAB
  0
ENDSEC
  0
SECTION
  2
BLOCKS
  0
BLOCK
  8
0
  2
$MODEL_SPACE
 70
     0
 10
0.0
 20
0.0
 30
0.0
  3
$MODEL_SPACE
  1

  0
ENDBLK
  5
2F7
  8
0
  0
BLOCK
 67
     1
  8
0
  2
$PAPER_SPACE
 70
     0
 10
0.0
 20
0.0
 30
0.0
  3
$PAPER_SPACE
  1

  0
ENDBLK
  5
2F3
 67
     1
  8
0
  0
ENDSEC
  0
SECTION
  2
ENTITIES
  0
LINE
  5
2C
  8
HIBINO-BASE
  6
CONTINUOUS
 62
     7
 10
-172.4995473229452
 20
615.79768499999989
 30
0.0
 11
367.50042267705481
 21
615.79768499999989
 31
0.0
  0
LINE
  5
2D
  8
HIBINO-BASE
  6
CONTINUOUS
 62
     7
 10
367.50042267705481
 20
-164.20225499999989
 30
0.0
 11
-172.4995473229452
 21
-164.20225499999989
 31
0.0
  0
LINE
  5
2E
  8
HIBINO-BASE
  6
CONTINUOUS
 62
     7
 10
-172.4995473229452
 20
-164.20225499999989
 30
0.0
 11
-172.4995473229452
 21
615.79768499999989
 31
0.0
  0
TEXT
  5
2F
  8
HIBINO-BASE
 62
     7
 10
-150.94753232294519
 20
-183.42824970000001
 30
0.0
 40
10.80009791015625
  1
Hibino Corporation
 41
0.7
 11
-150.94753232294519
 21
-172.62815178984371
 31
0.0
 73
     3
  0
LINE
  5
30
  8
HIBINO-BASE
  6
CONTINUOUS
 62
     7
 10
367.50042267705481
 20
615.79768499999989
 30
0.0
 11
367.50042267705481
 21
-164.20225499999989
 31
0.0
  0
LINE
  5
31
  8
HIBINO-BASE
  6
CONTINUOUS
 62
     7
 10
97.500437677054805
 20
-96.702270000000027
 30
0.0
 11
367.50042267705481
 21
-96.702270000000027
 31
0.0
  0
LINE
  5
32
  8
HIBINO-BASE
  6
CONTINUOUS
 62
     7
 10
97.500437677054805
 20
-164.20225499999989
 30
0.0
 11
97.500437677054805
 21
-96.702270000000027
 31
0.0
  0
TEXT
  5
33
  8
HIBINO-BASE
 62
     7
 10
100.2004076770548
 20
-104.80227959999991
 30
0.0
 40
5.4000778125000002
  1
NOTE
 41
0.7
 11
100.2004076770548
 21
-99.402201787499962
 31
0.0
 73
     3
  0
LINE
  5
34
  8
HIBINO-BASE
  6
CONTINUOUS
 62
     7
 10
202.50043767705489
 20
-164.20225499999989
 30
0.0
 11
202.50043767705489
 21
-96.702270000000027
 31
0.0
  0
TEXT
  5
35
  8
HIBINO-BASE
 62
     7
 10
205.20043767705479
 20
-104.80227959999991
 30
0.0
 40
5.4000778125000002
  1
TITLE
 41
0.7
 11
205.20043767705479
 21
-99.402201787499962
 31
0.0
 73
     3
  0
TEXT
  5
36
  8
HIBINO-BASE
 62
     7
 10
247.70557767705481
 20
-183.42824970000001
 30
0.0
 40
10.80009791015625
  1
ヒビノ株式会社
 41
0.7
 11
247.70557767705481
 21
-172.62815178984371
 31
0.0
 73
     3
  0
LINE
  5
37
  8
HIBINO-BASE
  6
CONTINUOUS
 62
     7
 10
97.500437677054805
 20
-134.20227
 30
0.0
 11
367.50042267705481
 21
-134.20227
 31
0.0
  0
TEXT
  5
38
  8
HIBINO-BASE
 62
     7
 10
242.70043767705479
 20
-142.1332895999999
 30
0.0
 40
5.4000778125000002
  1
DRAWN
 41
0.7
 11
242.70043767705479
 21
-136.7332117874999
 31
0.0
 73
     3
  0
TEXT
  5
39
  8
HIBINO-BASE
 62
     7
 10
167.70043767705471
 20
-142.1332895999999
 30
0.0
 40
5.4000778125000002
  1
DATE
 41
0.7
 11
167.70043767705471
 21
-136.7332117874999
 31
0.0
 73
     3
  0
TEXT
  5
3A
  8
HIBINO-BASE
 62
     7
 10
100.8003926770548
 20
-142.06059780000001
 30
0.0
 40
4.886508046875
  1
図面サイズ
 41
0.7
 11
100.8003926770548
 21
-137.17408975312489
 31
0.0
 73
     3
  0
TEXT
  5
3B
  8
HIBINO-BASE
 62
     7
 10
137.70040767705481
 20
-142.1332895999999
 30
0.0
 40
5.4000778125000002
  1
SCALE
 41
0.7
 11
137.70040767705481
 21
-136.7332117874999
 31
0.0
 73
     3
  0
TEXT
  5
3C
  8
HIBINO-BASE
 62
     7
 10
205.20043767705479
 20
-142.1332895999999
 30
0.0
 40
5.4000778125000002
  1
DESIGN
 41
0.7
 11
205.20043767705479
 21
-136.7332117874999
 31
0.0
 73
     3
  0
TEXT
  5
3D
  8
HIBINO-BASE
 62
     7
 10
317.70039267705482
 20
-142.1332895999999
 30
0.0
 40
5.4000778125000002
  1
DRAWING NO.
 41
0.7
 11
317.70039267705482
 21
-136.7332117874999
 31
0.0
 73
     3
  0
TEXT
  5
3E
  8
HIBINO-BASE
 62
     7
 10
280.2004226770548
 20
-142.1332895999999
 30
0.0
 40
5.4000778125000002
  1
CHECK
 41
0.7
 11
280.2004226770548
 21
-136.7332117874999
 31
0.0
 73
     3
  0
LINE
  5
3F
  8
HIBINO-BASE
  6
CONTINUOUS
 62
     7
 10
140.6253926770548
 20
-160.45227
 30
0.0
 11
151.8754376770548
 21
-149.20227
 31
0.0
  0
TEXT
  5
40
  8
HIBINO-BASE
 62
     7
 10
138.7503926770548
 20
-154.34939759999989
 30
0.0
 40
6.515359453124999
  1
1
 41
0.7
 11
138.7503926770548
 21
-147.83403814687489
 31
0.0
 73
     3
  0
LINE
  5
41
  8
HIBINO-BASE
  6
CONTINUOUS
 62
     7
 10
135.00039267705469
 20
-164.20225499999989
 30
0.0
 11
135.00039267705469
 21
-134.20227
 31
0.0
  0
LINE
  5
42
  8
HIBINO-BASE
  6
CONTINUOUS
 62
     7
 10
165.00042267705479
 20
-164.20225499999989
 30
0.0
 11
165.00042267705479
 21
-134.20227
 31
0.0
  0
LINE
  5
43
  8
HIBINO-BASE
  6
CONTINUOUS
 62
     7
 10
240.00042267705479
 20
-134.20227
 30
0.0
 11
240.00042267705479
 21
-164.20225499999989
 31
0.0
  0
LINE
  5
44
  8
HIBINO-BASE
  6
CONTINUOUS
 62
     7
 10
315.00043767705489
 20
-134.20227
 30
0.0
 11
315.00043767705489
 21
-164.20225499999989
 31
0.0
  0
LINE
  5
45
  8
HIBINO-BASE
  6
CONTINUOUS
 62
     7
 10
277.50040767705491
 20
-164.20225499999989
 30
0.0
 11
277.50040767705491
 21
-134.20227
 31
0.0
  0
TEXT
  5
46
  8
HIBINO-BASE
 62
     7
 10
109.2331076770548
 20
-156.7068584999999
 30
0.0
 40
9.7730276367187496
  1
A4
 41
0.7
 11
109.2331076770548
 21
-146.93383086328109
 31
0.0
 73
     3
  0
TEXT
  5
47
  8
HIBINO-BASE
 62
     7
 10
167.57005767705479
 20
-156.1852295999999
 30
0.0
 40
5.4000778125000002
  1
'08.1.
 41
0.7
 11
167.57005767705479
 21
-150.7851517874999
 31
0.0
 73
     3
  0
TEXT
  5
48
  8
HIBINO-BASE
 62
     7
 10
150.00043767705469
 20
-159.9743976
 30
0.0
 40
6.515359453124999
  1
3
 41
0.7
 11
150.00043767705469
 21
-153.459038146875
 31
0.0
 73
     3
  0
TEXT
  5
49
  8
HIBINO-BASE
 62
     7
 10
245.18333333333331
 20
-157.667
 30
0.0
 40
5.7009440104166647
  1
N.Sasaki
 41
0.7
 11
245.18333333333331
 21
-151.96605598958331
 31
0.0
 73
     3
  0
LINE
  5
4A
  8
SPEC
  6
CONTINUOUS
 62
     7
 10
-149.9995473229452
 20
585.797685
 30
0.0
 11
230.0
 21
585.797685
 31
0.0
  0
LINE
  5
4B
  8
SPEC
  6
CONTINUOUS
 62
     7
 10
-149.9995473229452
 20
574.547685
 30
0.0
 11
230.0
 21
574.547685
 31
0.0
  0
LINE
  5
4C
  8
SPEC
  6
CONTINUOUS
 62
     7
 10
-149.9995473229452
 20
563.297685
 30
0.0
 11
230.0
 21
563.297685
 31
0.0
  0
LINE
  5
4D
  8
SPEC
  6
CONTINUOUS
 62
     7
 10
-149.9995473229452
 20
585.797685
 30
0.0
 11
-149.9995473229452
 21
282.0477150000001
 31
0.0
  0
TEXT
  5
4E
  8
SPEC
 62
     7
 10
-146.2495473229452
 20
589.97750999999994
 30
0.0
 40
7.3297851562499989
  1
仕様
 41
0.7
 11
-146.2495473229452
 21
597.30729515624989
 31
0.0
 73
     3
  0
TEXT
  5
4F
  8
SPEC
 62
     7
 10
-147.29951732294521
 20
576.91013333333296
 30
0.0
 40
5.7009440104166647
  1
形式
 41
0.7
 11
-147.29951732294521
 21
582.61107734374968
 31
0.0
 73
     3
  0
TEXT
  5
50
  8
SPEC
 62
     7
 10
-147.29951732294521
 20
565.66013333333296
 30
0.0
 40
5.7009440104166647
  1
周波数特性
 41
0.7
 11
-147.29951732294521
 21
571.3610773437498
 31
0.0
 73
     3
  0
TEXT
  5
51
  8
SPEC
 62
     7
 10
-147.29951732294521
 20
531.91013333333319
 30
0.0
 40
5.7009440104166647
  1
指向特性
 41
0.7
 11
-147.29951732294521
 21
537.61107734374991
 31
0.0
 73
     3
  0
LINE
  5
52
  8
SPEC
  6
CONTINUOUS
 62
     7
 10
-149.9995473229452
 20
495.797685
 30
0.0
 11
210.0004526770548
 21
495.797685
 31
0.0
  0
LINE
  5
53
  8
SPEC
  6
CONTINUOUS
 62
     7
 10
-149.9995473229452
 20
518.297685
 30
0.0
 11
230.0
 21
518.297685
 31
0.0
  0
TEXT
  5
54
  8
SPEC
 62
     7
 10
-147.29951732294521
 20
486.91014833333332
 30
0.0
 40
5.7009440104166647
  1
等価雑音レベル(Aウェイト)
 41
0.7
 11
-147.29951732294521
 21
492.61109234374999
 31
0.0
 73
     3
  0
LINE
  5
55
  8
SPEC
  6
CONTINUOUS
 62
     7
 10
-149.9995473229452
 20
495.797685
 30
0.0
 11
230.0
 21
495.797685
 31
0.0
  0
TEXT
  5
56
  8
SPEC
 62
     7
 10
-147.29951732294521
 20
329.41014833333332
 30
0.0
 40
5.7009440104166647
  1
使用電源
 41
0.7
 11
-147.29951732294521
 21
335.11109234374999
 31
0.0
 73
     3
  0
LINE
  5
57
  8
SPEC
  6
CONTINUOUS
 62
     7
 10
-149.9995473229452
 20
473.297685
 30
0.0
 11
230.0
 21
473.297685
 31
0.0
  0
TEXT
  5
58
  8
SPEC
 62
     7
 10
-147.29951732294521
 20
318.16014833333332
 30
0.0
 40
5.7009440104166647
  1
寸法
 41
0.7
 11
-147.29951732294521
 21
323.86109234374999
 31
0.0
 73
     3
  0
TEXT
  5
59
  8
SPEC
 62
     7
 10
-147.29951732294521
 20
306.91014833333332
 30
0.0
 40
5.7009440104166647
  1
質量
 41
0.7
 11
-147.29951732294521
 21
312.61109234374999
 31
0.0
 73
     3
  0
TEXT
  5
5A
  8
SPEC
 62
     7
 10
-147.29951732294521
 20
295.66014833333332
 30
0.0
 40
5.7009440104166647
  1
付属品 
 41
0.7
 11
-147.29951732294521
 21
301.36109234374999
 31
0.0
 73
     3
  0
LINE
  5
5B
  8
SPEC
  6
CONTINUOUS
 62
     7
 10
-149.9995473229452
 20
315.797685
 30
0.0
 11
230.0
 21
315.797685
 31
0.0
  0
LINE
  5
5C
  8
SPEC
  6
CONTINUOUS
 62
     7
 10
-149.9995473229452
 20
327.047685
 30
0.0
 11
230.0
 21
327.047685
 31
0.0
  0
LINE
  5
5D
  8
SPEC
  6
CONTINUOUS
 62
     7
 10
-149.9995473229452
 20
304.547685
 30
0.0
 11
230.0
 21
304.547685
 31
0.0
  0
LINE
  5
5E
  8
SPEC
  6
CONTINUOUS
 62
     7
 10
-149.9995473229452
 20
282.0477150000001
 30
0.0
 11
230.0
 21
282.0477150000001
 31
0.0
  0
LINE
  5
5F
  8
SPEC
  6
CONTINUOUS
 62
     7
 10
30.00045267705481
 20
585.797685
 30
0.0
 11
30.00045267705481
 21
282.0477150000001
 31
0.0
  0
LINE
  5
60
  8
SPEC
  6
CONTINUOUS
 62
     7
 10
230.0
 20
585.797685
 30
0.0
 11
230.0
 21
282.0477150000001
 31
0.0
  0
TEXT
  5
61
  8
SPEC
 62
     7
 10
32.700452677054798
 20
576.91013333333296
 30
0.0
 40
5.7009440104166647
  1
エレクトレットコンデンサ型 
 41
0.7
 11
32.700452677054798
 21
582.61107734374968
 31
0.0
 73
     3
  0
TEXT
  5
62
  8
SPEC
 62
     7
 10
32.700452677054798
 20
565.66013333333296
 30
0.0
 40
5.7009440104166647
  1
50～17,000Hz
 41
0.7
 11
32.700452677054798
 21
571.3610773437498
 31
0.0
 73
     3
  0
TEXT
  5
63
  8
SPEC
 62
     7
 10
32.700452677054798
 20
531.91013333333319
 30
0.0
 40
5.7009440104166647
  1
MX405LP/C:カーディオイド
 41
0.7
 11
32.700452677054798
 21
537.61107734374991
 31
0.0
 73
     3
  0
TEXT
  5
64
  8
SPEC
 62
     7
 10
32.700452677054798
 20
523.44346666666661
 30
0.0
 40
5.7009440104166647
  1
MX405LP/S:スーパーカーディオイド
 41
0.7
 11
32.700452677054798
 21
529.14441067708333
 31
0.0
 73
     3
  0
TEXT
  5
65
  8
SPEC
 62
     7
 10
32.700452677054798
 20
509.41014833333332
 30
0.0
 40
5.7009440104166647
  1
MX405LP/C:-35dBV/Pa(18mV)
 41
0.7
 11
32.700452677054798
 21
515.11109234374987
 31
0.0
 73
     3
  0
TEXT
  5
66
  8
SPEC
 62
     7
 10
32.700452677054798
 20
500.94348166666668
 30
0.0
 40
5.7009440104166647
  1
MX405LP/S:-34dBV/Pa(21mV)
 41
0.7
 11
32.700452677054798
 21
506.64442567708329
 31
0.0
 73
     3
  0
TEXT
  5
67
  8
SPEC
 62
     7
 10
32.700452677054798
 20
486.91014833333332
 30
0.0
 40
5.7009440104166647
  1
MX405LP/C:28dB SPL
 41
0.7
 11
32.700452677054798
 21
492.61109234374999
 31
0.0
 73
     3
  0
TEXT
  5
68
  8
SPEC
 62
     7
 10
32.700452677054798
 20
478.44348166666663
 30
0.0
 40
5.7009440104166647
  1
MX405LP/S:27dB SPL
 41
0.7
 11
32.700452677054798
 21
484.1444256770834
 31
0.0
 73
     3
  0
TEXT
  5
69
  8
SPEC
 62
     7
 10
32.700452677054798
 20
329.41014833333332
 30
0.0
 40
5.7009440104166647
  1
ファンタム DC48～52V、8.0mA
 41
0.7
 11
32.700452677054798
 21
335.11109234374999
 31
0.0
 73
     3
  0
TEXT
  5
6A
  8
SPEC
 62
     7
 10
32.700452677054798
 20
318.16014833333332
 30
0.0
 40
5.7009440104166647
  1
MX405LP:φ12×154mm、MX400SMP:φ32×87mm
 41
0.7
 11
32.700452677054798
 21
323.86109234374999
 31
0.0
 73
     3
  0
TEXT
  5
6B
  8
SPEC
 62
     7
 10
32.700452677054798
 20
306.91014833333332
 30
0.0
 40
5.7009440104166647
  1
約179g(MX405LP:約54g、MX400SMP:約125g)
 41
0.7
 11
32.700452677054798
 21
312.61109234374999
 31
0.0
 73
     3
  0
TEXT
  5
6C
  8
SPEC
 62
     7
 10
32.700452677054798
 20
295.66014833333332
 30
0.0
 40
5.7009440104166647
  1
ウィンドスクリーン、締め付け蝶ナット、
 41
0.7
 11
32.700452677054798
 21
301.36109234374999
 31
0.0
 73
     3
  0
TEXT
  5
6D
  8
SPEC
 62
     7
 10
32.700452677054798
 20
287.19348166666663
 30
0.0
 40
5.7009440104166647
  1
ゴム製分離リング×2、XLR5ピンコネクタ (メス)
 41
0.7
 11
32.700452677054798
 21
292.89442567708329
 31
0.0
 73
     3
  0
TEXT
  5
6E
  8
SPEC
 62
     7
 10
-147.29951732294521
 20
509.41146833333329
 30
0.0
 40
5.7009440104166647
  1
開回路感度(1kHz、1Pa=94dB SPL)
 41
0.7
 11
-147.29951732294521
 21
515.11241234374995
 31
0.0
 73
     3
  0
LINE
  5
6F
  8
SPEC
  6
CONTINUOUS
 62
     7
 10
-149.9995473229452
 20
552.047685
 30
0.0
 11
230.0
 21
552.047685
 31
0.0
  0
TEXT
  5
70
  8
SPEC
 62
     7
 10
-147.29951732294521
 20
554.41013333333308
 30
0.0
 40
5.7009440104166647
  1
出力インピーダンス
 41
0.7
 11
-147.29951732294521
 21
560.11107734374991
 31
0.0
 73
     3
  0
TEXT
  5
71
  8
SPEC
 62
     7
 10
32.700452677054798
 20
554.41013333333308
 30
0.0
 40
5.7009440104166647
  1
150Ω(EIA 定格)：170Ω実効
 41
0.7
 11
32.700452677054798
 21
560.11107734374991
 31
0.0
 73
     3
  0
LINE
  5
72
  8
SPEC
  6
CONTINUOUS
 62
     7
 10
-149.9995473229452
 20
540.79768499999989
 30
0.0
 11
230.0
 21
540.79768499999989
 31
0.0
  0
TEXT
  5
73
  8
SPEC
 62
     7
 10
-147.29951732294521
 20
543.16013333333319
 30
0.0
 40
5.7009440104166647
  1
出力バランス
 41
0.7
 11
-147.29951732294521
 21
548.86107734374991
 31
0.0
 73
     3
  0
TEXT
  5
74
  8
SPEC
 62
     7
 10
32.700452677054798
 20
543.16013333333319
 30
0.0
 40
5.7009440104166647
  1
アクティブバランス
 41
0.7
 11
32.700452677054798
 21
548.86107734374991
 31
0.0
 73
     3
  0
TEXT
  5
75
  8
SPEC
 62
     7
 10
-147.29951732294521
 20
464.41014833333332
 30
0.0
 40
5.7009440104166647
  1
最大音圧レベル(1kHz、1%%%THD、1kΩ負荷)
 41
0.7
 11
-147.29951732294521
 21
470.11109234374987
 31
0.0
 73
     3
  0
LINE
  5
76
  8
SPEC
  6
CONTINUOUS
 62
     7
 10
-149.9995473229452
 20
450.797685
 30
0.0
 11
230.0
 21
450.797685
 31
0.0
  0
TEXT
  5
77
  8
SPEC
 62
     7
 10
32.700452677054798
 20
464.41014833333332
 30
0.0
 40
5.7009440104166647
  1
MX405LP/C:121dB
 41
0.7
 11
32.700452677054798
 21
470.11109234374987
 31
0.0
 73
     3
  0
TEXT
  5
78
  8
SPEC
 62
     7
 10
32.700452677054798
 20
455.94348166666668
 30
0.0
 40
5.7009440104166647
  1
MX405LP/S:120dB
 41
0.7
 11
32.700452677054798
 21
461.64442567708329
 31
0.0
 73
     3
  0
TEXT
  5
79
  8
SPEC
 62
     7
 10
-147.29951732294521
 20
441.91014833333332
 30
0.0
 40
5.7009440104166647
  1
SN比(94dB SPL、1kHz)
 41
0.7
 11
-147.29951732294521
 21
447.61109234374999
 31
0.0
 73
     3
  0
LINE
  5
7A
  8
SPEC
  6
CONTINUOUS
 62
     7
 10
-149.9995473229452
 20
428.29768499999989
 30
0.0
 11
230.0
 21
428.29768499999989
 31
0.0
  0
TEXT
  5
7B
  8
SPEC
 62
     7
 10
32.700452677054798
 20
441.91014833333332
 30
0.0
 40
5.7009440104166647
  1
MX405LP/C:66dB
 41
0.7
 11
32.700452677054798
 21
447.61109234374999
 31
0.0
 73
     3
  0
TEXT
  5
7C
  8
SPEC
 62
     7
 10
32.700452677054798
 20
433.44348166666663
 30
0.0
 40
5.7009440104166647
  1
MX405LP/S:68dB
 41
0.7
 11
32.700452677054798
 21
439.14442567708329
 31
0.0
 73
     3
  0
TEXT
  5
7D
  8
SPEC
 62
     7
 10
-147.29951732294521
 20
419.41014833333332
 30
0.0
 40
5.7009440104166647
  1
ダイナミックレンジ (1kΩ負荷、1kHz)
 41
0.7
 11
-147.29951732294521
 21
425.11109234374987
 31
0.0
 73
     3
  0
LINE
  5
7E
  8
SPEC
  6
CONTINUOUS
 62
     7
 10
-149.9995473229452
 20
417.047685
 30
0.0
 11
230.0
 21
417.047685
 31
0.0
  0
TEXT
  5
7F
  8
SPEC
 62
     7
 10
32.700452677054798
 20
419.41014833333332
 30
0.0
 40
5.7009440104166647
  1
93dB
 41
0.7
 11
32.700452677054798
 21
425.11109234374987
 31
0.0
 73
     3
  0
TEXT
  5
80
  8
SPEC
 62
     7
 10
-147.29951732294521
 20
408.16014833333332
 30
0.0
 40
5.7009440104166647
  1
同相信号除去比(10Hz～100kHz )
 41
0.7
 11
-147.29951732294521
 21
413.86109234374987
 31
0.0
 73
     3
  0
LINE
  5
81
  8
SPEC
  6
CONTINUOUS
 62
     7
 10
-149.9995473229452
 20
405.797685
 30
0.0
 11
230.0
 21
405.797685
 31
0.0
  0
TEXT
  5
82
  8
SPEC
 62
     7
 10
32.700452677054798
 20
408.16014833333332
 30
0.0
 40
5.7009440104166647
  1
45dB以上
 41
0.7
 11
32.700452677054798
 21
413.86109234374987
 31
0.0
 73
     3
  0
TEXT
  5
83
  8
SPEC
 62
     7
 10
-147.29951732294521
 20
396.91014833333332
 30
0.0
 40
5.7009440104166647
  1
プリアンプ出力クリッピングレベル(1%%%THD)
 41
0.7
 11
-147.29951732294521
 21
402.61109234374987
 31
0.0
 73
     3
  0
LINE
  5
84
  8
SPEC
  6
CONTINUOUS
 62
     7
 10
-149.9995473229452
 20
394.547685
 30
0.0
 11
230.0
 21
394.547685
 31
0.0
  0
TEXT
  5
85
  8
SPEC
 62
     7
 10
32.700452677054798
 20
396.91014833333332
 30
0.0
 40
5.7009440104166647
  1
-8dBV(0.4V)
 41
0.7
 11
32.700452677054798
 21
402.61109234374987
 31
0.0
 73
     3
  0
TEXT
  5
86
  8
SPEC
 62
     7
 10
-147.29951732294521
 20
385.66014833333332
 30
0.0
 40
5.7009440104166647
  1
コネクタ 
 41
0.7
 11
-147.29951732294521
 21
391.36109234374999
 31
0.0
 73
     3
  0
LINE
  5
87
  8
SPEC
  6
CONTINUOUS
 62
     7
 10
-149.9995473229452
 20
383.297685
 30
0.0
 11
230.0
 21
383.297685
 31
0.0
  0
TEXT
  5
88
  8
SPEC
 62
     7
 10
32.700452677054798
 20
385.66014833333332
 30
0.0
 40
5.7009440104166647
  1
XLR5ピン、オス
 41
0.7
 11
32.700452677054798
 21
391.36109234374999
 31
0.0
 73
     3
  0
TEXT
  5
89
  8
SPEC
 62
     7
 10
-147.29951732294521
 20
374.41014833333332
 30
0.0
 40
5.7009440104166647
  1
ロジック接続
 41
0.7
 11
-147.29951732294521
 21
380.11109234374999
 31
0.0
 73
     3
  0
LINE
  5
8A
  8
SPEC
  6
CONTINUOUS
 62
     7
 10
-149.9995473229452
 20
338.29768499999989
 30
0.0
 11
230.0
 21
338.29768499999989
 31
0.0
  0
TEXT
  5
8B
  8
SPEC
 62
     7
 10
32.700452677054798
 20
374.41014833333332
 30
0.0
 40
5.7009440104166647
  1
負論理(1.0V以下) TTL compatible
 41
0.7
 11
32.700452677054798
 21
380.11109234374999
 31
0.0
 73
     3
  0
TEXT
  5
8C
  8
SPEC
 62
     7
 10
32.700452677054798
 20
365.94348166666668
 30
0.0
 40
5.7009440104166647
  1
絶対最大電圧：-0.7V～50V
 41
0.7
 11
32.700452677054798
 21
371.6444256770834
 31
0.0
 73
     3
  0
TEXT
  5
8D
  8
SPEC
 62
     7
 10
-87.299517322945135
 20
374.41014833333332
 30
0.0
 40
5.7009440104166647
  1
LED IN
 41
0.7
 11
-87.299517322945135
 21
380.11109234374999
 31
0.0
 73
     3
  0
TEXT
  5
8E
  8
SPEC
 62
     7
 10
32.700452677054798
 20
351.91014833333332
 30
0.0
 40
5.7009440104166647
  1
負論理(1.0V以下) TTL compatible
 41
0.7
 11
32.700452677054798
 21
357.61109234374999
 31
0.0
 73
     3
  0
TEXT
  5
8F
  8
SPEC
 62
     7
 10
32.700452677054798
 20
343.44348166666663
 30
0.0
 40
5.7009440104166647
  1
絶対最大電圧：-0.7V～50V(50V以下、3kΩ負荷)
 41
0.7
 11
32.700452677054798
 21
349.14442567708329
 31
0.0
 73
     3
  0
TEXT
  5
90
  8
SPEC
 62
     7
 10
-87.299517322945135
 20
351.91014833333332
 30
0.0
 40
5.7009440104166647
  1
Logic OUT
 41
0.7
 11
-87.299517322945135
 21
357.61109234374999
 31
0.0
 73
     3
  0
LINE
  5
91
  8
SPEC
  6
CONTINUOUS
 62
     7
 10
-89.999999999999986
 20
383.297685
 30
0.0
 11
-89.999999999999986
 21
338.29768499999989
 31
0.0
  0
LINE
  5
92
  8
SPEC
  6
CONTINUOUS
 62
     7
 10
-89.999999999999986
 20
360.797685
 30
0.0
 11
230.0
 21
360.797685
 31
0.0
  0
LINE
  5
93
  8
DIMNSIONS
  6
CONTINUOUS
 62
     7
 10
-13.413043074803239
 20
89.796100585636907
 30
0.0
 11
-50.368224375254698
 21
105.10343788024051
 31
0.0
  0
LINE
  5
94
  8
DIMNSIONS
  6
CONTINUOUS
 62
     7
 10
45.545252831025032
 20
232.1340181758936
 30
0.0
 11
8.5900715305735655
 21
247.44135547049731
 31
0.0
  0
LINE
  5
95
  8
DIMNSIONS
  6
CONTINUOUS
 62
     7
 10
-44.824947200837308
 20
102.8073372946035
 30
0.0
 11
14.13334870499096
 21
245.14525488486041
 31
0.0
  0
LINE
  5
96
  8
DIMNSIONS
  6
CONTINUOUS
 62
     7
 10
-44.824947200837308
 20
102.8073372946035
 30
0.0
 11
-43.452560470339108
 21
112.5723762841923
 31
0.0
  0
LINE
  5
97
  8
DIMNSIONS
  6
CONTINUOUS
 62
     7
 10
-44.824947200837308
 20
102.8073372946035
 30
0.0
 11
-38.75390593361486
 21
110.5779157632838
 31
0.0
  0
LINE
  5
98
  8
DIMNSIONS
  6
CONTINUOUS
 62
     7
 10
14.13334870499096
 20
245.14525488486041
 30
0.0
 11
12.93159442496135
 21
235.35775170699799
 31
0.0
  0
LINE
  5
99
  8
DIMNSIONS
  6
CONTINUOUS
 62
     7
 10
14.13334870499096
 20
245.14525488486041
 30
0.0
 11
8.1988473804474609
 21
237.26990563322551
 31
0.0
  0
TEXT
  5
9A
  8
DIMNSIONS
 62
     7
 10
-22.52386908686735
 20
168.358061878863
 30
0.0
 40
8.1442057291666661
  1
154
 50
67.500000000000014
 41
0.7
 11
-30.048134068605592
 21
171.4747144811879
 31
0.0
 73
     3
  0
TEXT
  5
9B
  8
DIMNSIONS
 62
     7
 10
37.500437677054776
 20
-127.39378499999989
 30
0.0
 40
7.3297851562499989
  1
(単位：mm)
 41
0.7
 11
37.500437677054776
 21
-120.06399984375
 31
0.0
 73
     3
  0
LINE
  5
9C
  8
DIMNSIONS
  6
CONTINUOUS
 62
     7
 10
-12.499999999999361
 20
-5.9999999776482573
 30
0.0
 11
-12.499999999999361
 21
-35.999999977648258
 31
0.0
  0
LINE
  5
9D
  8
DIMNSIONS
  6
CONTINUOUS
 62
     7
 10
12.5
 20
-5.9999999776482573
 30
0.0
 11
12.5
 21
-35.999999977648258
 31
0.0
  0
LINE
  5
9E
  8
DIMNSIONS
  6
CONTINUOUS
 62
     7
 10
12.5
 20
-30.0
 30
0.0
 11
-12.499999999999361
 21
-30.0
 31
0.0
  0
LINE
  5
9F
  8
DIMNSIONS
  6
CONTINUOUS
 62
     7
 10
-12.499999999999361
 20
-30.0
 30
0.0
 11
-27.50000001508678
 21
-30.0
 31
0.0
  0
LINE
  5
A0
  8
DIMNSIONS
  6
CONTINUOUS
 62
     7
 10
-12.499999999999361
 20
-30.0
 30
0.0
 11
-22.02499999999937
 21
-32.552216057906442
 31
0.0
  0
LINE
  5
A1
  8
DIMNSIONS
  6
CONTINUOUS
 62
     7
 10
-12.499999999999361
 20
-30.0
 30
0.0
 11
-22.02499999999937
 21
-27.447783942093569
 31
0.0
  0
LINE
  5
A2
  8
DIMNSIONS
  6
CONTINUOUS
 62
     7
 10
12.5
 20
-30.0
 30
0.0
 11
43.583333333333329
 21
-30.0
 31
0.0
  0
LINE
  5
A3
  8
DIMNSIONS
  6
CONTINUOUS
 62
     7
 10
12.5
 20
-30.0
 30
0.0
 11
22.024999999999991
 21
-27.447783942093569
 31
0.0
  0
LINE
  5
A4
  8
DIMNSIONS
  6
CONTINUOUS
 62
     7
 10
12.5
 20
-30.0
 30
0.0
 11
22.024999999999991
 21
-32.552216057906442
 31
0.0
  0
TEXT
  5
A5
  8
DIMNSIONS
 62
     7
 10
33.0
 20
-25.518333344509202
 30
0.0
 40
8.1442057291666661
  1
25
 41
0.7
 11
33.0
 21
-17.37412761534253
 31
0.0
 73
     3
  0
LINE
  5
A6
  8
DIMNSIONS
  6
CONTINUOUS
 62
     7
 10
-16.0
 20
-65.999999977648244
 30
0.0
 11
-16.0
 21
-105.9999999776482
 31
0.0
  0
LINE
  5
A7
  8
DIMNSIONS
  6
CONTINUOUS
 62
     7
 10
16.0
 20
-65.999999977648244
 30
0.0
 11
16.0
 21
-105.9999999776482
 31
0.0
  0
LINE
  5
A8
  8
DIMNSIONS
  6
CONTINUOUS
 62
     7
 10
-16.0
 20
-100.0
 30
0.0
 11
16.0
 21
-100.0
 31
0.0
  0
LINE
  5
A9
  8
DIMNSIONS
  6
CONTINUOUS
 62
     7
 10
-16.0
 20
-100.0
 30
0.0
 11
-6.4750000000000076
 21
-97.447783942093565
 31
0.0
  0
LINE
  5
AA
  8
DIMNSIONS
  6
CONTINUOUS
 62
     7
 10
-16.0
 20
-100.0
 30
0.0
 11
-6.4750000000000076
 21
-102.55221605790641
 31
0.0
  0
LINE
  5
AB
  8
DIMNSIONS
  6
CONTINUOUS
 62
     7
 10
16.0
 20
-100.0
 30
0.0
 11
6.4750000000000076
 21
-102.55221605790641
 31
0.0
  0
LINE
  5
AC
  8
DIMNSIONS
  6
CONTINUOUS
 62
     7
 10
16.0
 20
-100.0
 30
0.0
 11
6.4750000000000076
 21
-97.447783942093565
 31
0.0
  0
TEXT
  5
AD
  8
DIMNSIONS
 62
     7
 10
-5.2916666666666732
 20
-95.518333344509244
 30
0.0
 40
8.1442057291666661
  1
32
 41
0.7
 11
-5.2916666666666723
 21
-87.374127615342559
 31
0.0
 73
     3
  0
LINE
  5
AE
  8
DIMNSIONS
  6
CONTINUOUS
 62
     7
 10
52.469132320534257
 20
231.75133475208219
 30
0.0
 11
85.999999977648244
 21
231.75133475208219
 31
0.0
  0
LINE
  5
AF
  8
DIMNSIONS
  6
CONTINUOUS
 62
     7
 10
21.499999977648901
 20
82.84999999999998
 30
0.0
 11
85.999999977648244
 21
82.84999999999998
 31
0.0
  0
LINE
  5
B0
  8
DIMNSIONS
  6
CONTINUOUS
 62
     7
 10
80.0
 20
231.75133475208219
 30
0.0
 11
80.0
 21
82.84999999999998
 31
0.0
  0
LINE
  5
B1
  8
DIMNSIONS
  6
CONTINUOUS
 62
     7
 10
80.0
 20
231.75133475208219
 30
0.0
 11
82.552216057906435
 21
222.22633475208229
 31
0.0
  0
LINE
  5
B2
  8
DIMNSIONS
  6
CONTINUOUS
 62
     7
 10
80.0
 20
231.75133475208219
 30
0.0
 11
77.447783942093551
 21
222.22633475208229
 31
0.0
  0
LINE
  5
B3
  8
DIMNSIONS
  6
CONTINUOUS
 62
     7
 10
80.0
 20
82.84999999999998
 30
0.0
 11
77.447783942093551
 21
92.375
 31
0.0
  0
LINE
  5
B4
  8
DIMNSIONS
  6
CONTINUOUS
 62
     7
 10
80.0
 20
82.84999999999998
 30
0.0
 11
82.552216057906435
 21
92.375
 31
0.0
  0
TEXT
  5
B5
  8
DIMNSIONS
 62
     7
 10
75.518333344509202
 20
149.3631673760411
 30
0.0
 40
8.1442057291666661
  1
149
 50
90.0
 41
0.7
 11
67.37412761534253
 21
149.3631673760411
 31
0.0
 73
     3
  0
LINE
  5
B6
  8
DIMNSIONS
  6
CONTINUOUS
 62
     7
 10
21.999999977648251
 20
0.0
 30
0.0
 11
85.999999977648244
 21
0.0
 31
0.0
  0
LINE
  5
B7
  8
DIMNSIONS
  6
CONTINUOUS
 62
     7
 10
21.499999977648901
 20
82.84999999999998
 30
0.0
 11
85.999999977648244
 21
82.84999999999998
 31
0.0
  0
LINE
  5
B8
  8
DIMNSIONS
  6
CONTINUOUS
 62
     7
 10
80.0
 20
0.0
 30
0.0
 11
80.0
 21
82.84999999999998
 31
0.0
  0
LINE
  5
B9
  8
DIMNSIONS
  6
CONTINUOUS
 62
     7
 10
80.0
 20
0.0
 30
0.0
 11
77.447783942093551
 21
9.5250000000000021
 31
0.0
  0
LINE
  5
BA
  8
DIMNSIONS
  6
CONTINUOUS
 62
     7
 10
80.0
 20
0.0
 30
0.0
 11
82.552216057906435
 21
9.5250000000000021
 31
0.0
  0
LINE
  5
BB
  8
DIMNSIONS
  6
CONTINUOUS
 62
     7
 10
80.0
 20
82.84999999999998
 30
0.0
 11
82.552216057906435
 21
73.325000000000003
 31
0.0
  0
LINE
  5
BC
  8
DIMNSIONS
  6
CONTINUOUS
 62
     7
 10
80.0
 20
82.84999999999998
 30
0.0
 11
77.447783942093551
 21
73.325000000000003
 31
0.0
  0
TEXT
  5
BD
  8
DIMNSIONS
 62
     7
 10
75.518333344509216
 20
36.133333333333361
 30
0.0
 40
8.1442057291666661
  1
83
 50
90.0
 41
0.7
 11
67.374127615342545
 21
36.133333333333361
 31
0.0
 73
     3
  0
LINE
  5
BE
  8
DIMNSIONS
  6
CONTINUOUS
 62
     7
 10
-20.999708192945299
 20
87.0
 30
0.0
 11
-55.999999977648237
 21
87.0
 31
0.0
  0
LINE
  5
BF
  8
DIMNSIONS
  6
CONTINUOUS
 62
     7
 10
-21.999999977648251
 20
0.0
 30
0.0
 11
-55.999999977648237
 21
0.0
 31
0.0
  0
LINE
  5
C0
  8
DIMNSIONS
  6
CONTINUOUS
 62
     7
 10
-50.0
 20
87.0
 30
0.0
 11
-50.0
 21
0.0
 31
0.0
  0
LINE
  5
C1
  8
DIMNSIONS
  6
CONTINUOUS
 62
     7
 10
-50.0
 20
87.0
 30
0.0
 11
-47.447783942093537
 21
77.47499999999998
 31
0.0
  0
LINE
  5
C2
  8
DIMNSIONS
  6
CONTINUOUS
 62
     7
 10
-50.0
 20
87.0
 30
0.0
 11
-52.552216057906421
 21
77.47499999999998
 31
0.0
  0
LINE
  5
C3
  8
DIMNSIONS
  6
CONTINUOUS
 62
     7
 10
-50.0
 20
0.0
 30
0.0
 11
-52.552216057906421
 21
9.5250000000000021
 31
0.0
  0
LINE
  5
C4
  8
DIMNSIONS
  6
CONTINUOUS
 62
     7
 10
-50.0
 20
0.0
 30
0.0
 11
-47.447783942093537
 21
9.5250000000000021
 31
0.0
  0
TEXT
  5
C5
  8
DIMNSIONS
 62
     7
 10
-54.48166665549077
 20
38.208333333333343
 30
0.0
 40
8.1442057291666661
  1
87
 50
90.0
 41
0.7
 11
-62.625872384657427
 21
38.208333333333343
 31
0.0
 73
     3
  0
LINE
  5
C6
  8
DIMNSIONS
  6
CONTINUOUS
 62
     7
 10
-10.99970821529681
 20
-5.9999999776482573
 30
0.0
 11
-10.99970821529681
 21
-25.999999977648262
 31
0.0
  0
LINE
  5
C7
  8
DIMNSIONS
  6
CONTINUOUS
 62
     7
 10
11.00029178470319
 20
-5.9999999776482573
 30
0.0
 11
11.00029178470319
 21
-25.999999977648262
 31
0.0
  0
LINE
  5
C8
  8
DIMNSIONS
  6
CONTINUOUS
 62
     7
 10
-10.99970821529681
 20
-20.0
 30
0.0
 11
11.00029178470319
 21
-20.0
 31
0.0
  0
LINE
  5
C9
  8
DIMNSIONS
  6
CONTINUOUS
 62
     7
 10
-10.99970821529681
 20
-20.0
 30
0.0
 11
-1.4747082152968141
 21
-17.447783942093562
 31
0.0
  0
LINE
  5
CA
  8
DIMNSIONS
  6
CONTINUOUS
 62
     7
 10
-10.99970821529681
 20
-20.0
 30
0.0
 11
-1.4747082152968141
 21
-22.552216057906431
 31
0.0
  0
LINE
  5
CB
  8
DIMNSIONS
  6
CONTINUOUS
 62
     7
 10
11.00029178470319
 20
-20.0
 30
0.0
 11
1.4752917847032021
 21
-22.552216057906431
 31
0.0
  0
LINE
  5
CC
  8
DIMNSIONS
  6
CONTINUOUS
 62
     7
 10
11.00029178470319
 20
-20.0
 30
0.0
 11
1.4752917847032021
 21
-17.447783942093562
 31
0.0
  0
TEXT
  5
CD
  8
DIMNSIONS
 62
     7
 10
-5.2913748819634776
 20
-15.518333344509189
 30
0.0
 40
8.1442057291666661
  1
22
 41
0.7
 11
-5.2913748819634767
 21
-7.3741276153425286
 31
0.0
 73
     3
  0
LINE
  5
CE
  8
DIMNSIONS
  6
CONTINUOUS
 62
     7
 10
44.588544220908346
 20
229.8243193325188
 30
0.0
 11
56.069047191861038
 21
257.54070530785742
 31
0.0
  0
LINE
  5
CF
  8
DIMNSIONS
  6
CONTINUOUS
 62
     7
 10
55.675098611043779
 20
225.2321181441377
 30
0.0
 11
67.155601581996478
 21
252.94850411947641
 31
0.0
  0
LINE
  5
D0
  8
DIMNSIONS
  6
CONTINUOUS
 62
     7
 10
64.8595009963596
 20
247.4052269450589
 30
0.0
 11
53.772946606224139
 21
251.99742813344
 31
0.0
  0
LINE
  5
D1
  8
DIMNSIONS
  6
CONTINUOUS
 62
     7
 10
53.772946606224139
 20
251.99742813344
 30
0.0
 11
39.914753604615889
 21
257.73767962468997
 31
0.0
  0
LINE
  5
D2
  8
DIMNSIONS
  6
CONTINUOUS
 62
     7
 10
53.772946606224139
 20
251.99742813344
 30
0.0
 11
44.007907616635421
 21
253.3698148639381
 31
0.0
  0
LINE
  5
D3
  8
DIMNSIONS
  6
CONTINUOUS
 62
     7
 10
53.772946606224139
 20
251.99742813344
 30
0.0
 11
46.002368137543883
 21
258.06846940066248
 31
0.0
  0
LINE
  5
D4
  8
DIMNSIONS
  6
CONTINUOUS
 62
     7
 10
64.8595009963596
 20
247.4052269450589
 30
0.0
 11
78.717693997967842
 21
241.66497545380881
 31
0.0
  0
LINE
  5
D5
  8
DIMNSIONS
  6
CONTINUOUS
 62
     7
 10
64.8595009963596
 20
247.4052269450589
 30
0.0
 11
74.647004174221948
 21
246.2034726650293
 31
0.0
  0
LINE
  5
D6
  8
DIMNSIONS
  6
CONTINUOUS
 62
     7
 10
64.8595009963596
 20
247.4052269450589
 30
0.0
 11
72.734850247994515
 21
241.4707256205154
 31
0.0
  0
TEXT
  5
D7
  8
DIMNSIONS
 62
     7
 10
56.142420853525721
 20
255.86688079672771
 30
0.0
 40
8.1442057291666661
  1
12
 50
337.5
 41
0.7
 11
59.259073455850633
 21
263.3911457784659
 31
0.0
 73
     3
  0
TEXT
  5
D8
  8
DATA
 62
     7
 10
220.00042267705479
 20
-130.80959999999999
 30
0.0
 40
7.3297851562499989
  1
MX405LP/C MX405LP/S + MX400SMP
 41
0.7
 11
220.00042267705479
 21
-123.47981484375001
 31
0.0
 73
     3
  0
TEXT
  5
D9
  8
DATA
 62
     7
 10
247.50042267705479
 20
-109.0595999999999
 30
0.0
 40
7.3297851562499989
  1
SHURE
 41
0.7
 11
247.50042267705479
 21
-101.72981484375001
 31
0.0
 73
     3
  0
TEXT
  5
DA
  8
DATA
 62
     7
 10
240.00042267705479
 20
-118.9005966666666
 30
0.0
 40
5.7009440104166647
  1
グ－スネック・マイクロフォン
 41
0.7
 11
240.00042267705479
 21
-113.1996526562499
 31
0.0
 73
     3
  0
LINE
  5
DB
  8
DATA
  6
CONTINUOUS
 62
     7
 10
-10.06185510795215
 20
20.0
 30
0.0
 11
-9.9997082152968062
 21
20.05499999999995
 31
0.0
  0
LINE
  5
DC
  8
DATA
  6
CONTINUOUS
 62
     7
 10
-9.9997082152968062
 20
20.05499999999995
 30
0.0
 11
-10.99970821529681
 21
20.939999999999941
 31
0.0
  0
LINE
  5
DD
  8
DATA
  6
CONTINUOUS
 62
     7
 10
-10.99970821529681
 20
20.939999999999941
 30
0.0
 11
-9.9997082152968062
 21
21.824999999999928
 31
0.0
  0
LINE
  5
DE
  8
DATA
  6
CONTINUOUS
 62
     7
 10
-9.9997082152968062
 20
21.824999999999928
 30
0.0
 11
-10.99970821529681
 21
22.709999999999919
 31
0.0
  0
LINE
  5
DF
  8
DATA
  6
CONTINUOUS
 62
     7
 10
-10.99970821529681
 20
22.709999999999919
 30
0.0
 11
-9.9997082152968062
 21
23.59499999999997
 31
0.0
  0
LINE
  5
E0
  8
DATA
  6
CONTINUOUS
 62
     7
 10
-9.9997082152968062
 20
23.59499999999997
 30
0.0
 11
-10.99970821529681
 21
24.479999999999961
 31
0.0
  0
LINE
  5
E1
  8
DATA
  6
CONTINUOUS
 62
     7
 10
-10.99970821529681
 20
24.479999999999961
 30
0.0
 11
-9.9997082152968062
 21
25.364999999999981
 31
0.0
  0
LINE
  5
E2
  8
DATA
  6
CONTINUOUS
 62
     7
 10
-9.9997082152968062
 20
25.364999999999949
 30
0.0
 11
-10.99970821529681
 21
26.24999999999995
 31
0.0
  0
LINE
  5
E3
  8
DATA
  6
CONTINUOUS
 62
     7
 10
-10.99970821529681
 20
26.24999999999995
 30
0.0
 11
-9.9997082152968062
 21
27.134999999999959
 31
0.0
  0
LINE
  5
E4
  8
DATA
  6
CONTINUOUS
 62
     7
 10
-9.9997082152968062
 20
27.134999999999959
 30
0.0
 11
-10.99970821529681
 21
28.01999999999996
 31
0.0
  0
LINE
  5
E5
  8
DATA
  6
CONTINUOUS
 62
     7
 10
-10.99970821529681
 20
28.01999999999996
 30
0.0
 11
-9.9997082152968062
 21
28.904999999999969
 31
0.0
  0
LINE
  5
E6
  8
DATA
  6
CONTINUOUS
 62
     7
 10
-9.9997082152968062
 20
28.904999999999969
 30
0.0
 11
-10.99970821529681
 21
29.789999999999971
 31
0.0
  0
LINE
  5
E7
  8
DATA
  6
CONTINUOUS
 62
     7
 10
-10.99970821529681
 20
29.789999999999971
 30
0.0
 11
-9.9997082152968062
 21
30.67499999999999
 31
0.0
  0
LINE
  5
E8
  8
DATA
  6
CONTINUOUS
 62
     7
 10
-9.9997082152968062
 20
30.674999999999951
 30
0.0
 11
-10.99970821529681
 21
31.559999999999949
 31
0.0
  0
LINE
  5
E9
  8
DATA
  6
CONTINUOUS
 62
     7
 10
-10.99970821529681
 20
31.559999999999949
 30
0.0
 11
-9.9997082152968062
 21
32.444999999999972
 31
0.0
  0
LINE
  5
EA
  8
DATA
  6
CONTINUOUS
 62
     7
 10
-9.9997082152968062
 20
32.444999999999972
 30
0.0
 11
-10.99970821529681
 21
33.32999999999997
 31
0.0
  0
LINE
  5
EB
  8
DATA
  6
CONTINUOUS
 62
     7
 10
-10.99970821529681
 20
33.32999999999997
 30
0.0
 11
-9.9997082152968062
 21
34.214999999999968
 31
0.0
  0
LINE
  5
EC
  8
DATA
  6
CONTINUOUS
 62
     7
 10
-9.9997082152968062
 20
34.214999999999968
 30
0.0
 11
-10.99970821529681
 21
35.099999999999973
 31
0.0
  0
LINE
  5
ED
  8
DATA
  6
CONTINUOUS
 62
     7
 10
-10.99970821529681
 20
35.099999999999973
 30
0.0
 11
-9.9997082152968062
 21
35.984999999999992
 31
0.0
  0
LINE
  5
EE
  8
DATA
  6
CONTINUOUS
 62
     7
 10
-9.9997082152968062
 20
35.984999999999957
 30
0.0
 11
-10.99970821529681
 21
36.869999999999948
 31
0.0
  0
LINE
  5
EF
  8
DATA
  6
CONTINUOUS
 62
     7
 10
-10.99970821529681
 20
36.869999999999948
 30
0.0
 11
-9.9997082152968062
 21
37.754999999999967
 31
0.0
  0
LINE
  5
F0
  8
DATA
  6
CONTINUOUS
 62
     7
 10
-9.9997082152968062
 20
37.754999999999967
 30
0.0
 11
-10.99970821529681
 21
38.639999999999972
 31
0.0
  0
LINE
  5
F1
  8
DATA
  6
CONTINUOUS
 62
     7
 10
-10.99970821529681
 20
38.639999999999972
 30
0.0
 11
-9.9997082152968062
 21
39.524999999999977
 31
0.0
  0
LINE
  5
F2
  8
DATA
  6
CONTINUOUS
 62
     7
 10
-9.9997082152968062
 20
39.524999999999977
 30
0.0
 11
-10.99970821529681
 21
40.409999999999961
 31
0.0
  0
LINE
  5
F3
  8
DATA
  6
CONTINUOUS
 62
     7
 10
-10.99970821529681
 20
40.409999999999961
 30
0.0
 11
-9.9997082152968062
 21
41.294999999999987
 31
0.0
  0
LINE
  5
F4
  8
DATA
  6
CONTINUOUS
 62
     7
 10
-9.9997082152968062
 20
41.294999999999987
 30
0.0
 11
-10.99970821529681
 21
42.179999999999978
 31
0.0
  0
LINE
  5
F5
  8
DATA
  6
CONTINUOUS
 62
     7
 10
-10.99970821529681
 20
42.179999999999978
 30
0.0
 11
-9.9997082152968062
 21
43.064999999999991
 31
0.0
  0
LINE
  5
F6
  8
DATA
  6
CONTINUOUS
 62
     7
 10
-9.9997082152968062
 20
43.064999999999969
 30
0.0
 11
-10.99970821529681
 21
43.94999999999996
 31
0.0
  0
LINE
  5
F7
  8
DATA
  6
CONTINUOUS
 62
     7
 10
-10.99970821529681
 20
43.94999999999996
 30
0.0
 11
-9.9997082152968062
 21
44.83499999999998
 31
0.0
  0
LINE
  5
F8
  8
DATA
  6
CONTINUOUS
 62
     7
 10
-9.9997082152968062
 20
44.83499999999998
 30
0.0
 11
-10.99970821529681
 21
45.71999999999997
 31
0.0
  0
LINE
  5
F9
  8
DATA
  6
CONTINUOUS
 62
     7
 10
-10.99970821529681
 20
45.71999999999997
 30
0.0
 11
-9.9997082152968062
 21
46.604999999999983
 31
0.0
  0
LINE
  5
FA
  8
DATA
  6
CONTINUOUS
 62
     7
 10
-9.9997082152968062
 20
46.604999999999983
 30
0.0
 11
-10.99970821529681
 21
47.489999999999966
 31
0.0
  0
LINE
  5
FB
  8
DATA
  6
CONTINUOUS
 62
     7
 10
-10.99970821529681
 20
47.489999999999966
 30
0.0
 11
-9.9997082152968062
 21
48.375
 31
0.0
  0
LINE
  5
FC
  8
DATA
  6
CONTINUOUS
 62
     7
 10
-9.9997082152968062
 20
48.375
 30
0.0
 11
-10.99970821529681
 21
49.259999999999991
 31
0.0
  0
LINE
  5
FD
  8
DATA
  6
CONTINUOUS
 62
     7
 10
-10.99970821529681
 20
49.259999999999991
 30
0.0
 11
-9.9997082152968062
 21
50.14500000000001
 31
0.0
  0
LINE
  5
FE
  8
DATA
  6
CONTINUOUS
 62
     7
 10
-9.9997082152968062
 20
50.144999999999982
 30
0.0
 11
-10.99970821529681
 21
51.029999999999973
 31
0.0
  0
LINE
  5
FF
  8
DATA
  6
CONTINUOUS
 62
     7
 10
-10.99970821529681
 20
51.029999999999973
 30
0.0
 11
-9.9997082152968062
 21
51.914999999999992
 31
0.0
  0
LINE
  5
100
  8
DATA
  6
CONTINUOUS
 62
     7
 10
-9.9997082152968062
 20
51.914999999999992
 30
0.0
 11
-10.99970821529681
 21
52.799999999999983
 31
0.0
  0
LINE
  5
101
  8
DATA
  6
CONTINUOUS
 62
     7
 10
-10.99970821529681
 20
52.799999999999983
 30
0.0
 11
-9.9997082152968062
 21
53.685000000000002
 31
0.0
  0
LINE
  5
102
  8
DATA
  6
CONTINUOUS
 62
     7
 10
-9.9997082152968062
 20
53.685000000000002
 30
0.0
 11
-10.99970821529681
 21
54.569999999999993
 31
0.0
  0
LINE
  5
103
  8
DATA
  6
CONTINUOUS
 62
     7
 10
-10.99970821529681
 20
54.569999999999993
 30
0.0
 11
-9.9997082152968062
 21
55.455000000000013
 31
0.0
  0
LINE
  5
104
  8
DATA
  6
CONTINUOUS
 62
     7
 10
-9.9997082152968062
 20
55.455000000000013
 30
0.0
 11
-10.99970821529681
 21
56.340000000000003
 31
0.0
  0
LINE
  5
105
  8
DATA
  6
CONTINUOUS
 62
     7
 10
-10.99970821529681
 20
56.340000000000003
 30
0.0
 11
-9.9997082152968062
 21
57.225000000000009
 31
0.0
  0
LINE
  5
106
  8
DATA
  6
CONTINUOUS
 62
     7
 10
-9.9997082152968062
 20
57.225000000000001
 30
0.0
 11
-10.99970821529681
 21
58.109999999999992
 31
0.0
  0
LINE
  5
107
  8
DATA
  6
CONTINUOUS
 62
     7
 10
-10.99970821529681
 20
58.109999999999992
 30
0.0
 11
-9.9997082152968062
 21
58.995000000000012
 31
0.0
  0
LINE
  5
108
  8
DATA
  6
CONTINUOUS
 62
     7
 10
-9.9997082152968062
 20
58.995000000000012
 30
0.0
 11
-10.99970821529681
 21
59.880000000000003
 31
0.0
  0
LINE
  5
109
  8
DATA
  6
CONTINUOUS
 62
     7
 10
-10.99970821529681
 20
59.880000000000003
 30
0.0
 11
-9.9997082152968062
 21
60.765000000000022
 31
0.0
  0
LINE
  5
10A
  8
DATA
  6
CONTINUOUS
 62
     7
 10
-9.9997082152968062
 20
60.765000000000022
 30
0.0
 11
-10.99970821529681
 21
61.650000000000013
 31
0.0
  0
LINE
  5
10B
  8
DATA
  6
CONTINUOUS
 62
     7
 10
-10.99970821529681
 20
61.650000000000013
 30
0.0
 11
-9.9997082152968062
 21
62.535000000000018
 31
0.0
  0
LINE
  5
10C
  8
DATA
  6
CONTINUOUS
 62
     7
 10
-9.9997082152968062
 20
62.535000000000018
 30
0.0
 11
-10.99970821529681
 21
63.420000000000023
 31
0.0
  0
LINE
  5
10D
  8
DATA
  6
CONTINUOUS
 62
     7
 10
-10.99970821529681
 20
63.420000000000023
 30
0.0
 11
-9.9997082152968062
 21
64.305000000000035
 31
0.0
  0
LINE
  5
10E
  8
DATA
  6
CONTINUOUS
 62
     7
 10
-9.9997082152968062
 20
64.305000000000007
 30
0.0
 11
-10.99970821529681
 21
65.189999999999998
 31
0.0
  0
LINE
  5
10F
  8
DATA
  6
CONTINUOUS
 62
     7
 10
-10.99970821529681
 20
65.189999999999998
 30
0.0
 11
-9.9997082152968062
 21
66.075000000000017
 31
0.0
  0
LINE
  5
110
  8
DATA
  6
CONTINUOUS
 62
     7
 10
-9.9997082152968062
 20
66.075000000000017
 30
0.0
 11
-10.99970821529681
 21
66.960000000000008
 31
0.0
  0
LINE
  5
111
  8
DATA
  6
CONTINUOUS
 62
     7
 10
-10.99970821529681
 20
66.960000000000008
 30
0.0
 11
-9.9997082152968062
 21
67.845000000000013
 31
0.0
  0
LINE
  5
112
  8
DATA
  6
CONTINUOUS
 62
     7
 10
-9.9997082152968062
 20
67.844999999999999
 30
0.0
 11
-10.99970821529681
 21
68.72999999999999
 31
0.0
  0
LINE
  5
113
  8
DATA
  6
CONTINUOUS
 62
     7
 10
-10.99970821529681
 20
68.72999999999999
 30
0.0
 11
-9.9997082152968062
 21
69.614999999999995
 31
0.0
  0
LINE
  5
114
  8
DATA
  6
CONTINUOUS
 62
     7
 10
10.99740161129284
 20
17.839942196531752
 30
0.0
 11
11.00029178470319
 21
17.842499999999969
 31
0.0
  0
LINE
  5
115
  8
DATA
  6
CONTINUOUS
 62
     7
 10
10.99740161129284
 20
19.60994219653179
 30
0.0
 11
11.00029178470319
 21
19.612499999999951
 31
0.0
  0
LINE
  5
116
  8
DATA
  6
CONTINUOUS
 62
     7
 10
10.562438677358511
 20
20.0
 30
0.0
 11
10.00029178470319
 21
20.497499999999949
 31
0.0
  0
LINE
  5
117
  8
DATA
  6
CONTINUOUS
 62
     7
 10
10.00029178470319
 20
20.497499999999949
 30
0.0
 11
11.00029178470319
 21
21.382499999999929
 31
0.0
  0
LINE
  5
118
  8
DATA
  6
CONTINUOUS
 62
     7
 10
11.00029178470319
 20
21.382499999999929
 30
0.0
 11
10.00029178470319
 21
22.26749999999992
 31
0.0
  0
LINE
  5
119
  8
DATA
  6
CONTINUOUS
 62
     7
 10
10.00029178470319
 20
22.26749999999992
 30
0.0
 11
11.00029178470319
 21
23.152499999999929
 31
0.0
  0
LINE
  5
11A
  8
DATA
  6
CONTINUOUS
 62
     7
 10
11.00029178470319
 20
23.152499999999929
 30
0.0
 11
10.00029178470319
 21
24.037499999999969
 31
0.0
  0
LINE
  5
11B
  8
DATA
  6
CONTINUOUS
 62
     7
 10
10.00029178470319
 20
24.037499999999969
 30
0.0
 11
11.00029178470319
 21
24.92249999999996
 31
0.0
  0
LINE
  5
11C
  8
DATA
  6
CONTINUOUS
 62
     7
 10
11.00029178470319
 20
24.92249999999996
 30
0.0
 11
10.00029178470319
 21
25.80749999999998
 31
0.0
  0
LINE
  5
11D
  8
DATA
  6
CONTINUOUS
 62
     7
 10
10.00029178470319
 20
25.807499999999951
 30
0.0
 11
11.00029178470319
 21
26.692499999999932
 31
0.0
  0
LINE
  5
11E
  8
DATA
  6
CONTINUOUS
 62
     7
 10
11.00029178470319
 20
26.692499999999932
 30
0.0
 11
10.00029178470319
 21
27.577499999999961
 31
0.0
  0
LINE
  5
11F
  8
DATA
  6
CONTINUOUS
 62
     7
 10
10.00029178470319
 20
27.577499999999961
 30
0.0
 11
11.00029178470319
 21
28.462499999999949
 31
0.0
  0
LINE
  5
120
  8
DATA
  6
CONTINUOUS
 62
     7
 10
11.00029178470319
 20
28.462499999999949
 30
0.0
 11
10.00029178470319
 21
29.347499999999972
 31
0.0
  0
LINE
  5
121
  8
DATA
  6
CONTINUOUS
 62
     7
 10
10.00029178470319
 20
29.347499999999972
 30
0.0
 11
11.00029178470319
 21
30.232499999999959
 31
0.0
  0
LINE
  5
122
  8
DATA
  6
CONTINUOUS
 62
     7
 10
11.00029178470319
 20
30.232499999999959
 30
0.0
 11
10.00029178470319
 21
31.117499999999978
 31
0.0
  0
LINE
  5
123
  8
DATA
  6
CONTINUOUS
 62
     7
 10
10.00029178470319
 20
31.11749999999995
 30
0.0
 11
11.00029178470319
 21
32.002499999999941
 31
0.0
  0
LINE
  5
124
  8
DATA
  6
CONTINUOUS
 62
     7
 10
11.00029178470319
 20
32.002499999999941
 30
0.0
 11
10.00029178470319
 21
32.88749999999996
 31
0.0
  0
LINE
  5
125
  8
DATA
  6
CONTINUOUS
 62
     7
 10
10.00029178470319
 20
32.88749999999996
 30
0.0
 11
11.00029178470319
 21
33.772499999999951
 31
0.0
  0
LINE
  5
126
  8
DATA
  6
CONTINUOUS
 62
     7
 10
11.00029178470319
 20
33.772499999999951
 30
0.0
 11
10.00029178470319
 21
34.657499999999963
 31
0.0
  0
LINE
  5
127
  8
DATA
  6
CONTINUOUS
 62
     7
 10
10.00029178470319
 20
34.657499999999963
 30
0.0
 11
11.00029178470319
 21
35.542499999999961
 31
0.0
  0
LINE
  5
128
  8
DATA
  6
CONTINUOUS
 62
     7
 10
11.00029178470319
 20
35.542499999999961
 30
0.0
 11
10.00029178470319
 21
36.427499999999988
 31
0.0
  0
LINE
  5
129
  8
DATA
  6
CONTINUOUS
 62
     7
 10
10.00029178470319
 20
36.427499999999952
 30
0.0
 11
11.00029178470319
 21
37.312499999999943
 31
0.0
  0
LINE
  5
12A
  8
DATA
  6
CONTINUOUS
 62
     7
 10
11.00029178470319
 20
37.312499999999943
 30
0.0
 11
10.00029178470319
 21
38.197499999999962
 31
0.0
  0
LINE
  5
12B
  8
DATA
  6
CONTINUOUS
 62
     7
 10
10.00029178470319
 20
38.197499999999962
 30
0.0
 11
11.00029178470319
 21
39.082499999999953
 31
0.0
  0
LINE
  5
12C
  8
DATA
  6
CONTINUOUS
 62
     7
 10
11.00029178470319
 20
39.082499999999953
 30
0.0
 11
10.00029178470319
 21
39.967499999999973
 31
0.0
  0
LINE
  5
12D
  8
DATA
  6
CONTINUOUS
 62
     7
 10
10.00029178470319
 20
39.967499999999973
 30
0.0
 11
11.00029178470319
 21
40.852499999999957
 31
0.0
  0
LINE
  5
12E
  8
DATA
  6
CONTINUOUS
 62
     7
 10
11.00029178470319
 20
40.852499999999957
 30
0.0
 11
10.00029178470319
 21
41.737499999999983
 31
0.0
  0
LINE
  5
12F
  8
DATA
  6
CONTINUOUS
 62
     7
 10
10.00029178470319
 20
41.737499999999983
 30
0.0
 11
11.00029178470319
 21
42.622499999999967
 31
0.0
  0
LINE
  5
130
  8
DATA
  6
CONTINUOUS
 62
     7
 10
11.00029178470319
 20
42.622499999999967
 30
0.0
 11
10.00029178470319
 21
43.507499999999993
 31
0.0
  0
LINE
  5
131
  8
DATA
  6
CONTINUOUS
 62
     7
 10
10.00029178470319
 20
43.507499999999972
 30
0.0
 11
11.00029178470319
 21
44.392499999999963
 31
0.0
  0
LINE
  5
132
  8
DATA
  6
CONTINUOUS
 62
     7
 10
11.00029178470319
 20
44.392499999999963
 30
0.0
 11
10.00029178470319
 21
45.277499999999982
 31
0.0
  0
LINE
  5
133
  8
DATA
  6
CONTINUOUS
 62
     7
 10
10.00029178470319
 20
45.277499999999982
 30
0.0
 11
11.00029178470319
 21
46.162499999999973
 31
0.0
  0
LINE
  5
134
  8
DATA
  6
CONTINUOUS
 62
     7
 10
11.00029178470319
 20
46.162499999999973
 30
0.0
 11
10.00029178470319
 21
47.047499999999992
 31
0.0
  0
LINE
  5
135
  8
DATA
  6
CONTINUOUS
 62
     7
 10
10.00029178470319
 20
47.047499999999992
 30
0.0
 11
11.00029178470319
 21
47.932499999999983
 31
0.0
  0
LINE
  5
136
  8
DATA
  6
CONTINUOUS
 62
     7
 10
11.00029178470319
 20
47.932499999999983
 30
0.0
 11
10.00029178470319
 21
48.817500000000003
 31
0.0
  0
LINE
  5
137
  8
DATA
  6
CONTINUOUS
 62
     7
 10
10.00029178470319
 20
48.817500000000003
 30
0.0
 11
11.00029178470319
 21
49.702500000000001
 31
0.0
  0
LINE
  5
138
  8
DATA
  6
CONTINUOUS
 62
     7
 10
11.00029178470319
 20
49.702500000000001
 30
0.0
 11
10.00029178470319
 21
50.587500000000013
 31
0.0
  0
LINE
  5
139
  8
DATA
  6
CONTINUOUS
 62
     7
 10
10.00029178470319
 20
50.587499999999977
 30
0.0
 11
11.00029178470319
 21
51.472499999999961
 31
0.0
  0
LINE
  5
13A
  8
DATA
  6
CONTINUOUS
 62
     7
 10
11.00029178470319
 20
51.472499999999961
 30
0.0
 11
10.00029178470319
 21
52.357499999999987
 31
0.0
  0
LINE
  5
13B
  8
DATA
  6
CONTINUOUS
 62
     7
 10
10.00029178470319
 20
52.357499999999987
 30
0.0
 11
11.00029178470319
 21
53.242499999999978
 31
0.0
  0
LINE
  5
13C
  8
DATA
  6
CONTINUOUS
 62
     7
 10
11.00029178470319
 20
53.242499999999978
 30
0.0
 11
10.00029178470319
 21
54.127499999999991
 31
0.0
  0
LINE
  5
13D
  8
DATA
  6
CONTINUOUS
 62
     7
 10
10.00029178470319
 20
54.127499999999991
 30
0.0
 11
11.00029178470319
 21
55.012499999999982
 31
0.0
  0
LINE
  5
13E
  8
DATA
  6
CONTINUOUS
 62
     7
 10
11.00029178470319
 20
55.012499999999982
 30
0.0
 11
10.00029178470319
 21
55.897500000000008
 31
0.0
  0
LINE
  5
13F
  8
DATA
  6
CONTINUOUS
 62
     7
 10
10.00029178470319
 20
55.897500000000008
 30
0.0
 11
11.00029178470319
 21
56.782499999999999
 31
0.0
  0
LINE
  5
140
  8
DATA
  6
CONTINUOUS
 62
     7
 10
11.00029178470319
 20
56.782499999999999
 30
0.0
 11
10.00029178470319
 21
57.667500000000011
 31
0.0
  0
LINE
  5
141
  8
DATA
  6
CONTINUOUS
 62
     7
 10
10.00029178470319
 20
57.66749999999999
 30
0.0
 11
11.00029178470319
 21
58.552499999999981
 31
0.0
  0
LINE
  5
142
  8
DATA
  6
CONTINUOUS
 62
     7
 10
11.00029178470319
 20
58.552499999999981
 30
0.0
 11
10.00029178470319
 21
59.4375
 31
0.0
  0
LINE
  5
143
  8
DATA
  6
CONTINUOUS
 62
     7
 10
10.00029178470319
 20
59.4375
 30
0.0
 11
11.00029178470319
 21
60.322499999999991
 31
0.0
  0
LINE
  5
144
  8
DATA
  6
CONTINUOUS
 62
     7
 10
11.00029178470319
 20
60.322499999999991
 30
0.0
 11
10.00029178470319
 21
61.20750000000001
 31
0.0
  0
LINE
  5
145
  8
DATA
  6
CONTINUOUS
 62
     7
 10
10.00029178470319
 20
61.20750000000001
 30
0.0
 11
11.00029178470319
 21
62.092500000000001
 31
0.0
  0
LINE
  5
146
  8
DATA
  6
CONTINUOUS
 62
     7
 10
11.00029178470319
 20
62.092500000000001
 30
0.0
 11
10.00029178470319
 21
62.97750000000002
 31
0.0
  0
LINE
  5
147
  8
DATA
  6
CONTINUOUS
 62
     7
 10
10.00029178470319
 20
62.97750000000002
 30
0.0
 11
11.00029178470319
 21
63.862500000000011
 31
0.0
  0
LINE
  5
148
  8
DATA
  6
CONTINUOUS
 62
     7
 10
11.00029178470319
 20
63.862500000000011
 30
0.0
 11
10.00029178470319
 21
64.747500000000031
 31
0.0
  0
LINE
  5
149
  8
DATA
  6
CONTINUOUS
 62
     7
 10
10.00029178470319
 20
64.747500000000002
 30
0.0
 11
11.00029178470319
 21
65.632499999999993
 31
0.0
  0
LINE
  5
14A
  8
DATA
  6
CONTINUOUS
 62
     7
 10
11.00029178470319
 20
65.632499999999993
 30
0.0
 11
10.00029178470319
 21
66.517500000000013
 31
0.0
  0
LINE
  5
14B
  8
DATA
  6
CONTINUOUS
 62
     7
 10
10.00029178470319
 20
66.517500000000013
 30
0.0
 11
11.00029178470319
 21
67.402500000000003
 31
0.0
  0
LINE
  5
14C
  8
DATA
  6
CONTINUOUS
 62
     7
 10
11.00029178470319
 20
67.402500000000003
 30
0.0
 11
10.00029178470319
 21
68.287500000000023
 31
0.0
  0
LINE
  5
14D
  8
DATA
  6
CONTINUOUS
 62
     7
 10
10.997401611292799
 20
17.839942196531752
 30
0.0
 11
11.00029178470319
 21
17.839999999999971
 31
0.0
  0
LINE
  5
14E
  8
DATA
  6
CONTINUOUS
 62
     7
 10
10.99740161129283
 20
19.60994219653179
 30
0.0
 11
11.00029178470319
 21
19.61000000000001
 31
0.0
  0
LINE
  5
14F
  8
DATA
  6
CONTINUOUS
 62
     7
 10
-10.99970821529681
 20
20.939999999999941
 30
0.0
 11
11.00029178470319
 21
21.379999999999988
 31
0.0
  0
LINE
  5
150
  8
DATA
  6
CONTINUOUS
 62
     7
 10
-10.99970821529681
 20
22.709999999999919
 30
0.0
 11
11.00029178470319
 21
23.149999999999981
 31
0.0
  0
LINE
  5
151
  8
DATA
  6
CONTINUOUS
 62
     7
 10
-10.99970821529681
 20
24.479999999999961
 30
0.0
 11
11.00029178470319
 21
24.919999999999991
 31
0.0
  0
LINE
  5
152
  8
DATA
  6
CONTINUOUS
 62
     7
 10
-10.99970821529681
 20
26.24999999999995
 30
0.0
 11
11.00029178470319
 21
26.689999999999969
 31
0.0
  0
LINE
  5
153
  8
DATA
  6
CONTINUOUS
 62
     7
 10
-10.99970821529681
 20
28.01999999999996
 30
0.0
 11
11.00029178470319
 21
28.45999999999998
 31
0.0
  0
LINE
  5
154
  8
DATA
  6
CONTINUOUS
 62
     7
 10
-10.99970821529681
 20
29.789999999999971
 30
0.0
 11
11.00029178470319
 21
30.22999999999999
 31
0.0
  0
LINE
  5
155
  8
DATA
  6
CONTINUOUS
 62
     7
 10
-10.99970821529681
 20
31.559999999999949
 30
0.0
 11
11.00029178470319
 21
31.999999999999972
 31
0.0
  0
LINE
  5
156
  8
DATA
  6
CONTINUOUS
 62
     7
 10
-10.99970821529681
 20
33.32999999999997
 30
0.0
 11
11.00029178470319
 21
33.769999999999989
 31
0.0
  0
LINE
  5
157
  8
DATA
  6
CONTINUOUS
 62
     7
 10
-10.99970821529681
 20
35.099999999999973
 30
0.0
 11
11.00029178470319
 21
35.539999999999992
 31
0.0
  0
LINE
  5
158
  8
DATA
  6
CONTINUOUS
 62
     7
 10
-10.99970821529681
 20
36.869999999999948
 30
0.0
 11
11.00029178470319
 21
37.309999999999967
 31
0.0
  0
LINE
  5
159
  8
DATA
  6
CONTINUOUS
 62
     7
 10
-10.99970821529681
 20
38.639999999999972
 30
0.0
 11
11.00029178470319
 21
39.079999999999991
 31
0.0
  0
LINE
  5
15A
  8
DATA
  6
CONTINUOUS
 62
     7
 10
-10.99970821529681
 20
40.409999999999961
 30
0.0
 11
11.00029178470319
 21
40.849999999999987
 31
0.0
  0
LINE
  5
15B
  8
DATA
  6
CONTINUOUS
 62
     7
 10
-10.99970821529681
 20
42.179999999999978
 30
0.0
 11
11.00029178470319
 21
42.620000000000012
 31
0.0
  0
LINE
  5
15C
  8
DATA
  6
CONTINUOUS
 62
     7
 10
-10.99970821529681
 20
43.94999999999996
 30
0.0
 11
11.00029178470319
 21
44.389999999999993
 31
0.0
  0
LINE
  5
15D
  8
DATA
  6
CONTINUOUS
 62
     7
 10
-10.99970821529681
 20
45.71999999999997
 30
0.0
 11
11.00029178470319
 21
46.159999999999989
 31
0.0
  0
LINE
  5
15E
  8
DATA
  6
CONTINUOUS
 62
     7
 10
-10.99970821529681
 20
47.489999999999966
 30
0.0
 11
11.00029178470319
 21
47.930000000000007
 31
0.0
  0
LINE
  5
15F
  8
DATA
  6
CONTINUOUS
 62
     7
 10
-10.99970821529681
 20
49.259999999999991
 30
0.0
 11
11.00029178470319
 21
49.700000000000017
 31
0.0
  0
LINE
  5
160
  8
DATA
  6
CONTINUOUS
 62
     7
 10
-10.99970821529681
 20
51.029999999999973
 30
0.0
 11
11.00029178470319
 21
51.469999999999999
 31
0.0
  0
LINE
  5
161
  8
DATA
  6
CONTINUOUS
 62
     7
 10
-10.99970821529681
 20
52.799999999999983
 30
0.0
 11
11.00029178470319
 21
53.240000000000009
 31
0.0
  0
LINE
  5
162
  8
DATA
  6
CONTINUOUS
 62
     7
 10
-10.99970821529681
 20
54.569999999999993
 30
0.0
 11
11.00029178470319
 21
55.010000000000019
 31
0.0
  0
LINE
  5
163
  8
DATA
  6
CONTINUOUS
 62
     7
 10
-10.99970821529681
 20
56.340000000000003
 30
0.0
 11
11.00029178470319
 21
56.78000000000003
 31
0.0
  0
LINE
  5
164
  8
DATA
  6
CONTINUOUS
 62
     7
 10
-10.99970821529681
 20
58.109999999999992
 30
0.0
 11
11.00029178470319
 21
58.550000000000011
 31
0.0
  0
LINE
  5
165
  8
DATA
  6
CONTINUOUS
 62
     7
 10
-10.99970821529681
 20
59.880000000000003
 30
0.0
 11
11.00029178470319
 21
60.320000000000022
 31
0.0
  0
LINE
  5
166
  8
DATA
  6
CONTINUOUS
 62
     7
 10
-10.99970821529681
 20
61.650000000000013
 30
0.0
 11
11.00029178470319
 21
62.090000000000032
 31
0.0
  0
LINE
  5
167
  8
DATA
  6
CONTINUOUS
 62
     7
 10
-10.99970821529681
 20
63.420000000000023
 30
0.0
 11
11.00029178470319
 21
63.860000000000028
 31
0.0
  0
LINE
  5
168
  8
DATA
  6
CONTINUOUS
 62
     7
 10
-10.99970821529681
 20
65.189999999999998
 30
0.0
 11
11.00029178470319
 21
65.630000000000024
 31
0.0
  0
LINE
  5
169
  8
DATA
  6
CONTINUOUS
 62
     7
 10
-10.99970821529681
 20
66.960000000000008
 30
0.0
 11
11.00029178470319
 21
67.400000000000034
 31
0.0
  0
LINE
  5
16A
  8
DATA
  6
CONTINUOUS
 62
     7
 10
-10.99970821529681
 20
68.72999999999999
 30
0.0
 11
11.00029178470319
 21
69.170000000000016
 31
0.0
  0
LINE
  5
16B
  8
DATA
  6
CONTINUOUS
 62
     7
 10
-9.9997082152968062
 20
20.05499999999995
 30
0.0
 11
10.00029178470319
 21
20.495000000000001
 31
0.0
  0
LINE
  5
16C
  8
DATA
  6
CONTINUOUS
 62
     7
 10
-9.9997082152968062
 20
21.824999999999928
 30
0.0
 11
10.00029178470319
 21
22.26499999999999
 31
0.0
  0
LINE
  5
16D
  8
DATA
  6
CONTINUOUS
 62
     7
 10
-9.9997082152968062
 20
23.59499999999997
 30
0.0
 11
10.00029178470319
 21
24.034999999999972
 31
0.0
  0
LINE
  5
16E
  8
DATA
  6
CONTINUOUS
 62
     7
 10
-9.9997082152968062
 20
25.364999999999949
 30
0.0
 11
10.00029178470319
 21
25.804999999999978
 31
0.0
  0
LINE
  5
16F
  8
DATA
  6
CONTINUOUS
 62
     7
 10
-9.9997082152968062
 20
27.134999999999959
 30
0.0
 11
10.00029178470319
 21
27.574999999999989
 31
0.0
  0
LINE
  5
170
  8
DATA
  6
CONTINUOUS
 62
     7
 10
-9.9997082152968062
 20
28.904999999999969
 30
0.0
 11
10.00029178470319
 21
29.344999999999999
 31
0.0
  0
LINE
  5
171
  8
DATA
  6
CONTINUOUS
 62
     7
 10
-9.9997082152968062
 20
30.674999999999951
 30
0.0
 11
10.00029178470319
 21
31.114999999999981
 31
0.0
  0
LINE
  5
172
  8
DATA
  6
CONTINUOUS
 62
     7
 10
-9.9997082152968062
 20
32.444999999999972
 30
0.0
 11
10.00029178470319
 21
32.884999999999991
 31
0.0
  0
LINE
  5
173
  8
DATA
  6
CONTINUOUS
 62
     7
 10
-9.9997082152968062
 20
34.214999999999968
 30
0.0
 11
10.00029178470319
 21
34.655000000000001
 31
0.0
  0
LINE
  5
174
  8
DATA
  6
CONTINUOUS
 62
     7
 10
-9.9997082152968062
 20
35.984999999999957
 30
0.0
 11
10.00029178470319
 21
36.424999999999983
 31
0.0
  0
LINE
  5
175
  8
DATA
  6
CONTINUOUS
 62
     7
 10
-9.9997082152968062
 20
37.754999999999967
 30
0.0
 11
10.00029178470319
 21
38.195
 31
0.0
  0
LINE
  5
176
  8
DATA
  6
CONTINUOUS
 62
     7
 10
-9.9997082152968062
 20
39.524999999999977
 30
0.0
 11
10.00029178470319
 21
39.965000000000011
 31
0.0
  0
LINE
  5
177
  8
DATA
  6
CONTINUOUS
 62
     7
 10
-9.9997082152968062
 20
41.294999999999987
 30
0.0
 11
10.00029178470319
 21
41.735000000000007
 31
0.0
  0
LINE
  5
178
  8
DATA
  6
CONTINUOUS
 62
     7
 10
-9.9997082152968062
 20
43.064999999999969
 30
0.0
 11
10.00029178470319
 21
43.505000000000003
 31
0.0
  0
LINE
  5
179
  8
DATA
  6
CONTINUOUS
 62
     7
 10
-9.9997082152968062
 20
44.83499999999998
 30
0.0
 11
10.00029178470319
 21
45.275000000000013
 31
0.0
  0
LINE
  5
17A
  8
DATA
  6
CONTINUOUS
 62
     7
 10
-9.9997082152968062
 20
46.604999999999983
 30
0.0
 11
10.00029178470319
 21
47.045000000000023
 31
0.0
  0
LINE
  5
17B
  8
DATA
  6
CONTINUOUS
 62
     7
 10
-9.9997082152968062
 20
48.375
 30
0.0
 11
10.00029178470319
 21
48.815000000000019
 31
0.0
  0
LINE
  5
17C
  8
DATA
  6
CONTINUOUS
 62
     7
 10
-9.9997082152968062
 20
50.144999999999982
 30
0.0
 11
10.00029178470319
 21
50.585000000000008
 31
0.0
  0
LINE
  5
17D
  8
DATA
  6
CONTINUOUS
 62
     7
 10
-9.9997082152968062
 20
51.914999999999992
 30
0.0
 11
10.00029178470319
 21
52.355000000000011
 31
0.0
  0
LINE
  5
17E
  8
DATA
  6
CONTINUOUS
 62
     7
 10
-9.9997082152968062
 20
53.685000000000002
 30
0.0
 11
10.00029178470319
 21
54.125000000000021
 31
0.0
  0
LINE
  5
17F
  8
DATA
  6
CONTINUOUS
 62
     7
 10
-9.9997082152968062
 20
55.455000000000013
 30
0.0
 11
10.00029178470319
 21
55.895000000000039
 31
0.0
  0
LINE
  5
180
  8
DATA
  6
CONTINUOUS
 62
     7
 10
-9.9997082152968062
 20
57.225000000000001
 30
0.0
 11
10.00029178470319
 21
57.66500000000002
 31
0.0
  0
LINE
  5
181
  8
DATA
  6
CONTINUOUS
 62
     7
 10
-9.9997082152968062
 20
58.995000000000012
 30
0.0
 11
10.00029178470319
 21
59.435000000000031
 31
0.0
  0
LINE
  5
182
  8
DATA
  6
CONTINUOUS
 62
     7
 10
-9.9997082152968062
 20
60.765000000000022
 30
0.0
 11
10.00029178470319
 21
61.205000000000041
 31
0.0
  0
LINE
  5
183
  8
DATA
  6
CONTINUOUS
 62
     7
 10
-9.9997082152968062
 20
62.535000000000018
 30
0.0
 11
10.00029178470319
 21
62.975000000000051
 31
0.0
  0
LINE
  5
184
  8
DATA
  6
CONTINUOUS
 62
     7
 10
-9.9997082152968062
 20
64.305000000000007
 30
0.0
 11
10.00029178470319
 21
64.745000000000033
 31
0.0
  0
LINE
  5
185
  8
DATA
  6
CONTINUOUS
 62
     7
 10
-9.9997082152968062
 20
66.075000000000017
 30
0.0
 11
10.00029178470319
 21
66.515000000000043
 31
0.0
  0
LINE
  5
186
  8
DATA
  6
CONTINUOUS
 62
     7
 10
-9.9997082152968062
 20
67.844999999999999
 30
0.0
 11
10.00029178470319
 21
68.285000000000025
 31
0.0
  0
LINE
  5
187
  8
DATA
  6
CONTINUOUS
 62
     7
 10
-9.9997082152972752
 20
0.0
 30
0.0
 11
10.00029178470319
 21
0.0
 31
0.0
  0
LINE
  5
188
  8
DATA
  6
CONTINUOUS
 62
     7
 10
-16.0
 20
0.0
 30
0.0
 11
16.0
 21
0.0
 31
0.0
  0
LINE
  5
189
  8
DATA
  6
CONTINUOUS
 62
     7
 10
-16.0
 20
0.0
 30
0.0
 11
-16.0
 21
15.5
 31
0.0
  0
LINE
  5
18A
  8
DATA
  6
CONTINUOUS
 62
     7
 10
16.0
 20
0.0
 30
0.0
 11
16.0
 21
15.5
 31
0.0
  0
LINE
  5
18B
  8
DATA
  6
CONTINUOUS
 62
     7
 10
-16.0
 20
15.5
 30
0.0
 11
16.0
 21
15.5
 31
0.0
  0
LINE
  5
18C
  8
DATA
  6
CONTINUOUS
 62
     7
 10
16.0
 20
1.5
 30
0.0
 11
22.25
 21
1.5
 31
0.0
  0
LINE
  5
18D
  8
DATA
  6
CONTINUOUS
 62
     7
 10
16.0
 20
14.0
 30
0.0
 11
22.25
 21
14.0
 31
0.0
  0
ARC
  5
18E
  8
DATA
  6
CONTINUOUS
 62
     7
 10
22.25
 20
7.75
 30
0.0
 40
6.25
 50
270.0
 51
90.0
  0
LINE
  5
18F
  8
DATA
  6
CONTINUOUS
 62
     7
 10
-16.0
 20
1.5
 30
0.0
 11
-22.25
 21
1.5
 31
0.0
  0
LINE
  5
190
  8
DATA
  6
CONTINUOUS
 62
     7
 10
-16.0
 20
14.0
 30
0.0
 11
-22.25
 21
14.0
 31
0.0
  0
ARC
  5
191
  8
DATA
  6
CONTINUOUS
 62
     7
 10
-22.25
 20
7.75
 30
0.0
 40
6.25
 50
90.0
 51
270.0
  0
LINE
  5
192
  8
DATA
  6
CONTINUOUS
 62
     7
 10
-15.499999999999361
 20
17.0
 30
0.0
 11
15.500000000000639
 21
17.0
 31
0.0
  0
LINE
  5
193
  8
DATA
  6
CONTINUOUS
 62
     7
 10
-15.499999999999361
 20
17.0
 30
0.0
 11
-15.499999999999361
 21
15.5
 31
0.0
  0
LINE
  5
194
  8
DATA
  6
CONTINUOUS
 62
     7
 10
15.500000000000639
 20
17.0
 30
0.0
 11
15.500000000000639
 21
15.5
 31
0.0
  0
LINE
  5
195
  8
DATA
  6
CONTINUOUS
 62
     7
 10
-12.499999999999361
 20
20.0
 30
0.0
 11
12.500000000000639
 21
20.0
 31
0.0
  0
LINE
  5
196
  8
DATA
  6
CONTINUOUS
 62
     7
 10
-12.499999999999361
 20
20.0
 30
0.0
 11
-12.499999999999361
 21
17.0
 31
0.0
  0
LINE
  5
197
  8
DATA
  6
CONTINUOUS
 62
     7
 10
12.500000000000639
 20
20.0
 30
0.0
 11
12.500000000000639
 21
17.0
 31
0.0
  0
LINE
  5
198
  8
DATA
  6
STYLE_01
 62
     7
 10
-10.99970821529681
 20
20.0
 30
0.0
 11
-10.99970821529681
 21
0.0
 31
0.0
  0
LINE
  5
199
  8
DATA
  6
STYLE_01
 62
     7
 10
11.00029178470319
 20
20.0
 30
0.0
 11
11.00029178470319
 21
0.0
 31
0.0
  0
LINE
  5
19A
  8
DATA
  6
CONTINUOUS
 62
     7
 10
11.00029178470319
 20
79.84999999999998
 30
0.0
 11
-10.99970821529682
 21
79.84999999999998
 31
0.0
  0
LINE
  5
19B
  8
DATA
  6
CONTINUOUS
 62
     7
 10
-15.499999999999361
 20
82.84999999999998
 30
0.0
 11
15.500000000000639
 21
82.84999999999998
 31
0.0
  0
LINE
  5
19C
  8
DATA
  6
CONTINUOUS
 62
     7
 10
-15.499999999999361
 20
82.84999999999998
 30
0.0
 11
-15.499999999999361
 21
84.34999999999998
 31
0.0
  0
LINE
  5
19D
  8
DATA
  6
CONTINUOUS
 62
     7
 10
15.500000000000639
 20
82.84999999999998
 30
0.0
 11
15.500000000000639
 21
84.34999999999998
 31
0.0
  0
LINE
  5
19E
  8
DATA
  6
CONTINUOUS
 62
     7
 10
-12.499999999999361
 20
79.84999999999998
 30
0.0
 11
12.500000000000639
 21
79.84999999999998
 31
0.0
  0
LINE
  5
19F
  8
DATA
  6
CONTINUOUS
 62
     7
 10
-12.499999999999361
 20
79.84999999999998
 30
0.0
 11
-12.499999999999361
 21
82.84999999999998
 31
0.0
  0
LINE
  5
1A0
  8
DATA
  6
CONTINUOUS
 62
     7
 10
12.500000000000639
 20
79.84999999999998
 30
0.0
 11
12.500000000000639
 21
82.84999999999998
 31
0.0
  0
LINE
  5
1A1
  8
DATA
  6
CONTINUOUS
 62
     7
 10
-15.499999999999361
 20
84.34999999999998
 30
0.0
 11
15.500000000000639
 21
84.34999999999998
 31
0.0
  0
LINE
  5
1A2
  8
DATA
  6
CONTINUOUS
 62
     7
 10
-14.999708215297041
 20
87.0
 30
0.0
 11
15.00029178470295
 21
87.0
 31
0.0
  0
LINE
  5
1A3
  8
DATA
  6
CONTINUOUS
 62
     7
 10
-15.999708215297041
 20
84.34999999999998
 30
0.0
 11
16.000291784702949
 21
84.34999999999998
 31
0.0
  0
LINE
  5
1A4
  8
DATA
  6
CONTINUOUS
 62
     7
 10
-15.999708215297041
 20
86.34999999999998
 30
0.0
 11
16.000291784702949
 21
86.34999999999998
 31
0.0
  0
LINE
  5
1A5
  8
DATA
  6
CONTINUOUS
 62
     7
 10
-15.999708215297041
 20
84.34999999999998
 30
0.0
 11
-15.999708215297041
 21
86.34999999999998
 31
0.0
  0
LINE
  5
1A6
  8
DATA
  6
CONTINUOUS
 62
     7
 10
-15.999708215297041
 20
86.34999999999998
 30
0.0
 11
-14.999708215297041
 21
87.0
 31
0.0
  0
LINE
  5
1A7
  8
DATA
  6
CONTINUOUS
 62
     7
 10
15.00029178470295
 20
87.0
 30
0.0
 11
16.000291784702949
 21
86.34999999999998
 31
0.0
  0
LINE
  5
1A8
  8
DATA
  6
CONTINUOUS
 62
     7
 10
16.000291784702949
 20
86.34999999999998
 30
0.0
 11
16.000291784702949
 21
84.34999999999998
 31
0.0
  0
LINE
  5
1A9
  8
DATA
  6
CONTINUOUS
 62
     7
 10
-10.999708215297041
 20
79.84999999999998
 30
0.0
 11
-10.999708215297041
 21
75.34999999999998
 31
0.0
  0
LINE
  5
1AA
  8
DATA
  6
CONTINUOUS
 62
     7
 10
11.00029178470295
 20
79.84999999999998
 30
0.0
 11
11.00029178470295
 21
75.34999999999998
 31
0.0
  0
LINE
  5
1AB
  8
DATA
  6
CONTINUOUS
 62
     7
 10
-10.99970821529681
 20
70.5
 30
0.0
 11
-9.9997082152968062
 21
69.614999999999995
 31
0.0
  0
LINE
  5
1AC
  8
DATA
  6
CONTINUOUS
 62
     7
 10
-10.99970821529681
 20
70.5
 30
0.0
 11
-9.9997082152968062
 21
71.384999999999977
 31
0.0
  0
LINE
  5
1AD
  8
DATA
  6
CONTINUOUS
 62
     7
 10
-10.99970821529681
 20
72.270000000000024
 30
0.0
 11
-9.9997082152968062
 21
71.385000000000019
 31
0.0
  0
LINE
  5
1AE
  8
DATA
  6
CONTINUOUS
 62
     7
 10
-10.99970821529681
 20
72.270000000000024
 30
0.0
 11
-9.9997082152968062
 21
73.155000000000001
 31
0.0
  0
LINE
  5
1AF
  8
DATA
  6
CONTINUOUS
 62
     7
 10
-10.99970821529681
 20
74.039999999999978
 30
0.0
 11
-9.9997082152968062
 21
73.155000000000001
 31
0.0
  0
LINE
  5
1B0
  8
DATA
  6
CONTINUOUS
 62
     7
 10
-10.99970821529681
 20
74.039999999999978
 30
0.0
 11
-9.9997082152968062
 21
74.924999999999983
 31
0.0
  0
LINE
  5
1B1
  8
DATA
  6
CONTINUOUS
 62
     7
 10
-10.47993420399736
 20
75.34999999999998
 30
0.0
 11
-9.9997082152968062
 21
74.925000000000026
 31
0.0
  0
LINE
  5
1B2
  8
DATA
  6
CONTINUOUS
 62
     7
 10
10.00029178470319
 20
68.287499999999994
 30
0.0
 11
11.00029178470319
 21
69.172499999999985
 31
0.0
  0
LINE
  5
1B3
  8
DATA
  6
CONTINUOUS
 62
     7
 10
11.00029178470319
 20
69.172499999999985
 30
0.0
 11
10.00029178470319
 21
70.057500000000005
 31
0.0
  0
LINE
  5
1B4
  8
DATA
  6
CONTINUOUS
 62
     7
 10
10.00029178470319
 20
70.057500000000005
 30
0.0
 11
11.00029178470319
 21
70.942499999999995
 31
0.0
  0
LINE
  5
1B5
  8
DATA
  6
CONTINUOUS
 62
     7
 10
11.00029178470319
 20
70.942499999999995
 30
0.0
 11
10.00029178470319
 21
71.827500000000015
 31
0.0
  0
LINE
  5
1B6
  8
DATA
  6
CONTINUOUS
 62
     7
 10
10.00029178470319
 20
71.827499999999986
 30
0.0
 11
11.00029178470319
 21
72.712499999999977
 31
0.0
  0
LINE
  5
1B7
  8
DATA
  6
CONTINUOUS
 62
     7
 10
11.00029178470319
 20
72.712499999999977
 30
0.0
 11
10.00029178470319
 21
73.597499999999982
 31
0.0
  0
LINE
  5
1B8
  8
DATA
  6
CONTINUOUS
 62
     7
 10
10.00029178470319
 20
73.597499999999982
 30
0.0
 11
11.00029178470319
 21
74.482499999999973
 31
0.0
  0
LINE
  5
1B9
  8
DATA
  6
CONTINUOUS
 62
     7
 10
11.00029178470319
 20
74.482499999999973
 30
0.0
 11
10.00029178470319
 21
75.367500000000007
 31
0.0
  0
LINE
  5
1BA
  8
DATA
  6
CONTINUOUS
 62
     7
 10
-9.9997082152968062
 20
69.614999999999995
 30
0.0
 11
10.00029178470319
 21
70.055000000000035
 31
0.0
  0
LINE
  5
1BB
  8
DATA
  6
CONTINUOUS
 62
     7
 10
-10.99970821529681
 20
68.72999999999999
 30
0.0
 11
11.00029178470319
 21
69.170000000000016
 31
0.0
  0
LINE
  5
1BC
  8
DATA
  6
CONTINUOUS
 62
     7
 10
-9.9997082152968062
 20
71.385000000000019
 30
0.0
 11
10.00029178470319
 21
71.825000000000045
 31
0.0
  0
LINE
  5
1BD
  8
DATA
  6
CONTINUOUS
 62
     7
 10
-10.99970821529681
 20
70.5
 30
0.0
 11
11.00029178470319
 21
70.940000000000026
 31
0.0
  0
LINE
  5
1BE
  8
DATA
  6
CONTINUOUS
 62
     7
 10
-9.9997082152968062
 20
73.155000000000001
 30
0.0
 11
10.00029178470319
 21
73.595000000000013
 31
0.0
  0
LINE
  5
1BF
  8
DATA
  6
CONTINUOUS
 62
     7
 10
-10.99970821529681
 20
72.269999999999982
 30
0.0
 11
11.00029178470319
 21
72.709999999999994
 31
0.0
  0
LINE
  5
1C0
  8
DATA
  6
CONTINUOUS
 62
     7
 10
-9.9997082152968062
 20
74.925000000000026
 30
0.0
 11
10.00029178470319
 21
75.365000000000023
 31
0.0
  0
LINE
  5
1C1
  8
DATA
  6
CONTINUOUS
 62
     7
 10
-10.99970821529681
 20
74.039999999999978
 30
0.0
 11
11.00029178470319
 21
74.480000000000032
 31
0.0
  0
LINE
  5
1C2
  8
DATA
  6
CONTINUOUS
 62
     7
 10
11.00029178470295
 20
75.34999999999998
 30
0.0
 11
-10.999708215297041
 21
75.34999999999998
 31
0.0
  0
LINE
  5
1C3
  8
DATA
  6
CONTINUOUS
 62
     7
 10
-9.7497082152970496
 20
87.5
 30
0.0
 11
9.7502917847029522
 21
87.5
 31
0.0
  0
LINE
  5
1C4
  8
DATA
  6
CONTINUOUS
 62
     7
 10
-7.749708215297046
 20
97.5
 30
0.0
 11
7.7502917847029522
 21
97.5
 31
0.0
  0
LINE
  5
1C5
  8
DATA
  6
CONTINUOUS
 62
     7
 10
-5.9997082152970469
 20
99.500000000000014
 30
0.0
 11
6.0002917847029522
 21
99.500000000000014
 31
0.0
  0
LINE
  5
1C6
  8
DATA
  6
CONTINUOUS
 62
     7
 10
-9.7497082152970496
 20
87.5
 30
0.0
 11
-7.749708215297046
 21
97.5
 31
0.0
  0
LINE
  5
1C7
  8
DATA
  6
CONTINUOUS
 62
     7
 10
9.7502917847029522
 20
87.5
 30
0.0
 11
7.7502917847029522
 21
97.5
 31
0.0
  0
LINE
  5
1C8
  8
DATA
  6
CONTINUOUS
 62
     7
 10
6.0002917847029522
 20
99.500000000000014
 30
0.0
 11
7.7502917847029522
 21
97.5
 31
0.0
  0
LINE
  5
1C9
  8
DATA
  6
CONTINUOUS
 62
     7
 10
-3.9997082152970469
 20
101.5
 30
0.0
 11
4.0002917847029522
 21
101.5
 31
0.0
  0
LINE
  5
1CA
  8
DATA
  6
CONTINUOUS
 62
     7
 10
-3.9997082152970469
 20
101.5
 30
0.0
 11
-5.4997082152970469
 21
99.500000000000014
 31
0.0
  0
LINE
  5
1CB
  8
DATA
  6
CONTINUOUS
 62
     7
 10
4.0002917847029522
 20
101.5
 30
0.0
 11
5.5002917847029522
 21
99.500000000000014
 31
0.0
  0
LINE
  5
1CC
  8
DATA
  6
CONTINUOUS
 62
     7
 10
-5.9997082152970469
 20
99.500000000000014
 30
0.0
 11
-7.749708215297046
 21
97.5
 31
0.0
  0
LINE
  5
1CD
  8
DATA
  6
CONTINUOUS
 62
     7
 10
-7.749708215297046
 20
87.0
 30
0.0
 11
-7.749708215297046
 21
87.5
 31
0.0
  0
LINE
  5
1CE
  8
DATA
  6
CONTINUOUS
 62
     7
 10
7.7502917847029522
 20
87.0
 30
0.0
 11
7.7502917847029522
 21
87.5
 31
0.0
  0
LINE
  5
1CF
  8
DATA
  6
CONTINUOUS
 62
     7
 10
5.0227011344772157
 20
108.8259465314417
 30
0.0
 11
18.772177326223868
 21
142.0201184290824
 31
0.0
  0
LINE
  5
1D0
  8
DATA
  6
CONTINUOUS
 62
     7
 10
-1.2160941906356439
 20
113.36260671783
 30
0.0
 11
11.843080832389219
 21
144.89024417182051
 31
0.0
  0
LINE
  5
1D1
  8
DATA
  6
CONTINUOUS
 62
     7
 10
18.772177326223868
 20
142.0201184290824
 30
0.0
 11
11.843080832389219
 21
144.89024417182051
 31
0.0
  0
LINE
  5
1D2
  8
DATA
  6
CONTINUOUS
 62
     7
 10
18.50157927615076
 20
142.67339991152059
 30
0.0
 11
18.884262708515859
 21
143.59727944403181
 31
0.0
  0
LINE
  5
1D3
  8
DATA
  6
CONTINUOUS
 62
     7
 10
13.07038746337504
 20
146.54666152066059
 30
0.0
 11
12.68770403100994
 21
145.62278198814931
 31
0.0
  0
LINE
  5
1D4
  8
DATA
  6
CONTINUOUS
 62
     7
 10
12.49636231482741
 20
145.16084222189369
 30
0.0
 11
12.305020598644861
 21
144.69890245563801
 31
0.0
  0
LINE
  5
1D5
  8
DATA
  6
CONTINUOUS
 62
     7
 10
18.310237559968218
 20
142.21146014526491
 30
0.0
 11
12.49636231482741
 21
145.16084222189369
 31
0.0
  0
LINE
  5
1D6
  8
DATA
  6
CONTINUOUS
 62
     7
 10
18.054358103447619
 20
142.9002754558766
 30
0.0
 11
17.863016387265091
 21
142.438335689621
 31
0.0
  0
LINE
  5
1D7
  8
DATA
  6
CONTINUOUS
 62
     7
 10
13.134925203713079
 20
145.39590644379319
 30
0.0
 11
12.943583487530541
 21
144.9339666775376
 31
0.0
  0
LINE
  5
1D8
  8
DATA
  6
CONTINUOUS
 62
     7
 10
18.50157927615076
 20
142.67339991152059
 30
0.0
 11
12.68770403100994
 21
145.62278198814931
 31
0.0
  0
LINE
  5
1D9
  8
DATA
  6
CONTINUOUS
 62
     7
 10
18.884262708515859
 20
143.59727944403181
 30
0.0
 11
13.07038746337504
 21
146.54666152066059
 31
0.0
  0
LINE
  5
1DA
  8
DATA
  6
CONTINUOUS
 62
     7
 10
19.075604424698401
 20
144.05921921028749
 30
0.0
 11
19.458287857063489
 21
144.9830987427988
 31
0.0
  0
LINE
  5
1DB
  8
DATA
  6
CONTINUOUS
 62
     7
 10
13.644412611922681
 20
147.9324808194275
 30
0.0
 11
13.26172917955757
 21
147.00860128691619
 31
0.0
  0
LINE
  5
1DC
  8
DATA
  6
CONTINUOUS
 62
     7
 10
19.075604424698401
 20
144.05921921028749
 30
0.0
 11
13.26172917955757
 21
147.00860128691619
 31
0.0
  0
LINE
  5
1DD
  8
DATA
  6
CONTINUOUS
 62
     7
 10
19.458287857063489
 20
144.9830987427988
 30
0.0
 11
13.644412611922681
 21
147.9324808194275
 31
0.0
  0
LINE
  5
1DE
  8
DATA
  6
CONTINUOUS
 62
     7
 10
19.649629573246031
 20
145.4450385090544
 30
0.0
 11
20.03231300561113
 21
146.36891804156571
 31
0.0
  0
LINE
  5
1DF
  8
DATA
  6
CONTINUOUS
 62
     7
 10
14.21843776047031
 20
149.3183001181944
 30
0.0
 11
13.83575432810521
 21
148.39442058568321
 31
0.0
  0
LINE
  5
1E0
  8
DATA
  6
CONTINUOUS
 62
     7
 10
19.649629573246031
 20
145.4450385090544
 30
0.0
 11
13.83575432810521
 21
148.39442058568321
 31
0.0
  0
LINE
  5
1E1
  8
DATA
  6
CONTINUOUS
 62
     7
 10
20.03231300561113
 20
146.36891804156571
 30
0.0
 11
14.21843776047031
 21
149.3183001181944
 31
0.0
  0
LINE
  5
1E2
  8
DATA
  6
CONTINUOUS
 62
     7
 10
20.223654721793661
 20
146.83085780782139
 30
0.0
 11
20.60633815415877
 21
147.75473734033261
 31
0.0
  0
LINE
  5
1E3
  8
DATA
  6
CONTINUOUS
 62
     7
 10
14.79246290901794
 20
150.70411941696139
 30
0.0
 11
14.40977947665284
 21
149.78023988445011
 31
0.0
  0
LINE
  5
1E4
  8
DATA
  6
CONTINUOUS
 62
     7
 10
20.223654721793661
 20
146.83085780782139
 30
0.0
 11
14.40977947665284
 21
149.78023988445011
 31
0.0
  0
LINE
  5
1E5
  8
DATA
  6
CONTINUOUS
 62
     7
 10
20.60633815415877
 20
147.75473734033261
 30
0.0
 11
14.79246290901794
 21
150.70411941696139
 31
0.0
  0
LINE
  5
1E6
  8
DATA
  6
CONTINUOUS
 62
     7
 10
20.797679870341309
 20
148.21667710658829
 30
0.0
 11
21.1803633027064
 21
149.1405566390996
 31
0.0
  0
LINE
  5
1E7
  8
DATA
  6
CONTINUOUS
 62
     7
 10
15.36648805756557
 20
152.08993871572841
 30
0.0
 11
14.98380462520047
 21
151.16605918321699
 31
0.0
  0
LINE
  5
1E8
  8
DATA
  6
CONTINUOUS
 62
     7
 10
20.797679870341309
 20
148.21667710658829
 30
0.0
 11
14.98380462520047
 21
151.16605918321699
 31
0.0
  0
LINE
  5
1E9
  8
DATA
  6
CONTINUOUS
 62
     7
 10
21.1803633027064
 20
149.1405566390996
 30
0.0
 11
15.36648805756557
 21
152.08993871572841
 31
0.0
  0
LINE
  5
1EA
  8
DATA
  6
CONTINUOUS
 62
     7
 10
21.371705018888949
 20
149.6024964053552
 30
0.0
 11
21.75438845125403
 21
150.5263759378665
 31
0.0
  0
LINE
  5
1EB
  8
DATA
  6
CONTINUOUS
 62
     7
 10
15.940513206113209
 20
153.4757580144952
 30
0.0
 11
15.557829773748111
 21
152.55187848198389
 31
0.0
  0
LINE
  5
1EC
  8
DATA
  6
CONTINUOUS
 62
     7
 10
21.371705018888949
 20
149.6024964053552
 30
0.0
 11
15.557829773748111
 21
152.55187848198389
 31
0.0
  0
LINE
  5
1ED
  8
DATA
  6
CONTINUOUS
 62
     7
 10
21.75438845125403
 20
150.5263759378665
 30
0.0
 11
15.940513206113209
 21
153.4757580144952
 31
0.0
  0
LINE
  5
1EE
  8
DATA
  6
CONTINUOUS
 62
     7
 10
21.945730167436579
 20
150.9883157041221
 30
0.0
 11
22.328413599801671
 21
151.91219523663341
 31
0.0
  0
LINE
  5
1EF
  8
DATA
  6
CONTINUOUS
 62
     7
 10
16.514538354660839
 20
154.86157731326219
 30
0.0
 11
16.131854922295741
 21
153.93769778075091
 31
0.0
  0
LINE
  5
1F0
  8
DATA
  6
CONTINUOUS
 62
     7
 10
21.945730167436579
 20
150.9883157041221
 30
0.0
 11
16.131854922295741
 21
153.93769778075091
 31
0.0
  0
LINE
  5
1F1
  8
DATA
  6
CONTINUOUS
 62
     7
 10
22.328413599801671
 20
151.91219523663341
 30
0.0
 11
16.514538354660839
 21
154.86157731326219
 31
0.0
  0
LINE
  5
1F2
  8
DATA
  6
CONTINUOUS
 62
     7
 10
22.519755315984209
 20
152.37413500288909
 30
0.0
 11
22.902438748349301
 21
153.2980145354004
 31
0.0
  0
LINE
  5
1F3
  8
DATA
  6
CONTINUOUS
 62
     7
 10
17.088563503208469
 20
156.24739661202909
 30
0.0
 11
16.705880070843381
 21
155.32351707951781
 31
0.0
  0
LINE
  5
1F4
  8
DATA
  6
CONTINUOUS
 62
     7
 10
22.519755315984209
 20
152.37413500288909
 30
0.0
 11
16.705880070843381
 21
155.32351707951781
 31
0.0
  0
LINE
  5
1F5
  8
DATA
  6
CONTINUOUS
 62
     7
 10
22.902438748349301
 20
153.2980145354004
 30
0.0
 11
17.088563503208469
 21
156.24739661202909
 31
0.0
  0
LINE
  5
1F6
  8
DATA
  6
CONTINUOUS
 62
     7
 10
23.09378046453185
 20
153.75995430165599
 30
0.0
 11
23.476463896896931
 21
154.6838338341673
 31
0.0
  0
LINE
  5
1F7
  8
DATA
  6
CONTINUOUS
 62
     7
 10
17.66258865175611
 20
157.633215910796
 30
0.0
 11
17.279905219391019
 21
156.70933637828469
 31
0.0
  0
LINE
  5
1F8
  8
DATA
  6
CONTINUOUS
 62
     7
 10
23.09378046453185
 20
153.75995430165599
 30
0.0
 11
17.279905219391019
 21
156.70933637828469
 31
0.0
  0
LINE
  5
1F9
  8
DATA
  6
CONTINUOUS
 62
     7
 10
23.476463896896931
 20
154.6838338341673
 30
0.0
 11
17.66258865175611
 21
157.633215910796
 31
0.0
  0
LINE
  5
1FA
  8
DATA
  6
CONTINUOUS
 62
     7
 10
23.66780561307948
 20
155.14577360042301
 30
0.0
 11
24.050489045444561
 21
156.06965313293421
 31
0.0
  0
LINE
  5
1FB
  8
DATA
  6
CONTINUOUS
 62
     7
 10
18.23661380030374
 20
159.01903520956299
 30
0.0
 11
17.853930367938659
 21
158.09515567705171
 31
0.0
  0
LINE
  5
1FC
  8
DATA
  6
CONTINUOUS
 62
     7
 10
23.66780561307948
 20
155.14577360042301
 30
0.0
 11
17.853930367938659
 21
158.09515567705171
 31
0.0
  0
LINE
  5
1FD
  8
DATA
  6
CONTINUOUS
 62
     7
 10
24.050489045444561
 20
156.06965313293421
 30
0.0
 11
18.23661380030374
 21
159.01903520956299
 31
0.0
  0
LINE
  5
1FE
  8
DATA
  6
CONTINUOUS
 62
     7
 10
24.24183076162711
 20
156.5315928991898
 30
0.0
 11
24.624514193992201
 21
157.4554724317012
 31
0.0
  0
LINE
  5
1FF
  8
DATA
  6
CONTINUOUS
 62
     7
 10
18.81063894885137
 20
160.40485450832981
 30
0.0
 11
18.427955516486289
 21
159.48097497581861
 31
0.0
  0
LINE
  5
200
  8
DATA
  6
CONTINUOUS
 62
     7
 10
24.24183076162711
 20
156.5315928991898
 30
0.0
 11
18.427955516486289
 21
159.48097497581861
 31
0.0
  0
LINE
  5
201
  8
DATA
  6
CONTINUOUS
 62
     7
 10
24.624514193992201
 20
157.4554724317012
 30
0.0
 11
18.81063894885137
 21
160.40485450832981
 31
0.0
  0
LINE
  5
202
  8
DATA
  6
CONTINUOUS
 62
     7
 10
24.815855910174751
 20
157.91741219795679
 30
0.0
 11
25.198539342539831
 21
158.8412917304681
 31
0.0
  0
LINE
  5
203
  8
DATA
  6
CONTINUOUS
 62
     7
 10
19.384664097399
 20
161.79067380709679
 30
0.0
 11
19.001980665033919
 21
160.86679427458549
 31
0.0
  0
LINE
  5
204
  8
DATA
  6
CONTINUOUS
 62
     7
 10
24.815855910174751
 20
157.91741219795679
 30
0.0
 11
19.001980665033919
 21
160.86679427458549
 31
0.0
  0
LINE
  5
205
  8
DATA
  6
CONTINUOUS
 62
     7
 10
25.198539342539831
 20
158.8412917304681
 30
0.0
 11
19.384664097399
 21
161.79067380709679
 31
0.0
  0
LINE
  5
206
  8
DATA
  6
CONTINUOUS
 62
     7
 10
25.389881058722381
 20
159.3032314967237
 30
0.0
 11
25.772564491087479
 21
160.227111029235
 31
0.0
  0
LINE
  5
207
  8
DATA
  6
CONTINUOUS
 62
     7
 10
19.958689245946651
 20
163.1764931058637
 30
0.0
 11
19.57600581358156
 21
162.25261357335251
 31
0.0
  0
LINE
  5
208
  8
DATA
  6
CONTINUOUS
 62
     7
 10
25.389881058722381
 20
159.3032314967237
 30
0.0
 11
19.57600581358156
 21
162.25261357335251
 31
0.0
  0
LINE
  5
209
  8
DATA
  6
CONTINUOUS
 62
     7
 10
25.772564491087479
 20
160.227111029235
 30
0.0
 11
19.958689245946651
 21
163.1764931058637
 31
0.0
  0
LINE
  5
20A
  8
DATA
  6
CONTINUOUS
 62
     7
 10
25.963906207270011
 20
160.68905079549069
 30
0.0
 11
26.34658963963512
 21
161.61293032800199
 31
0.0
  0
LINE
  5
20B
  8
DATA
  6
CONTINUOUS
 62
     7
 10
20.532714394494288
 20
164.56231240463069
 30
0.0
 11
20.150030962129211
 21
163.63843287211941
 31
0.0
  0
LINE
  5
20C
  8
DATA
  6
CONTINUOUS
 62
     7
 10
25.963906207270011
 20
160.68905079549069
 30
0.0
 11
20.150030962129211
 21
163.63843287211941
 31
0.0
  0
LINE
  5
20D
  8
DATA
  6
CONTINUOUS
 62
     7
 10
26.34658963963512
 20
161.61293032800199
 30
0.0
 11
20.532714394494288
 21
164.56231240463069
 31
0.0
  0
LINE
  5
20E
  8
DATA
  6
CONTINUOUS
 62
     7
 10
26.537931355817651
 20
162.07487009425759
 30
0.0
 11
26.92061478818275
 21
162.9987496267689
 31
0.0
  0
LINE
  5
20F
  8
DATA
  6
CONTINUOUS
 62
     7
 10
21.106739543041929
 20
165.94813170339759
 30
0.0
 11
20.724056110676841
 21
165.02425217088631
 31
0.0
  0
LINE
  5
210
  8
DATA
  6
CONTINUOUS
 62
     7
 10
26.537931355817651
 20
162.07487009425759
 30
0.0
 11
20.724056110676841
 21
165.02425217088631
 31
0.0
  0
LINE
  5
211
  8
DATA
  6
CONTINUOUS
 62
     7
 10
26.92061478818275
 20
162.9987496267689
 30
0.0
 11
21.106739543041929
 21
165.94813170339759
 31
0.0
  0
LINE
  5
212
  8
DATA
  6
CONTINUOUS
 62
     7
 10
27.111956504365288
 20
163.4606893930245
 30
0.0
 11
27.49463993673038
 21
164.3845689255358
 31
0.0
  0
LINE
  5
213
  8
DATA
  6
CONTINUOUS
 62
     7
 10
21.680764691589559
 20
167.3339510021645
 30
0.0
 11
21.298081259224482
 21
166.41007146965319
 31
0.0
  0
LINE
  5
214
  8
DATA
  6
CONTINUOUS
 62
     7
 10
27.111956504365288
 20
163.4606893930245
 30
0.0
 11
21.298081259224482
 21
166.41007146965319
 31
0.0
  0
LINE
  5
215
  8
DATA
  6
CONTINUOUS
 62
     7
 10
27.49463993673038
 20
164.3845689255358
 30
0.0
 11
21.680764691589559
 21
167.3339510021645
 31
0.0
  0
LINE
  5
216
  8
DATA
  6
CONTINUOUS
 62
     7
 10
27.685981652912929
 20
164.84650869179151
 30
0.0
 11
28.06866508527801
 21
165.77038822430271
 31
0.0
  0
LINE
  5
217
  8
DATA
  6
CONTINUOUS
 62
     7
 10
22.254789840137189
 20
168.71977030093149
 30
0.0
 11
21.872106407772112
 21
167.79589076842021
 31
0.0
  0
LINE
  5
218
  8
DATA
  6
CONTINUOUS
 62
     7
 10
27.685981652912929
 20
164.84650869179151
 30
0.0
 11
21.872106407772112
 21
167.79589076842021
 31
0.0
  0
LINE
  5
219
  8
DATA
  6
CONTINUOUS
 62
     7
 10
28.06866508527801
 20
165.77038822430271
 30
0.0
 11
22.254789840137189
 21
168.71977030093149
 31
0.0
  0
LINE
  5
21A
  8
DATA
  6
CONTINUOUS
 62
     7
 10
28.26000680146057
 20
166.23232799055839
 30
0.0
 11
28.64269023382565
 21
167.1562075230697
 31
0.0
  0
LINE
  5
21B
  8
DATA
  6
CONTINUOUS
 62
     7
 10
22.82881498868483
 20
170.10558959969839
 30
0.0
 11
22.446131556319749
 21
169.18171006718711
 31
0.0
  0
LINE
  5
21C
  8
DATA
  6
CONTINUOUS
 62
     7
 10
28.26000680146057
 20
166.23232799055839
 30
0.0
 11
22.446131556319749
 21
169.18171006718711
 31
0.0
  0
LINE
  5
21D
  8
DATA
  6
CONTINUOUS
 62
     7
 10
28.64269023382565
 20
167.1562075230697
 30
0.0
 11
22.82881498868483
 21
170.10558959969839
 31
0.0
  0
LINE
  5
21E
  8
DATA
  6
CONTINUOUS
 62
     7
 10
28.8340319500082
 20
167.61814728932541
 30
0.0
 11
29.21671538237328
 21
168.5420268218366
 31
0.0
  0
LINE
  5
21F
  8
DATA
  6
CONTINUOUS
 62
     7
 10
23.402840137232449
 20
171.49140889846541
 30
0.0
 11
23.020156704867372
 21
170.56752936595399
 31
0.0
  0
LINE
  5
220
  8
DATA
  6
CONTINUOUS
 62
     7
 10
28.8340319500082
 20
167.61814728932541
 30
0.0
 11
23.020156704867372
 21
170.56752936595399
 31
0.0
  0
LINE
  5
221
  8
DATA
  6
CONTINUOUS
 62
     7
 10
29.21671538237328
 20
168.5420268218366
 30
0.0
 11
23.402840137232449
 21
171.49140889846541
 31
0.0
  0
LINE
  5
222
  8
DATA
  6
CONTINUOUS
 62
     7
 10
29.40805709855583
 20
169.00396658809231
 30
0.0
 11
29.79074053092091
 21
169.9278461206035
 31
0.0
  0
LINE
  5
223
  8
DATA
  6
CONTINUOUS
 62
     7
 10
23.9768652857801
 20
172.87722819723231
 30
0.0
 11
23.594181853415009
 21
171.95334866472089
 31
0.0
  0
LINE
  5
224
  8
DATA
  6
CONTINUOUS
 62
     7
 10
29.40805709855583
 20
169.00396658809231
 30
0.0
 11
23.594181853415009
 21
171.95334866472089
 31
0.0
  0
LINE
  5
225
  8
DATA
  6
CONTINUOUS
 62
     7
 10
29.79074053092091
 20
169.9278461206035
 30
0.0
 11
23.9768652857801
 21
172.87722819723231
 31
0.0
  0
LINE
  5
226
  8
DATA
  6
CONTINUOUS
 62
     7
 10
29.98208224710347
 20
170.38978588685919
 30
0.0
 11
30.364765679468551
 21
171.31366541937041
 31
0.0
  0
LINE
  5
227
  8
DATA
  6
CONTINUOUS
 62
     7
 10
24.550890434327741
 20
174.26304749599919
 30
0.0
 11
24.168207001962639
 21
173.33916796348791
 31
0.0
  0
LINE
  5
228
  8
DATA
  6
CONTINUOUS
 62
     7
 10
29.98208224710347
 20
170.38978588685919
 30
0.0
 11
24.168207001962639
 21
173.33916796348791
 31
0.0
  0
LINE
  5
229
  8
DATA
  6
CONTINUOUS
 62
     7
 10
30.364765679468551
 20
171.31366541937041
 30
0.0
 11
24.550890434327741
 21
174.26304749599919
 31
0.0
  0
LINE
  5
22A
  8
DATA
  6
CONTINUOUS
 62
     7
 10
30.55610739565109
 20
171.7756051856262
 30
0.0
 11
30.938790828016199
 21
172.6994847181374
 31
0.0
  0
LINE
  5
22B
  8
DATA
  6
CONTINUOUS
 62
     7
 10
25.124915582875371
 20
175.64886679476609
 30
0.0
 11
24.742232150510279
 21
174.72498726225481
 31
0.0
  0
LINE
  5
22C
  8
DATA
  6
CONTINUOUS
 62
     7
 10
30.55610739565109
 20
171.7756051856262
 30
0.0
 11
24.742232150510279
 21
174.72498726225481
 31
0.0
  0
LINE
  5
22D
  8
DATA
  6
CONTINUOUS
 62
     7
 10
30.938790828016199
 20
172.6994847181374
 30
0.0
 11
25.124915582875371
 21
175.64886679476609
 31
0.0
  0
LINE
  5
22E
  8
DATA
  6
CONTINUOUS
 62
     7
 10
31.130132544198741
 20
173.161424484393
 30
0.0
 11
31.5128159765638
 21
174.0853040169043
 31
0.0
  0
LINE
  5
22F
  8
DATA
  6
CONTINUOUS
 62
     7
 10
25.698940731423011
 20
177.03468609353311
 30
0.0
 11
25.316257299057909
 21
176.11080656102169
 31
0.0
  0
LINE
  5
230
  8
DATA
  6
CONTINUOUS
 62
     7
 10
31.130132544198741
 20
173.161424484393
 30
0.0
 11
25.316257299057909
 21
176.11080656102169
 31
0.0
  0
LINE
  5
231
  8
DATA
  6
CONTINUOUS
 62
     7
 10
31.5128159765638
 20
174.0853040169043
 30
0.0
 11
25.698940731423011
 21
177.03468609353311
 31
0.0
  0
LINE
  5
232
  8
DATA
  6
CONTINUOUS
 62
     7
 10
31.704157692746371
 20
174.5472437831599
 30
0.0
 11
32.086841125111462
 21
175.47112331567121
 31
0.0
  0
LINE
  5
233
  8
DATA
  6
CONTINUOUS
 62
     7
 10
26.272965879970641
 20
178.42050539229999
 30
0.0
 11
25.89028244760555
 21
177.49662585978871
 31
0.0
  0
LINE
  5
234
  8
DATA
  6
CONTINUOUS
 62
     7
 10
31.704157692746371
 20
174.5472437831599
 30
0.0
 11
25.89028244760555
 21
177.49662585978871
 31
0.0
  0
LINE
  5
235
  8
DATA
  6
CONTINUOUS
 62
     7
 10
32.086841125111462
 20
175.47112331567121
 30
0.0
 11
26.272965879970641
 21
178.42050539229999
 31
0.0
  0
LINE
  5
236
  8
DATA
  6
CONTINUOUS
 62
     7
 10
32.278182841293997
 20
175.93306308192689
 30
0.0
 11
32.660866273659103
 21
176.85694261443811
 31
0.0
  0
LINE
  5
237
  8
DATA
  6
CONTINUOUS
 62
     7
 10
26.846991028518271
 20
179.806324691067
 30
0.0
 11
26.464307596153169
 21
178.88244515855561
 31
0.0
  0
LINE
  5
238
  8
DATA
  6
CONTINUOUS
 62
     7
 10
32.278182841293997
 20
175.93306308192689
 30
0.0
 11
26.464307596153169
 21
178.88244515855561
 31
0.0
  0
LINE
  5
239
  8
DATA
  6
CONTINUOUS
 62
     7
 10
32.660866273659103
 20
176.85694261443811
 30
0.0
 11
26.846991028518271
 21
179.806324691067
 31
0.0
  0
LINE
  5
23A
  8
DATA
  6
CONTINUOUS
 62
     7
 10
18.62838325199526
 20
144.2860947546435
 30
0.0
 11
18.437041535812721
 21
143.8241549883879
 31
0.0
  0
LINE
  5
23B
  8
DATA
  6
CONTINUOUS
 62
     7
 10
13.70895035226072
 20
146.78172574256021
 30
0.0
 11
13.51760863607818
 21
146.3197859763045
 31
0.0
  0
LINE
  5
23C
  8
DATA
  6
CONTINUOUS
 62
     7
 10
14.282975500808361
 20
148.16754504132709
 30
0.0
 11
14.09163378462581
 21
147.70560527507141
 31
0.0
  0
LINE
  5
23D
  8
DATA
  6
CONTINUOUS
 62
     7
 10
14.857000649355991
 20
149.55336434009399
 30
0.0
 11
14.665658933173439
 21
149.0914245738384
 31
0.0
  0
LINE
  5
23E
  8
DATA
  6
CONTINUOUS
 62
     7
 10
15.431025797903621
 20
150.93918363886101
 30
0.0
 11
15.23968408172108
 21
150.47724387260541
 31
0.0
  0
LINE
  5
23F
  8
DATA
  6
CONTINUOUS
 62
     7
 10
16.005050946451259
 20
152.32500293762789
 30
0.0
 11
15.81370923026871
 21
151.86306317137229
 31
0.0
  0
LINE
  5
240
  8
DATA
  6
CONTINUOUS
 62
     7
 10
16.579076094998889
 20
153.71082223639479
 30
0.0
 11
16.38773437881634
 21
153.24888247013919
 31
0.0
  0
LINE
  5
241
  8
DATA
  6
CONTINUOUS
 62
     7
 10
17.15310124354653
 20
155.09664153516181
 30
0.0
 11
16.961759527363981
 21
154.6347017689061
 31
0.0
  0
LINE
  5
242
  8
DATA
  6
CONTINUOUS
 62
     7
 10
17.727126392094171
 20
156.48246083392871
 30
0.0
 11
17.535784675911611
 21
156.020521067673
 31
0.0
  0
LINE
  5
243
  8
DATA
  6
CONTINUOUS
 62
     7
 10
18.301151540641811
 20
157.86828013269559
 30
0.0
 11
18.109809824459241
 21
157.40634036643999
 31
0.0
  0
LINE
  5
244
  8
DATA
  6
CONTINUOUS
 62
     7
 10
18.875176689189441
 20
159.25409943146261
 30
0.0
 11
18.683834973006888
 21
158.7921596652069
 31
0.0
  0
LINE
  5
245
  8
DATA
  6
CONTINUOUS
 62
     7
 10
19.449201837737078
 20
160.63991873022951
 30
0.0
 11
19.257860121554518
 21
160.1779789639738
 31
0.0
  0
LINE
  5
246
  8
DATA
  6
CONTINUOUS
 62
     7
 10
20.023226986284708
 20
162.02573802899639
 30
0.0
 11
19.831885270102159
 21
161.56379826274079
 31
0.0
  0
LINE
  5
247
  8
DATA
  6
CONTINUOUS
 62
     7
 10
20.597252134832338
 20
163.41155732776329
 30
0.0
 11
20.4059104186498
 21
162.94961756150769
 31
0.0
  0
LINE
  5
248
  8
DATA
  6
CONTINUOUS
 62
     7
 10
21.171277283379968
 20
164.79737662653031
 30
0.0
 11
20.97993556719743
 21
164.3354368602746
 31
0.0
  0
LINE
  5
249
  8
DATA
  6
CONTINUOUS
 62
     7
 10
21.745302431927609
 20
166.18319592529721
 30
0.0
 11
21.55396071574507
 21
165.7212561590415
 31
0.0
  0
LINE
  5
24A
  8
DATA
  6
CONTINUOUS
 62
     7
 10
22.31932758047525
 20
167.56901522406409
 30
0.0
 11
22.12798586429269
 21
167.10707545780841
 31
0.0
  0
LINE
  5
24B
  8
DATA
  6
CONTINUOUS
 62
     7
 10
22.89335272902288
 20
168.95483452283111
 30
0.0
 11
22.70201101284033
 21
168.4928947565754
 31
0.0
  0
LINE
  5
24C
  8
DATA
  6
CONTINUOUS
 62
     7
 10
23.46737787757051
 20
170.3406538215979
 30
0.0
 11
23.276036161387982
 21
169.8787140553423
 31
0.0
  0
LINE
  5
24D
  8
DATA
  6
CONTINUOUS
 62
     7
 10
24.04140302611815
 20
171.72647312036489
 30
0.0
 11
23.850061309935612
 21
171.26453335410929
 31
0.0
  0
LINE
  5
24E
  8
DATA
  6
CONTINUOUS
 62
     7
 10
24.61542817466578
 20
173.1122924191319
 30
0.0
 11
24.424086458483249
 21
172.65035265287619
 31
0.0
  0
LINE
  5
24F
  8
DATA
  6
CONTINUOUS
 62
     7
 10
25.18945332321341
 20
174.49811171789869
 30
0.0
 11
24.998111607030879
 21
174.0361719516431
 31
0.0
  0
LINE
  5
250
  8
DATA
  6
CONTINUOUS
 62
     7
 10
25.763478471761051
 20
175.88393101666571
 30
0.0
 11
25.572136755578509
 21
175.42199125041009
 31
0.0
  0
LINE
  5
251
  8
DATA
  6
CONTINUOUS
 62
     7
 10
26.337503620308681
 20
177.26975031543259
 30
0.0
 11
26.146161904126139
 21
176.80781054917699
 31
0.0
  0
LINE
  5
252
  8
DATA
  6
CONTINUOUS
 62
     7
 10
26.911528768856311
 20
178.65556961419961
 30
0.0
 11
26.720187052673769
 21
178.1936298479439
 31
0.0
  0
LINE
  5
253
  8
DATA
  6
CONTINUOUS
 62
     7
 10
27.308930794773911
 20
179.61498297488441
 30
0.0
 11
27.294212201221409
 21
179.57944914671091
 31
0.0
  0
LINE
  5
254
  8
DATA
  6
CONTINUOUS
 62
     7
 10
33.314147756097277
 20
177.12754066451129
 30
0.0
 11
26.385051262262621
 21
179.9976664072494
 31
0.0
  0
LINE
  5
255
  8
DATA
  6
CONTINUOUS
 62
     7
 10
37.952776229967483
 20
184.4064915423096
 30
0.0
 11
28.252041138598951
 21
188.424667582143
 31
0.0
  0
LINE
  5
256
  8
DATA
  6
CONTINUOUS
 62
     7
 10
37.952776229967483
 20
184.4064915423096
 30
0.0
 11
33.314147756097277
 21
177.12754066451129
 31
0.0
  0
LINE
  5
257
  8
DATA
  6
CONTINUOUS
 62
     7
 10
28.252041138598951
 20
188.424667582143
 30
0.0
 11
26.385051262262621
 21
179.9976664072494
 31
0.0
  0
LINE
  5
258
  8
DATA
  6
CONTINUOUS
 62
     7
 10
38.2397888042413
 20
185.099401191693
 30
0.0
 11
28.539053712872771
 21
189.11757723152641
 31
0.0
  0
LINE
  5
259
  8
DATA
  6
CONTINUOUS
 62
     7
 10
38.2397888042413
 20
185.099401191693
 30
0.0
 11
40.153205966066722
 21
189.7187988542494
 31
0.0
  0
LINE
  5
25A
  8
DATA
  6
CONTINUOUS
 62
     7
 10
40.153205966066722
 20
189.7187988542494
 30
0.0
 11
30.452470874698221
 21
193.73697489408289
 31
0.0
  0
LINE
  5
25B
  8
DATA
  6
CONTINUOUS
 62
     7
 10
30.452470874698221
 20
193.73697489408289
 30
0.0
 11
28.539053712872771
 21
189.11757723152641
 31
0.0
  0
LINE
  5
25C
  8
DATA
  6
CONTINUOUS
 62
     7
 10
42.257964844074714
 20
194.80013628306159
 30
0.0
 11
32.55722975270622
 21
198.818312322895
 31
0.0
  0
LINE
  5
25D
  8
DATA
  6
CONTINUOUS
 62
     7
 10
42.257964844074714
 20
194.80013628306159
 30
0.0
 11
44.171382005900192
 21
199.41953394561801
 31
0.0
  0
LINE
  5
25E
  8
DATA
  6
CONTINUOUS
 62
     7
 10
44.171382005900192
 20
199.41953394561801
 30
0.0
 11
34.470646914531663
 21
203.43770998545139
 31
0.0
  0
LINE
  5
25F
  8
DATA
  6
CONTINUOUS
 62
     7
 10
34.470646914531663
 20
203.43770998545139
 30
0.0
 11
32.55722975270622
 21
198.818312322895
 31
0.0
  0
LINE
  5
260
  8
DATA
  6
CONTINUOUS
 62
     7
 10
39.229326433555443
 20
190.10148228661461
 30
0.0
 11
39.803351582103083
 21
191.48730158538149
 31
0.0
  0
LINE
  5
261
  8
DATA
  6
CONTINUOUS
 62
     7
 10
39.994693298285611
 20
191.9492413516372
 30
0.0
 11
40.568718446833273
 21
193.3350606504041
 31
0.0
  0
LINE
  5
262
  8
DATA
  6
CONTINUOUS
 62
     7
 10
40.760060163015808
 20
193.7970004166597
 30
0.0
 11
41.334085311563427
 21
195.1828197154266
 31
0.0
  0
LINE
  5
263
  8
DATA
  6
CONTINUOUS
 62
     7
 10
31.3763504072095
 20
193.35429146171779
 30
0.0
 11
31.950375555757159
 21
194.74011076048481
 31
0.0
  0
LINE
  5
264
  8
DATA
  6
CONTINUOUS
 62
     7
 10
32.141717271939697
 20
195.20205052674041
 30
0.0
 11
32.715742420487331
 21
196.5878698255074
 31
0.0
  0
LINE
  5
265
  8
DATA
  6
CONTINUOUS
 62
     7
 10
32.907084136669873
 20
197.04980959176299
 30
0.0
 11
33.481109285217492
 21
198.43562889053001
 31
0.0
  0
LINE
  5
266
  8
DATA
  6
CONTINUOUS
 62
     7
 10
40.727231114614384
 20
191.10461815301639
 30
0.0
 11
31.026496023245851
 21
195.12279419284991
 31
0.0
  0
LINE
  5
267
  8
DATA
  6
CONTINUOUS
 62
     7
 10
40.918572830796933
 20
191.5665579192721
 30
0.0
 11
31.21783773942839
 21
195.58473395910551
 31
0.0
  0
LINE
  5
268
  8
DATA
  6
CONTINUOUS
 62
     7
 10
41.492597979344552
 20
192.952377218039
 30
0.0
 11
31.791862887976048
 21
196.97055325787241
 31
0.0
  0
LINE
  5
269
  8
DATA
  6
CONTINUOUS
 62
     7
 10
41.683939695527087
 20
193.4143169842946
 30
0.0
 11
31.98320460415859
 21
197.43249302412809
 31
0.0
  0
LINE
  5
26A
  8
DATA
  6
CONTINUOUS
 62
     7
 10
41.683939695527087
 20
193.4143169842946
 30
0.0
 11
41.492597979344552
 21
192.952377218039
 31
0.0
  0
LINE
  5
26B
  8
DATA
  6
CONTINUOUS
 62
     7
 10
40.918572830796933
 20
191.5665579192721
 30
0.0
 11
40.727231114614384
 21
191.10461815301639
 31
0.0
  0
LINE
  5
26C
  8
DATA
  6
CONTINUOUS
 62
     7
 10
31.98320460415859
 20
197.43249302412809
 30
0.0
 11
31.791862887976048
 21
196.97055325787241
 31
0.0
  0
LINE
  5
26D
  8
DATA
  6
CONTINUOUS
 62
     7
 10
31.21783773942839
 20
195.58473395910551
 30
0.0
 11
31.026496023245851
 21
195.12279419284991
 31
0.0
  0
LINE
  5
26E
  8
DATA
  6
CONTINUOUS
 62
     7
 10
37.777849037985639
 20
185.2907429078756
 30
0.0
 11
37.49083646371183
 21
184.5978332584921
 31
0.0
  0
LINE
  5
26F
  8
DATA
  6
CONTINUOUS
 62
     7
 10
29.000993479128411
 20
188.92623551534399
 30
0.0
 11
28.713980904854608
 21
188.2333258659605
 31
0.0
  0
LINE
  5
270
  8
DATA
  6
CONTINUOUS
 62
     7
 10
44.689364463301793
 20
200.01677273691021
 30
0.0
 11
34.526689605677653
 21
204.22629049292621
 31
0.0
  0
LINE
  5
271
  8
DATA
  6
CONTINUOUS
 62
     7
 10
47.064721391382918
 20
204.4448286832841
 30
0.0
 11
35.978167001247492
 21
209.0370298716652
 31
0.0
  0
LINE
  5
272
  8
DATA
  6
CONTINUOUS
 62
     7
 10
47.064721391382918
 20
204.4448286832841
 30
0.0
 11
44.689364463301793
 21
200.01677273691021
 31
0.0
  0
LINE
  5
273
  8
DATA
  6
CONTINUOUS
 62
     7
 10
35.978167001247492
 20
209.0370298716652
 30
0.0
 11
34.526689605677653
 21
204.22629049292621
 31
0.0
  0
LINE
  5
274
  8
DATA
  6
CONTINUOUS
 62
     7
 10
47.638746539930537
 20
205.83064798205109
 30
0.0
 11
36.552192149795097
 21
210.4228491704321
 31
0.0
  0
LINE
  5
275
  8
DATA
  6
CONTINUOUS
 62
     7
 10
53.378998025406901
 20
219.68884096972039
 30
0.0
 11
47.064721391382918
 21
204.4448286832841
 31
0.0
  0
LINE
  5
276
  8
DATA
  6
CONTINUOUS
 62
     7
 10
42.292443635271447
 20
224.2810421581014
 30
0.0
 11
35.978167001247492
 21
209.0370298716652
 31
0.0
  0
LINE
  5
277
  8
DATA
  6
CONTINUOUS
 62
     7
 10
52.230947728311612
 20
216.91720237218649
 30
0.0
 11
41.144393338176179
 21
221.50940356056759
 31
0.0
  0
LINE
  5
278
  8
DATA
  6
CONTINUOUS
 62
     7
 10
52.996314593041816
 20
218.764961437209
 30
0.0
 11
41.909760202906362
 21
223.35716262559009
 31
0.0
  0
LINE
  5
279
  8
DATA
  6
CONTINUOUS
 62
     7
 10
53.378998025406901
 20
219.68884096972039
 30
0.0
 11
42.292443635271447
 21
224.2810421581014
 31
0.0
  0
LINE
  5
27A
  8
DATA
  6
CONTINUOUS
 62
     7
 10
53.299741691516331
 20
220.80406221841409
 30
0.0
 11
43.13706683389217
 21
225.01357997443009
 31
0.0
  0
LINE
  5
27B
  8
DATA
  6
CONTINUOUS
 62
     7
 10
53.378998025406901
 20
219.68884096972039
 30
0.0
 11
53.299741691516331
 21
220.80406221841409
 31
0.0
  0
LINE
  5
27C
  8
DATA
  6
CONTINUOUS
 62
     7
 10
43.13706683389217
 20
225.01357997443009
 30
0.0
 11
42.292443635271447
 21
224.2810421581014
 31
0.0
  0
LINE
  5
27D
  8
DATA
  6
CONTINUOUS
 62
     7
 10
54.18514417345861
 20
221.483455438032
 30
0.0
 11
53.299741691516331
 21
220.80406221841409
 31
0.0
  0
LINE
  5
27E
  8
DATA
  6
CONTINUOUS
 62
     7
 10
55.707927667998888
 20
227.92450042843129
 30
0.0
 11
46.469132342885992
 21
231.75133475208219
 31
0.0
  0
LINE
  5
27F
  8
DATA
  6
CONTINUOUS
 62
     7
 10
55.707927667998888
 20
227.92450042843129
 30
0.0
 11
54.144364890137091
 21
221.53660003474289
 31
0.0
  0
LINE
  5
280
  8
DATA
  6
CONTINUOUS
 62
     7
 10
54.144364890137091
 20
221.53660003474289
 30
0.0
 11
43.057810500001622
 21
226.12880122312399
 31
0.0
  0
LINE
  5
281
  8
DATA
  6
CONTINUOUS
 62
     7
 10
46.469132342885992
 20
231.75133475208219
 30
0.0
 11
43.057810500001622
 21
226.12880122312399
 31
0.0
  0
LINE
  5
282
  8
DATA
  6
CONTINUOUS
 62
     7
 10
43.057810500001622
 20
226.12880122312399
 30
0.0
 11
43.13706683389217
 21
225.01357997443009
 31
0.0
  0
LINE
  5
283
  8
DATA
  6
CONTINUOUS
 62
     7
 10
43.709442239644517
 20
199.61087566180049
 30
0.0
 11
43.996454813918362
 21
200.30378531118399
 31
0.0
  0
LINE
  5
284
  8
DATA
  6
CONTINUOUS
 62
     7
 10
34.93258668078731
 20
203.24636826926891
 30
0.0
 11
35.219599255061119
 21
203.93927791865241
 31
0.0
  0
LINE
  5
285
  8
DATA
  6
CONTINUOUS
 62
     7
 10
54.177193938538501
 20
224.2289822983862
 30
0.0
 11
50.481675808493357
 21
225.75971602784659
 31
0.0
  0
LINE
  5
286
  8
DATA
  6
CONTINUOUS
 62
     7
 10
48.633916743470778
 20
226.52508289257679
 30
0.0
 11
44.938398613425633
 21
228.0558166220371
 31
0.0
  0
LINE
  5
287
  8
DATA
  6
CONTINUOUS
 62
     7
 10
53.794510506173403
 20
223.30510276587489
 30
0.0
 11
50.098992376128251
 21
224.83583649533529
 31
0.0
  0
LINE
  5
288
  8
DATA
  6
CONTINUOUS
 62
     7
 10
48.2512333111057
 20
225.6012033600654
 30
0.0
 11
44.555715181060542
 21
227.13193708952579
 31
0.0
  0
LINE
  5
289
  8
DATA
  6
CONTINUOUS
 62
     7
 10
50.481675808493357
 20
225.75971602784659
 30
0.0
 11
50.098992376128251
 21
224.83583649533529
 31
0.0
  0
LINE
  5
28A
  8
DATA
  6
CONTINUOUS
 62
     7
 10
48.633916743470778
 20
226.52508289257679
 30
0.0
 11
48.2512333111057
 21
225.6012033600654
 31
0.0
  0
LINE
  5
28B
  8
DATA
  6
CONTINUOUS
 62
     7
 10
44.938398613425633
 20
228.0558166220371
 30
0.0
 11
44.555715181060542
 21
227.13193708952579
 31
0.0
  0
LINE
  5
28C
  8
DATA
  6
CONTINUOUS
 62
     7
 10
54.177193938538501
 20
224.2289822983862
 30
0.0
 11
53.794510506173403
 21
223.30510276587489
 31
0.0
  0
LINE
  5
28D
  8
DATA
  6
CONTINUOUS
 62
     7
 10
19.20240840054289
 20
145.6719140534104
 30
0.0
 11
19.011066684360351
 21
145.20997428715489
 31
0.0
  0
LINE
  5
28E
  8
DATA
  6
CONTINUOUS
 62
     7
 10
19.77643354909053
 20
147.05773335217739
 30
0.0
 11
19.585091832907992
 21
146.5957935859218
 31
0.0
  0
LINE
  5
28F
  8
DATA
  6
CONTINUOUS
 62
     7
 10
20.35045869763816
 20
148.4435526509443
 30
0.0
 11
20.159116981455629
 21
147.9816128846887
 31
0.0
  0
LINE
  5
290
  8
DATA
  6
CONTINUOUS
 62
     7
 10
20.924483846185801
 20
149.82937194971129
 30
0.0
 11
20.733142130003259
 21
149.36743218345561
 31
0.0
  0
LINE
  5
291
  8
DATA
  6
CONTINUOUS
 62
     7
 10
21.49850899473342
 20
151.21519124847819
 30
0.0
 11
21.307167278550889
 21
150.75325148222259
 31
0.0
  0
LINE
  5
292
  8
DATA
  6
CONTINUOUS
 62
     7
 10
22.072534143281061
 20
152.6010105472451
 30
0.0
 11
21.881192427098529
 21
152.1390707809895
 31
0.0
  0
LINE
  5
293
  8
DATA
  6
CONTINUOUS
 62
     7
 10
22.646559291828691
 20
153.98682984601211
 30
0.0
 11
22.455217575646159
 21
153.5248900797564
 31
0.0
  0
LINE
  5
294
  8
DATA
  6
CONTINUOUS
 62
     7
 10
23.220584440376332
 20
155.37264914477899
 30
0.0
 11
23.0292427241938
 21
154.91070937852331
 31
0.0
  0
LINE
  5
295
  8
DATA
  6
CONTINUOUS
 62
     7
 10
23.794609588923979
 20
156.75846844354589
 30
0.0
 11
23.60326787274143
 21
156.2965286772903
 31
0.0
  0
LINE
  5
296
  8
DATA
  6
CONTINUOUS
 62
     7
 10
24.368634737471609
 20
158.14428774231291
 30
0.0
 11
24.17729302128906
 21
157.6823479760572
 31
0.0
  0
LINE
  5
297
  8
DATA
  6
CONTINUOUS
 62
     7
 10
24.942659886019239
 20
159.53010704107979
 30
0.0
 11
24.75131816983669
 21
159.06816727482411
 31
0.0
  0
LINE
  5
298
  8
DATA
  6
CONTINUOUS
 62
     7
 10
25.51668503456688
 20
160.91592633984669
 30
0.0
 11
25.325343318384331
 21
160.4539865735911
 31
0.0
  0
LINE
  5
299
  8
DATA
  6
CONTINUOUS
 62
     7
 10
26.09071018311451
 20
162.3017456386136
 30
0.0
 11
25.899368466931971
 21
161.839805872358
 31
0.0
  0
LINE
  5
29A
  8
DATA
  6
CONTINUOUS
 62
     7
 10
26.66473533166215
 20
163.68756493738061
 30
0.0
 11
26.473393615479601
 21
163.2256251711249
 31
0.0
  0
LINE
  5
29B
  8
DATA
  6
CONTINUOUS
 62
     7
 10
27.23876048020978
 20
165.07338423614749
 30
0.0
 11
27.047418764027231
 21
164.61144446989181
 31
0.0
  0
LINE
  5
29C
  8
DATA
  6
CONTINUOUS
 62
     7
 10
27.81278562875741
 20
166.45920353491439
 30
0.0
 11
27.621443912574868
 21
165.9972637686588
 31
0.0
  0
LINE
  5
29D
  8
DATA
  6
CONTINUOUS
 62
     7
 10
28.386810777305062
 20
167.84502283368141
 30
0.0
 11
28.195469061122509
 21
167.3830830674257
 31
0.0
  0
LINE
  5
29E
  8
DATA
  6
CONTINUOUS
 62
     7
 10
28.960835925852692
 20
169.2308421324482
 30
0.0
 11
28.769494209670139
 21
168.76890236619261
 31
0.0
  0
LINE
  5
29F
  8
DATA
  6
CONTINUOUS
 62
     7
 10
29.534861074400329
 20
170.61666143121519
 30
0.0
 11
29.343519358217769
 21
170.1547216649596
 31
0.0
  0
LINE
  5
2A0
  8
DATA
  6
CONTINUOUS
 62
     7
 10
30.108886222947959
 20
172.0024807299821
 30
0.0
 11
29.91754450676541
 21
171.5405409637265
 31
0.0
  0
LINE
  5
2A1
  8
DATA
  6
CONTINUOUS
 62
     7
 10
30.682911371495589
 20
173.38830002874909
 30
0.0
 11
30.49156965531305
 21
172.92636026249349
 31
0.0
  0
LINE
  5
2A2
  8
DATA
  6
CONTINUOUS
 62
     7
 10
31.256936520043229
 20
174.77411932751599
 30
0.0
 11
31.065594803860691
 21
174.31217956126039
 31
0.0
  0
LINE
  5
2A3
  8
DATA
  6
CONTINUOUS
 62
     7
 10
31.830961668590859
 20
176.15993862628289
 30
0.0
 11
31.639619952408299
 21
175.6979988600273
 31
0.0
  0
LINE
  5
2A4
  8
DATA
  6
CONTINUOUS
 62
     7
 10
32.390268223585977
 20
177.51022409687641
 30
0.0
 11
32.213645100955972
 21
177.0838181587942
 31
0.0
  0
LINE
  5
2A5
  8
DATA
  6
CONTINUOUS
 62
     7
 10
-3.4997082152970469
 20
101.5
 30
0.0
 11
-3.4997082152970469
 21
101.88210374687731
 31
0.0
  0
ARC
  5
2A6
  8
DATA
  6
CONTINUOUS
 62
     7
 10
26.500291784702949
 20
101.88210374687731
 30
0.0
 40
30.000000000000011
 50
157.49999999999989
 51
179.99999999999989
  0
ARC
  5
2A7
  8
DATA
  6
CONTINUOUS
 62
     7
 10
23.500291784702949
 20
101.1722778841399
 30
0.0
 40
20.0
 50
157.50000000000011
 51
179.0611032758822
  0
CIRCLE
  5
2A8
  8
DATA
  6
CONTINUOUS
 62
     7
 10
0.0
 20
-60.0
 30
0.0
 40
16.0
  0
LINE
  5
2A9
  8
DATA
  6
CONTINUOUS
 62
     7
 10
28.5
 20
-62.399999999999977
 30
0.0
 11
28.5
 21
-57.600000000000009
 31
0.0
  0
LINE
  5
2AA
  8
DATA
  6
CONTINUOUS
 62
     7
 10
-28.5
 20
-62.399999999999977
 30
0.0
 11
-28.5
 21
-57.600000000000009
 31
0.0
  0
LINE
  5
2AB
  8
DATA
  6
CONTINUOUS
 62
     7
 10
28.5
 20
-57.600000000000009
 30
0.0
 11
15.818975946628139
 21
-57.600000000000009
 31
0.0
  0
LINE
  5
2AC
  8
DATA
  6
CONTINUOUS
 62
     7
 10
-15.818975946628139
 20
-57.600000000000009
 30
0.0
 11
-28.5
 21
-57.600000000000009
 31
0.0
  0
LINE
  5
2AD
  8
DATA
  6
CONTINUOUS
 62
     7
 10
28.5
 20
-62.399999999999977
 30
0.0
 11
15.692534052854541
 21
-62.399999999999977
 31
0.0
  0
LINE
  5
2AE
  8
DATA
  6
CONTINUOUS
 62
     7
 10
-15.692534052854541
 20
-62.399999999999977
 30
0.0
 11
-28.5
 21
-62.399999999999977
 31
0.0
  0
CIRCLE
  5
2AF
  8
DATA
  6
CONTINUOUS
 62
     7
 10
0.0
 20
-60.0
 30
0.0
 40
11.75
  0
CIRCLE
  5
2B0
  8
DATA
  6
CONTINUOUS
 62
     7
 10
0.0
 20
-60.0
 30
0.0
 40
11.0
  0
CIRCLE
  5
2B1
  8
DATA
  6
CONTINUOUS
 62
     7
 10
0.0
 20
-60.0
 30
0.0
 40
10.0
  0
TEXT
  5
2B2
  8
DATA
 62
     7
 10
120.5
 20
162.39833333333331
 30
0.0
 40
9.2604166666666661
  1
MX405LP
 41
0.7
 11
120.5
 21
171.65875
 31
0.0
 73
     3
  0
LINE
  5
2B3
  8
DATA
  6
CONTINUOUS
 62
     7
 10
115.0
 20
160.0
 30
0.0
 11
161.0
 21
160.0
 31
0.0
  0
TEXT
  5
2B4
  8
DATA
 62
     7
 10
120.5
 20
42.398333333333333
 30
0.0
 40
8.1442057291666661
  1
MX400SMP
 41
0.7
 11
120.5
 21
50.542539062499998
 31
0.0
 73
     3
  0
LINE
  5
2B5
  8
DATA
  6
CONTINUOUS
 62
     7
 10
115.0
 20
40.0
 30
0.0
 11
167.0
 21
40.0
 31
0.0
  0
ARC
  5
2B6
  8
DATA
  6
CONTINUOUS
 62
     7
 10
0.0000000000000284
 20
-60.000000000000071
 30
0.0
 40
8.0
 50
143.96159757196361
 51
126.0384024280353
  0
CIRCLE
  5
2B7
  8
DATA
  6
CONTINUOUS
 62
     7
 10
0.0000000000000853
 20
-55.5
 30
0.0
 40
0.75
  0
ARC
  5
2B8
  8
DATA
  6
CONTINUOUS
 62
     7
 10
-5.656854249492226
 20
-54.343145750507688
 30
0.0
 40
1.249999999999956
 50
40.519201214022893
 51
229.48079878597721
  0
CIRCLE
  5
2B9
  8
DATA
  6
CONTINUOUS
 62
     7
 10
3.1819805153395602
 20
-56.81801948466056
 30
0.0
 40
0.7499999999999659
  0
CIRCLE
  5
2BA
  8
DATA
  6
CONTINUOUS
 62
     7
 10
4.5000000000000711
 20
-60.000000000000099
 30
0.0
 40
0.75
  0
CIRCLE
  5
2BB
  8
DATA
  6
CONTINUOUS
 62
     7
 10
3.1819805153394891
 20
-63.181980515339539
 30
0.0
 40
0.7499999999999859
  0
CIRCLE
  5
2BC
  8
DATA
  6
CONTINUOUS
 62
     7
 10
-0.0000000000000284
 20
-64.500000000000085
 30
0.0
 40
0.75
  0
CIRCLE
  5
2BD
  8
DATA
  6
CONTINUOUS
 62
     7
 10
0.0000000000000284
 20
-60.000000000000071
 30
0.0
 40
15.75
  0
ENDSEC
  0
EOF
