  0
SECTION
  2
HEADER
  9
$ACADVER
  1
AC1009
  9
$INSBASE
 10
0.0
 20
0.0
 30
0.0
  9
$EXTMIN
 10
-242.43842311723799
 20
-415.88655501561777
 30
-0.0015258207003583
  9
$EXTMAX
 10
477.60548219287188
 20
654.63356227370241
 30
0.0000000349246037
  9
$LIMMIN
 10
0.0
 20
0.0
  9
$LIMMAX
 10
0.0
 20
0.0
  9
$ORTHOMODE
 70
     0
  9
$REGENMODE
 70
     1
  9
$FILLMODE
 70
     1
  9
$QTEXTMODE
 70
     0
  9
$MIRRTEXT
 70
     1
  9
$DRAGMODE
 70
     2
  9
$LTSCALE
 40
20.32
  9
$OSMODE
 70
   231
  9
$ATTMODE
 70
     1
  9
$TEXTSIZE
 40
0.0
  9
$TRACEWID
 40
1.0
  9
$TEXTSTYLE
  7
STANDARD
  9
$CLAYER
  8
DATA
  9
$CELTYPE
  6
BYLAYER
  9
$CECOLOR
 62
   256
  9
$DIMSCALE
 40
1.0
  9
$DIMASZ
 40
0.18
  9
$DIMEXO
 40
0.0625
  9
$DIMDLI
 40
0.38
  9
$DIMRND
 40
0.0
  9
$DIMDLE
 40
0.0
  9
$DIMEXE
 40
0.18
  9
$DIMTP
 40
0.0
  9
$DIMTM
 40
0.0
  9
$DIMTXT
 40
0.18
  9
$DIMCEN
 40
0.09
  9
$DIMTSZ
 40
0.0
  9
$DIMTOL
 70
     0
  9
$DIMLIM
 70
     0
  9
$DIMTIH
 70
     1
  9
$DIMTOH
 70
     1
  9
$DIMSE1
 70
     0
  9
$DIMSE2
 70
     0
  9
$DIMTAD
 70
     0
  9
$DIMZIN
 70
     0
  9
$DIMBLK
  1

  9
$DIMASO
 70
     1
  9
$DIMSHO
 70
     1
  9
$DIMPOST
  1

  9
$DIMAPOST
  1

  9
$DIMALT
 70
     0
  9
$DIMALTD
 70
     2
  9
$DIMALTF
 40
25.399999999999999
  9
$DIMLFAC
 40
1.0
  9
$DIMTOFL
 70
     0
  9
$DIMTVP
 40
0.0
  9
$DIMTIX
 70
     0
  9
$DIMSOXD
 70
     0
  9
$DIMSAH
 70
     0
  9
$DIMBLK1
  1

  9
$DIMBLK2
  1

  9
$DIMSTYLE
  2
STANDARD
  9
$DIMCLRD
 70
     0
  9
$DIMCLRE
 70
     0
  9
$DIMCLRT
 70
     0
  9
$DIMTFAC
 40
1.0
  9
$DIMGAP
 40
0.09
  9
$LUNITS
 70
     2
  9
$LUPREC
 70
     4
  9
$SKETCHINC
 40
0.1
  9
$FILLETRAD
 40
0.0
  9
$AUNITS
 70
     0
  9
$AUPREC
 70
     0
  9
$MENU
  1
acad
  9
$ELEVATION
 40
0.0
  9
$PELEVATION
 40
0.0
  9
$THICKNESS
 40
0.0
  9
$LIMCHECK
 70
     0
  9
$BLIPMODE
 70
     0
  9
$CHAMFERA
 40
0.0
  9
$CHAMFERB
 40
0.0
  9
$SKPOLY
 70
     0
  9
$TDCREATE
 40
2454490.7550694449
  9
$TDUPDATE
 40
2454490.7589500928
  9
$TDINDWG
 40
0.0002624884
  9
$TDUSRTIMER
 40
0.0002623148
  9
$USRTIMER
 70
     1
  9
$ANGBASE
 50
0.0
  9
$ANGDIR
 70
     0
  9
$PDMODE
 70
     1
  9
$PDSIZE
 40
-2.0
  9
$PLINEWID
 40
0.0
  9
$COORDS
 70
     1
  9
$SPLFRAME
 70
     0
  9
$SPLINETYPE
 70
     6
  9
$SPLINESEGS
 70
     8
  9
$ATTDIA
 70
     0
  9
$ATTREQ
 70
     1
  9
$HANDLING
 70
     1
  9
$HANDSEED
  5
26E
  9
$SURFTAB1
 70
     6
  9
$SURFTAB2
 70
     6
  9
$SURFTYPE
 70
     6
  9
$SURFU
 70
     6
  9
$SURFV
 70
     6
  9
$UCSNAME
  2

  9
$UCSORG
 10
0.0
 20
0.0
 30
0.0
  9
$UCSXDIR
 10
1.0
 20
0.0
 30
0.0
  9
$UCSYDIR
 10
0.0
 20
1.0
 30
0.0
  9
$PUCSNAME
  2

  9
$PUCSORG
 10
0.0
 20
0.0
 30
0.0
  9
$PUCSXDIR
 10
1.0
 20
0.0
 30
0.0
  9
$PUCSYDIR
 10
0.0
 20
1.0
 30
0.0
  9
$USERI1
 70
     0
  9
$USERI2
 70
     0
  9
$USERI3
 70
     0
  9
$USERI4
 70
     0
  9
$USERI5
 70
     0
  9
$USERR1
 40
0.0
  9
$USERR2
 40
0.0
  9
$USERR3
 40
0.0
  9
$USERR4
 40
0.0
  9
$USERR5
 40
0.0
  9
$WORLDVIEW
 70
     1
  9
$SHADEDGE
 70
     3
  9
$SHADEDIF
 70
    70
  9
$TILEMODE
 70
     1
  9
$MAXACTVP
 70
    64
  9
$PLIMCHECK
 70
     0
  9
$PEXTMIN
 10
1.0000000000000000E+020
 20
1.0000000000000000E+020
 30
1.0000000000000000E+020
  9
$PEXTMAX
 10
-1.0000000000000000E+020
 20
-1.0000000000000000E+020
 30
-1.0000000000000000E+020
  9
$PLIMMIN
 10
0.0
 20
0.0
  9
$PLIMMAX
 10
12.0
 20
9.0
  9
$UNITMODE
 70
     0
  9
$VISRETAIN
 70
     0
  9
$PLINEGEN
 70
     1
  9
$PSLTSCALE
 70
     0
  0
ENDSEC
  0
SECTION
  2
TABLES
  0
TABLE
  2
VPORT
 70
     1
  0
VPORT
  2
*ACTIVE
 70
     0
 10
0.0
 20
0.0
 11
1.0
 21
1.0
 12
117.5835295378169
 22
119.3735036290422
 13
0.0
 23
0.0
 14
1.0
 24
1.0
 15
0.0
 25
0.0
 16
0.0
 26
0.0
 36
1.0
 17
0.0
 27
0.0
 37
0.0
 40
1079.4041016651649
 41
1.6703601108033239
 42
50.0
 43
0.0
 44
0.0
 50
0.0
 51
0.0
 71
     0
 72
  2000
 73
     1
 74
     1
 75
     0
 76
     0
 77
     0
 78
     0
  0
ENDTAB
  0
TABLE
  2
LTYPE
 70
    11
  0
LTYPE
  2
CONTINUOUS
 70
     0
  3
Solid line
 72
    65
 73
     0
 40
0.0
  0
ENDTAB
  0
TABLE
  2
LAYER
 70
     5
  0
LAYER
  2
0
 70
     0
 62
     7
  6
CONTINUOUS
  0
LAYER
  2
DATA
 70
     0
 62
     7
  6
CONTINUOUS
  0
LAYER
  2
HIBINO-BASE
 70
     0
 62
     7
  6
CONTINUOUS
  0
LAYER
  2
SPEC
 70
     0
 62
     7
  6
CONTINUOUS
  0
LAYER
  2
DIMNSIONS
 70
     0
 62
     7
  6
CONTINUOUS
  0
ENDTAB
  0
TABLE
  2
STYLE
 70
     2
  0
STYLE
  2
STANDARD
 70
     0
 40
0.0
 41
1.0
 50
0.0
 71
     0
 42
0.0
  3
txt
  4
BIGFONT.SHX
  0
ENDTAB
  0
TABLE
  2
VIEW
 70
     0
  0
ENDTAB
  0
TABLE
  2
UCS
 70
     0
  0
ENDTAB
  0
TABLE
  2
APPID
 70
     1
  0
APPID
  2
ACAD
 70
     0
  0
ENDTAB
  0
TABLE
  2
DIMSTYLE
 70
     1
  0
DIMSTYLE
  2
STANDARD
 70
     0
  3

  4

  5

  6

  7

 40
1.0
 41
0.18
 42
0.0625
 43
0.38
 44
0.18
 45
0.0
 46
0.0
 47
0.0
 48
0.0
140
0.18
141
0.09
142
0.0
143
25.399999999999999
144
1.0
145
0.0
146
1.0
147
0.09
 71
     0
 72
     0
 73
     1
 74
     1
 75
     0
 76
     0
 77
     0
 78
     0
170
     0
171
     2
172
     0
173
     0
174
     0
175
     0
176
     0
177
     0
178
     0
  0
ENDTAB
  0
ENDSEC
  0
SECTION
  2
BLOCKS
  0
BLOCK
  8
0
  2
$MODEL_SPACE
 70
     0
 10
0.0
 20
0.0
 30
0.0
  3
$MODEL_SPACE
  1

  0
ENDBLK
  5
241
  8
0
  0
BLOCK
 67
     1
  8
0
  2
$PAPER_SPACE
 70
     0
 10
0.0
 20
0.0
 30
0.0
  3
$PAPER_SPACE
  1

  0
ENDBLK
  5
23D
 67
     1
  8
0
  0
ENDSEC
  0
SECTION
  2
ENTITIES
  0
LINE
  5
2C
  8
HIBINO-BASE
  6
CONTINUOUS
 62
     7
 10
-242.4164521385637
 20
654.60095924994152
 30
0.0
 11
477.58350786143609
 21
654.60095924994152
 31
0.0
  0
LINE
  5
2D
  8
HIBINO-BASE
  6
CONTINUOUS
 62
     7
 10
477.58350786143609
 20
-385.39896075005862
 30
0.0
 11
-242.4164521385637
 21
-385.39896075005862
 31
0.0
  0
LINE
  5
2E
  8
HIBINO-BASE
  6
CONTINUOUS
 62
     7
 10
-242.4164521385637
 20
-385.39896075005862
 30
0.0
 11
-242.4164521385637
 21
654.60095924994152
 31
0.0
  0
TEXT
  5
2F
  8
HIBINO-BASE
 62
     7
 10
-213.6804321385639
 20
-411.03362035005853
 30
0.0
 40
14.400130546874999
  1
Hibino Corporation
 41
0.7
 11
-213.6804321385639
 21
-396.63348980318358
 31
0.0
 73
     3
  0
LINE
  5
30
  8
HIBINO-BASE
  6
CONTINUOUS
 62
     7
 10
477.58350786143609
 20
654.60095924994152
 30
0.0
 11
477.58350786143609
 21
-385.39896075005862
 31
0.0
  0
LINE
  5
31
  8
HIBINO-BASE
  6
CONTINUOUS
 62
     7
 10
117.5835278614362
 20
-295.39898075005863
 30
0.0
 11
477.58350786143609
 21
-295.39898075005863
 31
0.0
  0
LINE
  5
32
  8
HIBINO-BASE
  6
CONTINUOUS
 62
     7
 10
117.5835278614362
 20
-385.39896075005862
 30
0.0
 11
117.5835278614362
 21
-295.39898075005863
 31
0.0
  0
TEXT
  5
33
  8
HIBINO-BASE
 62
     7
 10
121.18348786143621
 20
-306.1989935500585
 30
0.0
 40
7.2001037500000002
  1
NOTE
 41
0.7
 11
121.18348786143621
 21
-298.99888980005858
 31
0.0
 73
     3
  0
LINE
  5
34
  8
HIBINO-BASE
  6
CONTINUOUS
 62
     7
 10
257.58352786143621
 20
-385.39896075005862
 30
0.0
 11
257.58352786143621
 21
-295.39898075005863
 31
0.0
  0
TEXT
  5
35
  8
HIBINO-BASE
 62
     7
 10
261.18352786143612
 20
-306.1989935500585
 30
0.0
 40
7.2001037500000002
  1
TITLE
 41
0.7
 11
261.18352786143612
 21
-298.99888980005858
 31
0.0
 73
     3
  0
TEXT
  5
36
  8
HIBINO-BASE
 62
     7
 10
317.85704786143617
 20
-411.03362035005853
 30
0.0
 40
14.400130546874999
  1
ヒビノ株式会社
 41
0.7
 11
317.85704786143617
 21
-396.63348980318358
 31
0.0
 73
     3
  0
LINE
  5
37
  8
HIBINO-BASE
  6
CONTINUOUS
 62
     7
 10
117.5835278614362
 20
-345.39898075005863
 30
0.0
 11
477.58350786143609
 21
-345.39898075005863
 31
0.0
  0
TEXT
  5
38
  8
HIBINO-BASE
 62
     7
 10
311.18352786143612
 20
-355.97367355005861
 30
0.0
 40
7.2001037500000002
  1
DRAWN
 41
0.7
 11
311.18352786143612
 21
-348.77356980005862
 31
0.0
 73
     3
  0
TEXT
  5
39
  8
HIBINO-BASE
 62
     7
 10
211.18352786143609
 20
-355.97367355005861
 30
0.0
 40
7.2001037500000002
  1
DATE
 41
0.7
 11
211.18352786143609
 21
-348.77356980005862
 31
0.0
 73
     3
  0
TEXT
  5
3A
  8
HIBINO-BASE
 62
     7
 10
121.9834678614362
 20
-355.87675115005851
 30
0.0
 40
6.5153440624999996
  1
図面サイズ
 41
0.7
 11
121.9834678614362
 21
-349.36140708755852
 31
0.0
 73
     3
  0
TEXT
  5
3B
  8
HIBINO-BASE
 62
     7
 10
171.18348786143611
 20
-355.97367355005861
 30
0.0
 40
7.2001037500000002
  1
SCALE
 41
0.7
 11
171.18348786143611
 21
-348.77356980005862
 31
0.0
 73
     3
  0
TEXT
  5
3C
  8
HIBINO-BASE
 62
     7
 10
261.18352786143612
 20
-355.97367355005861
 30
0.0
 40
7.2001037500000002
  1
DESIGN
 41
0.7
 11
261.18352786143612
 21
-348.77356980005862
 31
0.0
 73
     3
  0
TEXT
  5
3D
  8
HIBINO-BASE
 62
     7
 10
411.18346786143621
 20
-355.97367355005861
 30
0.0
 40
7.2001037500000002
  1
DRAWING NO.
 41
0.7
 11
411.18346786143621
 21
-348.77356980005862
 31
0.0
 73
     3
  0
TEXT
  5
3E
  8
HIBINO-BASE
 62
     7
 10
361.18350786143623
 20
-355.97367355005861
 30
0.0
 40
7.2001037500000002
  1
CHECK
 41
0.7
 11
361.18350786143623
 21
-348.77356980005862
 31
0.0
 73
     3
  0
LINE
  5
3F
  8
HIBINO-BASE
  6
CONTINUOUS
 62
     7
 10
175.08346786143619
 20
-380.39898075005863
 30
0.0
 11
190.0835278614361
 21
-365.39898075005863
 31
0.0
  0
TEXT
  5
40
  8
HIBINO-BASE
 62
     7
 10
172.58346786143619
 20
-372.26181755005848
 30
0.0
 40
8.6871459375000004
  1
1
 41
0.7
 11
172.58346786143619
 21
-363.57467161255852
 31
0.0
 73
     3
  0
LINE
  5
41
  8
HIBINO-BASE
  6
CONTINUOUS
 62
     7
 10
167.58346786143619
 20
-385.39896075005862
 30
0.0
 11
167.58346786143619
 21
-345.39898075005863
 31
0.0
  0
LINE
  5
42
  8
HIBINO-BASE
  6
CONTINUOUS
 62
     7
 10
207.58350786143609
 20
-385.39896075005862
 30
0.0
 11
207.58350786143609
 21
-345.39898075005863
 31
0.0
  0
LINE
  5
43
  8
HIBINO-BASE
  6
CONTINUOUS
 62
     7
 10
307.58350786143609
 20
-345.39898075005863
 30
0.0
 11
307.58350786143609
 21
-385.39896075005862
 31
0.0
  0
LINE
  5
44
  8
HIBINO-BASE
  6
CONTINUOUS
 62
     7
 10
407.5835278614361
 20
-345.39898075005863
 30
0.0
 11
407.5835278614361
 21
-385.39896075005862
 31
0.0
  0
LINE
  5
45
  8
HIBINO-BASE
  6
CONTINUOUS
 62
     7
 10
357.5834878614362
 20
-385.39896075005862
 30
0.0
 11
357.5834878614362
 21
-345.39898075005863
 31
0.0
  0
TEXT
  5
46
  8
HIBINO-BASE
 62
     7
 10
133.22708786143619
 20
-375.40509875005853
 30
0.0
 40
13.030703515625
  1
A4
 41
0.7
 11
133.22708786143619
 21
-362.37439523443351
 31
0.0
 73
     3
  0
TEXT
  5
47
  8
HIBINO-BASE
 62
     7
 10
211.00968786143619
 20
-374.70959355005851
 30
0.0
 40
7.2001037500000002
  1
'08.1.
 41
0.7
 11
211.00968786143619
 21
-367.50948980005847
 31
0.0
 73
     3
  0
TEXT
  5
48
  8
HIBINO-BASE
 62
     7
 10
187.5835278614361
 20
-379.76181755005859
 30
0.0
 40
8.6871459375000004
  1
4
 41
0.7
 11
187.5835278614361
 21
-371.07467161255852
 31
0.0
 73
     3
  0
TEXT
  5
49
  8
HIBINO-BASE
 62
     7
 10
310.24444444444441
 20
-373.55599999999998
 30
0.0
 40
7.6012586805555546
  1
N.Sasaki
 41
0.7
 11
310.24444444444441
 21
-365.95474131944451
 31
0.0
 73
     3
  0
LINE
  5
4A
  8
SPEC
  6
CONTINUOUS
 62
     7
 10
-212.41645213856381
 20
614.60095924994152
 30
0.0
 11
294.24961095869651
 21
614.60095924994152
 31
0.0
  0
LINE
  5
4B
  8
SPEC
  6
CONTINUOUS
 62
     7
 10
-212.41645213856381
 20
599.60095924994152
 30
0.0
 11
294.24961095869651
 21
599.60095924994152
 31
0.0
  0
LINE
  5
4C
  8
SPEC
  6
CONTINUOUS
 62
     7
 10
-212.41645213856381
 20
584.60095924994152
 30
0.0
 11
294.24961095869651
 21
584.60095924994152
 31
0.0
  0
LINE
  5
4D
  8
SPEC
  6
CONTINUOUS
 62
     7
 10
-212.41645213856381
 20
614.6009592499413
 30
0.0
 11
-212.41645213856381
 21
224.6009992499414
 31
0.0
  0
TEXT
  5
4E
  8
SPEC
 62
     7
 10
-207.4164521385637
 20
620.17405924994125
 30
0.0
 40
9.7730468749999986
  1
仕様
 41
0.7
 11
-207.4164521385637
 21
629.94710612494123
 31
0.0
 73
     3
  0
TEXT
  5
4F
  8
SPEC
 62
     7
 10
-208.81641213856369
 20
602.75089036105248
 30
0.0
 40
7.6012586805555546
  1
形式
 41
0.7
 11
-208.81641213856369
 21
610.35214904160796
 31
0.0
 73
     3
  0
TEXT
  5
50
  8
SPEC
 62
     7
 10
-208.81641213856369
 20
587.75089036105237
 30
0.0
 40
7.6012586805555546
  1
周波数特性
 41
0.7
 11
-208.81641213856369
 21
595.35214904160796
 31
0.0
 73
     3
  0
TEXT
  5
51
  8
SPEC
 62
     7
 10
-208.81641213856369
 20
542.75089036105237
 30
0.0
 40
7.6012586805555546
  1
指向特性
 41
0.7
 11
-208.81641213856369
 21
550.35214904160807
 31
0.0
 73
     3
  0
LINE
  5
52
  8
SPEC
  6
CONTINUOUS
 62
     7
 10
-212.41645213856381
 20
494.60095924994141
 30
0.0
 11
267.58354786143622
 21
494.60095924994141
 31
0.0
  0
LINE
  5
53
  8
SPEC
  6
CONTINUOUS
 62
     7
 10
-212.41645213856381
 20
524.6009592499413
 30
0.0
 11
294.24961095869651
 21
524.6009592499413
 31
0.0
  0
TEXT
  5
54
  8
SPEC
 62
     7
 10
-208.81641213856369
 20
482.75091036105238
 30
0.0
 40
7.6012586805555546
  1
等価雑音レベル(Aウェイト)
 41
0.7
 11
-208.81641213856369
 21
490.35216904160791
 31
0.0
 73
     3
  0
LINE
  5
55
  8
SPEC
  6
CONTINUOUS
 62
     7
 10
-212.41645213856381
 20
494.60095924994141
 30
0.0
 11
294.24961095869651
 21
494.60095924994141
 31
0.0
  0
TEXT
  5
56
  8
SPEC
 62
     7
 10
-208.81641213856369
 20
272.75091036105249
 30
0.0
 40
7.6012586805555546
  1
使用電源
 41
0.7
 11
-208.81641213856369
 21
280.35216904160802
 31
0.0
 73
     3
  0
LINE
  5
57
  8
SPEC
  6
CONTINUOUS
 62
     7
 10
-212.41645213856381
 20
464.6009592499413
 30
0.0
 11
294.24961095869651
 21
464.6009592499413
 31
0.0
  0
TEXT
  5
58
  8
SPEC
 62
     7
 10
-208.81641213856369
 20
257.75091036105249
 30
0.0
 40
7.6012586805555546
  1
寸法(W×H×D)
 41
0.7
 11
-208.81641213856369
 21
265.35216904160802
 31
0.0
 73
     3
  0
TEXT
  5
59
  8
SPEC
 62
     7
 10
-208.81641213856369
 20
242.75091036105249
 30
0.0
 40
7.6012586805555546
  1
質量
 41
0.7
 11
-208.81641213856369
 21
250.35216904160799
 31
0.0
 73
     3
  0
TEXT
  5
5A
  8
SPEC
 62
     7
 10
-208.81641213856369
 20
227.75091036105249
 30
0.0
 40
7.6012586805555546
  1
付属品 
 41
0.7
 11
-208.81641213856369
 21
235.35216904160799
 31
0.0
 73
     3
  0
LINE
  5
5B
  8
SPEC
  6
CONTINUOUS
 62
     7
 10
-212.41645213856381
 20
254.60095924994141
 30
0.0
 11
294.24961095869651
 21
254.60095924994141
 31
0.0
  0
LINE
  5
5C
  8
SPEC
  6
CONTINUOUS
 62
     7
 10
-212.41645213856381
 20
269.60095924994141
 30
0.0
 11
294.24961095869651
 21
269.60095924994141
 31
0.0
  0
LINE
  5
5D
  8
SPEC
  6
CONTINUOUS
 62
     7
 10
-212.41645213856381
 20
239.60095924994141
 30
0.0
 11
294.24961095869651
 21
239.60095924994141
 31
0.0
  0
LINE
  5
5E
  8
SPEC
  6
CONTINUOUS
 62
     7
 10
-212.41645213856381
 20
224.6009992499414
 30
0.0
 11
294.24961095869651
 21
224.6009992499414
 31
0.0
  0
LINE
  5
5F
  8
SPEC
  6
CONTINUOUS
 62
     7
 10
27.583547861436251
 20
614.6009592499413
 30
0.0
 11
27.583547861436251
 21
224.6009992499414
 31
0.0
  0
LINE
  5
60
  8
SPEC
  6
CONTINUOUS
 62
     7
 10
294.24961095869651
 20
614.6009592499413
 30
0.0
 11
294.24961095869651
 21
224.6009992499414
 31
0.0
  0
TEXT
  5
61
  8
SPEC
 62
     7
 10
31.1835478614362
 20
602.75089036105248
 30
0.0
 40
7.6012586805555546
  1
エレクトレットコンデンサ型 
 41
0.7
 11
31.1835478614362
 21
610.35214904160796
 31
0.0
 73
     3
  0
TEXT
  5
62
  8
SPEC
 62
     7
 10
31.1835478614362
 20
587.75089036105237
 30
0.0
 40
7.6012586805555546
  1
50～17,000Hz
 41
0.7
 11
31.1835478614362
 21
595.35214904160796
 31
0.0
 73
     3
  0
TEXT
  5
63
  8
SPEC
 62
     7
 10
31.1835478614362
 20
542.75089036105237
 30
0.0
 40
7.6012586805555546
  1
MX410LP/C:カーディオイド
 41
0.7
 11
31.1835478614362
 21
550.35214904160807
 31
0.0
 73
     3
  0
TEXT
  5
64
  8
SPEC
 62
     7
 10
31.1835478614362
 20
531.46200147216359
 30
0.0
 40
7.6012586805555546
  1
MX410LP/S:スーパーカーディオイド
 41
0.7
 11
31.1835478614362
 21
539.06326015271907
 31
0.0
 73
     3
  0
TEXT
  5
65
  8
SPEC
 62
     7
 10
31.1835478614362
 20
512.75091036105243
 30
0.0
 40
7.6012586805555546
  1
MX410LP/C:-35dBV/Pa(18mV)
 41
0.7
 11
31.1835478614362
 21
520.35216904160802
 31
0.0
 73
     3
  0
TEXT
  5
66
  8
SPEC
 62
     7
 10
31.1835478614362
 20
501.46202147216349
 30
0.0
 40
7.6012586805555546
  1
MX410LP/S:-34dBV/Pa(21mV)
 41
0.7
 11
31.1835478614362
 21
509.06328015271907
 31
0.0
 73
     3
  0
TEXT
  5
67
  8
SPEC
 62
     7
 10
31.1835478614362
 20
482.75091036105238
 30
0.0
 40
7.6012586805555546
  1
MX410LP/C:28dB SPL
 41
0.7
 11
31.1835478614362
 21
490.35216904160791
 31
0.0
 73
     3
  0
TEXT
  5
68
  8
SPEC
 62
     7
 10
31.1835478614362
 20
471.4620214721636
 30
0.0
 40
7.6012586805555546
  1
MX410LP/S:27dB SPL
 41
0.7
 11
31.1835478614362
 21
479.06328015271907
 31
0.0
 73
     3
  0
TEXT
  5
69
  8
SPEC
 62
     7
 10
31.1835478614362
 20
272.75091036105249
 30
0.0
 40
7.6012586805555546
  1
ファンタム DC48～52V、8.0mA
 41
0.7
 11
31.1835478614362
 21
280.35216904160802
 31
0.0
 73
     3
  0
TEXT
  5
6A
  8
SPEC
 62
     7
 10
31.1835478614362
 20
257.75091036105249
 30
0.0
 40
7.6012586805555546
  1
MX410LP:φ12×253mm、MX400DP:87×43×147mm
 41
0.7
 11
31.1835478614362
 21
265.35216904160802
 31
0.0
 73
     3
  0
TEXT
  5
6B
  8
SPEC
 62
     7
 10
31.1835478614362
 20
242.75091036105249
 30
0.0
 40
7.6012586805555546
  1
約600g(MX410LP:約62g、MX400DP:約538g)
 41
0.7
 11
31.1835478614362
 21
250.35216904160799
 31
0.0
 73
     3
  0
TEXT
  5
6C
  8
SPEC
 62
     7
 10
31.1835478614362
 20
227.75091036105249
 30
0.0
 40
7.6012586805555546
  1
ウィンドスクリーン
 41
0.7
 11
31.1835478614362
 21
235.35216904160799
 31
0.0
 73
     3
  0
TEXT
  5
6D
  8
SPEC
 62
     7
 10
-208.81641213856369
 20
512.75267036105242
 30
0.0
 40
7.6012586805555546
  1
開回路感度(1kHz、1Pa=94dB SPL)
 41
0.7
 11
-208.81641213856369
 21
520.35392904160801
 31
0.0
 73
     3
  0
LINE
  5
6E
  8
SPEC
  6
CONTINUOUS
 62
     7
 10
-212.41645213856381
 20
569.60095924994141
 30
0.0
 11
294.24961095869651
 21
569.60095924994141
 31
0.0
  0
TEXT
  5
6F
  8
SPEC
 62
     7
 10
-208.81641213856369
 20
572.75089036105248
 30
0.0
 40
7.6012586805555546
  1
出力インピーダンス
 41
0.7
 11
-208.81641213856369
 21
580.35214904160807
 31
0.0
 73
     3
  0
TEXT
  5
70
  8
SPEC
 62
     7
 10
31.1835478614362
 20
572.75089036105248
 30
0.0
 40
7.6012586805555546
  1
150Ω(EIA 定格)：170Ω実効
 41
0.7
 11
31.1835478614362
 21
580.35214904160807
 31
0.0
 73
     3
  0
LINE
  5
71
  8
SPEC
  6
CONTINUOUS
 62
     7
 10
-212.41645213856381
 20
554.60095924994141
 30
0.0
 11
294.24961095869651
 21
554.60095924994141
 31
0.0
  0
TEXT
  5
72
  8
SPEC
 62
     7
 10
-208.81641213856369
 20
557.75089036105237
 30
0.0
 40
7.6012586805555546
  1
出力バランス
 41
0.7
 11
-208.81641213856369
 21
565.35214904160796
 31
0.0
 73
     3
  0
TEXT
  5
73
  8
SPEC
 62
     7
 10
31.1835478614362
 20
557.75089036105237
 30
0.0
 40
7.6012586805555546
  1
アクティブバランス
 41
0.7
 11
31.1835478614362
 21
565.35214904160796
 31
0.0
 73
     3
  0
TEXT
  5
74
  8
SPEC
 62
     7
 10
-208.81641213856369
 20
452.75091036105238
 30
0.0
 40
7.6012586805555546
  1
最大音圧レベル(1kHz、1%%%THD、1kΩ負荷)
 41
0.7
 11
-208.81641213856369
 21
460.35216904160791
 31
0.0
 73
     3
  0
LINE
  5
75
  8
SPEC
  6
CONTINUOUS
 62
     7
 10
-212.41645213856381
 20
434.6009592499413
 30
0.0
 11
294.24961095869651
 21
434.6009592499413
 31
0.0
  0
TEXT
  5
76
  8
SPEC
 62
     7
 10
31.1835478614362
 20
452.75091036105238
 30
0.0
 40
7.6012586805555546
  1
MX410LP/C:121dB
 41
0.7
 11
31.1835478614362
 21
460.35216904160791
 31
0.0
 73
     3
  0
TEXT
  5
77
  8
SPEC
 62
     7
 10
31.1835478614362
 20
441.4620214721636
 30
0.0
 40
7.6012586805555546
  1
MX410LP/S:120dB
 41
0.7
 11
31.1835478614362
 21
449.06328015271907
 31
0.0
 73
     3
  0
TEXT
  5
78
  8
SPEC
 62
     7
 10
-208.81641213856369
 20
422.75091036105238
 30
0.0
 40
7.6012586805555546
  1
SN比(94dB SPL、1kHz)
 41
0.7
 11
-208.81641213856369
 21
430.35216904160791
 31
0.0
 73
     3
  0
LINE
  5
79
  8
SPEC
  6
CONTINUOUS
 62
     7
 10
-212.41645213856381
 20
404.6009592499413
 30
0.0
 11
294.24961095869651
 21
404.6009592499413
 31
0.0
  0
TEXT
  5
7A
  8
SPEC
 62
     7
 10
31.1835478614362
 20
422.75091036105238
 30
0.0
 40
7.6012586805555546
  1
MX410LP/C:66dB
 41
0.7
 11
31.1835478614362
 21
430.35216904160791
 31
0.0
 73
     3
  0
TEXT
  5
7B
  8
SPEC
 62
     7
 10
31.1835478614362
 20
411.4620214721636
 30
0.0
 40
7.6012586805555546
  1
MX410LP/S:68dB
 41
0.7
 11
31.1835478614362
 21
419.06328015271907
 31
0.0
 73
     3
  0
TEXT
  5
7C
  8
SPEC
 62
     7
 10
-208.81641213856369
 20
392.75091036105238
 30
0.0
 40
7.6012586805555546
  1
ダイナミックレンジ (1kΩ負荷、1kHz)
 41
0.7
 11
-208.81641213856369
 21
400.35216904160791
 31
0.0
 73
     3
  0
LINE
  5
7D
  8
SPEC
  6
CONTINUOUS
 62
     7
 10
-212.41645213856381
 20
389.60095924994141
 30
0.0
 11
294.24961095869651
 21
389.60095924994141
 31
0.0
  0
TEXT
  5
7E
  8
SPEC
 62
     7
 10
31.1835478614362
 20
392.75091036105238
 30
0.0
 40
7.6012586805555546
  1
93dB
 41
0.7
 11
31.1835478614362
 21
400.35216904160791
 31
0.0
 73
     3
  0
TEXT
  5
7F
  8
SPEC
 62
     7
 10
-208.81641213856369
 20
377.75091036105238
 30
0.0
 40
7.6012586805555546
  1
同相信号除去比(10Hz～100kHz )
 41
0.7
 11
-208.81641213856369
 21
385.35216904160802
 31
0.0
 73
     3
  0
LINE
  5
80
  8
SPEC
  6
CONTINUOUS
 62
     7
 10
-212.41645213856381
 20
374.6009592499413
 30
0.0
 11
294.24961095869651
 21
374.6009592499413
 31
0.0
  0
TEXT
  5
81
  8
SPEC
 62
     7
 10
31.1835478614362
 20
377.75091036105238
 30
0.0
 40
7.6012586805555546
  1
45dB以上
 41
0.7
 11
31.1835478614362
 21
385.35216904160802
 31
0.0
 73
     3
  0
TEXT
  5
82
  8
SPEC
 62
     7
 10
-208.81641213856369
 20
362.75091036105238
 30
0.0
 40
7.6012586805555546
  1
プリアンプ出力クリッピングレベル(1%%%THD)
 41
0.7
 11
-208.81641213856369
 21
370.35216904160802
 31
0.0
 73
     3
  0
LINE
  5
83
  8
SPEC
  6
CONTINUOUS
 62
     7
 10
-212.41645213856381
 20
359.6009592499413
 30
0.0
 11
294.24961095869651
 21
359.6009592499413
 31
0.0
  0
TEXT
  5
84
  8
SPEC
 62
     7
 10
31.1835478614362
 20
362.75091036105238
 30
0.0
 40
7.6012586805555546
  1
-8dBV(0.4V)
 41
0.7
 11
31.1835478614362
 21
370.35216904160802
 31
0.0
 73
     3
  0
TEXT
  5
85
  8
SPEC
 62
     7
 10
-208.81641213856369
 20
347.75091036105249
 30
0.0
 40
7.6012586805555546
  1
コネクタ 
 41
0.7
 11
-208.81641213856369
 21
355.35216904160802
 31
0.0
 73
     3
  0
LINE
  5
86
  8
SPEC
  6
CONTINUOUS
 62
     7
 10
-212.41645213856381
 20
344.60095924994141
 30
0.0
 11
294.24961095869651
 21
344.60095924994141
 31
0.0
  0
TEXT
  5
87
  8
SPEC
 62
     7
 10
31.1835478614362
 20
347.75091036105249
 30
0.0
 40
7.6012586805555546
  1
XLR3ピン、オス
 41
0.7
 11
31.1835478614362
 21
355.35216904160802
 31
0.0
 73
     3
  0
TEXT
  5
88
  8
SPEC
 62
     7
 10
-208.81641213856369
 20
332.75091036105249
 30
0.0
 40
7.6012586805555546
  1
ロジック接続
 41
0.7
 11
-208.81641213856369
 21
340.35216904160802
 31
0.0
 73
     3
  0
LINE
  5
89
  8
SPEC
  6
CONTINUOUS
 62
     7
 10
-212.41645213856381
 20
284.6009592499413
 30
0.0
 11
294.24961095869651
 21
284.6009592499413
 31
0.0
  0
TEXT
  5
8A
  8
SPEC
 62
     7
 10
31.1835478614362
 20
332.75091036105249
 30
0.0
 40
7.6012586805555546
  1
負論理(1.0V以下) TTL compatible
 41
0.7
 11
31.1835478614362
 21
340.35216904160802
 31
0.0
 73
     3
  0
TEXT
  5
8B
  8
SPEC
 62
     7
 10
31.1835478614362
 20
321.4620214721636
 30
0.0
 40
7.6012586805555546
  1
絶対最大電圧：-0.7V～50V
 41
0.7
 11
31.1835478614362
 21
329.06328015271919
 31
0.0
 73
     3
  0
TEXT
  5
8C
  8
SPEC
 62
     7
 10
-128.81641213856381
 20
332.75091036105249
 30
0.0
 40
7.6012586805555546
  1
LED IN
 41
0.7
 11
-128.81641213856381
 21
340.35216904160802
 31
0.0
 73
     3
  0
TEXT
  5
8D
  8
SPEC
 62
     7
 10
31.1835478614362
 20
302.75091036105249
 30
0.0
 40
7.6012586805555546
  1
負論理(1.0V以下) TTL compatible
 41
0.7
 11
31.1835478614362
 21
310.35216904160802
 31
0.0
 73
     3
  0
TEXT
  5
8E
  8
SPEC
 62
     7
 10
31.1835478614362
 20
291.46202147216371
 30
0.0
 40
7.6012586805555546
  1
絶対最大電圧：-0.7V～50V(50V以下、3kΩ負荷)
 41
0.7
 11
31.1835478614362
 21
299.06328015271919
 31
0.0
 73
     3
  0
TEXT
  5
8F
  8
SPEC
 62
     7
 10
-128.81641213856381
 20
302.75091036105249
 30
0.0
 40
7.6012586805555546
  1
Logic OUT
 41
0.7
 11
-128.81641213856381
 21
310.35216904160802
 31
0.0
 73
     3
  0
LINE
  5
90
  8
SPEC
  6
CONTINUOUS
 62
     7
 10
-132.41705570797009
 20
344.60095924994141
 30
0.0
 11
-132.41705570797009
 21
284.6009592499413
 31
0.0
  0
LINE
  5
91
  8
SPEC
  6
CONTINUOUS
 62
     7
 10
-132.41705570797009
 20
314.60095924994141
 30
0.0
 11
294.24961095869651
 21
314.60095924994141
 31
0.0
  0
LINE
  5
92
  8
DIMNSIONS
  6
CONTINUOUS
 62
     7
 10
-15.261083162947671
 20
-236.93886149647699
 30
0.0
 11
-61.455044752311579
 21
-217.8046535776638
 31
0.0
  0
LINE
  5
93
  8
DIMNSIONS
  6
CONTINUOUS
 62
     7
 10
81.558204393975046
 20
-3.1969439062202398
 30
0.0
 11
35.364242804611109
 21
15.93726401259295
 31
0.0
  0
LINE
  5
94
  8
DIMNSIONS
  6
CONTINUOUS
 62
     7
 10
-54.064010925547123
 20
-220.86612683326911
 30
0.0
 11
42.75527663137558
 21
12.87579075698771
 31
0.0
  0
LINE
  5
95
  8
DIMNSIONS
  6
CONTINUOUS
 62
     7
 10
-54.064010925547123
 20
-220.86612683326911
 30
0.0
 11
-52.23416195154951
 21
-207.84607484715079
 31
0.0
  0
LINE
  5
96
  8
DIMNSIONS
  6
CONTINUOUS
 62
     7
 10
-54.064010925547123
 20
-220.86612683326911
 30
0.0
 11
-45.969289235917159
 21
-210.50535554169539
 31
0.0
  0
LINE
  5
97
  8
DIMNSIONS
  6
CONTINUOUS
 62
     7
 10
42.75527663137558
 20
12.87579075698771
 30
0.0
 11
41.152937591336091
 21
-0.1742134801621091
 31
0.0
  0
LINE
  5
98
  8
DIMNSIONS
  6
CONTINUOUS
 62
     7
 10
42.75527663137558
 20
12.87579075698771
 30
0.0
 11
34.842608198650893
 21
2.3753250881411381
 31
0.0
  0
TEXT
  5
99
  8
DIMNSIONS
 62
     7
 10
-15.22513281896987
 20
-111.4861394649834
 30
0.0
 40
10.85894097222222
  1
253
 50
67.499954975317237
 41
0.7
 11
-25.257482862409951
 21
-107.330594778171
 31
0.0
 73
     3
  0
TEXT
  5
9A
  8
DIMNSIONS
 62
     7
 10
37.583527861436181
 20
-336.32100075005849
 30
0.0
 40
9.7730468750000004
  1
(単位：mm)
 41
0.7
 11
37.583527861436181
 21
-326.54795387505851
 31
0.0
 73
     3
  0
LINE
  5
9B
  8
DIMNSIONS
  6
CONTINUOUS
 62
     7
 10
47.999999970197671
 20
-232.0
 30
0.0
 11
157.99999997019771
 21
-232.0
 31
0.0
  0
LINE
  5
9C
  8
DIMNSIONS
  6
CONTINUOUS
 62
     7
 10
118.99999997019771
 20
-275.0
 30
0.0
 11
157.99999997019771
 21
-275.0
 31
0.0
  0
LINE
  5
9D
  8
DIMNSIONS
  6
CONTINUOUS
 62
     7
 10
150.0
 20
-232.0
 30
0.0
 11
150.0
 21
-275.0
 31
0.0
  0
LINE
  5
9E
  8
DIMNSIONS
  6
CONTINUOUS
 62
     7
 10
150.0
 20
-232.0
 30
0.0
 11
153.40295474387531
 21
-244.69999999999999
 31
0.0
  0
LINE
  5
9F
  8
DIMNSIONS
  6
CONTINUOUS
 62
     7
 10
150.0
 20
-232.0
 30
0.0
 11
146.59704525612469
 21
-244.69999999999999
 31
0.0
  0
LINE
  5
A0
  8
DIMNSIONS
  6
CONTINUOUS
 62
     7
 10
150.0
 20
-275.0
 30
0.0
 11
146.59704525612469
 21
-262.30000000000013
 31
0.0
  0
LINE
  5
A1
  8
DIMNSIONS
  6
CONTINUOUS
 62
     7
 10
150.0
 20
-275.0
 30
0.0
 11
153.40295474387531
 21
-262.30000000000013
 31
0.0
  0
TEXT
  5
A2
  8
DIMNSIONS
 62
     7
 10
145.02444445562031
 20
-260.5555555555556
 30
0.0
 40
10.85894097222222
  1
43
 50
90.0
 41
0.7
 11
134.16550348339811
 21
-260.5555555555556
 31
0.0
 73
     3
  0
LINE
  5
A3
  8
DIMNSIONS
  6
CONTINUOUS
 62
     7
 10
82.066569000989105
 20
-7.1958949589582062
 30
0.0
 11
97.373906295592704
 21
29.759286341493279
 31
0.0
  0
LINE
  5
A4
  8
DIMNSIONS
  6
CONTINUOUS
 62
     7
 10
93.153123391124552
 20
-11.788096147339269
 30
0.0
 11
108.46046068572809
 21
25.167085153112211
 31
0.0
  0
LINE
  5
A5
  8
DIMNSIONS
  6
CONTINUOUS
 62
     7
 10
105.3989932382122
 20
17.77604892055566
 30
0.0
 11
94.312438848076823
 21
22.368250108936738
 31
0.0
  0
LINE
  5
A6
  8
DIMNSIONS
  6
CONTINUOUS
 62
     7
 10
94.312438848076823
 20
22.368250108936738
 30
0.0
 11
75.834848179265791
 21
30.021918763936799
 31
0.0
  0
LINE
  5
A7
  8
DIMNSIONS
  6
CONTINUOUS
 62
     7
 10
94.312438848076823
 20
22.368250108936738
 30
0.0
 11
81.292386861958519
 21
24.198099082934331
 31
0.0
  0
LINE
  5
A8
  8
DIMNSIONS
  6
CONTINUOUS
 62
     7
 10
94.312438848076823
 20
22.368250108936738
 30
0.0
 11
83.951667556503153
 21
30.462971798566699
 31
0.0
  0
LINE
  5
A9
  8
DIMNSIONS
  6
CONTINUOUS
 62
     7
 10
105.3989932382122
 20
17.77604892055566
 30
0.0
 11
131.69776875143199
 21
6.882739429174606
 31
0.0
  0
LINE
  5
AA
  8
DIMNSIONS
  6
CONTINUOUS
 62
     7
 10
105.3989932382122
 20
17.77604892055566
 30
0.0
 11
118.44899747536211
 21
16.173709880516181
 31
0.0
  0
LINE
  5
AB
  8
DIMNSIONS
  6
CONTINUOUS
 62
     7
 10
105.3989932382122
 20
17.77604892055566
 30
0.0
 11
115.8994589070588
 21
9.8633804878309927
 31
0.0
  0
TEXT
  5
AC
  8
DIMNSIONS
 62
     7
 10
120.9475481194697
 20
17.803521323054738
 30
0.0
 40
10.85894097222222
  1
12
 50
337.5
 41
0.7
 11
125.10308492256959
 21
27.835874632039079
 31
0.0
 73
     3
  0
LINE
  5
AD
  8
DIMNSIONS
  6
CONTINUOUS
 62
     7
 10
92.329840528380757
 20
-4.344999999999998
 30
0.0
 11
187.99999997019759
 21
-4.344999999999998
 31
0.0
  0
LINE
  5
AE
  8
DIMNSIONS
  6
CONTINUOUS
 62
     7
 10
116.49999997019771
 20
-275.0
 30
0.0
 11
187.99999997019759
 21
-275.0
 31
0.0
  0
LINE
  5
AF
  8
DIMNSIONS
  6
CONTINUOUS
 62
     7
 10
180.0
 20
-4.344999999999998
 30
0.0
 11
180.0
 21
-275.0
 31
0.0
  0
LINE
  5
B0
  8
DIMNSIONS
  6
CONTINUOUS
 62
     7
 10
180.0
 20
-4.344999999999998
 30
0.0
 11
183.40295474387531
 21
-17.044999999999991
 31
0.0
  0
LINE
  5
B1
  8
DIMNSIONS
  6
CONTINUOUS
 62
     7
 10
180.0
 20
-4.344999999999998
 30
0.0
 11
176.5970452561248
 21
-17.044999999999991
 31
0.0
  0
LINE
  5
B2
  8
DIMNSIONS
  6
CONTINUOUS
 62
     7
 10
180.0
 20
-275.0
 30
0.0
 11
176.5970452561248
 21
-262.30000000000013
 31
0.0
  0
LINE
  5
B3
  8
DIMNSIONS
  6
CONTINUOUS
 62
     7
 10
180.0
 20
-275.0
 30
0.0
 11
183.40295474387531
 21
-262.30000000000013
 31
0.0
  0
TEXT
  5
B4
  8
DIMNSIONS
 62
     7
 10
174.0244444593456
 20
-150.25583333333341
 30
0.0
 40
10.85894097222222
  1
271
 50
90.0
 41
0.7
 11
163.1655034871234
 21
-150.25583333333341
 31
0.0
 73
     3
  0
LINE
  5
B5
  8
DIMNSIONS
  6
CONTINUOUS
 62
     7
 10
104.6491083798785
 20
188.4305491897785
 30
0.0
 11
157.99999997019771
 21
188.4305491897785
 31
0.0
  0
LINE
  5
B6
  8
DIMNSIONS
  6
CONTINUOUS
 62
     7
 10
104.6491083798787
 20
101.5694508102215
 30
0.0
 11
157.99999997019771
 21
101.5694508102215
 31
0.0
  0
LINE
  5
B7
  8
DIMNSIONS
  6
CONTINUOUS
 62
     7
 10
150.0
 20
188.4305491897785
 30
0.0
 11
150.0
 21
101.5694508102215
 31
0.0
  0
LINE
  5
B8
  8
DIMNSIONS
  6
CONTINUOUS
 62
     7
 10
150.0
 20
188.4305491897785
 30
0.0
 11
153.40295474387531
 21
175.73054918977849
 31
0.0
  0
LINE
  5
B9
  8
DIMNSIONS
  6
CONTINUOUS
 62
     7
 10
150.0
 20
188.4305491897785
 30
0.0
 11
146.59704525612469
 21
175.73054918977849
 31
0.0
  0
LINE
  5
BA
  8
DIMNSIONS
  6
CONTINUOUS
 62
     7
 10
150.0
 20
101.5694508102215
 30
0.0
 11
146.59704525612469
 21
114.2694508102215
 31
0.0
  0
LINE
  5
BB
  8
DIMNSIONS
  6
CONTINUOUS
 62
     7
 10
150.0
 20
101.5694508102215
 30
0.0
 11
153.40295474387531
 21
114.2694508102215
 31
0.0
  0
TEXT
  5
BC
  8
DIMNSIONS
 62
     7
 10
145.02444445562031
 20
137.9444444444444
 30
0.0
 40
10.85894097222222
  1
87
 50
90.0
 41
0.7
 11
134.16550348339811
 21
137.9444444444444
 31
0.0
 73
     3
  0
LINE
  5
BD
  8
DIMNSIONS
  6
CONTINUOUS
 62
     7
 10
-37.000000000000021
 20
118.00000002980229
 30
0.0
 11
-37.000000000000021
 21
57.000000029802287
 31
0.0
  0
LINE
  5
BE
  8
DIMNSIONS
  6
CONTINUOUS
 62
     7
 10
109.4999999999999
 20
137.00000002980229
 30
0.0
 11
109.4999999999999
 21
57.000000029802287
 31
0.0
  0
LINE
  5
BF
  8
DIMNSIONS
  6
CONTINUOUS
 62
     7
 10
-37.000000000000021
 20
64.999999999999972
 30
0.0
 11
109.4999999999999
 21
64.999999999999972
 31
0.0
  0
LINE
  5
C0
  8
DIMNSIONS
  6
CONTINUOUS
 62
     7
 10
-37.000000000000021
 20
64.999999999999972
 30
0.0
 11
-24.30000000000004
 21
68.402954743875213
 31
0.0
  0
LINE
  5
C1
  8
DIMNSIONS
  6
CONTINUOUS
 62
     7
 10
-37.000000000000021
 20
64.999999999999972
 30
0.0
 11
-24.30000000000004
 21
61.597045256124723
 31
0.0
  0
LINE
  5
C2
  8
DIMNSIONS
  6
CONTINUOUS
 62
     7
 10
109.4999999999999
 20
64.999999999999972
 30
0.0
 11
96.799999999999983
 21
61.597045256124723
 31
0.0
  0
LINE
  5
C3
  8
DIMNSIONS
  6
CONTINUOUS
 62
     7
 10
109.4999999999999
 20
64.999999999999972
 30
0.0
 11
96.799999999999983
 21
68.402954743875213
 31
0.0
  0
TEXT
  5
C4
  8
DIMNSIONS
 62
     7
 10
25.66666666666665
 20
69.975555544379645
 30
0.0
 40
10.85894097222222
  1
147
 41
0.7
 11
25.66666666666665
 21
80.834496516601874
 31
0.0
 73
     3
  0
TEXT
  5
C5
  8
DATA
 62
     7
 10
280.91684119476952
 20
-340.87542075005859
 30
0.0
 40
9.7730468749999986
  1
MX410LP/C MX410LP/S + MX400DP
 41
0.7
 11
280.91684119476952
 21
-331.10237387505862
 31
0.0
 73
     3
  0
TEXT
  5
C6
  8
DATA
 62
     7
 10
317.58350786143609
 20
-311.87542075005859
 30
0.0
 40
9.7730468749999986
  1
SHURE
 41
0.7
 11
317.58350786143609
 21
-302.10237387505862
 31
0.0
 73
     3
  0
TEXT
  5
C7
  8
DATA
 62
     7
 10
307.58350786143609
 20
-324.99674963894728
 30
0.0
 40
7.6012586805555546
  1
グ－スネック・マイクロフォン
 41
0.7
 11
307.58350786143609
 21
-317.3954909583918
 31
0.0
 73
     3
  0
LINE
  5
C8
  8
DATA
  6
CONTINUOUS
 62
     7
 10
-9.4903936203026849
 20
-238.7019681015135
 30
0.0
 11
-7.75
 21
-230.0
 31
0.0
  0
LINE
  5
C9
  8
DATA
  6
CONTINUOUS
 62
     7
 10
-35.999999999999957
 20
-275.0
 30
0.0
 11
108.5
 21
-275.0
 31
0.0
  0
LINE
  5
CA
  8
DATA
  6
CONTINUOUS
 62
     7
 10
13.0
 20
-233.0
 30
0.0
 11
40.0
 21
-232.0
 31
0.0
  0
ARC
  5
CB
  8
DATA
  6
CONTINUOUS
 62
     7
 10
-5.2326465323888547
 20
-208.2902380315779
 30
0.0
 40
30.70833333333341
 50
255.34846915215169
 51
306.42258495716572
  0
LINE
  5
CC
  8
DATA
  6
CONTINUOUS
 62
     7
 10
-37.0
 20
-266.0
 30
0.0
 11
-37.0
 21
-267.0
 31
0.0
  0
LINE
  5
CD
  8
DATA
  6
CONTINUOUS
 62
     7
 10
109.5
 20
-266.0
 30
0.0
 11
72.156903765690444
 21
-251.18131101813111
 31
0.0
  0
LINE
  5
CE
  8
DATA
  6
CONTINUOUS
 62
     7
 10
109.4375
 20
-267.5
 30
0.0
 11
-37.000000000000021
 21
-267.5
 31
0.0
  0
LINE
  5
CF
  8
DATA
  6
CONTINUOUS
 62
     7
 10
109.5
 20
-266.0
 30
0.0
 11
-37.0
 21
-266.0
 31
0.0
  0
LINE
  5
D0
  8
DATA
  6
CONTINUOUS
 62
     7
 10
109.5
 20
-267.0
 30
0.0
 11
-37.0
 21
-267.0
 31
0.0
  0
LINE
  5
D1
  8
DATA
  6
CONTINUOUS
 62
     7
 10
109.5
 20
-266.0
 30
0.0
 11
109.5
 21
-267.0
 31
0.0
  0
LINE
  5
D2
  8
DATA
  6
CONTINUOUS
 62
     7
 10
109.4375
 20
-267.5
 30
0.0
 11
108.5
 21
-275.0
 31
0.0
  0
LINE
  5
D3
  8
DATA
  6
CONTINUOUS
 62
     7
 10
109.0
 20
-267.0
 30
0.0
 11
109.0
 21
-267.5
 31
0.0
  0
LINE
  5
D4
  8
DATA
  6
CONTINUOUS
 62
     7
 10
-35.999999999999957
 20
-275.0
 30
0.0
 11
-37.0
 21
-267.5
 31
0.0
  0
LINE
  5
D5
  8
DATA
  6
CONTINUOUS
 62
     7
 10
-36.499999999999972
 20
-267.0
 30
0.0
 11
-36.499999999999972
 21
-267.5
 31
0.0
  0
LINE
  5
D6
  8
DATA
  6
CONTINUOUS
 62
     7
 10
-34.999999999999957
 20
-250.0
 30
0.0
 11
-37.0
 21
-266.0
 31
0.0
  0
LINE
  5
D7
  8
DATA
  6
CONTINUOUS
 62
     7
 10
-13.0
 20
-238.0
 30
0.0
 11
-28.0
 21
-243.0
 31
0.0
  0
ARC
  5
D8
  8
DATA
  6
CONTINUOUS
 62
     7
 10
-24.499999999999972
 20
-253.5
 30
0.0
 40
11.067971810589331
 50
108.4349488229221
 51
161.565051177078
  0
LINE
  5
D9
  8
DATA
  6
CONTINUOUS
 62
     7
 10
40.0
 20
-232.0
 30
0.0
 11
97.0
 21
-266.0
 31
0.0
  0
LINE
  5
DA
  8
DATA
  6
CONTINUOUS
 62
     7
 10
-36.399999999999977
 20
-272.0
 30
0.0
 11
-38.660254037844368
 21
-272.0
 31
0.0
  0
ARC
  5
DB
  8
DATA
  6
CONTINUOUS
 62
     7
 10
-66.375
 20
-275.12500499999197
 30
0.0
 40
4.4194173824159408
 50
135.0000000000002
 51
224.9999999999992
  0
ARC
  5
DC
  8
DATA
  6
CONTINUOUS
 62
     7
 10
-72.625000000000014
 20
-268.87500499999197
 30
0.0
 40
4.4194173824159613
 50
314.99999999999949
 51
45.000183346494218
  0
ARC
  5
DD
  8
DATA
  6
CONTINUOUS
 62
     7
 10
-61.375000000000021
 20
-275.12500499999197
 30
0.0
 40
4.4194173824159009
 50
134.99999999999969
 51
224.9999999999994
  0
ARC
  5
DE
  8
DATA
  6
CONTINUOUS
 62
     7
 10
-67.625000000000014
 20
-268.87500499999197
 30
0.0
 40
4.4194173824159826
 50
314.99999999999972
 51
45.000183346492967
  0
LINE
  5
DF
  8
DATA
  6
CONTINUOUS
 62
     7
 10
-59.999999999999972
 20
-275.0
 30
0.0
 11
-65.792649120287962
 21
-275.0
 31
0.0
  0
LINE
  5
E0
  8
DATA
  6
CONTINUOUS
 62
     7
 10
-70.792649120286796
 20
-275.0
 30
0.0
 11
-79.999999999999972
 21
-275.0
 31
0.0
  0
LINE
  5
E1
  8
DATA
  6
CONTINUOUS
 62
     7
 10
-46.535898384862172
 20
-275.0
 30
0.0
 11
-65.792649120287962
 21
-275.0
 31
0.0
  0
LINE
  5
E2
  8
DATA
  6
CONTINUOUS
 62
     7
 10
-70.792649120286796
 20
-275.0
 30
0.0
 11
-79.999999999999972
 21
-275.0
 31
0.0
  0
LINE
  5
E3
  8
DATA
  6
CONTINUOUS
 62
     7
 10
-41.160254037844361
 20
-272.66987298107779
 30
0.0
 11
-44.035898384862172
 21
-274.33012701892221
 31
0.0
  0
ARC
  5
E4
  8
DATA
  6
CONTINUOUS
 62
     7
 10
-46.535898384862143
 20
-270.0
 30
0.0
 40
5.000000000000056
 50
269.99999999999972
 51
299.99999999999972
  0
ARC
  5
E5
  8
DATA
  6
CONTINUOUS
 62
     7
 10
-38.66025403784441
 20
-277.0
 30
0.0
 40
5.0
 50
89.999999999999687
 51
119.9999999999996
  0
LINE
  5
E6
  8
DATA
  6
CONTINUOUS
 62
     7
 10
-36.399999999999977
 20
-267.5
 30
0.0
 11
-36.499999999999972
 21
-267.5
 31
0.0
  0
LINE
  5
E7
  8
DATA
  6
CONTINUOUS
 62
     7
 10
-37.0
 20
-267.5
 30
0.0
 11
-38.660254037844368
 21
-267.5
 31
0.0
  0
ARC
  5
E8
  8
DATA
  6
CONTINUOUS
 62
     7
 10
-38.66025403784441
 20
-277.0
 30
0.0
 40
9.5
 50
89.999999999999659
 51
119.9999999999995
  0
LINE
  5
E9
  8
DATA
  6
CONTINUOUS
 62
     7
 10
-43.410254037844382
 20
-268.7727586640479
 30
0.0
 11
-46.285898384862172
 21
-270.43301270189221
 31
0.0
  0
ARC
  5
EA
  8
DATA
  6
CONTINUOUS
 62
     7
 10
-46.535898384862143
 20
-270.0
 30
0.0
 40
0.500000000000057
 50
270.0
 51
300.00000000000051
  0
LINE
  5
EB
  8
DATA
  6
CONTINUOUS
 62
     7
 10
-46.535898384862172
 20
-270.5
 30
0.0
 11
-63.515177467340607
 21
-270.5
 31
0.0
  0
LINE
  5
EC
  8
DATA
  6
CONTINUOUS
 62
     7
 10
-68.515177467341132
 20
-270.5
 30
0.0
 11
-79.999999999999972
 21
-270.5
 31
0.0
  0
LINE
  5
ED
  8
DATA
  6
CONTINUOUS
 62
     7
 10
-7.75
 20
-230.0003347520823
 30
0.0
 11
7.7500000000000284
 21
-230.0003347520823
 31
0.0
  0
LINE
  5
EE
  8
DATA
  6
CONTINUOUS
 62
     7
 10
-5.9999999999999707
 20
-228.0003347520823
 30
0.0
 11
6.0000000000000284
 21
-228.0003347520823
 31
0.0
  0
LINE
  5
EF
  8
DATA
  6
CONTINUOUS
 62
     7
 10
-9.4903284934679277
 20
-238.70197721942191
 30
0.0
 11
-7.75
 21
-230.0003347520823
 31
0.0
  0
LINE
  5
F0
  8
DATA
  6
CONTINUOUS
 62
     7
 10
8.8642744690651192
 20
-235.5717070974078
 30
0.0
 11
7.7500000000000284
 21
-230.0003347520823
 31
0.0
  0
LINE
  5
F1
  8
DATA
  6
CONTINUOUS
 62
     7
 10
6.0000000000000284
 20
-228.0003347520823
 30
0.0
 11
7.7500000000000284
 21
-230.0003347520823
 31
0.0
  0
LINE
  5
F2
  8
DATA
  6
CONTINUOUS
 62
     7
 10
-3.9999999999999711
 20
-226.00033475208221
 30
0.0
 11
4.0000000000000284
 21
-226.00033475208221
 31
0.0
  0
LINE
  5
F3
  8
DATA
  6
CONTINUOUS
 62
     7
 10
-3.9999999999999711
 20
-226.00033475208221
 30
0.0
 11
-5.4999999999999707
 21
-228.0003347520823
 31
0.0
  0
LINE
  5
F4
  8
DATA
  6
CONTINUOUS
 62
     7
 10
4.0000000000000284
 20
-226.00033475208221
 30
0.0
 11
5.5000000000000284
 21
-228.0003347520823
 31
0.0
  0
LINE
  5
F5
  8
DATA
  6
CONTINUOUS
 62
     7
 10
-5.9999999999999707
 20
-228.0003347520823
 30
0.0
 11
-7.75
 21
-230.0003347520823
 31
0.0
  0
LINE
  5
F6
  8
DATA
  6
CONTINUOUS
 62
     7
 10
5.0224093497742794
 20
-218.67438822064059
 30
0.0
 11
56.632885541520949
 21
-94.076216322999883
 31
0.0
  0
LINE
  5
F7
  8
DATA
  6
CONTINUOUS
 62
     7
 10
-1.2163859753385671
 20
-214.13772803425221
 30
0.0
 11
49.703789047686293
 21
-91.206090580261673
 31
0.0
  0
LINE
  5
F8
  8
DATA
  6
CONTINUOUS
 62
     7
 10
-3.499999999999972
 20
-226.00033475208221
 30
0.0
 11
-3.499999999999972
 21
-225.6182310052049
 31
0.0
  0
ARC
  5
F9
  8
DATA
  6
CONTINUOUS
 62
     7
 10
26.500000000000028
 20
-225.61823100520499
 30
0.0
 40
30.000000000000011
 50
157.49999999999989
 51
179.99999999999989
  0
ARC
  5
FA
  8
DATA
  6
CONTINUOUS
 62
     7
 10
23.500000000000028
 20
-226.32805686794239
 30
0.0
 40
20.000000000000011
 50
157.5
 51
179.0611032758822
  0
LINE
  5
FB
  8
DATA
  6
CONTINUOUS
 62
     7
 10
56.632885541520949
 20
-94.076216322999883
 30
0.0
 11
49.703789047686293
 21
-91.206090580261673
 31
0.0
  0
LINE
  5
FC
  8
DATA
  6
CONTINUOUS
 62
     7
 10
56.36228749144783
 20
-93.422934840561695
 30
0.0
 11
56.744970923812943
 21
-92.499055308050401
 31
0.0
  0
LINE
  5
FD
  8
DATA
  6
CONTINUOUS
 62
     7
 10
50.931095678672101
 20
-89.549673231421608
 30
0.0
 11
50.548412246307009
 21
-90.473552763932929
 31
0.0
  0
LINE
  5
FE
  8
DATA
  6
CONTINUOUS
 62
     7
 10
50.357070530124481
 20
-90.935492530188583
 30
0.0
 11
50.165728813941911
 21
-91.397432296444208
 31
0.0
  0
LINE
  5
FF
  8
DATA
  6
CONTINUOUS
 62
     7
 10
56.170945775265288
 20
-93.884874606817306
 30
0.0
 11
50.357070530124481
 21
-90.935492530188583
 31
0.0
  0
LINE
  5
100
  8
DATA
  6
CONTINUOUS
 62
     7
 10
55.915066318744692
 20
-93.196059296205618
 30
0.0
 11
55.72372460256215
 21
-93.657999062461244
 31
0.0
  0
LINE
  5
101
  8
DATA
  6
CONTINUOUS
 62
     7
 10
50.995633419010147
 20
-90.700428308289005
 30
0.0
 11
50.804291702827598
 21
-91.162368074544617
 31
0.0
  0
LINE
  5
102
  8
DATA
  6
CONTINUOUS
 62
     7
 10
56.36228749144783
 20
-93.422934840561695
 30
0.0
 11
50.548412246307009
 21
-90.473552763932929
 31
0.0
  0
LINE
  5
103
  8
DATA
  6
CONTINUOUS
 62
     7
 10
56.744970923812943
 20
-92.499055308050401
 30
0.0
 11
50.931095678672101
 21
-89.549673231421608
 31
0.0
  0
LINE
  5
104
  8
DATA
  6
CONTINUOUS
 62
     7
 10
56.936312639995457
 20
-92.037115541794734
 30
0.0
 11
57.318996072360527
 21
-91.113236009283426
 31
0.0
  0
LINE
  5
105
  8
DATA
  6
CONTINUOUS
 62
     7
 10
51.505120827219741
 20
-88.163853932654703
 30
0.0
 11
51.122437394854643
 21
-89.087733465166025
 31
0.0
  0
LINE
  5
106
  8
DATA
  6
CONTINUOUS
 62
     7
 10
56.936312639995457
 20
-92.037115541794734
 30
0.0
 11
51.122437394854643
 21
-89.087733465166025
 31
0.0
  0
LINE
  5
107
  8
DATA
  6
CONTINUOUS
 62
     7
 10
57.318996072360527
 20
-91.113236009283426
 30
0.0
 11
51.505120827219741
 21
-88.163853932654703
 31
0.0
  0
LINE
  5
108
  8
DATA
  6
CONTINUOUS
 62
     7
 10
57.510337788543062
 20
-90.651296243027787
 30
0.0
 11
57.893021220908203
 21
-89.727416710516493
 31
0.0
  0
LINE
  5
109
  8
DATA
  6
CONTINUOUS
 62
     7
 10
52.079145975767382
 20
-86.778034633887785
 30
0.0
 11
51.696462543402291
 21
-87.701914166399064
 31
0.0
  0
LINE
  5
10A
  8
DATA
  6
CONTINUOUS
 62
     7
 10
57.510337788543062
 20
-90.651296243027787
 30
0.0
 11
51.696462543402291
 21
-87.701914166399064
 31
0.0
  0
LINE
  5
10B
  8
DATA
  6
CONTINUOUS
 62
     7
 10
57.893021220908203
 20
-89.727416710516493
 30
0.0
 11
52.079145975767382
 21
-86.778034633887785
 31
0.0
  0
LINE
  5
10C
  8
DATA
  6
CONTINUOUS
 62
     7
 10
58.084362937090731
 20
-89.265476944260897
 30
0.0
 11
58.467046369455787
 21
-88.341597411749589
 31
0.0
  0
LINE
  5
10D
  8
DATA
  6
CONTINUOUS
 62
     7
 10
52.653171124315001
 20
-85.392215335120824
 30
0.0
 11
52.270487691949903
 21
-86.316094867632117
 31
0.0
  0
LINE
  5
10E
  8
DATA
  6
CONTINUOUS
 62
     7
 10
58.084362937090731
 20
-89.265476944260897
 30
0.0
 11
52.270487691949903
 21
-86.316094867632117
 31
0.0
  0
LINE
  5
10F
  8
DATA
  6
CONTINUOUS
 62
     7
 10
58.467046369455787
 20
-88.341597411749589
 30
0.0
 11
52.653171124315001
 21
-85.392215335120824
 31
0.0
  0
LINE
  5
110
  8
DATA
  6
CONTINUOUS
 62
     7
 10
58.658388085638343
 20
-87.879657645493921
 30
0.0
 11
59.041071518003463
 21
-86.955778112982642
 31
0.0
  0
LINE
  5
111
  8
DATA
  6
CONTINUOUS
 62
     7
 10
53.227196272862642
 20
-84.006396036353919
 30
0.0
 11
52.844512840497551
 21
-84.930275568865227
 31
0.0
  0
LINE
  5
112
  8
DATA
  6
CONTINUOUS
 62
     7
 10
58.658388085638343
 20
-87.879657645493921
 30
0.0
 11
52.844512840497551
 21
-84.930275568865227
 31
0.0
  0
LINE
  5
113
  8
DATA
  6
CONTINUOUS
 62
     7
 10
59.041071518003463
 20
-86.955778112982642
 30
0.0
 11
53.227196272862642
 21
-84.006396036353919
 31
0.0
  0
LINE
  5
114
  8
DATA
  6
CONTINUOUS
 62
     7
 10
59.232413234185998
 20
-86.493838346726989
 30
0.0
 11
59.615096666551068
 21
-85.569958814215695
 31
0.0
  0
LINE
  5
115
  8
DATA
  6
CONTINUOUS
 62
     7
 10
53.801221421410283
 20
-82.620576737586987
 30
0.0
 11
53.418537989045177
 21
-83.544456270098266
 31
0.0
  0
LINE
  5
116
  8
DATA
  6
CONTINUOUS
 62
     7
 10
59.232413234185998
 20
-86.493838346726989
 30
0.0
 11
53.418537989045177
 21
-83.544456270098266
 31
0.0
  0
LINE
  5
117
  8
DATA
  6
CONTINUOUS
 62
     7
 10
59.615096666551068
 20
-85.569958814215695
 30
0.0
 11
53.801221421410283
 21
-82.620576737586987
 31
0.0
  0
LINE
  5
118
  8
DATA
  6
CONTINUOUS
 62
     7
 10
59.806438382733653
 20
-85.108019047960084
 30
0.0
 11
60.189121815098723
 21
-84.184139515448805
 31
0.0
  0
LINE
  5
119
  8
DATA
  6
CONTINUOUS
 62
     7
 10
54.375246569957902
 20
-81.234757438820054
 30
0.0
 11
53.992563137592811
 21
-82.158636971331333
 31
0.0
  0
LINE
  5
11A
  8
DATA
  6
CONTINUOUS
 62
     7
 10
59.806438382733653
 20
-85.108019047960084
 30
0.0
 11
53.992563137592811
 21
-82.158636971331333
 31
0.0
  0
LINE
  5
11B
  8
DATA
  6
CONTINUOUS
 62
     7
 10
60.189121815098723
 20
-84.184139515448805
 30
0.0
 11
54.375246569957902
 21
-81.234757438820054
 31
0.0
  0
LINE
  5
11C
  8
DATA
  6
CONTINUOUS
 62
     7
 10
60.380463531281272
 20
-83.722199749193166
 30
0.0
 11
60.763146963646342
 21
-82.798320216681844
 31
0.0
  0
LINE
  5
11D
  8
DATA
  6
CONTINUOUS
 62
     7
 10
54.949271718505528
 20
-79.848938140053164
 30
0.0
 11
54.566588286140451
 21
-80.772817672564443
 31
0.0
  0
LINE
  5
11E
  8
DATA
  6
CONTINUOUS
 62
     7
 10
60.380463531281272
 20
-83.722199749193166
 30
0.0
 11
54.566588286140451
 21
-80.772817672564443
 31
0.0
  0
LINE
  5
11F
  8
DATA
  6
CONTINUOUS
 62
     7
 10
60.763146963646342
 20
-82.798320216681844
 30
0.0
 11
54.949271718505528
 21
-79.848938140053164
 31
0.0
  0
LINE
  5
120
  8
DATA
  6
CONTINUOUS
 62
     7
 10
60.95448867982892
 20
-82.336380450426219
 30
0.0
 11
61.337172112193997
 21
-81.412500917914912
 31
0.0
  0
LINE
  5
121
  8
DATA
  6
CONTINUOUS
 62
     7
 10
55.523296867053169
 20
-78.463118841286189
 30
0.0
 11
55.140613434688099
 21
-79.386998373797482
 31
0.0
  0
LINE
  5
122
  8
DATA
  6
CONTINUOUS
 62
     7
 10
60.95448867982892
 20
-82.336380450426219
 30
0.0
 11
55.140613434688099
 21
-79.386998373797482
 31
0.0
  0
LINE
  5
123
  8
DATA
  6
CONTINUOUS
 62
     7
 10
61.337172112193997
 20
-81.412500917914912
 30
0.0
 11
55.523296867053169
 21
-78.463118841286189
 31
0.0
  0
LINE
  5
124
  8
DATA
  6
CONTINUOUS
 62
     7
 10
61.528513828376532
 20
-80.950561151659272
 30
0.0
 11
61.911197260741631
 21
-80.026681619147993
 31
0.0
  0
LINE
  5
125
  8
DATA
  6
CONTINUOUS
 62
     7
 10
56.09732201560081
 20
-77.077299542519256
 30
0.0
 11
55.714638583235711
 21
-78.001179075030564
 31
0.0
  0
LINE
  5
126
  8
DATA
  6
CONTINUOUS
 62
     7
 10
61.528513828376532
 20
-80.950561151659272
 30
0.0
 11
55.714638583235711
 21
-78.001179075030564
 31
0.0
  0
LINE
  5
127
  8
DATA
  6
CONTINUOUS
 62
     7
 10
61.911197260741631
 20
-80.026681619147993
 30
0.0
 11
56.09732201560081
 21
-77.077299542519256
 31
0.0
  0
LINE
  5
128
  8
DATA
  6
CONTINUOUS
 62
     7
 10
62.102538976924173
 20
-79.56474185289234
 30
0.0
 11
62.485222409289257
 21
-78.640862320381061
 31
0.0
  0
LINE
  5
129
  8
DATA
  6
CONTINUOUS
 62
     7
 10
56.671347164148429
 20
-75.691480243752352
 30
0.0
 11
56.288663731783373
 21
-76.615359776263631
 31
0.0
  0
LINE
  5
12A
  8
DATA
  6
CONTINUOUS
 62
     7
 10
62.102538976924173
 20
-79.56474185289234
 30
0.0
 11
56.288663731783373
 21
-76.615359776263631
 31
0.0
  0
LINE
  5
12B
  8
DATA
  6
CONTINUOUS
 62
     7
 10
62.485222409289257
 20
-78.640862320381061
 30
0.0
 11
56.671347164148429
 21
-75.691480243752352
 31
0.0
  0
LINE
  5
12C
  8
DATA
  6
CONTINUOUS
 62
     7
 10
62.676564125471792
 20
-78.178922554125435
 30
0.0
 11
63.059247557836891
 21
-77.255043021614142
 31
0.0
  0
LINE
  5
12D
  8
DATA
  6
CONTINUOUS
 62
     7
 10
57.245372312696048
 20
-74.305660944985419
 30
0.0
 11
56.862688880331007
 21
-75.229540477496698
 31
0.0
  0
LINE
  5
12E
  8
DATA
  6
CONTINUOUS
 62
     7
 10
62.676564125471792
 20
-78.178922554125435
 30
0.0
 11
56.862688880331007
 21
-75.229540477496698
 31
0.0
  0
LINE
  5
12F
  8
DATA
  6
CONTINUOUS
 62
     7
 10
63.059247557836891
 20
-77.255043021614142
 30
0.0
 11
57.245372312696048
 21
-74.305660944985419
 31
0.0
  0
LINE
  5
130
  8
DATA
  6
CONTINUOUS
 62
     7
 10
63.250589274019461
 20
-76.793103255358503
 30
0.0
 11
63.633272706384531
 21
-75.86922372284721
 31
0.0
  0
LINE
  5
131
  8
DATA
  6
CONTINUOUS
 62
     7
 10
57.819397461243717
 20
-72.919841646218487
 30
0.0
 11
57.436714028878583
 21
-73.843721178729766
 31
0.0
  0
LINE
  5
132
  8
DATA
  6
CONTINUOUS
 62
     7
 10
63.250589274019461
 20
-76.793103255358503
 30
0.0
 11
57.436714028878583
 21
-73.843721178729766
 31
0.0
  0
LINE
  5
133
  8
DATA
  6
CONTINUOUS
 62
     7
 10
63.633272706384531
 20
-75.86922372284721
 30
0.0
 11
57.819397461243717
 21
-72.919841646218487
 31
0.0
  0
LINE
  5
134
  8
DATA
  6
CONTINUOUS
 62
     7
 10
63.824614422567059
 20
-75.407283956591556
 30
0.0
 11
64.207297854932179
 21
-74.483404424080263
 31
0.0
  0
LINE
  5
135
  8
DATA
  6
CONTINUOUS
 62
     7
 10
58.393422609791372
 20
-71.53402234745154
 30
0.0
 11
58.010739177426252
 21
-72.457901879962819
 31
0.0
  0
LINE
  5
136
  8
DATA
  6
CONTINUOUS
 62
     7
 10
63.824614422567059
 20
-75.407283956591556
 30
0.0
 11
58.010739177426252
 21
-72.457901879962819
 31
0.0
  0
LINE
  5
137
  8
DATA
  6
CONTINUOUS
 62
     7
 10
64.207297854932179
 20
-74.483404424080263
 30
0.0
 11
58.393422609791372
 21
-71.53402234745154
 31
0.0
  0
LINE
  5
138
  8
DATA
  6
CONTINUOUS
 62
     7
 10
64.398639571114728
 20
-74.021464657824666
 30
0.0
 11
64.781323003479784
 21
-73.097585125313373
 31
0.0
  0
LINE
  5
139
  8
DATA
  6
CONTINUOUS
 62
     7
 10
58.967447758338977
 20
-70.148203048684621
 30
0.0
 11
58.5847643259739
 21
-71.072082581195914
 31
0.0
  0
LINE
  5
13A
  8
DATA
  6
CONTINUOUS
 62
     7
 10
64.398639571114728
 20
-74.021464657824666
 30
0.0
 11
58.5847643259739
 21
-71.072082581195914
 31
0.0
  0
LINE
  5
13B
  8
DATA
  6
CONTINUOUS
 62
     7
 10
64.781323003479784
 20
-73.097585125313373
 30
0.0
 11
58.967447758338977
 21
-70.148203048684621
 31
0.0
  0
LINE
  5
13C
  8
DATA
  6
CONTINUOUS
 62
     7
 10
64.972664719662362
 20
-72.63564535905769
 30
0.0
 11
65.35534815202746
 21
-71.711765826546397
 31
0.0
  0
LINE
  5
13D
  8
DATA
  6
CONTINUOUS
 62
     7
 10
59.541472906886568
 20
-68.762383749917689
 30
0.0
 11
59.158789474521498
 21
-69.686263282428996
 31
0.0
  0
LINE
  5
13E
  8
DATA
  6
CONTINUOUS
 62
     7
 10
64.972664719662362
 20
-72.63564535905769
 30
0.0
 11
59.158789474521498
 21
-69.686263282428996
 31
0.0
  0
LINE
  5
13F
  8
DATA
  6
CONTINUOUS
 62
     7
 10
65.35534815202746
 20
-71.711765826546397
 30
0.0
 11
59.541472906886568
 21
-68.762383749917689
 31
0.0
  0
LINE
  5
140
  8
DATA
  6
CONTINUOUS
 62
     7
 10
65.546689868209995
 20
-71.249826060290772
 30
0.0
 11
65.929373300575065
 21
-70.325946527779479
 31
0.0
  0
LINE
  5
141
  8
DATA
  6
CONTINUOUS
 62
     7
 10
60.115498055434237
 20
-67.376564451150756
 30
0.0
 11
59.732814623069181
 21
-68.300443983662035
 31
0.0
  0
LINE
  5
142
  8
DATA
  6
CONTINUOUS
 62
     7
 10
65.546689868209995
 20
-71.249826060290772
 30
0.0
 11
59.732814623069181
 21
-68.300443983662035
 31
0.0
  0
LINE
  5
143
  8
DATA
  6
CONTINUOUS
 62
     7
 10
65.929373300575065
 20
-70.325946527779479
 30
0.0
 11
60.115498055434237
 21
-67.376564451150756
 31
0.0
  0
LINE
  5
144
  8
DATA
  6
CONTINUOUS
 62
     7
 10
66.120715016757629
 20
-69.864006761523854
 30
0.0
 11
66.503398449122727
 21
-68.940127229012575
 31
0.0
  0
LINE
  5
145
  8
DATA
  6
CONTINUOUS
 62
     7
 10
60.689523203981899
 20
-65.990745152383823
 30
0.0
 11
60.306839771616787
 21
-66.914624684895102
 31
0.0
  0
LINE
  5
146
  8
DATA
  6
CONTINUOUS
 62
     7
 10
66.120715016757629
 20
-69.864006761523854
 30
0.0
 11
60.306839771616787
 21
-66.914624684895102
 31
0.0
  0
LINE
  5
147
  8
DATA
  6
CONTINUOUS
 62
     7
 10
66.503398449122727
 20
-68.940127229012575
 30
0.0
 11
60.689523203981899
 21
-65.990745152383823
 31
0.0
  0
LINE
  5
148
  8
DATA
  6
CONTINUOUS
 62
     7
 10
66.694740165305262
 20
-68.478187462756921
 30
0.0
 11
67.077423597670332
 21
-67.554307930245614
 31
0.0
  0
LINE
  5
149
  8
DATA
  6
CONTINUOUS
 62
     7
 10
61.263548352529497
 20
-64.604925853616905
 30
0.0
 11
60.880864920164441
 21
-65.528805386128212
 31
0.0
  0
LINE
  5
14A
  8
DATA
  6
CONTINUOUS
 62
     7
 10
66.694740165305262
 20
-68.478187462756921
 30
0.0
 11
60.880864920164441
 21
-65.528805386128212
 31
0.0
  0
LINE
  5
14B
  8
DATA
  6
CONTINUOUS
 62
     7
 10
67.077423597670332
 20
-67.554307930245614
 30
0.0
 11
61.263548352529497
 21
-64.604925853616905
 31
0.0
  0
LINE
  5
14C
  8
DATA
  6
CONTINUOUS
 62
     7
 10
67.268765313852896
 20
-67.092368163989974
 30
0.0
 11
67.651448746217966
 21
-66.168488631478681
 31
0.0
  0
LINE
  5
14D
  8
DATA
  6
CONTINUOUS
 62
     7
 10
61.837573501077173
 20
-63.219106554849951
 30
0.0
 11
61.454890068712047
 21
-64.142986087361265
 31
0.0
  0
LINE
  5
14E
  8
DATA
  6
CONTINUOUS
 62
     7
 10
67.268765313852896
 20
-67.092368163989974
 30
0.0
 11
61.454890068712047
 21
-64.142986087361265
 31
0.0
  0
LINE
  5
14F
  8
DATA
  6
CONTINUOUS
 62
     7
 10
67.651448746217966
 20
-66.168488631478681
 30
0.0
 11
61.837573501077173
 21
-63.219106554849951
 31
0.0
  0
LINE
  5
150
  8
DATA
  6
CONTINUOUS
 62
     7
 10
67.842790462400529
 20
-65.70654886522307
 30
0.0
 11
68.225473894765599
 21
-64.782669332711777
 31
0.0
  0
LINE
  5
151
  8
DATA
  6
CONTINUOUS
 62
     7
 10
62.411598649624807
 20
-61.833287256083061
 30
0.0
 11
62.028915217259701
 21
-62.757166788594333
 31
0.0
  0
LINE
  5
152
  8
DATA
  6
CONTINUOUS
 62
     7
 10
67.842790462400529
 20
-65.70654886522307
 30
0.0
 11
62.028915217259701
 21
-62.757166788594333
 31
0.0
  0
LINE
  5
153
  8
DATA
  6
CONTINUOUS
 62
     7
 10
68.225473894765599
 20
-64.782669332711777
 30
0.0
 11
62.411598649624807
 21
-61.833287256083061
 31
0.0
  0
LINE
  5
154
  8
DATA
  6
CONTINUOUS
 62
     7
 10
68.416815610948149
 20
-64.320729566456123
 30
0.0
 11
68.799499043313261
 21
-63.396850033944851
 31
0.0
  0
LINE
  5
155
  8
DATA
  6
CONTINUOUS
 62
     7
 10
62.985623798172433
 20
-60.447467957316121
 30
0.0
 11
62.602940365807342
 21
-61.371347489827393
 31
0.0
  0
LINE
  5
156
  8
DATA
  6
CONTINUOUS
 62
     7
 10
68.416815610948149
 20
-64.320729566456123
 30
0.0
 11
62.602940365807342
 21
-61.371347489827393
 31
0.0
  0
LINE
  5
157
  8
DATA
  6
CONTINUOUS
 62
     7
 10
68.799499043313261
 20
-63.396850033944851
 30
0.0
 11
62.985623798172433
 21
-60.447467957316121
 31
0.0
  0
LINE
  5
158
  8
DATA
  6
CONTINUOUS
 62
     7
 10
68.990840759495796
 20
-62.934910267689219
 30
0.0
 11
69.373524191860866
 21
-62.011030735177911
 31
0.0
  0
LINE
  5
159
  8
DATA
  6
CONTINUOUS
 62
     7
 10
63.559648946720067
 20
-59.061648658549153
 30
0.0
 11
63.176965514354968
 21
-59.985528191060467
 31
0.0
  0
LINE
  5
15A
  8
DATA
  6
CONTINUOUS
 62
     7
 10
68.990840759495796
 20
-62.934910267689219
 30
0.0
 11
63.176965514354968
 21
-59.985528191060467
 31
0.0
  0
LINE
  5
15B
  8
DATA
  6
CONTINUOUS
 62
     7
 10
69.373524191860866
 20
-62.011030735177911
 30
0.0
 11
63.559648946720067
 21
-59.061648658549153
 31
0.0
  0
LINE
  5
15C
  8
DATA
  6
CONTINUOUS
 62
     7
 10
69.56486590804343
 20
-61.549090968922258
 30
0.0
 11
69.947549340408528
 21
-60.625211436410979
 31
0.0
  0
LINE
  5
15D
  8
DATA
  6
CONTINUOUS
 62
     7
 10
64.133674095267693
 20
-57.675829359782249
 30
0.0
 11
63.750990662902609
 21
-58.599708892293549
 31
0.0
  0
LINE
  5
15E
  8
DATA
  6
CONTINUOUS
 62
     7
 10
69.56486590804343
 20
-61.549090968922258
 30
0.0
 11
63.750990662902609
 21
-58.599708892293549
 31
0.0
  0
LINE
  5
15F
  8
DATA
  6
CONTINUOUS
 62
     7
 10
69.947549340408528
 20
-60.625211436410979
 30
0.0
 11
64.133674095267693
 21
-57.675829359782249
 31
0.0
  0
LINE
  5
160
  8
DATA
  6
CONTINUOUS
 62
     7
 10
70.138891056591063
 20
-60.16327167015536
 30
0.0
 11
70.521574488956162
 21
-59.239392137644082
 31
0.0
  0
LINE
  5
161
  8
DATA
  6
CONTINUOUS
 62
     7
 10
64.707699243815341
 20
-56.290010061015323
 30
0.0
 11
64.325015811450243
 21
-57.213889593526602
 31
0.0
  0
LINE
  5
162
  8
DATA
  6
CONTINUOUS
 62
     7
 10
70.138891056591063
 20
-60.16327167015536
 30
0.0
 11
64.325015811450243
 21
-57.213889593526602
 31
0.0
  0
LINE
  5
163
  8
DATA
  6
CONTINUOUS
 62
     7
 10
70.521574488956162
 20
-59.239392137644082
 30
0.0
 11
64.707699243815341
 21
-56.290010061015323
 31
0.0
  0
LINE
  5
164
  8
DATA
  6
CONTINUOUS
 62
     7
 10
56.489091467292319
 20
-91.810239997438686
 30
0.0
 11
56.297749751109791
 21
-92.272179763694311
 31
0.0
  0
LINE
  5
165
  8
DATA
  6
CONTINUOUS
 62
     7
 10
51.569658567557809
 20
-89.314609009522059
 30
0.0
 11
51.378316851375239
 21
-89.776548775777684
 31
0.0
  0
LINE
  5
166
  8
DATA
  6
CONTINUOUS
 62
     7
 10
52.1436837161054
 20
-87.928789710755126
 30
0.0
 11
51.952341999922879
 21
-88.39072947701078
 31
0.0
  0
LINE
  5
167
  8
DATA
  6
CONTINUOUS
 62
     7
 10
52.717708864653083
 20
-86.542970411988179
 30
0.0
 11
52.526367148470499
 21
-87.004910178243847
 31
0.0
  0
LINE
  5
168
  8
DATA
  6
CONTINUOUS
 62
     7
 10
53.29173401320071
 20
-85.157151113221261
 30
0.0
 11
53.100392297018139
 21
-85.619090879476914
 31
0.0
  0
LINE
  5
169
  8
DATA
  6
CONTINUOUS
 62
     7
 10
53.865759161748322
 20
-83.771331814454356
 30
0.0
 11
53.67441744556578
 21
-84.233271580709982
 31
0.0
  0
LINE
  5
16A
  8
DATA
  6
CONTINUOUS
 62
     7
 10
54.43978431029597
 20
-82.385512515687424
 30
0.0
 11
54.248442594113399
 21
-82.847452281943063
 31
0.0
  0
LINE
  5
16B
  8
DATA
  6
CONTINUOUS
 62
     7
 10
55.01380945884361
 20
-80.999693216920448
 30
0.0
 11
54.822467742661047
 21
-81.461632983176102
 31
0.0
  0
LINE
  5
16C
  8
DATA
  6
CONTINUOUS
 62
     7
 10
55.587834607391251
 20
-79.61387391815353
 30
0.0
 11
55.39649289120868
 21
-80.075813684409184
 31
0.0
  0
LINE
  5
16D
  8
DATA
  6
CONTINUOUS
 62
     7
 10
56.161859755938877
 20
-78.228054619386626
 30
0.0
 11
55.970518039756307
 21
-78.689994385642265
 31
0.0
  0
LINE
  5
16E
  8
DATA
  6
CONTINUOUS
 62
     7
 10
56.735884904486511
 20
-76.842235320619693
 30
0.0
 11
56.544543188303969
 21
-77.304175086875347
 31
0.0
  0
LINE
  5
16F
  8
DATA
  6
CONTINUOUS
 62
     7
 10
57.309910053034152
 20
-75.456416021852775
 30
0.0
 11
57.118568336851602
 21
-75.918355788108371
 31
0.0
  0
LINE
  5
170
  8
DATA
  6
CONTINUOUS
 62
     7
 10
57.883935201581757
 20
-74.070596723085814
 30
0.0
 11
57.692593485399222
 21
-74.532536489341453
 31
0.0
  0
LINE
  5
171
  8
DATA
  6
CONTINUOUS
 62
     7
 10
58.457960350129397
 20
-72.684777424318895
 30
0.0
 11
58.266618633946877
 21
-73.146717190574563
 31
0.0
  0
LINE
  5
172
  8
DATA
  6
CONTINUOUS
 62
     7
 10
59.031985498677031
 20
-71.298958125551948
 30
0.0
 11
58.840643782494482
 21
-71.760897891807616
 31
0.0
  0
LINE
  5
173
  8
DATA
  6
CONTINUOUS
 62
     7
 10
59.606010647224679
 20
-69.91313882678503
 30
0.0
 11
59.414668931042087
 21
-70.375078593040683
 31
0.0
  0
LINE
  5
174
  8
DATA
  6
CONTINUOUS
 62
     7
 10
60.180035795772291
 20
-68.527319528018097
 30
0.0
 11
59.988694079589749
 21
-68.989259294273751
 31
0.0
  0
LINE
  5
175
  8
DATA
  6
CONTINUOUS
 62
     7
 10
60.754060944319932
 20
-67.141500229251164
 30
0.0
 11
60.562719228137411
 21
-67.603439995506804
 31
0.0
  0
LINE
  5
176
  8
DATA
  6
CONTINUOUS
 62
     7
 10
61.328086092867551
 20
-65.755680930484232
 30
0.0
 11
61.13674437668503
 21
-66.2176206967399
 31
0.0
  0
LINE
  5
177
  8
DATA
  6
CONTINUOUS
 62
     7
 10
61.902111241415213
 20
-64.369861631717299
 30
0.0
 11
61.710769525232678
 21
-64.831801397972953
 31
0.0
  0
LINE
  5
178
  8
DATA
  6
CONTINUOUS
 62
     7
 10
62.476136389962853
 20
-62.984042332950402
 30
0.0
 11
62.284794673780311
 21
-63.445982099206027
 31
0.0
  0
LINE
  5
179
  8
DATA
  6
CONTINUOUS
 62
     7
 10
63.050161538510473
 20
-61.598223034183462
 30
0.0
 11
62.858819822327938
 21
-62.060162800439109
 31
0.0
  0
LINE
  5
17A
  8
DATA
  6
CONTINUOUS
 62
     7
 10
63.624186687058099
 20
-60.21240373541653
 30
0.0
 11
63.432844970875578
 21
-60.674343501672148
 31
0.0
  0
LINE
  5
17B
  8
DATA
  6
CONTINUOUS
 62
     7
 10
64.198211835605747
 20
-58.826584436649597
 30
0.0
 11
64.006870119423212
 21
-59.288524202905251
 31
0.0
  0
LINE
  5
17C
  8
DATA
  6
CONTINUOUS
 62
     7
 10
64.77223698415338
 20
-57.44076513788265
 30
0.0
 11
64.580895267970845
 21
-57.902704904138311
 31
0.0
  0
LINE
  5
17D
  8
DATA
  6
CONTINUOUS
 62
     7
 10
65.169639010070995
 20
-56.481351777197887
 30
0.0
 11
65.154920416518479
 21
-56.516885605371357
 31
0.0
  0
LINE
  5
17E
  8
DATA
  6
CONTINUOUS
 62
     7
 10
71.174855971394351
 20
-58.968794087570963
 30
0.0
 11
64.245759477559673
 21
-56.098668344832802
 31
0.0
  0
LINE
  5
17F
  8
DATA
  6
CONTINUOUS
 62
     7
 10
75.813484445264535
 20
-51.689843209772683
 30
0.0
 11
66.112749353896021
 21
-47.671667169939212
 31
0.0
  0
LINE
  5
180
  8
DATA
  6
CONTINUOUS
 62
     7
 10
75.813484445264535
 20
-51.689843209772683
 30
0.0
 11
71.174855971394351
 21
-58.968794087570963
 31
0.0
  0
LINE
  5
181
  8
DATA
  6
CONTINUOUS
 62
     7
 10
66.112749353896021
 20
-47.671667169939212
 30
0.0
 11
64.245759477559673
 21
-56.098668344832802
 31
0.0
  0
LINE
  5
182
  8
DATA
  6
CONTINUOUS
 62
     7
 10
76.100497019538352
 20
-50.996933560389166
 30
0.0
 11
66.399761928169852
 21
-46.978757520555753
 31
0.0
  0
LINE
  5
183
  8
DATA
  6
CONTINUOUS
 62
     7
 10
76.100497019538352
 20
-50.996933560389166
 30
0.0
 11
78.013914181363788
 21
-46.37753589783275
 31
0.0
  0
LINE
  5
184
  8
DATA
  6
CONTINUOUS
 62
     7
 10
78.013914181363788
 20
-46.37753589783275
 30
0.0
 11
68.313179089995288
 21
-42.359359857999287
 31
0.0
  0
LINE
  5
185
  8
DATA
  6
CONTINUOUS
 62
     7
 10
68.313179089995288
 20
-42.359359857999287
 30
0.0
 11
66.399761928169852
 21
-46.978757520555753
 31
0.0
  0
LINE
  5
186
  8
DATA
  6
CONTINUOUS
 62
     7
 10
80.118673059371787
 20
-41.29619846902068
 30
0.0
 11
70.417937968003301
 21
-37.278022429187217
 31
0.0
  0
LINE
  5
187
  8
DATA
  6
CONTINUOUS
 62
     7
 10
80.118673059371787
 20
-41.29619846902068
 30
0.0
 11
82.032090221197251
 21
-36.676800806464229
 31
0.0
  0
LINE
  5
188
  8
DATA
  6
CONTINUOUS
 62
     7
 10
82.032090221197251
 20
-36.676800806464229
 30
0.0
 11
72.331355129828722
 21
-32.65862476663083
 31
0.0
  0
LINE
  5
189
  8
DATA
  6
CONTINUOUS
 62
     7
 10
72.331355129828722
 20
-32.65862476663083
 30
0.0
 11
70.417937968003301
 21
-37.278022429187217
 31
0.0
  0
LINE
  5
18A
  8
DATA
  6
CONTINUOUS
 62
     7
 10
77.090034648852523
 20
-45.994852465467687
 30
0.0
 11
77.664059797400142
 21
-44.609033166700719
 31
0.0
  0
LINE
  5
18B
  8
DATA
  6
CONTINUOUS
 62
     7
 10
77.855401513582663
 20
-44.147093400445101
 30
0.0
 11
78.429426662130325
 21
-42.761274101678161
 31
0.0
  0
LINE
  5
18C
  8
DATA
  6
CONTINUOUS
 62
     7
 10
78.62076837831286
 20
-42.299334335422522
 30
0.0
 11
79.194793526860494
 21
-40.91351503665561
 31
0.0
  0
LINE
  5
18D
  8
DATA
  6
CONTINUOUS
 62
     7
 10
69.237058622506567
 20
-42.742043290364393
 30
0.0
 11
69.811083771054228
 21
-41.356223991597489
 31
0.0
  0
LINE
  5
18E
  8
DATA
  6
CONTINUOUS
 62
     7
 10
70.002425487236778
 20
-40.894284225341842
 30
0.0
 11
70.576450635784411
 21
-39.508464926574902
 31
0.0
  0
LINE
  5
18F
  8
DATA
  6
CONTINUOUS
 62
     7
 10
70.767792351966932
 20
-39.046525160319291
 30
0.0
 11
71.341817500514566
 21
-37.660705861552323
 31
0.0
  0
LINE
  5
190
  8
DATA
  6
CONTINUOUS
 62
     7
 10
78.58793932991145
 20
-44.991716599065832
 30
0.0
 11
68.887204238542921
 21
-40.97354055923239
 31
0.0
  0
LINE
  5
191
  8
DATA
  6
CONTINUOUS
 62
     7
 10
78.779281046093985
 20
-44.529776832810192
 30
0.0
 11
69.078545954725456
 21
-40.511600792976722
 31
0.0
  0
LINE
  5
192
  8
DATA
  6
CONTINUOUS
 62
     7
 10
79.353306194641632
 20
-43.143957534043267
 30
0.0
 11
69.652571103273104
 21
-39.125781494209832
 31
0.0
  0
LINE
  5
193
  8
DATA
  6
CONTINUOUS
 62
     7
 10
79.544647910824139
 20
-42.682017767787592
 30
0.0
 11
69.843912819455653
 21
-38.663841727954171
 31
0.0
  0
LINE
  5
194
  8
DATA
  6
CONTINUOUS
 62
     7
 10
79.544647910824139
 20
-42.682017767787592
 30
0.0
 11
79.353306194641632
 21
-43.143957534043267
 31
0.0
  0
LINE
  5
195
  8
DATA
  6
CONTINUOUS
 62
     7
 10
78.779281046093985
 20
-44.529776832810192
 30
0.0
 11
78.58793932991145
 21
-44.991716599065832
 31
0.0
  0
LINE
  5
196
  8
DATA
  6
CONTINUOUS
 62
     7
 10
69.843912819455653
 20
-38.663841727954171
 30
0.0
 11
69.652571103273104
 21
-39.125781494209832
 31
0.0
  0
LINE
  5
197
  8
DATA
  6
CONTINUOUS
 62
     7
 10
69.078545954725456
 20
-40.511600792976722
 30
0.0
 11
68.887204238542921
 21
-40.97354055923239
 31
0.0
  0
LINE
  5
198
  8
DATA
  6
CONTINUOUS
 62
     7
 10
75.638557253282684
 20
-50.805591844206639
 30
0.0
 11
75.35154467900891
 21
-51.498501493590112
 31
0.0
  0
LINE
  5
199
  8
DATA
  6
CONTINUOUS
 62
     7
 10
66.861701694425463
 20
-47.170099236738281
 30
0.0
 11
66.574689120151675
 21
-47.863008886121769
 31
0.0
  0
LINE
  5
19A
  8
DATA
  6
CONTINUOUS
 62
     7
 10
82.550072678598866
 20
-36.079562015172051
 30
0.0
 11
72.387397820974698
 21
-31.87004425915606
 31
0.0
  0
LINE
  5
19B
  8
DATA
  6
CONTINUOUS
 62
     7
 10
84.925429606679984
 20
-31.65150606879817
 30
0.0
 11
73.838875216544537
 21
-27.059304880417098
 31
0.0
  0
LINE
  5
19C
  8
DATA
  6
CONTINUOUS
 62
     7
 10
84.925429606679984
 20
-31.65150606879817
 30
0.0
 11
82.550072678598866
 21
-36.079562015172051
 31
0.0
  0
LINE
  5
19D
  8
DATA
  6
CONTINUOUS
 62
     7
 10
73.838875216544537
 20
-27.059304880417098
 30
0.0
 11
72.387397820974698
 21
-31.87004425915606
 31
0.0
  0
LINE
  5
19E
  8
DATA
  6
CONTINUOUS
 62
     7
 10
85.499454755227603
 20
-30.265686770031241
 30
0.0
 11
74.412900365092142
 21
-25.673485581650151
 31
0.0
  0
LINE
  5
19F
  8
DATA
  6
CONTINUOUS
 62
     7
 10
91.239706240703924
 20
-16.407493782361939
 30
0.0
 11
84.925429606679984
 21
-31.65150606879817
 31
0.0
  0
LINE
  5
1A0
  8
DATA
  6
CONTINUOUS
 62
     7
 10
80.15315185056852
 20
-11.815292593980869
 30
0.0
 11
73.838875216544537
 21
-27.059304880417098
 31
0.0
  0
LINE
  5
1A1
  8
DATA
  6
CONTINUOUS
 62
     7
 10
90.091655943608686
 20
-19.179132379895801
 30
0.0
 11
79.005101553473253
 21
-14.586931191514729
 31
0.0
  0
LINE
  5
1A2
  8
DATA
  6
CONTINUOUS
 62
     7
 10
90.857022808338868
 20
-17.331373314873211
 30
0.0
 11
79.770468418203421
 21
-12.73917212649215
 31
0.0
  0
LINE
  5
1A3
  8
DATA
  6
CONTINUOUS
 62
     7
 10
91.239706240703924
 20
-16.407493782361939
 30
0.0
 11
80.15315185056852
 21
-11.815292593980869
 31
0.0
  0
LINE
  5
1A4
  8
DATA
  6
CONTINUOUS
 62
     7
 10
91.160449906813412
 20
-15.2922725336681
 30
0.0
 11
80.997775049189244
 21
-11.0827547776521
 31
0.0
  0
LINE
  5
1A5
  8
DATA
  6
CONTINUOUS
 62
     7
 10
91.239706240703924
 20
-16.407493782361939
 30
0.0
 11
91.160449906813412
 21
-15.2922725336681
 31
0.0
  0
LINE
  5
1A6
  8
DATA
  6
CONTINUOUS
 62
     7
 10
80.997775049189244
 20
-11.0827547776521
 30
0.0
 11
80.15315185056852
 21
-11.815292593980869
 31
0.0
  0
LINE
  5
1A7
  8
DATA
  6
CONTINUOUS
 62
     7
 10
92.045852388755662
 20
-14.61287931405025
 30
0.0
 11
91.160449906813412
 21
-15.2922725336681
 31
0.0
  0
LINE
  5
1A8
  8
DATA
  6
CONTINUOUS
 62
     7
 10
93.568635883295954
 20
-8.1718343236508968
 30
0.0
 11
84.329840558183065
 21
-4.344999999999998
 31
0.0
  0
LINE
  5
1A9
  8
DATA
  6
CONTINUOUS
 62
     7
 10
93.568635883295954
 20
-8.1718343236508968
 30
0.0
 11
92.005073105434136
 21
-14.559734717339349
 31
0.0
  0
LINE
  5
1AA
  8
DATA
  6
CONTINUOUS
 62
     7
 10
92.005073105434136
 20
-14.559734717339349
 30
0.0
 11
80.918518715298674
 21
-9.9675335289582847
 31
0.0
  0
LINE
  5
1AB
  8
DATA
  6
CONTINUOUS
 62
     7
 10
84.329840558183065
 20
-4.344999999999998
 30
0.0
 11
80.918518715298674
 21
-9.9675335289582847
 31
0.0
  0
LINE
  5
1AC
  8
DATA
  6
CONTINUOUS
 62
     7
 10
80.918518715298674
 20
-9.9675335289582847
 30
0.0
 11
80.997775049189244
 21
-11.0827547776521
 31
0.0
  0
LINE
  5
1AD
  8
DATA
  6
CONTINUOUS
 62
     7
 10
81.570150454941583
 20
-36.485459090281722
 30
0.0
 11
81.857163029215428
 21
-35.792549440898263
 31
0.0
  0
LINE
  5
1AE
  8
DATA
  6
CONTINUOUS
 62
     7
 10
72.793294896084376
 20
-32.849966482813329
 30
0.0
 11
73.080307470358193
 21
-32.157056833429891
 31
0.0
  0
LINE
  5
1AF
  8
DATA
  6
CONTINUOUS
 62
     7
 10
92.03790215383556
 20
-11.86735245369607
 30
0.0
 11
88.342384023790459
 21
-10.33661872423567
 31
0.0
  0
LINE
  5
1B0
  8
DATA
  6
CONTINUOUS
 62
     7
 10
86.494624958767858
 20
-9.5712518595055052
 30
0.0
 11
82.799106828722685
 21
-8.0405181300451716
 31
0.0
  0
LINE
  5
1B1
  8
DATA
  6
CONTINUOUS
 62
     7
 10
91.655218721470504
 20
-12.79123198620735
 30
0.0
 11
87.959700591425303
 21
-11.260498256746979
 31
0.0
  0
LINE
  5
1B2
  8
DATA
  6
CONTINUOUS
 62
     7
 10
86.111941526402759
 20
-10.495131392016811
 30
0.0
 11
82.416423396357587
 21
-8.9643976625564488
 31
0.0
  0
LINE
  5
1B3
  8
DATA
  6
CONTINUOUS
 62
     7
 10
88.342384023790459
 20
-10.33661872423567
 30
0.0
 11
87.959700591425303
 21
-11.260498256746979
 31
0.0
  0
LINE
  5
1B4
  8
DATA
  6
CONTINUOUS
 62
     7
 10
86.494624958767858
 20
-9.5712518595055052
 30
0.0
 11
86.111941526402759
 21
-10.495131392016811
 31
0.0
  0
LINE
  5
1B5
  8
DATA
  6
CONTINUOUS
 62
     7
 10
82.799106828722685
 20
-8.0405181300451716
 30
0.0
 11
82.416423396357587
 21
-8.9643976625564488
 31
0.0
  0
LINE
  5
1B6
  8
DATA
  6
CONTINUOUS
 62
     7
 10
92.03790215383556
 20
-11.86735245369607
 30
0.0
 11
91.655218721470504
 21
-12.79123198620735
 31
0.0
  0
LINE
  5
1B7
  8
DATA
  6
CONTINUOUS
 62
     7
 10
57.063116615839952
 20
-90.424420698671753
 30
0.0
 11
56.871774899657417
 21
-90.886360464927407
 31
0.0
  0
LINE
  5
1B8
  8
DATA
  6
CONTINUOUS
 62
     7
 10
57.637141764387572
 20
-89.038601399904834
 30
0.0
 11
57.445800048205029
 21
-89.500541166160446
 31
0.0
  0
LINE
  5
1B9
  8
DATA
  6
CONTINUOUS
 62
     7
 10
58.211166912935212
 20
-87.652782101137888
 30
0.0
 11
58.019825196752691
 21
-88.114721867393555
 31
0.0
  0
LINE
  5
1BA
  8
DATA
  6
CONTINUOUS
 62
     7
 10
58.785192061482832
 20
-86.266962802370927
 30
0.0
 11
58.593850345300289
 21
-86.728902568626609
 31
0.0
  0
LINE
  5
1BB
  8
DATA
  6
CONTINUOUS
 62
     7
 10
59.359217210030501
 20
-84.881143503604051
 30
0.0
 11
59.167875493847959
 21
-85.343083269859662
 31
0.0
  0
LINE
  5
1BC
  8
DATA
  6
CONTINUOUS
 62
     7
 10
59.933242358578099
 20
-83.495324204837104
 30
0.0
 11
59.741900642395571
 21
-83.957263971092758
 31
0.0
  0
LINE
  5
1BD
  8
DATA
  6
CONTINUOUS
 62
     7
 10
60.507267507125761
 20
-82.109504906070185
 30
0.0
 11
60.315925790943218
 21
-82.571444672325811
 31
0.0
  0
LINE
  5
1BE
  8
DATA
  6
CONTINUOUS
 62
     7
 10
61.081292655673373
 20
-80.723685607303253
 30
0.0
 11
60.889950939490816
 21
-81.185625373558878
 31
0.0
  0
LINE
  5
1BF
  8
DATA
  6
CONTINUOUS
 62
     7
 10
61.655317804221028
 20
-79.337866308536306
 30
0.0
 11
61.463976088038493
 21
-79.79980607479196
 31
0.0
  0
LINE
  5
1C0
  8
DATA
  6
CONTINUOUS
 62
     7
 10
62.229342952768661
 20
-77.952047009769373
 30
0.0
 11
62.038001236586133
 21
-78.413986776025013
 31
0.0
  0
LINE
  5
1C1
  8
DATA
  6
CONTINUOUS
 62
     7
 10
62.803368101316302
 20
-76.566227711002455
 30
0.0
 11
62.61202638513376
 21
-77.028167477258108
 31
0.0
  0
LINE
  5
1C2
  8
DATA
  6
CONTINUOUS
 62
     7
 10
63.377393249863957
 20
-75.180408412235522
 30
0.0
 11
63.186051533681393
 21
-75.642348178491176
 31
0.0
  0
LINE
  5
1C3
  8
DATA
  6
CONTINUOUS
 62
     7
 10
63.951418398411562
 20
-73.794589113468604
 30
0.0
 11
63.760076682229041
 21
-74.256528879724229
 31
0.0
  0
LINE
  5
1C4
  8
DATA
  6
CONTINUOUS
 62
     7
 10
64.525443546959224
 20
-72.408769814701657
 30
0.0
 11
64.33410183077666
 21
-72.87070958095731
 31
0.0
  0
LINE
  5
1C5
  8
DATA
  6
CONTINUOUS
 62
     7
 10
65.099468695506815
 20
-71.02295051593471
 30
0.0
 11
64.908126979324294
 21
-71.484890282190364
 31
0.0
  0
LINE
  5
1C6
  8
DATA
  6
CONTINUOUS
 62
     7
 10
65.673493844054462
 20
-69.63713121716782
 30
0.0
 11
65.482152127871956
 21
-70.099070983423445
 31
0.0
  0
LINE
  5
1C7
  8
DATA
  6
CONTINUOUS
 62
     7
 10
66.247518992602124
 20
-68.251311918400845
 30
0.0
 11
66.056177276419561
 21
-68.713251684656541
 31
0.0
  0
LINE
  5
1C8
  8
DATA
  6
CONTINUOUS
 62
     7
 10
66.821544141149744
 20
-66.865492619633955
 30
0.0
 11
66.630202424967223
 21
-67.32743238588958
 31
0.0
  0
LINE
  5
1C9
  8
DATA
  6
CONTINUOUS
 62
     7
 10
67.395569289697391
 20
-65.479673320867022
 30
0.0
 11
67.204227573514814
 21
-65.941613087122647
 31
0.0
  0
LINE
  5
1CA
  8
DATA
  6
CONTINUOUS
 62
     7
 10
67.969594438245025
 20
-64.093854022100089
 30
0.0
 11
67.778252722062462
 21
-64.555793788355743
 31
0.0
  0
LINE
  5
1CB
  8
DATA
  6
CONTINUOUS
 62
     7
 10
68.543619586792659
 20
-62.708034723333157
 30
0.0
 11
68.352277870610109
 21
-63.169974489588782
 31
0.0
  0
LINE
  5
1CC
  8
DATA
  6
CONTINUOUS
 62
     7
 10
69.117644735340292
 20
-61.322215424566231
 30
0.0
 11
68.926303019157757
 21
-61.784155190821892
 31
0.0
  0
LINE
  5
1CD
  8
DATA
  6
CONTINUOUS
 62
     7
 10
69.691669883887926
 20
-59.936396125799291
 30
0.0
 11
69.500328167705334
 21
-60.398335892054952
 31
0.0
  0
LINE
  5
1CE
  8
DATA
  6
CONTINUOUS
 62
     7
 10
70.250976438883043
 20
-58.586110655205879
 30
0.0
 11
70.074353316253024
 21
-59.012516593287977
 31
0.0
  0
CIRCLE
  5
1CF
  8
DATA
  6
CONTINUOUS
 62
     7
 10
0.0000000000000284
 20
145.0
 30
0.0
 40
9.9999999999999432
  0
CIRCLE
  5
1D0
  8
DATA
  6
CONTINUOUS
 62
     7
 10
0.0000000000000284
 20
145.0
 30
0.0
 40
12.99999999999994
  0
LINE
  5
1D1
  8
DATA
  6
CONTINUOUS
 62
     7
 10
-37.000000000000021
 20
163.99999999999989
 30
0.0
 11
-37.000000000000021
 21
125.9999999999999
 31
0.0
  0
ARC
  5
1D2
  8
DATA
  6
CONTINUOUS
 62
     7
 10
-24.337843816631931
 20
161.65405943496859
 30
0.0
 40
12.87764094648808
 50
106.521850489678
 51
169.5037245186885
  0
ARC
  5
1D3
  8
DATA
  6
CONTINUOUS
 62
     7
 10
-24.337843816631931
 20
128.34594056503141
 30
0.0
 40
12.8776409464881
 50
190.4962754813119
 51
253.47814951032211
  0
ARC
  5
1D4
  8
DATA
  6
CONTINUOUS
 62
     7
 10
88.674376484560526
 20
575.77048693586687
 30
0.0
 40
474.34355775672248
 50
255.76082363654371
 51
270.90662181586589
  0
ARC
  5
1D5
  8
DATA
  6
CONTINUOUS
 62
     7
 10
64.093749999999972
 20
145.0
 30
0.0
 40
27.09375
 50
123.8550261282941
 51
236.1449738717059
  0
ARC
  5
1D6
  8
DATA
  6
CONTINUOUS
 62
     7
 10
120.2901639344263
 20
220.09180327868859
 30
0.0
 40
120.8571369054538
 50
233.85211982117639
 51
258.7195473892171
  0
ARC
  5
1D7
  8
DATA
  6
CONTINUOUS
 62
     7
 10
120.2901639344263
 20
69.908196721311484
 30
0.0
 40
120.8571369054538
 50
101.280452610783
 51
126.1478801788236
  0
ARC
  5
1D8
  8
DATA
  6
CONTINUOUS
 62
     7
 10
89.449999999999903
 20
145.0
 30
0.0
 40
40.449999999999918
 50
159.75065668920439
 51
200.24934331079569
  0
ARC
  5
1D9
  8
DATA
  6
CONTINUOUS
 62
     7
 10
111.1137136541405
 20
173.1075922462166
 30
0.0
 40
72.985232618739374
 50
215.23511697716251
 51
245.2559168900645
  0
ARC
  5
1DA
  8
DATA
  6
CONTINUOUS
 62
     7
 10
111.1137136541405
 20
116.8924077537833
 30
0.0
 40
72.985232618739374
 50
114.7440831099355
 51
144.76488302283741
  0
ARC
  5
1DB
  8
DATA
  6
CONTINUOUS
 62
     7
 10
62.086760339236797
 20
145.0
 30
0.0
 40
42.413239660763203
 50
294.24010684926122
 51
342.20787722323269
  0
ARC
  5
1DC
  8
DATA
  6
CONTINUOUS
 62
     7
 10
19.999999999999972
 20
145.0
 30
0.0
 40
24.999999999999961
 50
126.86989764584401
 51
149.85987571022221
  0
ARC
  5
1DD
  8
DATA
  6
CONTINUOUS
 62
     7
 10
19.999999999999972
 20
145.0
 30
0.0
 40
24.999999999999972
 50
210.1401242897777
 51
233.13010235415609
  0
ARC
  5
1DE
  8
DATA
  6
CONTINUOUS
 62
     7
 10
100.1249999999999
 20
145.0
 30
0.0
 40
6.6249999999999689
 50
148.1092081981547
 51
211.8907918018464
  0
ARC
  5
1DF
  8
DATA
  6
CONTINUOUS
 62
     7
 10
110.1596699141101
 20
154.6302475644174
 30
0.0
 40
20.435964937378849
 50
219.97900438246
 51
246.2812003258517
  0
ARC
  5
1E0
  8
DATA
  6
CONTINUOUS
 62
     7
 10
102.7280536428389
 20
136.99999999999989
 30
0.0
 40
1.3369368901483609
 50
233.84718228982129
 51
306.15281771014901
  0
ARC
  5
1E1
  8
DATA
  6
CONTINUOUS
 62
     7
 10
110.1596699141101
 20
135.3697524355826
 30
0.0
 40
20.435964937378792
 50
113.7187996741482
 51
140.02099561754019
  0
ARC
  5
1E2
  8
DATA
  6
CONTINUOUS
 62
     7
 10
102.7280536428389
 20
153.0
 30
0.0
 40
1.336936890148392
 50
53.847182289852462
 51
126.1528177101773
  0
ARC
  5
1E3
  8
DATA
  6
CONTINUOUS
 62
     7
 10
100.1249999999999
 20
145.0
 30
0.0
 40
8.6249999999999414
 50
148.10920819815431
 51
211.89079180184601
  0
ARC
  5
1E4
  8
DATA
  6
CONTINUOUS
 62
     7
 10
110.1596699141101
 20
154.6302475644174
 30
0.0
 40
22.43596493737877
 50
219.25979245577801
 51
247.61241339981439
  0
ARC
  5
1E5
  8
DATA
  6
CONTINUOUS
 62
     7
 10
101.0431775082688
 20
157.50162952944109
 30
0.0
 40
1.500000000000048
 50
292.38758660018487
 51
17.792122776765211
  0
ARC
  5
1E6
  8
DATA
  6
CONTINUOUS
 62
     7
 10
62.086760339236797
 20
145.0
 30
0.0
 40
42.413239660763203
 50
17.792122776766991
 51
65.759893150738776
  0
ARC
  5
1E7
  8
DATA
  6
CONTINUOUS
 62
     7
 10
110.1596699141101
 20
135.3697524355826
 30
0.0
 40
22.435964937378721
 50
112.3875866001857
 51
140.74020754422219
  0
ARC
  5
1E8
  8
DATA
  6
CONTINUOUS
 62
     7
 10
101.0431775082687
 20
132.4983704705588
 30
0.0
 40
1.5000000000000311
 50
342.2078772232328
 51
67.612413399812283
  0
ARC
  5
1E9
  8
DATA
  6
CONTINUOUS
 62
     7
 10
62.086760339236797
 20
145.0
 30
0.0
 40
42.413239660763203
 50
347.6388860523108
 51
12.3611139476892
  0
TEXT
  5
1EA
  8
DATA
 62
     7
 10
100.38233333333331
 20
140.76666666666659
 30
0.0
 40
3.7041666666666648
  1
PUSH
 50
90.0
 41
0.7
 11
96.678166666666655
 21
140.76666666666659
 31
0.0
 73
     3
  0
ARC
  5
1EB
  8
DATA
  6
CONTINUOUS
 62
     7
 10
96.156121200650503
 20
187.0138757582047
 30
0.0
 40
1.499999999998755
 50
31.486711039557981
 51
89.093378184161125
  0
ARC
  5
1EC
  8
DATA
  6
CONTINUOUS
 62
     7
 10
88.674376484560526
 20
-285.77048693586681
 30
0.0
 40
474.34355775672242
 50
89.093378184134025
 51
104.23917636345629
  0
ARC
  5
1ED
  8
DATA
  6
CONTINUOUS
 62
     7
 10
96.156121200649864
 20
102.9861242417966
 30
0.0
 40
1.4999999999999361
 50
270.9066218158643
 51
328.51328896041372
  0
ARC
  5
1EE
  8
DATA
  6
CONTINUOUS
 62
     7
 10
27.55999999999997
 20
145.0
 30
0.0
 40
81.940000000000026
 50
328.513288960414
 51
31.486711039586108
  0
ARC
  5
1EF
  8
DATA
  6
CONTINUOUS
 62
     7
 10
78.026576877419686
 20
258.3955163382837
 30
0.0
 40
152.07644363803041
 50
241.30176308549829
 51
270.55513033560862
  0
ARC
  5
1F0
  8
DATA
  6
CONTINUOUS
 62
     7
 10
78.026576877419686
 20
31.60448366171622
 30
0.0
 40
152.07644363803041
 50
89.444869664391362
 51
118.69823691450171
  0
LINE
  5
1F1
  8
DATA
  6
CONTINUOUS
 62
     7
 10
-68.293068127271141
 20
147.25
 30
0.0
 11
-90.750000000000043
 21
147.25
 31
0.0
  0
LINE
  5
1F2
  8
DATA
  6
CONTINUOUS
 62
     7
 10
-70.706929852846784
 20
142.75
 30
0.0
 11
-90.750000000000043
 21
142.75
 31
0.0
  0
ARC
  5
1F3
  8
DATA
  6
CONTINUOUS
 62
     7
 10
-66.375000000000014
 20
141.874995000008
 30
0.0
 40
4.4194173824159213
 50
135.0
 51
224.9999999999994
  0
ARC
  5
1F4
  8
DATA
  6
CONTINUOUS
 62
     7
 10
-72.625000000000014
 20
148.124995000008
 30
0.0
 40
4.4194173824159613
 50
314.99999999999949
 51
45.000183346494516
  0
ARC
  5
1F5
  8
DATA
  6
CONTINUOUS
 62
     7
 10
-61.375000000000021
 20
141.874995000008
 30
0.0
 40
4.4194173824159213
 50
135.0
 51
224.9999999999994
  0
ARC
  5
1F6
  8
DATA
  6
CONTINUOUS
 62
     7
 10
-67.625000000000014
 20
148.124995000008
 30
0.0
 40
4.4194173824159613
 50
314.99999999999949
 51
45.000183346492932
  0
LINE
  5
1F7
  8
DATA
  6
CONTINUOUS
 62
     7
 10
-107.0
 20
34.999999999999957
 30
0.0
 11
-88.000000000000043
 21
34.999999999999957
 31
0.0
  0
LINE
  5
1F8
  8
DATA
  6
CONTINUOUS
 62
     7
 10
-105.5
 20
81.999999999999972
 30
0.0
 11
-89.500000000000043
 21
81.999999999999972
 31
0.0
  0
LINE
  5
1F9
  8
DATA
  6
CONTINUOUS
 62
     7
 10
-105.5
 20
81.999999999999972
 30
0.0
 11
-107.0
 21
34.999999999999957
 31
0.0
  0
LINE
  5
1FA
  8
DATA
  6
CONTINUOUS
 62
     7
 10
-89.500000000000043
 20
81.999999999999972
 30
0.0
 11
-88.000000000000043
 21
34.999999999999957
 31
0.0
  0
LINE
  5
1FB
  8
DATA
  6
CONTINUOUS
 62
     7
 10
-101.0
 20
114.0
 30
0.0
 11
-94.000000000000028
 21
114.0
 31
0.0
  0
LINE
  5
1FC
  8
DATA
  6
CONTINUOUS
 62
     7
 10
-101.0
 20
114.0
 30
0.0
 11
-101.0
 21
109.9999999999999
 31
0.0
  0
LINE
  5
1FD
  8
DATA
  6
CONTINUOUS
 62
     7
 10
-94.000000000000028
 20
114.0
 30
0.0
 11
-94.000000000000028
 21
109.9999999999999
 31
0.0
  0
LINE
  5
1FE
  8
DATA
  6
CONTINUOUS
 62
     7
 10
-104.0
 20
84.000000000000028
 30
0.0
 11
-104.0
 21
81.999999999999972
 31
0.0
  0
LINE
  5
1FF
  8
DATA
  6
CONTINUOUS
 62
     7
 10
-91.000000000000043
 20
84.000000000000028
 30
0.0
 11
-91.000000000000043
 21
81.999999999999972
 31
0.0
  0
ARC
  5
200
  8
DATA
  6
CONTINUOUS
 62
     7
 10
-273.50000000000063
 20
116.7307692307692
 30
0.0
 40
172.6312638383848
 50
349.07059843726239
 51
357.7655122523816
  0
ARC
  5
201
  8
DATA
  6
CONTINUOUS
 62
     7
 10
78.50000000000054
 20
116.7307692307692
 30
0.0
 40
172.63126383838491
 50
182.23448774761829
 51
190.92940156273761
  0
LINE
  5
202
  8
DATA
  6
CONTINUOUS
 62
     7
 10
-99.750000000000043
 20
114.0
 30
0.0
 11
-99.750000000000043
 21
138.25
 31
0.0
  0
LINE
  5
203
  8
DATA
  6
CONTINUOUS
 62
     7
 10
-95.250000000000028
 20
114.0
 30
0.0
 11
-95.250000000000028
 21
138.25
 31
0.0
  0
ARC
  5
204
  8
DATA
  6
CONTINUOUS
 62
     7
 10
-90.750000000000043
 20
138.25
 30
0.0
 40
4.5
 50
90.0
 51
180.0
  0
ARC
  5
205
  8
DATA
  6
CONTINUOUS
 62
     7
 10
-90.750000000000043
 20
138.25
 30
0.0
 40
9.0
 50
90.0
 51
180.0
  0
LINE
  5
206
  8
DATA
  6
CONTINUOUS
 62
     7
 10
-37.000000000000021
 20
147.25
 30
0.0
 11
-63.293068127271127
 21
147.25
 31
0.0
  0
LINE
  5
207
  8
DATA
  6
CONTINUOUS
 62
     7
 10
-37.000000000000021
 20
142.75
 30
0.0
 11
-65.706929852847367
 21
142.75
 31
0.0
  0
ENDSEC
  0
EOF
