  0
SECTION
  2
HEADER
  9
$ACADVER
  1
AC1009
  9
$INSBASE
 10
0.0
 20
0.0
 30
0.0
  9
$EXTMIN
 10
-230.0220220206011
 20
-255.48749005757239
 30
-0.0015258207003583
  9
$EXTMAX
 10
490.02188328950882
 20
815.03262723174737
 30
0.0000000349246037
  9
$LIMMIN
 10
0.0
 20
0.0
  9
$LIMMAX
 10
0.0
 20
0.0
  9
$ORTHOMODE
 70
     0
  9
$REGENMODE
 70
     1
  9
$FILLMODE
 70
     1
  9
$QTEXTMODE
 70
     0
  9
$MIRRTEXT
 70
     1
  9
$DRAGMODE
 70
     2
  9
$LTSCALE
 40
20.32
  9
$OSMODE
 70
   231
  9
$ATTMODE
 70
     1
  9
$TEXTSIZE
 40
0.0
  9
$TRACEWID
 40
1.0
  9
$TEXTSTYLE
  7
STANDARD
  9
$CLAYER
  8
DATA
  9
$CELTYPE
  6
BYLAYER
  9
$CECOLOR
 62
   256
  9
$DIMSCALE
 40
1.0
  9
$DIMASZ
 40
0.18
  9
$DIMEXO
 40
0.0625
  9
$DIMDLI
 40
0.38
  9
$DIMRND
 40
0.0
  9
$DIMDLE
 40
0.0
  9
$DIMEXE
 40
0.18
  9
$DIMTP
 40
0.0
  9
$DIMTM
 40
0.0
  9
$DIMTXT
 40
0.18
  9
$DIMCEN
 40
0.09
  9
$DIMTSZ
 40
0.0
  9
$DIMTOL
 70
     0
  9
$DIMLIM
 70
     0
  9
$DIMTIH
 70
     1
  9
$DIMTOH
 70
     1
  9
$DIMSE1
 70
     0
  9
$DIMSE2
 70
     0
  9
$DIMTAD
 70
     0
  9
$DIMZIN
 70
     0
  9
$DIMBLK
  1

  9
$DIMASO
 70
     1
  9
$DIMSHO
 70
     1
  9
$DIMPOST
  1

  9
$DIMAPOST
  1

  9
$DIMALT
 70
     0
  9
$DIMALTD
 70
     2
  9
$DIMALTF
 40
25.399999999999999
  9
$DIMLFAC
 40
1.0
  9
$DIMTOFL
 70
     0
  9
$DIMTVP
 40
0.0
  9
$DIMTIX
 70
     0
  9
$DIMSOXD
 70
     0
  9
$DIMSAH
 70
     0
  9
$DIMBLK1
  1

  9
$DIMBLK2
  1

  9
$DIMSTYLE
  2
STANDARD
  9
$DIMCLRD
 70
     0
  9
$DIMCLRE
 70
     0
  9
$DIMCLRT
 70
     0
  9
$DIMTFAC
 40
1.0
  9
$DIMGAP
 40
0.09
  9
$LUNITS
 70
     2
  9
$LUPREC
 70
     4
  9
$SKETCHINC
 40
0.1
  9
$FILLETRAD
 40
0.0
  9
$AUNITS
 70
     0
  9
$AUPREC
 70
     0
  9
$MENU
  1
acad
  9
$ELEVATION
 40
0.0
  9
$PELEVATION
 40
0.0
  9
$THICKNESS
 40
0.0
  9
$LIMCHECK
 70
     0
  9
$BLIPMODE
 70
     0
  9
$CHAMFERA
 40
0.0
  9
$CHAMFERB
 40
0.0
  9
$SKPOLY
 70
     0
  9
$TDCREATE
 40
2454490.7548379628
  9
$TDUPDATE
 40
2454490.7592665739
  9
$TDINDWG
 40
0.0002560995
  9
$TDUSRTIMER
 40
0.0002559259
  9
$USRTIMER
 70
     1
  9
$ANGBASE
 50
0.0
  9
$ANGDIR
 70
     0
  9
$PDMODE
 70
     1
  9
$PDSIZE
 40
-2.0
  9
$PLINEWID
 40
0.0
  9
$COORDS
 70
     1
  9
$SPLFRAME
 70
     0
  9
$SPLINETYPE
 70
     6
  9
$SPLINESEGS
 70
     8
  9
$ATTDIA
 70
     0
  9
$ATTREQ
 70
     1
  9
$HANDLING
 70
     1
  9
$HANDSEED
  5
31E
  9
$SURFTAB1
 70
     6
  9
$SURFTAB2
 70
     6
  9
$SURFTYPE
 70
     6
  9
$SURFU
 70
     6
  9
$SURFV
 70
     6
  9
$UCSNAME
  2

  9
$UCSORG
 10
0.0
 20
0.0
 30
0.0
  9
$UCSXDIR
 10
1.0
 20
0.0
 30
0.0
  9
$UCSYDIR
 10
0.0
 20
1.0
 30
0.0
  9
$PUCSNAME
  2

  9
$PUCSORG
 10
0.0
 20
0.0
 30
0.0
  9
$PUCSXDIR
 10
1.0
 20
0.0
 30
0.0
  9
$PUCSYDIR
 10
0.0
 20
1.0
 30
0.0
  9
$USERI1
 70
     0
  9
$USERI2
 70
     0
  9
$USERI3
 70
     0
  9
$USERI4
 70
     0
  9
$USERI5
 70
     0
  9
$USERR1
 40
0.0
  9
$USERR2
 40
0.0
  9
$USERR3
 40
0.0
  9
$USERR4
 40
0.0
  9
$USERR5
 40
0.0
  9
$WORLDVIEW
 70
     1
  9
$SHADEDGE
 70
     3
  9
$SHADEDIF
 70
    70
  9
$TILEMODE
 70
     1
  9
$MAXACTVP
 70
    64
  9
$PLIMCHECK
 70
     0
  9
$PEXTMIN
 10
1.0000000000000000E+020
 20
1.0000000000000000E+020
 30
1.0000000000000000E+020
  9
$PEXTMAX
 10
-1.0000000000000000E+020
 20
-1.0000000000000000E+020
 30
-1.0000000000000000E+020
  9
$PLIMMIN
 10
0.0
 20
0.0
  9
$PLIMMAX
 10
12.0
 20
9.0
  9
$UNITMODE
 70
     0
  9
$VISRETAIN
 70
     0
  9
$PLINEGEN
 70
     1
  9
$PSLTSCALE
 70
     0
  0
ENDSEC
  0
SECTION
  2
TABLES
  0
TABLE
  2
VPORT
 70
     1
  0
VPORT
  2
*ACTIVE
 70
     0
 10
0.0
 20
0.0
 11
1.0
 21
1.0
 12
129.9999306344541
 22
279.77256858708751
 13
0.0
 23
0.0
 14
1.0
 24
1.0
 15
0.0
 25
0.0
 16
0.0
 26
0.0
 36
1.0
 17
0.0
 27
0.0
 37
0.0
 40
1079.404101665164
 41
1.6703601108033239
 42
50.0
 43
0.0
 44
0.0
 50
0.0
 51
0.0
 71
     0
 72
  2000
 73
     1
 74
     1
 75
     0
 76
     0
 77
     0
 78
     0
  0
ENDTAB
  0
TABLE
  2
LTYPE
 70
    11
  0
LTYPE
  2
CONTINUOUS
 70
     0
  3
Solid line
 72
    65
 73
     0
 40
0.0
  0
LTYPE
  2
STYLE_01
 70
     0
  3

 72
    65
 73
     2
 40
0.4166412353515625
 49
0.208282470703125
 49
-0.2083587646484375
  0
ENDTAB
  0
TABLE
  2
LAYER
 70
     5
  0
LAYER
  2
0
 70
     0
 62
     7
  6
CONTINUOUS
  0
LAYER
  2
DATA
 70
     0
 62
     7
  6
CONTINUOUS
  0
LAYER
  2
HIBINO-BASE
 70
     0
 62
     7
  6
CONTINUOUS
  0
LAYER
  2
SPEC
 70
     0
 62
     7
  6
CONTINUOUS
  0
LAYER
  2
DIMNSIONS
 70
     0
 62
     7
  6
CONTINUOUS
  0
ENDTAB
  0
TABLE
  2
STYLE
 70
     2
  0
STYLE
  2
STANDARD
 70
     0
 40
0.0
 41
1.0
 50
0.0
 71
     0
 42
0.0
  3
txt
  4
BIGFONT.SHX
  0
ENDTAB
  0
TABLE
  2
VIEW
 70
     0
  0
ENDTAB
  0
TABLE
  2
UCS
 70
     0
  0
ENDTAB
  0
TABLE
  2
APPID
 70
     1
  0
APPID
  2
ACAD
 70
     0
  0
ENDTAB
  0
TABLE
  2
DIMSTYLE
 70
     1
  0
DIMSTYLE
  2
STANDARD
 70
     0
  3

  4

  5

  6

  7

 40
1.0
 41
0.18
 42
0.0625
 43
0.38
 44
0.18
 45
0.0
 46
0.0
 47
0.0
 48
0.0
140
0.18
141
0.09
142
0.0
143
25.399999999999999
144
1.0
145
0.0
146
1.0
147
0.09
 71
     0
 72
     0
 73
     1
 74
     1
 75
     0
 76
     0
 77
     0
 78
     0
170
     0
171
     2
172
     0
173
     0
174
     0
175
     0
176
     0
177
     0
178
     0
  0
ENDTAB
  0
ENDSEC
  0
SECTION
  2
BLOCKS
  0
BLOCK
  8
0
  2
$MODEL_SPACE
 70
     0
 10
0.0
 20
0.0
 30
0.0
  3
$MODEL_SPACE
  1

  0
ENDBLK
  5
2F1
  8
0
  0
BLOCK
 67
     1
  8
0
  2
$PAPER_SPACE
 70
     0
 10
0.0
 20
0.0
 30
0.0
  3
$PAPER_SPACE
  1

  0
ENDBLK
  5
2ED
 67
     1
  8
0
  0
ENDSEC
  0
SECTION
  2
ENTITIES
  0
LINE
  5
2C
  8
HIBINO-BASE
  6
CONTINUOUS
 62
     7
 10
-230.0000510419267
 20
815.00002420798614
 30
0.0
 11
489.99990895807321
 21
815.00002420798614
 31
0.0
  0
LINE
  5
2D
  8
HIBINO-BASE
  6
CONTINUOUS
 62
     7
 10
489.99990895807321
 20
-224.99989579201369
 30
0.0
 11
-230.0000510419267
 21
-224.99989579201369
 31
0.0
  0
LINE
  5
2E
  8
HIBINO-BASE
  6
CONTINUOUS
 62
     7
 10
-230.0000510419267
 20
-224.99989579201369
 30
0.0
 11
-230.0000510419267
 21
815.00002420798614
 31
0.0
  0
TEXT
  5
2F
  8
HIBINO-BASE
 62
     7
 10
-201.26403104192681
 20
-250.63455539201371
 30
0.0
 40
14.400130546874999
  1
Hibino Corporation
 41
0.7
 11
-201.26403104192681
 21
-236.2344248451387
 31
0.0
 73
     3
  0
LINE
  5
30
  8
HIBINO-BASE
  6
CONTINUOUS
 62
     7
 10
489.99990895807321
 20
815.00002420798614
 30
0.0
 11
489.99990895807321
 21
-224.99989579201369
 31
0.0
  0
LINE
  5
31
  8
HIBINO-BASE
  6
CONTINUOUS
 62
     7
 10
129.99992895807321
 20
-134.9999157920137
 30
0.0
 11
489.99990895807321
 21
-134.9999157920137
 31
0.0
  0
LINE
  5
32
  8
HIBINO-BASE
  6
CONTINUOUS
 62
     7
 10
129.99992895807321
 20
-224.99989579201369
 30
0.0
 11
129.99992895807321
 21
-134.9999157920137
 31
0.0
  0
TEXT
  5
33
  8
HIBINO-BASE
 62
     7
 10
133.59988895807319
 20
-145.79992859201371
 30
0.0
 40
7.2001037500000002
  1
NOTE
 41
0.7
 11
133.59988895807319
 21
-138.59982484201359
 31
0.0
 73
     3
  0
LINE
  5
34
  8
HIBINO-BASE
  6
CONTINUOUS
 62
     7
 10
269.99992895807333
 20
-224.99989579201369
 30
0.0
 11
269.99992895807333
 21
-134.9999157920137
 31
0.0
  0
TEXT
  5
35
  8
HIBINO-BASE
 62
     7
 10
273.59992895807318
 20
-145.79992859201371
 30
0.0
 40
7.2001037500000002
  1
TITLE
 41
0.7
 11
273.59992895807318
 21
-138.59982484201359
 31
0.0
 73
     3
  0
TEXT
  5
36
  8
HIBINO-BASE
 62
     7
 10
330.27344895807317
 20
-250.63455539201371
 30
0.0
 40
14.400130546874999
  1
ヒビノ株式会社
 41
0.7
 11
330.27344895807317
 21
-236.2344248451387
 31
0.0
 73
     3
  0
LINE
  5
37
  8
HIBINO-BASE
  6
CONTINUOUS
 62
     7
 10
129.99992895807321
 20
-184.9999157920137
 30
0.0
 11
489.99990895807321
 21
-184.9999157920137
 31
0.0
  0
TEXT
  5
38
  8
HIBINO-BASE
 62
     7
 10
323.59992895807318
 20
-195.5746085920137
 30
0.0
 40
7.2001037500000002
  1
DRAWN
 41
0.7
 11
323.59992895807318
 21
-188.37450484201369
 31
0.0
 73
     3
  0
TEXT
  5
39
  8
HIBINO-BASE
 62
     7
 10
223.59992895807321
 20
-195.5746085920137
 30
0.0
 40
7.2001037500000002
  1
DATE
 41
0.7
 11
223.59992895807321
 21
-188.37450484201369
 31
0.0
 73
     3
  0
TEXT
  5
3A
  8
HIBINO-BASE
 62
     7
 10
134.3998689580732
 20
-195.47768619201369
 30
0.0
 40
6.5153440624999996
  1
図面サイズ
 41
0.7
 11
134.3998689580732
 21
-188.9623421295137
 31
0.0
 73
     3
  0
TEXT
  5
3B
  8
HIBINO-BASE
 62
     7
 10
183.59988895807319
 20
-195.5746085920137
 30
0.0
 40
7.2001037500000002
  1
SCALE
 41
0.7
 11
183.59988895807319
 21
-188.37450484201369
 31
0.0
 73
     3
  0
TEXT
  5
3C
  8
HIBINO-BASE
 62
     7
 10
273.59992895807318
 20
-195.5746085920137
 30
0.0
 40
7.2001037500000002
  1
DESIGN
 41
0.7
 11
273.59992895807318
 21
-188.37450484201369
 31
0.0
 73
     3
  0
TEXT
  5
3D
  8
HIBINO-BASE
 62
     7
 10
423.59986895807322
 20
-195.5746085920137
 30
0.0
 40
7.2001037500000002
  1
DRAWING NO.
 41
0.7
 11
423.59986895807322
 21
-188.37450484201369
 31
0.0
 73
     3
  0
TEXT
  5
3E
  8
HIBINO-BASE
 62
     7
 10
373.59990895807317
 20
-195.5746085920137
 30
0.0
 40
7.2001037500000002
  1
CHECK
 41
0.7
 11
373.59990895807317
 21
-188.37450484201369
 31
0.0
 73
     3
  0
LINE
  5
3F
  8
HIBINO-BASE
  6
CONTINUOUS
 62
     7
 10
187.49986895807319
 20
-219.9999157920137
 30
0.0
 11
202.49992895807321
 21
-204.9999157920137
 31
0.0
  0
TEXT
  5
40
  8
HIBINO-BASE
 62
     7
 10
184.99986895807319
 20
-211.86275259201361
 30
0.0
 40
8.6871459375000004
  1
1
 41
0.7
 11
184.99986895807319
 21
-203.17560665451359
 31
0.0
 73
     3
  0
LINE
  5
41
  8
HIBINO-BASE
  6
CONTINUOUS
 62
     7
 10
179.99986895807319
 20
-224.99989579201369
 30
0.0
 11
179.99986895807319
 21
-184.9999157920137
 31
0.0
  0
LINE
  5
42
  8
HIBINO-BASE
  6
CONTINUOUS
 62
     7
 10
219.99990895807321
 20
-224.99989579201369
 30
0.0
 11
219.99990895807321
 21
-184.9999157920137
 31
0.0
  0
LINE
  5
43
  8
HIBINO-BASE
  6
CONTINUOUS
 62
     7
 10
319.99990895807321
 20
-184.9999157920137
 30
0.0
 11
319.99990895807321
 21
-224.99989579201369
 31
0.0
  0
LINE
  5
44
  8
HIBINO-BASE
  6
CONTINUOUS
 62
     7
 10
419.99992895807321
 20
-184.9999157920137
 30
0.0
 11
419.99992895807321
 21
-224.99989579201369
 31
0.0
  0
LINE
  5
45
  8
HIBINO-BASE
  6
CONTINUOUS
 62
     7
 10
369.9998889580732
 20
-224.99989579201369
 30
0.0
 11
369.9998889580732
 21
-184.9999157920137
 31
0.0
  0
TEXT
  5
46
  8
HIBINO-BASE
 62
     7
 10
145.64348895807319
 20
-215.0060337920136
 30
0.0
 40
13.030703515625
  1
A4
 41
0.7
 11
145.64348895807319
 21
-201.9753302763886
 31
0.0
 73
     3
  0
TEXT
  5
47
  8
HIBINO-BASE
 62
     7
 10
223.42608895807319
 20
-214.3105285920137
 30
0.0
 40
7.2001037500000002
  1
'08.1.
 41
0.7
 11
223.42608895807319
 21
-207.11042484201371
 31
0.0
 73
     3
  0
TEXT
  5
48
  8
HIBINO-BASE
 62
     7
 10
199.99992895807321
 20
-219.36275259201361
 30
0.0
 40
8.6871459375000004
  1
4
 41
0.7
 11
199.99992895807321
 21
-210.67560665451359
 31
0.0
 73
     3
  0
TEXT
  5
49
  8
HIBINO-BASE
 62
     7
 10
325.24444444444441
 20
-213.55600000000001
 30
0.0
 40
7.6012586805555546
  1
N.Sasaki
 41
0.7
 11
325.24444444444441
 21
-205.95474131944439
 31
0.0
 73
     3
  0
LINE
  5
4A
  8
SPEC
  6
CONTINUOUS
 62
     7
 10
-200.0000510419267
 20
775.00002420798614
 30
0.0
 11
306.66601205533362
 21
775.00002420798614
 31
0.0
  0
LINE
  5
4B
  8
SPEC
  6
CONTINUOUS
 62
     7
 10
-200.0000510419267
 20
760.00002420798614
 30
0.0
 11
306.66601205533362
 21
760.00002420798614
 31
0.0
  0
LINE
  5
4C
  8
SPEC
  6
CONTINUOUS
 62
     7
 10
-200.0000510419267
 20
745.00002420798614
 30
0.0
 11
306.66601205533362
 21
745.00002420798614
 31
0.0
  0
LINE
  5
4D
  8
SPEC
  6
CONTINUOUS
 62
     7
 10
-200.0000510419267
 20
775.00002420798614
 30
0.0
 11
-200.0000510419267
 21
370.00006420798633
 31
0.0
  0
TEXT
  5
4E
  8
SPEC
 62
     7
 10
-195.0000510419267
 20
780.57312420798633
 30
0.0
 40
9.7730468749999986
  1
仕様
 41
0.7
 11
-195.0000510419267
 21
790.3461710829863
 31
0.0
 73
     3
  0
TEXT
  5
4F
  8
SPEC
 62
     7
 10
-196.4000110419266
 20
763.14995531909744
 30
0.0
 40
7.6012586805555546
  1
形式
 41
0.7
 11
-196.4000110419266
 21
770.75121399965303
 31
0.0
 73
     3
  0
TEXT
  5
50
  8
SPEC
 62
     7
 10
-196.4000110419266
 20
748.14995531909744
 30
0.0
 40
7.6012586805555546
  1
周波数特性
 41
0.7
 11
-196.4000110419266
 21
755.75121399965303
 31
0.0
 73
     3
  0
TEXT
  5
51
  8
SPEC
 62
     7
 10
-196.4000110419266
 20
703.14995531909733
 30
0.0
 40
7.6012586805555546
  1
指向特性
 41
0.7
 11
-196.4000110419266
 21
710.75121399965292
 31
0.0
 73
     3
  0
LINE
  5
52
  8
SPEC
  6
CONTINUOUS
 62
     7
 10
-200.0000510419267
 20
655.00002420798614
 30
0.0
 11
279.99994895807322
 21
655.00002420798614
 31
0.0
  0
LINE
  5
53
  8
SPEC
  6
CONTINUOUS
 62
     7
 10
-200.0000510419267
 20
685.00002420798614
 30
0.0
 11
306.66601205533362
 21
685.00002420798614
 31
0.0
  0
TEXT
  5
54
  8
SPEC
 62
     7
 10
-196.4000110419266
 20
643.14997531909728
 30
0.0
 40
7.6012586805555546
  1
等価雑音レベル(Aウェイト)
 41
0.7
 11
-196.4000110419266
 21
650.75123399965275
 31
0.0
 73
     3
  0
LINE
  5
55
  8
SPEC
  6
CONTINUOUS
 62
     7
 10
-200.0000510419267
 20
655.00002420798614
 30
0.0
 11
306.66601205533362
 21
655.00002420798614
 31
0.0
  0
TEXT
  5
56
  8
SPEC
 62
     7
 10
-196.4000110419266
 20
433.14997531909728
 30
0.0
 40
7.6012586805555546
  1
使用電源
 41
0.7
 11
-196.4000110419266
 21
440.75123399965281
 31
0.0
 73
     3
  0
LINE
  5
57
  8
SPEC
  6
CONTINUOUS
 62
     7
 10
-200.0000510419267
 20
625.00002420798614
 30
0.0
 11
306.66601205533362
 21
625.00002420798614
 31
0.0
  0
TEXT
  5
58
  8
SPEC
 62
     7
 10
-196.4000110419266
 20
418.14997531909728
 30
0.0
 40
7.6012586805555546
  1
寸法
 41
0.7
 11
-196.4000110419266
 21
425.75123399965281
 31
0.0
 73
     3
  0
TEXT
  5
59
  8
SPEC
 62
     7
 10
-196.4000110419266
 20
403.14997531909728
 30
0.0
 40
7.6012586805555546
  1
質量
 41
0.7
 11
-196.4000110419266
 21
410.75123399965281
 31
0.0
 73
     3
  0
TEXT
  5
5A
  8
SPEC
 62
     7
 10
-196.4000110419266
 20
388.14997531909728
 30
0.0
 40
7.6012586805555546
  1
付属品 
 41
0.7
 11
-196.4000110419266
 21
395.75123399965292
 31
0.0
 73
     3
  0
LINE
  5
5B
  8
SPEC
  6
CONTINUOUS
 62
     7
 10
-200.0000510419267
 20
415.00002420798631
 30
0.0
 11
306.66601205533362
 21
415.00002420798631
 31
0.0
  0
LINE
  5
5C
  8
SPEC
  6
CONTINUOUS
 62
     7
 10
-200.0000510419267
 20
430.00002420798597
 30
0.0
 11
306.66601205533362
 21
430.00002420798597
 31
0.0
  0
LINE
  5
5D
  8
SPEC
  6
CONTINUOUS
 62
     7
 10
-200.0000510419267
 20
400.0000242079862
 30
0.0
 11
306.66601205533362
 21
400.0000242079862
 31
0.0
  0
LINE
  5
5E
  8
SPEC
  6
CONTINUOUS
 62
     7
 10
-200.0000510419267
 20
370.00006420798633
 30
0.0
 11
306.66601205533362
 21
370.00006420798633
 31
0.0
  0
LINE
  5
5F
  8
SPEC
  6
CONTINUOUS
 62
     7
 10
39.999948958073283
 20
775.00002420798614
 30
0.0
 11
39.999948958073283
 21
370.00006420798633
 31
0.0
  0
LINE
  5
60
  8
SPEC
  6
CONTINUOUS
 62
     7
 10
306.66601205533362
 20
775.00002420798614
 30
0.0
 11
306.66601205533362
 21
370.00006420798633
 31
0.0
  0
TEXT
  5
61
  8
SPEC
 62
     7
 10
43.599948958073249
 20
763.14995531909744
 30
0.0
 40
7.6012586805555546
  1
エレクトレットコンデンサ型 
 41
0.7
 11
43.599948958073249
 21
770.75121399965303
 31
0.0
 73
     3
  0
TEXT
  5
62
  8
SPEC
 62
     7
 10
43.599948958073249
 20
748.14995531909744
 30
0.0
 40
7.6012586805555546
  1
50～17,000Hz
 41
0.7
 11
43.599948958073249
 21
755.75121399965303
 31
0.0
 73
     3
  0
TEXT
  5
63
  8
SPEC
 62
     7
 10
43.599948958073249
 20
703.14995531909733
 30
0.0
 40
7.6012586805555546
  1
MX410LP/C:カーディオイド
 41
0.7
 11
43.599948958073249
 21
710.75121399965292
 31
0.0
 73
     3
  0
TEXT
  5
64
  8
SPEC
 62
     7
 10
43.599948958073249
 20
691.86106643020844
 30
0.0
 40
7.6012586805555546
  1
MX410LP/S:スーパーカーディオイド
 41
0.7
 11
43.599948958073249
 21
699.46232511076403
 31
0.0
 73
     3
  0
TEXT
  5
65
  8
SPEC
 62
     7
 10
43.599948958073249
 20
673.14997531909728
 30
0.0
 40
7.6012586805555546
  1
MX410LP/C:-35dBV/Pa(18mV)
 41
0.7
 11
43.599948958073249
 21
680.75123399965275
 31
0.0
 73
     3
  0
TEXT
  5
66
  8
SPEC
 62
     7
 10
43.599948958073249
 20
661.86108643020862
 30
0.0
 40
7.6012586805555546
  1
MX410LP/S:-34dBV/Pa(21mV)
 41
0.7
 11
43.599948958073249
 21
669.46234511076409
 31
0.0
 73
     3
  0
TEXT
  5
67
  8
SPEC
 62
     7
 10
43.599948958073249
 20
643.14997531909728
 30
0.0
 40
7.6012586805555546
  1
MX410LP/C:28dB SPL
 41
0.7
 11
43.599948958073249
 21
650.75123399965275
 31
0.0
 73
     3
  0
TEXT
  5
68
  8
SPEC
 62
     7
 10
43.599948958073249
 20
631.86108643020862
 30
0.0
 40
7.6012586805555546
  1
MX410LP/S:27dB SPL
 41
0.7
 11
43.599948958073249
 21
639.4623451107642
 31
0.0
 73
     3
  0
TEXT
  5
69
  8
SPEC
 62
     7
 10
43.599948958073249
 20
433.14997531909728
 30
0.0
 40
7.6012586805555546
  1
ファンタム DC48～52V、8.0mA
 41
0.7
 11
43.599948958073249
 21
440.75123399965281
 31
0.0
 73
     3
  0
TEXT
  5
6A
  8
SPEC
 62
     7
 10
43.599948958073249
 20
418.14997531909728
 30
0.0
 40
7.6012586805555546
  1
MX410LP:φ12×253mm、MX400SMP:φ32×87mm
 41
0.7
 11
43.599948958073249
 21
425.75123399965281
 31
0.0
 73
     3
  0
TEXT
  5
6B
  8
SPEC
 62
     7
 10
43.599948958073249
 20
403.14997531909728
 30
0.0
 40
7.6012586805555546
  1
約187g(MX410LP:約62g、MX400SMP:約125g)
 41
0.7
 11
43.599948958073249
 21
410.75123399965281
 31
0.0
 73
     3
  0
TEXT
  5
6C
  8
SPEC
 62
     7
 10
43.599948958073249
 20
388.28685364013262
 30
0.0
 40
7.4787794416205484
  1
ウィンドスクリーン、締め付け蝶ナット、
 41
0.7
 11
43.599948958073249
 21
395.76563308175309
 31
0.0
 73
     3
  0
TEXT
  5
6D
  8
SPEC
 62
     7
 10
43.599948958073249
 20
377.07754517045032
 30
0.0
 40
7.4787794416205484
  1
ゴム製分離リング×2、XLR5ピンコネクタ (メス)
 41
0.7
 11
43.599948958073249
 21
384.5563246120708
 31
0.0
 73
     3
  0
TEXT
  5
6E
  8
SPEC
 62
     7
 10
-196.4000110419266
 20
673.15173531909716
 30
0.0
 40
7.6012586805555546
  1
開回路感度(1kHz、1Pa=94dB SPL)
 41
0.7
 11
-196.4000110419266
 21
680.75299399965274
 31
0.0
 73
     3
  0
LINE
  5
6F
  8
SPEC
  6
CONTINUOUS
 62
     7
 10
-200.0000510419267
 20
730.00002420798614
 30
0.0
 11
306.66601205533362
 21
730.00002420798614
 31
0.0
  0
TEXT
  5
70
  8
SPEC
 62
     7
 10
-196.4000110419266
 20
733.14995531909744
 30
0.0
 40
7.6012586805555546
  1
出力インピーダンス
 41
0.7
 11
-196.4000110419266
 21
740.75121399965303
 31
0.0
 73
     3
  0
TEXT
  5
71
  8
SPEC
 62
     7
 10
43.599948958073249
 20
733.14995531909744
 30
0.0
 40
7.6012586805555546
  1
150Ω(EIA 定格)：170Ω実効
 41
0.7
 11
43.599948958073249
 21
740.75121399965303
 31
0.0
 73
     3
  0
LINE
  5
72
  8
SPEC
  6
CONTINUOUS
 62
     7
 10
-200.0000510419267
 20
715.00002420798614
 30
0.0
 11
306.66601205533362
 21
715.00002420798614
 31
0.0
  0
TEXT
  5
73
  8
SPEC
 62
     7
 10
-196.4000110419266
 20
718.14995531909744
 30
0.0
 40
7.6012586805555546
  1
出力バランス
 41
0.7
 11
-196.4000110419266
 21
725.75121399965303
 31
0.0
 73
     3
  0
TEXT
  5
74
  8
SPEC
 62
     7
 10
43.599948958073249
 20
718.14995531909744
 30
0.0
 40
7.6012586805555546
  1
アクティブバランス
 41
0.7
 11
43.599948958073249
 21
725.75121399965303
 31
0.0
 73
     3
  0
TEXT
  5
75
  8
SPEC
 62
     7
 10
-196.4000110419266
 20
613.14997531909717
 30
0.0
 40
7.6012586805555546
  1
最大音圧レベル(1kHz、1%%%THD、1kΩ負荷)
 41
0.7
 11
-196.4000110419266
 21
620.75123399965287
 31
0.0
 73
     3
  0
LINE
  5
76
  8
SPEC
  6
CONTINUOUS
 62
     7
 10
-200.0000510419267
 20
595.00002420798614
 30
0.0
 11
306.66601205533362
 21
595.00002420798614
 31
0.0
  0
TEXT
  5
77
  8
SPEC
 62
     7
 10
43.599948958073249
 20
613.14997531909717
 30
0.0
 40
7.6012586805555546
  1
MX410LP/C:121dB
 41
0.7
 11
43.599948958073249
 21
620.75123399965287
 31
0.0
 73
     3
  0
TEXT
  5
78
  8
SPEC
 62
     7
 10
43.599948958073249
 20
601.86108643020862
 30
0.0
 40
7.6012586805555546
  1
MX410LP/S:120dB
 41
0.7
 11
43.599948958073249
 21
609.4623451107642
 31
0.0
 73
     3
  0
TEXT
  5
79
  8
SPEC
 62
     7
 10
-196.4000110419266
 20
583.14997531909717
 30
0.0
 40
7.6012586805555546
  1
SN比(94dB SPL、1kHz)
 41
0.7
 11
-196.4000110419266
 21
590.75123399965275
 31
0.0
 73
     3
  0
LINE
  5
7A
  8
SPEC
  6
CONTINUOUS
 62
     7
 10
-200.0000510419267
 20
565.00002420798614
 30
0.0
 11
306.66601205533362
 21
565.00002420798614
 31
0.0
  0
TEXT
  5
7B
  8
SPEC
 62
     7
 10
43.599948958073249
 20
583.14997531909717
 30
0.0
 40
7.6012586805555546
  1
MX410LP/C:66dB
 41
0.7
 11
43.599948958073249
 21
590.75123399965275
 31
0.0
 73
     3
  0
TEXT
  5
7C
  8
SPEC
 62
     7
 10
43.599948958073249
 20
571.8610864302085
 30
0.0
 40
7.6012586805555546
  1
MX410LP/S:68dB
 41
0.7
 11
43.599948958073249
 21
579.4623451107642
 31
0.0
 73
     3
  0
TEXT
  5
7D
  8
SPEC
 62
     7
 10
-196.4000110419266
 20
553.14997531909717
 30
0.0
 40
7.6012586805555546
  1
ダイナミックレンジ (1kΩ負荷、1kHz)
 41
0.7
 11
-196.4000110419266
 21
560.75123399965275
 31
0.0
 73
     3
  0
LINE
  5
7E
  8
SPEC
  6
CONTINUOUS
 62
     7
 10
-200.0000510419267
 20
550.00002420798603
 30
0.0
 11
306.66601205533362
 21
550.00002420798603
 31
0.0
  0
TEXT
  5
7F
  8
SPEC
 62
     7
 10
43.599948958073249
 20
553.14997531909717
 30
0.0
 40
7.6012586805555546
  1
93dB
 41
0.7
 11
43.599948958073249
 21
560.75123399965275
 31
0.0
 73
     3
  0
TEXT
  5
80
  8
SPEC
 62
     7
 10
-196.4000110419266
 20
538.14997531909717
 30
0.0
 40
7.6012586805555546
  1
同相信号除去比(10Hz～100kHz )
 41
0.7
 11
-196.4000110419266
 21
545.75123399965287
 31
0.0
 73
     3
  0
LINE
  5
81
  8
SPEC
  6
CONTINUOUS
 62
     7
 10
-200.0000510419267
 20
535.00002420798603
 30
0.0
 11
306.66601205533362
 21
535.00002420798603
 31
0.0
  0
TEXT
  5
82
  8
SPEC
 62
     7
 10
43.599948958073249
 20
538.14997531909717
 30
0.0
 40
7.6012586805555546
  1
45dB以上
 41
0.7
 11
43.599948958073249
 21
545.75123399965287
 31
0.0
 73
     3
  0
TEXT
  5
83
  8
SPEC
 62
     7
 10
-196.4000110419266
 20
523.14997531909728
 30
0.0
 40
7.6012586805555546
  1
プリアンプ出力クリッピングレベル(1%%%THD)
 41
0.7
 11
-196.4000110419266
 21
530.75123399965275
 31
0.0
 73
     3
  0
LINE
  5
84
  8
SPEC
  6
CONTINUOUS
 62
     7
 10
-200.0000510419267
 20
520.00002420798603
 30
0.0
 11
306.66601205533362
 21
520.00002420798603
 31
0.0
  0
TEXT
  5
85
  8
SPEC
 62
     7
 10
43.599948958073249
 20
523.14997531909728
 30
0.0
 40
7.6012586805555546
  1
-8dBV(0.4V)
 41
0.7
 11
43.599948958073249
 21
530.75123399965275
 31
0.0
 73
     3
  0
TEXT
  5
86
  8
SPEC
 62
     7
 10
-196.4000110419266
 20
508.14997531909728
 30
0.0
 40
7.6012586805555546
  1
コネクタ 
 41
0.7
 11
-196.4000110419266
 21
515.75123399965275
 31
0.0
 73
     3
  0
LINE
  5
87
  8
SPEC
  6
CONTINUOUS
 62
     7
 10
-200.0000510419267
 20
505.00002420798597
 30
0.0
 11
306.66601205533362
 21
505.00002420798597
 31
0.0
  0
TEXT
  5
88
  8
SPEC
 62
     7
 10
43.599948958073249
 20
508.14997531909728
 30
0.0
 40
7.6012586805555546
  1
XLR5ピン、オス
 41
0.7
 11
43.599948958073249
 21
515.75123399965275
 31
0.0
 73
     3
  0
TEXT
  5
89
  8
SPEC
 62
     7
 10
-196.4000110419266
 20
493.14997531909728
 30
0.0
 40
7.6012586805555546
  1
ロジック接続
 41
0.7
 11
-196.4000110419266
 21
500.75123399965281
 31
0.0
 73
     3
  0
LINE
  5
8A
  8
SPEC
  6
CONTINUOUS
 62
     7
 10
-200.0000510419267
 20
445.00002420798609
 30
0.0
 11
306.66601205533362
 21
445.00002420798609
 31
0.0
  0
TEXT
  5
8B
  8
SPEC
 62
     7
 10
43.599948958073249
 20
493.14997531909728
 30
0.0
 40
7.6012586805555546
  1
負論理(1.0V以下) TTL compatible
 41
0.7
 11
43.599948958073249
 21
500.75123399965281
 31
0.0
 73
     3
  0
TEXT
  5
8C
  8
SPEC
 62
     7
 10
43.599948958073249
 20
481.8610864302085
 30
0.0
 40
7.6012586805555546
  1
絶対最大電圧：-0.7V～50V
 41
0.7
 11
43.599948958073249
 21
489.46234511076398
 31
0.0
 73
     3
  0
TEXT
  5
8D
  8
SPEC
 62
     7
 10
-116.4000110419267
 20
493.14997531909728
 30
0.0
 40
7.6012586805555546
  1
LED IN
 41
0.7
 11
-116.4000110419267
 21
500.75123399965281
 31
0.0
 73
     3
  0
TEXT
  5
8E
  8
SPEC
 62
     7
 10
43.599948958073249
 20
463.14997531909728
 30
0.0
 40
7.6012586805555546
  1
負論理(1.0V以下) TTL compatible
 41
0.7
 11
43.599948958073249
 21
470.75123399965292
 31
0.0
 73
     3
  0
TEXT
  5
8F
  8
SPEC
 62
     7
 10
43.599948958073249
 20
451.86108643020839
 30
0.0
 40
7.6012586805555546
  1
絶対最大電圧：-0.7V～50V(50V以下、3kΩ負荷)
 41
0.7
 11
43.599948958073249
 21
459.46234511076398
 31
0.0
 73
     3
  0
TEXT
  5
90
  8
SPEC
 62
     7
 10
-116.4000110419267
 20
463.14997531909728
 30
0.0
 40
7.6012586805555546
  1
Logic OUT
 41
0.7
 11
-116.4000110419267
 21
470.75123399965292
 31
0.0
 73
     3
  0
LINE
  5
91
  8
SPEC
  6
CONTINUOUS
 62
     7
 10
-120.0006546113331
 20
505.00002420798597
 30
0.0
 11
-120.0006546113331
 21
445.00002420798609
 31
0.0
  0
LINE
  5
92
  8
SPEC
  6
CONTINUOUS
 62
     7
 10
-120.0006546113331
 20
475.00002420798609
 30
0.0
 11
306.66601205533362
 21
475.00002420798609
 31
0.0
  0
TEXT
  5
93
  8
DIMNSIONS
 62
     7
 10
49.999928958073241
 20
-175.92193579201361
 30
0.0
 40
9.7730468749999986
  1
(単位：mm)
 41
0.7
 11
49.999928958073241
 21
-166.14888891701361
 31
0.0
 73
     3
  0
LINE
  5
94
  8
DIMNSIONS
  6
CONTINUOUS
 62
     7
 10
23.499999970198331
 20
82.849999999999937
 30
0.0
 11
137.99999997019771
 21
82.849999999999937
 31
0.0
  0
LINE
  5
95
  8
DIMNSIONS
  6
CONTINUOUS
 62
     7
 10
92.330132313083666
 20
323.1553347520823
 30
0.0
 11
137.99999997019771
 21
323.1553347520823
 31
0.0
  0
LINE
  5
96
  8
DIMNSIONS
  6
CONTINUOUS
 62
     7
 10
130.0
 20
82.849999999999937
 30
0.0
 11
130.0
 21
323.1553347520823
 31
0.0
  0
LINE
  5
97
  8
DIMNSIONS
  6
CONTINUOUS
 62
     7
 10
130.0
 20
82.849999999999937
 30
0.0
 11
126.5970452561247
 21
95.549999999999926
 31
0.0
  0
LINE
  5
98
  8
DIMNSIONS
  6
CONTINUOUS
 62
     7
 10
130.0
 20
82.849999999999937
 30
0.0
 11
133.40295474387531
 21
95.549999999999926
 31
0.0
  0
LINE
  5
99
  8
DIMNSIONS
  6
CONTINUOUS
 62
     7
 10
130.0
 20
323.1553347520823
 30
0.0
 11
133.40295474387531
 21
310.45533475208219
 31
0.0
  0
LINE
  5
9A
  8
DIMNSIONS
  6
CONTINUOUS
 62
     7
 10
130.0
 20
323.1553347520823
 30
0.0
 11
126.5970452561247
 21
310.45533475208219
 31
0.0
  0
TEXT
  5
9B
  8
DIMNSIONS
 62
     7
 10
124.0244444593456
 20
192.4193340427077
 30
0.0
 40
10.85894097222222
  1
240
 50
90.0
 41
0.7
 11
113.1655034871233
 21
192.4193340427077
 31
0.0
 73
     3
  0
LINE
  5
9C
  8
DIMNSIONS
  6
CONTINUOUS
 62
     7
 10
23.999999970197688
 20
0.0
 30
0.0
 11
137.99999997019771
 21
0.0
 31
0.0
  0
LINE
  5
9D
  8
DIMNSIONS
  6
CONTINUOUS
 62
     7
 10
23.499999970198331
 20
82.849999999999937
 30
0.0
 11
137.99999997019771
 21
82.849999999999937
 31
0.0
  0
LINE
  5
9E
  8
DIMNSIONS
  6
CONTINUOUS
 62
     7
 10
130.0
 20
0.0
 30
0.0
 11
130.0
 21
82.849999999999937
 31
0.0
  0
LINE
  5
9F
  8
DIMNSIONS
  6
CONTINUOUS
 62
     7
 10
130.0
 20
0.0
 30
0.0
 11
126.5970452561247
 21
12.69999999999999
 31
0.0
  0
LINE
  5
A0
  8
DIMNSIONS
  6
CONTINUOUS
 62
     7
 10
130.0
 20
0.0
 30
0.0
 11
133.40295474387531
 21
12.69999999999999
 31
0.0
  0
LINE
  5
A1
  8
DIMNSIONS
  6
CONTINUOUS
 62
     7
 10
130.0
 20
82.849999999999937
 30
0.0
 11
133.40295474387531
 21
70.149999999999935
 31
0.0
  0
LINE
  5
A2
  8
DIMNSIONS
  6
CONTINUOUS
 62
     7
 10
130.0
 20
82.849999999999937
 30
0.0
 11
126.5970452561247
 21
70.149999999999935
 31
0.0
  0
TEXT
  5
A3
  8
DIMNSIONS
 62
     7
 10
124.0244444593456
 20
34.369444444444412
 30
0.0
 40
10.85894097222222
  1
83
 50
90.0
 41
0.7
 11
113.1655034871233
 21
34.369444444444412
 31
0.0
 73
     3
  0
LINE
  5
A4
  8
DIMNSIONS
  6
CONTINUOUS
 62
     7
 10
-22.99970818549474
 20
86.999999999999929
 30
0.0
 11
-67.999999970197663
 21
86.999999999999929
 31
0.0
  0
LINE
  5
A5
  8
DIMNSIONS
  6
CONTINUOUS
 62
     7
 10
-23.999999970197681
 20
0.0
 30
0.0
 11
-67.999999970197663
 21
0.0
 31
0.0
  0
LINE
  5
A6
  8
DIMNSIONS
  6
CONTINUOUS
 62
     7
 10
-60.0
 20
86.999999999999929
 30
0.0
 11
-60.0
 21
0.0
 31
0.0
  0
LINE
  5
A7
  8
DIMNSIONS
  6
CONTINUOUS
 62
     7
 10
-60.0
 20
86.999999999999929
 30
0.0
 11
-56.597045256124737
 21
74.299999999999955
 31
0.0
  0
LINE
  5
A8
  8
DIMNSIONS
  6
CONTINUOUS
 62
     7
 10
-60.0
 20
86.999999999999929
 30
0.0
 11
-63.402954743875249
 21
74.299999999999955
 31
0.0
  0
LINE
  5
A9
  8
DIMNSIONS
  6
CONTINUOUS
 62
     7
 10
-60.0
 20
0.0
 30
0.0
 11
-63.402954743875249
 21
12.69999999999999
 31
0.0
  0
LINE
  5
AA
  8
DIMNSIONS
  6
CONTINUOUS
 62
     7
 10
-60.0
 20
0.0
 30
0.0
 11
-56.597045256124737
 21
12.69999999999999
 31
0.0
  0
TEXT
  5
AB
  8
DIMNSIONS
 62
     7
 10
-65.975555540654383
 20
36.444444444444422
 30
0.0
 40
10.85894097222222
  1
87
 50
90.0
 41
0.7
 11
-76.834496512876612
 21
36.444444444444422
 31
0.0
 73
     3
  0
LINE
  5
AC
  8
DIMNSIONS
  6
CONTINUOUS
 62
     7
 10
-10.999708215296829
 20
-7.9999999701976758
 30
0.0
 11
-10.999708215296829
 21
-37.999999970197678
 31
0.0
  0
LINE
  5
AD
  8
DIMNSIONS
  6
CONTINUOUS
 62
     7
 10
11.000291784703199
 20
-7.9999999701976758
 30
0.0
 11
11.000291784703199
 21
-37.999999970197678
 31
0.0
  0
LINE
  5
AE
  8
DIMNSIONS
  6
CONTINUOUS
 62
     7
 10
11.000291784703199
 20
-30.0
 30
0.0
 11
-10.999708215296829
 21
-30.0
 31
0.0
  0
LINE
  5
AF
  8
DIMNSIONS
  6
CONTINUOUS
 62
     7
 10
-10.999708215296829
 20
-30.0
 30
0.0
 11
-30.999708235413411
 21
-30.0
 31
0.0
  0
LINE
  5
B0
  8
DIMNSIONS
  6
CONTINUOUS
 62
     7
 10
-10.999708215296829
 20
-30.0
 30
0.0
 11
-23.69970821529683
 21
-33.402954743875291
 31
0.0
  0
LINE
  5
B1
  8
DIMNSIONS
  6
CONTINUOUS
 62
     7
 10
-10.999708215296829
 20
-30.0
 30
0.0
 11
-23.69970821529683
 21
-26.597045256124719
 31
0.0
  0
LINE
  5
B2
  8
DIMNSIONS
  6
CONTINUOUS
 62
     7
 10
11.000291784703199
 20
-30.0
 30
0.0
 11
41.611111111111107
 21
-30.0
 31
0.0
  0
LINE
  5
B3
  8
DIMNSIONS
  6
CONTINUOUS
 62
     7
 10
11.000291784703199
 20
-30.0
 30
0.0
 11
23.700291784703211
 21
-26.597045256124719
 31
0.0
  0
LINE
  5
B4
  8
DIMNSIONS
  6
CONTINUOUS
 62
     7
 10
11.000291784703199
 20
-30.0
 30
0.0
 11
23.700291784703211
 21
-33.402954743875291
 31
0.0
  0
TEXT
  5
B5
  8
DIMNSIONS
 62
     7
 10
27.5
 20
-24.024444459345659
 30
0.0
 40
10.85894097222222
  1
22
 41
0.7
 11
27.5
 21
-13.165503487123431
 31
0.0
 73
     3
  0
LINE
  5
B6
  8
DIMNSIONS
  6
CONTINUOUS
 62
     7
 10
-12.499999999999369
 20
-7.9999999701976758
 30
0.0
 11
-12.499999999999369
 21
-57.999999970197671
 31
0.0
  0
LINE
  5
B7
  8
DIMNSIONS
  6
CONTINUOUS
 62
     7
 10
12.50000000000065
 20
-7.9999999701976758
 30
0.0
 11
12.50000000000065
 21
-57.999999970197671
 31
0.0
  0
LINE
  5
B8
  8
DIMNSIONS
  6
CONTINUOUS
 62
     7
 10
12.50000000000065
 20
-50.0
 30
0.0
 11
-12.499999999999369
 21
-50.0
 31
0.0
  0
LINE
  5
B9
  8
DIMNSIONS
  6
CONTINUOUS
 62
     7
 10
-12.499999999999369
 20
-50.0
 30
0.0
 11
-32.500000020115948
 21
-50.0
 31
0.0
  0
LINE
  5
BA
  8
DIMNSIONS
  6
CONTINUOUS
 62
     7
 10
-12.499999999999369
 20
-50.0
 30
0.0
 11
-25.19999999999936
 21
-53.402954743875277
 31
0.0
  0
LINE
  5
BB
  8
DIMNSIONS
  6
CONTINUOUS
 62
     7
 10
-12.499999999999369
 20
-50.0
 30
0.0
 11
-25.19999999999936
 21
-46.597045256124709
 31
0.0
  0
LINE
  5
BC
  8
DIMNSIONS
  6
CONTINUOUS
 62
     7
 10
12.50000000000065
 20
-50.0
 30
0.0
 11
53.111111111111107
 21
-50.0
 31
0.0
  0
LINE
  5
BD
  8
DIMNSIONS
  6
CONTINUOUS
 62
     7
 10
12.50000000000065
 20
-50.0
 30
0.0
 11
25.20000000000066
 21
-46.597045256124709
 31
0.0
  0
LINE
  5
BE
  8
DIMNSIONS
  6
CONTINUOUS
 62
     7
 10
12.50000000000065
 20
-50.0
 30
0.0
 11
25.20000000000066
 21
-53.402954743875277
 31
0.0
  0
TEXT
  5
BF
  8
DIMNSIONS
 62
     7
 10
39.0
 20
-44.024444459345652
 30
0.0
 40
10.85894097222222
  1
25
 41
0.7
 11
39.0
 21
-33.165503487123431
 31
0.0
 73
     3
  0
LINE
  5
C0
  8
DIMNSIONS
  6
CONTINUOUS
 62
     7
 10
-16.000000000000021
 20
-87.999999970197649
 30
0.0
 11
-16.000000000000021
 21
-137.99999997019771
 31
0.0
  0
LINE
  5
C1
  8
DIMNSIONS
  6
CONTINUOUS
 62
     7
 10
16.000000000000021
 20
-87.999999970197649
 30
0.0
 11
16.000000000000021
 21
-137.99999997019771
 31
0.0
  0
LINE
  5
C2
  8
DIMNSIONS
  6
CONTINUOUS
 62
     7
 10
16.000000000000021
 20
-130.0
 30
0.0
 11
-16.000000000000021
 21
-130.0
 31
0.0
  0
LINE
  5
C3
  8
DIMNSIONS
  6
CONTINUOUS
 62
     7
 10
-16.000000000000021
 20
-130.0
 30
0.0
 11
-36.000000020116602
 21
-130.0
 31
0.0
  0
LINE
  5
C4
  8
DIMNSIONS
  6
CONTINUOUS
 62
     7
 10
-16.000000000000021
 20
-130.0
 30
0.0
 11
-28.70000000000001
 21
-133.40295474387531
 31
0.0
  0
LINE
  5
C5
  8
DIMNSIONS
  6
CONTINUOUS
 62
     7
 10
-16.000000000000021
 20
-130.0
 30
0.0
 11
-28.70000000000001
 21
-126.5970452561247
 31
0.0
  0
LINE
  5
C6
  8
DIMNSIONS
  6
CONTINUOUS
 62
     7
 10
16.000000000000021
 20
-130.0
 30
0.0
 11
54.111111111111107
 21
-130.0
 31
0.0
  0
LINE
  5
C7
  8
DIMNSIONS
  6
CONTINUOUS
 62
     7
 10
16.000000000000021
 20
-130.0
 30
0.0
 11
28.70000000000001
 21
-126.5970452561247
 31
0.0
  0
LINE
  5
C8
  8
DIMNSIONS
  6
CONTINUOUS
 62
     7
 10
16.000000000000021
 20
-130.0
 30
0.0
 11
28.70000000000001
 21
-133.40295474387531
 31
0.0
  0
TEXT
  5
C9
  8
DIMNSIONS
 62
     7
 10
40.0
 20
-124.0244444593456
 30
0.0
 40
10.85894097222222
  1
32
 41
0.7
 11
40.0
 21
-113.1655034871234
 31
0.0
 73
     3
  0
LINE
  5
CA
  8
DIMNSIONS
  6
CONTINUOUS
 62
     7
 10
81.557154548105885
 20
324.30014986085541
 30
0.0
 11
35.354807767635272
 21
343.41410162330209
 31
0.0
  0
LINE
  5
CB
  8
DIMNSIONS
  6
CONTINUOUS
 62
     7
 10
-15.142083672633619
 20
90.558232270598637
 30
0.0
 11
-61.344430453104223
 21
109.6721840330452
 31
0.0
  0
LINE
  5
CC
  8
DIMNSIONS
  6
CONTINUOUS
 62
     7
 10
42.747183224971813
 20
340.35586935270328
 30
0.0
 11
-53.952054995767668
 21
106.6139517624466
 31
0.0
  0
LINE
  5
CD
  8
DIMNSIONS
  6
CONTINUOUS
 62
     7
 10
42.747183224971813
 20
340.35586935270328
 30
0.0
 11
41.144844184932332
 21
327.30586511555362
 31
0.0
  0
LINE
  5
CE
  8
DIMNSIONS
  6
CONTINUOUS
 62
     7
 10
42.747183224971813
 20
340.35586935270328
 30
0.0
 11
34.834514792247127
 21
329.85540368385682
 31
0.0
  0
LINE
  5
CF
  8
DIMNSIONS
  6
CONTINUOUS
 62
     7
 10
-53.952054995767668
 20
106.6139517624466
 30
0.0
 11
-52.122206021770069
 21
119.63400374856489
 31
0.0
  0
LINE
  5
D0
  8
DIMNSIONS
  6
CONTINUOUS
 62
     7
 10
-53.952054995767668
 20
106.6139517624466
 30
0.0
 11
-45.857333306137711
 21
116.9747230540203
 31
0.0
  0
TEXT
  5
D1
  8
DIMNSIONS
 62
     7
 10
-15.169916127687991
 20
215.98974342953321
 30
0.0
 40
10.85894097222222
  1
253
 50
67.525077023391248
 41
0.7
 11
-25.204087257033422
 21
220.14088890821941
 31
0.0
 73
     3
  0
TEXT
  5
D2
  8
DATA
 62
     7
 10
293.33324229140658
 20
-180.47635579201361
 30
0.0
 40
9.7730468749999986
  1
MX410LP/C MX410LP/S + MX400SMP
 41
0.7
 11
293.33324229140658
 21
-170.7033089170136
 31
0.0
 73
     3
  0
TEXT
  5
D3
  8
DATA
 62
     7
 10
329.99990895807321
 20
-151.47635579201361
 30
0.0
 40
9.7730468749999986
  1
SHURE
 41
0.7
 11
329.99990895807321
 21
-141.7033089170136
 31
0.0
 73
     3
  0
TEXT
  5
D4
  8
DATA
 62
     7
 10
319.99990895807321
 20
-164.59768468090249
 30
0.0
 40
7.6012586805555546
  1
グ－スネック・マイクロフォン
 41
0.7
 11
319.99990895807321
 21
-156.9964260003469
 31
0.0
 73
     3
  0
LINE
  5
D5
  8
DATA
  6
CONTINUOUS
 62
     7
 10
-10.061855107952169
 20
20.0
 30
0.0
 11
-9.9997082152968062
 21
20.05499999999995
 31
0.0
  0
LINE
  5
D6
  8
DATA
  6
CONTINUOUS
 62
     7
 10
-9.9997082152968062
 20
20.05499999999995
 30
0.0
 11
-10.999708215296829
 21
20.939999999999941
 31
0.0
  0
LINE
  5
D7
  8
DATA
  6
CONTINUOUS
 62
     7
 10
-10.999708215296829
 20
20.939999999999941
 30
0.0
 11
-9.9997082152968062
 21
21.824999999999928
 31
0.0
  0
LINE
  5
D8
  8
DATA
  6
CONTINUOUS
 62
     7
 10
-9.9997082152968062
 20
21.824999999999928
 30
0.0
 11
-10.999708215296829
 21
22.709999999999919
 31
0.0
  0
LINE
  5
D9
  8
DATA
  6
CONTINUOUS
 62
     7
 10
-10.999708215296829
 20
22.709999999999919
 30
0.0
 11
-9.9997082152968062
 21
23.59499999999997
 31
0.0
  0
LINE
  5
DA
  8
DATA
  6
CONTINUOUS
 62
     7
 10
-9.9997082152968062
 20
23.59499999999997
 30
0.0
 11
-10.999708215296829
 21
24.479999999999961
 31
0.0
  0
LINE
  5
DB
  8
DATA
  6
CONTINUOUS
 62
     7
 10
-10.999708215296829
 20
24.479999999999961
 30
0.0
 11
-9.9997082152968062
 21
25.365000000000009
 31
0.0
  0
LINE
  5
DC
  8
DATA
  6
CONTINUOUS
 62
     7
 10
-9.9997082152968062
 20
25.364999999999949
 30
0.0
 11
-10.999708215296829
 21
26.24999999999995
 31
0.0
  0
LINE
  5
DD
  8
DATA
  6
CONTINUOUS
 62
     7
 10
-10.999708215296829
 20
26.24999999999995
 30
0.0
 11
-9.9997082152968062
 21
27.134999999999931
 31
0.0
  0
LINE
  5
DE
  8
DATA
  6
CONTINUOUS
 62
     7
 10
-9.9997082152968062
 20
27.134999999999931
 30
0.0
 11
-10.999708215296829
 21
28.019999999999989
 31
0.0
  0
LINE
  5
DF
  8
DATA
  6
CONTINUOUS
 62
     7
 10
-10.999708215296829
 20
28.019999999999989
 30
0.0
 11
-9.9997082152968062
 21
28.904999999999969
 31
0.0
  0
LINE
  5
E0
  8
DATA
  6
CONTINUOUS
 62
     7
 10
-9.9997082152968062
 20
28.904999999999969
 30
0.0
 11
-10.999708215296829
 21
29.789999999999971
 31
0.0
  0
LINE
  5
E1
  8
DATA
  6
CONTINUOUS
 62
     7
 10
-10.999708215296829
 20
29.789999999999971
 30
0.0
 11
-9.9997082152968062
 21
30.674999999999951
 31
0.0
  0
LINE
  5
E2
  8
DATA
  6
CONTINUOUS
 62
     7
 10
-9.9997082152968062
 20
30.674999999999951
 30
0.0
 11
-10.999708215296829
 21
31.559999999999949
 31
0.0
  0
LINE
  5
E3
  8
DATA
  6
CONTINUOUS
 62
     7
 10
-10.999708215296829
 20
31.559999999999949
 30
0.0
 11
-9.9997082152968062
 21
32.444999999999908
 31
0.0
  0
LINE
  5
E4
  8
DATA
  6
CONTINUOUS
 62
     7
 10
-9.9997082152968062
 20
32.444999999999908
 30
0.0
 11
-10.999708215296829
 21
33.329999999999892
 31
0.0
  0
LINE
  5
E5
  8
DATA
  6
CONTINUOUS
 62
     7
 10
-10.999708215296829
 20
33.329999999999892
 30
0.0
 11
-9.9997082152968062
 21
34.214999999999947
 31
0.0
  0
LINE
  5
E6
  8
DATA
  6
CONTINUOUS
 62
     7
 10
-9.9997082152968062
 20
34.214999999999947
 30
0.0
 11
-10.999708215296829
 21
35.09999999999993
 31
0.0
  0
LINE
  5
E7
  8
DATA
  6
CONTINUOUS
 62
     7
 10
-10.999708215296829
 20
35.09999999999993
 30
0.0
 11
-9.9997082152968062
 21
35.984999999999928
 31
0.0
  0
LINE
  5
E8
  8
DATA
  6
CONTINUOUS
 62
     7
 10
-9.9997082152968062
 20
35.984999999999928
 30
0.0
 11
-10.999708215296829
 21
36.869999999999933
 31
0.0
  0
LINE
  5
E9
  8
DATA
  6
CONTINUOUS
 62
     7
 10
-10.999708215296829
 20
36.869999999999933
 30
0.0
 11
-9.9997082152968062
 21
37.754999999999967
 31
0.0
  0
LINE
  5
EA
  8
DATA
  6
CONTINUOUS
 62
     7
 10
-9.9997082152968062
 20
37.754999999999967
 30
0.0
 11
-10.999708215296829
 21
38.639999999999901
 31
0.0
  0
LINE
  5
EB
  8
DATA
  6
CONTINUOUS
 62
     7
 10
-10.999708215296829
 20
38.639999999999901
 30
0.0
 11
-9.9997082152968062
 21
39.524999999999949
 31
0.0
  0
LINE
  5
EC
  8
DATA
  6
CONTINUOUS
 62
     7
 10
-9.9997082152968062
 20
39.524999999999949
 30
0.0
 11
-10.999708215296829
 21
40.40999999999994
 31
0.0
  0
LINE
  5
ED
  8
DATA
  6
CONTINUOUS
 62
     7
 10
-10.999708215296829
 20
40.40999999999994
 30
0.0
 11
-9.9997082152968062
 21
41.294999999999952
 31
0.0
  0
LINE
  5
EE
  8
DATA
  6
CONTINUOUS
 62
     7
 10
-9.9997082152968062
 20
41.294999999999952
 30
0.0
 11
-10.999708215296829
 21
42.179999999999907
 31
0.0
  0
LINE
  5
EF
  8
DATA
  6
CONTINUOUS
 62
     7
 10
-10.999708215296829
 20
42.179999999999907
 30
0.0
 11
-9.9997082152968062
 21
43.064999999999969
 31
0.0
  0
LINE
  5
F0
  8
DATA
  6
CONTINUOUS
 62
     7
 10
-9.9997082152968062
 20
43.064999999999898
 30
0.0
 11
-10.999708215296829
 21
43.949999999999932
 31
0.0
  0
LINE
  5
F1
  8
DATA
  6
CONTINUOUS
 62
     7
 10
-10.999708215296829
 20
43.949999999999932
 30
0.0
 11
-9.9997082152968062
 21
44.834999999999923
 31
0.0
  0
LINE
  5
F2
  8
DATA
  6
CONTINUOUS
 62
     7
 10
-9.9997082152968062
 20
44.834999999999923
 30
0.0
 11
-10.999708215296829
 21
45.719999999999928
 31
0.0
  0
LINE
  5
F3
  8
DATA
  6
CONTINUOUS
 62
     7
 10
-10.999708215296829
 20
45.719999999999928
 30
0.0
 11
-9.9997082152968062
 21
46.604999999999933
 31
0.0
  0
LINE
  5
F4
  8
DATA
  6
CONTINUOUS
 62
     7
 10
-9.9997082152968062
 20
46.604999999999933
 30
0.0
 11
-10.999708215296829
 21
47.489999999999952
 31
0.0
  0
LINE
  5
F5
  8
DATA
  6
CONTINUOUS
 62
     7
 10
-10.999708215296829
 20
47.489999999999952
 30
0.0
 11
-9.9997082152968062
 21
48.374999999999943
 31
0.0
  0
LINE
  5
F6
  8
DATA
  6
CONTINUOUS
 62
     7
 10
-9.9997082152968062
 20
48.374999999999943
 30
0.0
 11
-10.999708215296829
 21
49.259999999999962
 31
0.0
  0
LINE
  5
F7
  8
DATA
  6
CONTINUOUS
 62
     7
 10
-10.999708215296829
 20
49.259999999999962
 30
0.0
 11
-9.9997082152968062
 21
50.144999999999953
 31
0.0
  0
LINE
  5
F8
  8
DATA
  6
CONTINUOUS
 62
     7
 10
-9.9997082152968062
 20
50.144999999999953
 30
0.0
 11
-10.999708215296829
 21
51.029999999999923
 31
0.0
  0
LINE
  5
F9
  8
DATA
  6
CONTINUOUS
 62
     7
 10
-10.999708215296829
 20
51.029999999999923
 30
0.0
 11
-9.9997082152968062
 21
51.914999999999942
 31
0.0
  0
LINE
  5
FA
  8
DATA
  6
CONTINUOUS
 62
     7
 10
-9.9997082152968062
 20
51.914999999999942
 30
0.0
 11
-10.999708215296829
 21
52.79999999999994
 31
0.0
  0
LINE
  5
FB
  8
DATA
  6
CONTINUOUS
 62
     7
 10
-10.999708215296829
 20
52.79999999999994
 30
0.0
 11
-9.9997082152968062
 21
53.684999999999967
 31
0.0
  0
LINE
  5
FC
  8
DATA
  6
CONTINUOUS
 62
     7
 10
-9.9997082152968062
 20
53.684999999999967
 30
0.0
 11
-10.999708215296829
 21
54.569999999999929
 31
0.0
  0
LINE
  5
FD
  8
DATA
  6
CONTINUOUS
 62
     7
 10
-10.999708215296829
 20
54.569999999999929
 30
0.0
 11
-9.9997082152968062
 21
55.454999999999963
 31
0.0
  0
LINE
  5
FE
  8
DATA
  6
CONTINUOUS
 62
     7
 10
-9.9997082152968062
 20
55.454999999999963
 30
0.0
 11
-10.999708215296829
 21
56.339999999999932
 31
0.0
  0
LINE
  5
FF
  8
DATA
  6
CONTINUOUS
 62
     7
 10
-10.999708215296829
 20
56.339999999999932
 30
0.0
 11
-9.9997082152968062
 21
57.225000000000001
 31
0.0
  0
LINE
  5
100
  8
DATA
  6
CONTINUOUS
 62
     7
 10
-9.9997082152968062
 20
57.224999999999973
 30
0.0
 11
-10.999708215296829
 21
58.109999999999928
 31
0.0
  0
LINE
  5
101
  8
DATA
  6
CONTINUOUS
 62
     7
 10
-10.999708215296829
 20
58.109999999999928
 30
0.0
 11
-9.9997082152968062
 21
58.994999999999983
 31
0.0
  0
LINE
  5
102
  8
DATA
  6
CONTINUOUS
 62
     7
 10
-9.9997082152968062
 20
58.994999999999983
 30
0.0
 11
-10.999708215296829
 21
59.879999999999967
 31
0.0
  0
LINE
  5
103
  8
DATA
  6
CONTINUOUS
 62
     7
 10
-10.999708215296829
 20
59.879999999999967
 30
0.0
 11
-9.9997082152968062
 21
60.764999999999993
 31
0.0
  0
LINE
  5
104
  8
DATA
  6
CONTINUOUS
 62
     7
 10
-9.9997082152968062
 20
60.764999999999993
 30
0.0
 11
-10.999708215296829
 21
61.649999999999928
 31
0.0
  0
LINE
  5
105
  8
DATA
  6
CONTINUOUS
 62
     7
 10
-10.999708215296829
 20
61.649999999999928
 30
0.0
 11
-9.9997082152968062
 21
62.534999999999989
 31
0.0
  0
LINE
  5
106
  8
DATA
  6
CONTINUOUS
 62
     7
 10
-9.9997082152968062
 20
62.534999999999989
 30
0.0
 11
-10.999708215296829
 21
63.41999999999998
 31
0.0
  0
LINE
  5
107
  8
DATA
  6
CONTINUOUS
 62
     7
 10
-10.999708215296829
 20
63.41999999999998
 30
0.0
 11
-9.9997082152968062
 21
64.305000000000007
 31
0.0
  0
LINE
  5
108
  8
DATA
  6
CONTINUOUS
 62
     7
 10
-9.9997082152968062
 20
64.304999999999936
 30
0.0
 11
-10.999708215296829
 21
65.189999999999969
 31
0.0
  0
LINE
  5
109
  8
DATA
  6
CONTINUOUS
 62
     7
 10
-10.999708215296829
 20
65.189999999999969
 30
0.0
 11
-9.9997082152968062
 21
66.07499999999996
 31
0.0
  0
LINE
  5
10A
  8
DATA
  6
CONTINUOUS
 62
     7
 10
-9.9997082152968062
 20
66.07499999999996
 30
0.0
 11
-10.999708215296829
 21
66.959999999999965
 31
0.0
  0
LINE
  5
10B
  8
DATA
  6
CONTINUOUS
 62
     7
 10
-10.999708215296829
 20
66.959999999999965
 30
0.0
 11
-9.9997082152968062
 21
67.84499999999997
 31
0.0
  0
LINE
  5
10C
  8
DATA
  6
CONTINUOUS
 62
     7
 10
-9.9997082152968062
 20
67.844999999999928
 30
0.0
 11
-10.999708215296829
 21
68.729999999999933
 31
0.0
  0
LINE
  5
10D
  8
DATA
  6
CONTINUOUS
 62
     7
 10
-10.999708215296829
 20
68.729999999999933
 30
0.0
 11
-9.9997082152968062
 21
69.614999999999981
 31
0.0
  0
LINE
  5
10E
  8
DATA
  6
CONTINUOUS
 62
     7
 10
10.99740161129286
 20
17.839942196531752
 30
0.0
 11
11.000291784703199
 21
17.842499999999969
 31
0.0
  0
LINE
  5
10F
  8
DATA
  6
CONTINUOUS
 62
     7
 10
10.99740161129286
 20
19.60994219653179
 30
0.0
 11
11.000291784703199
 21
19.612499999999951
 31
0.0
  0
LINE
  5
110
  8
DATA
  6
CONTINUOUS
 62
     7
 10
10.56243867735852
 20
20.0
 30
0.0
 11
10.000291784703199
 21
20.497499999999949
 31
0.0
  0
LINE
  5
111
  8
DATA
  6
CONTINUOUS
 62
     7
 10
10.000291784703199
 20
20.497499999999949
 30
0.0
 11
11.000291784703199
 21
21.382499999999929
 31
0.0
  0
LINE
  5
112
  8
DATA
  6
CONTINUOUS
 62
     7
 10
11.000291784703199
 20
21.382499999999929
 30
0.0
 11
10.000291784703199
 21
22.26749999999992
 31
0.0
  0
LINE
  5
113
  8
DATA
  6
CONTINUOUS
 62
     7
 10
10.000291784703199
 20
22.26749999999992
 30
0.0
 11
11.000291784703199
 21
23.152499999999929
 31
0.0
  0
LINE
  5
114
  8
DATA
  6
CONTINUOUS
 62
     7
 10
11.000291784703199
 20
23.152499999999929
 30
0.0
 11
10.000291784703199
 21
24.037499999999969
 31
0.0
  0
LINE
  5
115
  8
DATA
  6
CONTINUOUS
 62
     7
 10
10.000291784703199
 20
24.037499999999969
 30
0.0
 11
11.000291784703199
 21
24.92249999999996
 31
0.0
  0
LINE
  5
116
  8
DATA
  6
CONTINUOUS
 62
     7
 10
11.000291784703199
 20
24.92249999999996
 30
0.0
 11
10.000291784703199
 21
25.807499999999951
 31
0.0
  0
LINE
  5
117
  8
DATA
  6
CONTINUOUS
 62
     7
 10
10.000291784703199
 20
25.807499999999951
 30
0.0
 11
11.000291784703199
 21
26.692499999999932
 31
0.0
  0
LINE
  5
118
  8
DATA
  6
CONTINUOUS
 62
     7
 10
11.000291784703199
 20
26.692499999999932
 30
0.0
 11
10.000291784703199
 21
27.57749999999999
 31
0.0
  0
LINE
  5
119
  8
DATA
  6
CONTINUOUS
 62
     7
 10
10.000291784703199
 20
27.57749999999999
 30
0.0
 11
11.000291784703199
 21
28.46249999999992
 31
0.0
  0
LINE
  5
11A
  8
DATA
  6
CONTINUOUS
 62
     7
 10
11.000291784703199
 20
28.46249999999992
 30
0.0
 11
10.000291784703199
 21
29.347499999999972
 31
0.0
  0
LINE
  5
11B
  8
DATA
  6
CONTINUOUS
 62
     7
 10
10.000291784703199
 20
29.347499999999972
 30
0.0
 11
11.000291784703199
 21
30.232499999999959
 31
0.0
  0
LINE
  5
11C
  8
DATA
  6
CONTINUOUS
 62
     7
 10
11.000291784703199
 20
30.232499999999959
 30
0.0
 11
10.000291784703199
 21
31.11749999999995
 31
0.0
  0
LINE
  5
11D
  8
DATA
  6
CONTINUOUS
 62
     7
 10
10.000291784703199
 20
31.11749999999995
 30
0.0
 11
11.000291784703199
 21
32.00249999999992
 31
0.0
  0
LINE
  5
11E
  8
DATA
  6
CONTINUOUS
 62
     7
 10
11.000291784703199
 20
32.00249999999992
 30
0.0
 11
10.000291784703199
 21
32.88749999999996
 31
0.0
  0
LINE
  5
11F
  8
DATA
  6
CONTINUOUS
 62
     7
 10
10.000291784703199
 20
32.88749999999996
 30
0.0
 11
11.000291784703199
 21
33.772499999999887
 31
0.0
  0
LINE
  5
120
  8
DATA
  6
CONTINUOUS
 62
     7
 10
11.000291784703199
 20
33.772499999999887
 30
0.0
 11
10.000291784703199
 21
34.657499999999949
 31
0.0
  0
LINE
  5
121
  8
DATA
  6
CONTINUOUS
 62
     7
 10
10.000291784703199
 20
34.657499999999949
 30
0.0
 11
11.000291784703199
 21
35.542499999999933
 31
0.0
  0
LINE
  5
122
  8
DATA
  6
CONTINUOUS
 62
     7
 10
11.000291784703199
 20
35.542499999999933
 30
0.0
 11
10.000291784703199
 21
36.427499999999988
 31
0.0
  0
LINE
  5
123
  8
DATA
  6
CONTINUOUS
 62
     7
 10
10.000291784703199
 20
36.427499999999917
 30
0.0
 11
11.000291784703199
 21
37.312499999999922
 31
0.0
  0
LINE
  5
124
  8
DATA
  6
CONTINUOUS
 62
     7
 10
11.000291784703199
 20
37.312499999999922
 30
0.0
 11
10.000291784703199
 21
38.197499999999913
 31
0.0
  0
LINE
  5
125
  8
DATA
  6
CONTINUOUS
 62
     7
 10
10.000291784703199
 20
38.197499999999913
 30
0.0
 11
11.000291784703199
 21
39.082499999999932
 31
0.0
  0
LINE
  5
126
  8
DATA
  6
CONTINUOUS
 62
     7
 10
11.000291784703199
 20
39.082499999999932
 30
0.0
 11
10.000291784703199
 21
39.96749999999993
 31
0.0
  0
LINE
  5
127
  8
DATA
  6
CONTINUOUS
 62
     7
 10
10.000291784703199
 20
39.96749999999993
 30
0.0
 11
11.000291784703199
 21
40.852499999999942
 31
0.0
  0
LINE
  5
128
  8
DATA
  6
CONTINUOUS
 62
     7
 10
11.000291784703199
 20
40.852499999999942
 30
0.0
 11
10.000291784703199
 21
41.737499999999919
 31
0.0
  0
LINE
  5
129
  8
DATA
  6
CONTINUOUS
 62
     7
 10
10.000291784703199
 20
41.737499999999919
 30
0.0
 11
11.000291784703199
 21
42.622499999999938
 31
0.0
  0
LINE
  5
12A
  8
DATA
  6
CONTINUOUS
 62
     7
 10
11.000291784703199
 20
42.622499999999938
 30
0.0
 11
10.000291784703199
 21
43.507499999999929
 31
0.0
  0
LINE
  5
12B
  8
DATA
  6
CONTINUOUS
 62
     7
 10
10.000291784703199
 20
43.507499999999901
 30
0.0
 11
11.000291784703199
 21
44.392499999999892
 31
0.0
  0
LINE
  5
12C
  8
DATA
  6
CONTINUOUS
 62
     7
 10
11.000291784703199
 20
44.392499999999892
 30
0.0
 11
10.000291784703199
 21
45.277499999999932
 31
0.0
  0
LINE
  5
12D
  8
DATA
  6
CONTINUOUS
 62
     7
 10
10.000291784703199
 20
45.277499999999932
 30
0.0
 11
11.000291784703199
 21
46.162499999999902
 31
0.0
  0
LINE
  5
12E
  8
DATA
  6
CONTINUOUS
 62
     7
 10
11.000291784703199
 20
46.162499999999902
 30
0.0
 11
10.000291784703199
 21
47.047499999999928
 31
0.0
  0
LINE
  5
12F
  8
DATA
  6
CONTINUOUS
 62
     7
 10
10.000291784703199
 20
47.047499999999928
 30
0.0
 11
11.000291784703199
 21
47.932499999999919
 31
0.0
  0
LINE
  5
130
  8
DATA
  6
CONTINUOUS
 62
     7
 10
11.000291784703199
 20
47.932499999999919
 30
0.0
 11
10.000291784703199
 21
48.817499999999967
 31
0.0
  0
LINE
  5
131
  8
DATA
  6
CONTINUOUS
 62
     7
 10
10.000291784703199
 20
48.817499999999967
 30
0.0
 11
11.000291784703199
 21
49.70249999999993
 31
0.0
  0
LINE
  5
132
  8
DATA
  6
CONTINUOUS
 62
     7
 10
11.000291784703199
 20
49.70249999999993
 30
0.0
 11
10.000291784703199
 21
50.587499999999928
 31
0.0
  0
LINE
  5
133
  8
DATA
  6
CONTINUOUS
 62
     7
 10
10.000291784703199
 20
50.587499999999928
 30
0.0
 11
11.000291784703199
 21
51.472499999999933
 31
0.0
  0
LINE
  5
134
  8
DATA
  6
CONTINUOUS
 62
     7
 10
11.000291784703199
 20
51.472499999999933
 30
0.0
 11
10.000291784703199
 21
52.357499999999952
 31
0.0
  0
LINE
  5
135
  8
DATA
  6
CONTINUOUS
 62
     7
 10
10.000291784703199
 20
52.357499999999952
 30
0.0
 11
11.000291784703199
 21
53.242499999999922
 31
0.0
  0
LINE
  5
136
  8
DATA
  6
CONTINUOUS
 62
     7
 10
11.000291784703199
 20
53.242499999999922
 30
0.0
 11
10.000291784703199
 21
54.127499999999969
 31
0.0
  0
LINE
  5
137
  8
DATA
  6
CONTINUOUS
 62
     7
 10
10.000291784703199
 20
54.127499999999969
 30
0.0
 11
11.000291784703199
 21
55.01249999999996
 31
0.0
  0
LINE
  5
138
  8
DATA
  6
CONTINUOUS
 62
     7
 10
11.000291784703199
 20
55.01249999999996
 30
0.0
 11
10.000291784703199
 21
55.89749999999998
 31
0.0
  0
LINE
  5
139
  8
DATA
  6
CONTINUOUS
 62
     7
 10
10.000291784703199
 20
55.89749999999998
 30
0.0
 11
11.000291784703199
 21
56.782499999999942
 31
0.0
  0
LINE
  5
13A
  8
DATA
  6
CONTINUOUS
 62
     7
 10
11.000291784703199
 20
56.782499999999942
 30
0.0
 11
10.000291784703199
 21
57.66749999999999
 31
0.0
  0
LINE
  5
13B
  8
DATA
  6
CONTINUOUS
 62
     7
 10
10.000291784703199
 20
57.667499999999933
 30
0.0
 11
11.000291784703199
 21
58.552499999999952
 31
0.0
  0
LINE
  5
13C
  8
DATA
  6
CONTINUOUS
 62
     7
 10
11.000291784703199
 20
58.552499999999952
 30
0.0
 11
10.000291784703199
 21
59.437499999999943
 31
0.0
  0
LINE
  5
13D
  8
DATA
  6
CONTINUOUS
 62
     7
 10
10.000291784703199
 20
59.437499999999943
 30
0.0
 11
11.000291784703199
 21
60.322499999999962
 31
0.0
  0
LINE
  5
13E
  8
DATA
  6
CONTINUOUS
 62
     7
 10
11.000291784703199
 20
60.322499999999962
 30
0.0
 11
10.000291784703199
 21
61.207499999999953
 31
0.0
  0
LINE
  5
13F
  8
DATA
  6
CONTINUOUS
 62
     7
 10
10.000291784703199
 20
61.207499999999953
 30
0.0
 11
11.000291784703199
 21
62.092499999999973
 31
0.0
  0
LINE
  5
140
  8
DATA
  6
CONTINUOUS
 62
     7
 10
11.000291784703199
 20
62.092499999999973
 30
0.0
 11
10.000291784703199
 21
62.977499999999971
 31
0.0
  0
LINE
  5
141
  8
DATA
  6
CONTINUOUS
 62
     7
 10
10.000291784703199
 20
62.977499999999971
 30
0.0
 11
11.000291784703199
 21
63.862499999999983
 31
0.0
  0
LINE
  5
142
  8
DATA
  6
CONTINUOUS
 62
     7
 10
11.000291784703199
 20
63.862499999999983
 30
0.0
 11
10.000291784703199
 21
64.747499999999974
 31
0.0
  0
LINE
  5
143
  8
DATA
  6
CONTINUOUS
 62
     7
 10
10.000291784703199
 20
64.747499999999974
 30
0.0
 11
11.000291784703199
 21
65.632499999999936
 31
0.0
  0
LINE
  5
144
  8
DATA
  6
CONTINUOUS
 62
     7
 10
11.000291784703199
 20
65.632499999999936
 30
0.0
 11
10.000291784703199
 21
66.517499999999956
 31
0.0
  0
LINE
  5
145
  8
DATA
  6
CONTINUOUS
 62
     7
 10
10.000291784703199
 20
66.517499999999956
 30
0.0
 11
11.000291784703199
 21
67.402499999999932
 31
0.0
  0
LINE
  5
146
  8
DATA
  6
CONTINUOUS
 62
     7
 10
11.000291784703199
 20
67.402499999999932
 30
0.0
 11
10.000291784703199
 21
68.287499999999994
 31
0.0
  0
LINE
  5
147
  8
DATA
  6
CONTINUOUS
 62
     7
 10
10.997401611292821
 20
17.839942196531752
 30
0.0
 11
11.000291784703199
 21
17.839999999999971
 31
0.0
  0
LINE
  5
148
  8
DATA
  6
CONTINUOUS
 62
     7
 10
10.99740161129284
 20
19.60994219653179
 30
0.0
 11
11.000291784703199
 21
19.61000000000001
 31
0.0
  0
LINE
  5
149
  8
DATA
  6
CONTINUOUS
 62
     7
 10
-10.999708215296829
 20
20.939999999999941
 30
0.0
 11
11.000291784703199
 21
21.379999999999988
 31
0.0
  0
LINE
  5
14A
  8
DATA
  6
CONTINUOUS
 62
     7
 10
-10.999708215296829
 20
22.709999999999919
 30
0.0
 11
11.000291784703199
 21
23.149999999999981
 31
0.0
  0
LINE
  5
14B
  8
DATA
  6
CONTINUOUS
 62
     7
 10
-10.999708215296829
 20
24.479999999999961
 30
0.0
 11
11.000291784703199
 21
24.920000000000019
 31
0.0
  0
LINE
  5
14C
  8
DATA
  6
CONTINUOUS
 62
     7
 10
-10.999708215296829
 20
26.24999999999995
 30
0.0
 11
11.000291784703199
 21
26.690000000000001
 31
0.0
  0
LINE
  5
14D
  8
DATA
  6
CONTINUOUS
 62
     7
 10
-10.999708215296829
 20
28.019999999999989
 30
0.0
 11
11.000291784703199
 21
28.45999999999998
 31
0.0
  0
LINE
  5
14E
  8
DATA
  6
CONTINUOUS
 62
     7
 10
-10.999708215296829
 20
29.789999999999971
 30
0.0
 11
11.000291784703199
 21
30.230000000000011
 31
0.0
  0
LINE
  5
14F
  8
DATA
  6
CONTINUOUS
 62
     7
 10
-10.999708215296829
 20
31.559999999999949
 30
0.0
 11
11.000291784703199
 21
31.999999999999918
 31
0.0
  0
LINE
  5
150
  8
DATA
  6
CONTINUOUS
 62
     7
 10
-10.999708215296829
 20
33.329999999999892
 30
0.0
 11
11.000291784703199
 21
33.769999999999953
 31
0.0
  0
LINE
  5
151
  8
DATA
  6
CONTINUOUS
 62
     7
 10
-10.999708215296829
 20
35.09999999999993
 30
0.0
 11
11.000291784703199
 21
35.539999999999928
 31
0.0
  0
LINE
  5
152
  8
DATA
  6
CONTINUOUS
 62
     7
 10
-10.999708215296829
 20
36.869999999999933
 30
0.0
 11
11.000291784703199
 21
37.309999999999931
 31
0.0
  0
LINE
  5
153
  8
DATA
  6
CONTINUOUS
 62
     7
 10
-10.999708215296829
 20
38.639999999999901
 30
0.0
 11
11.000291784703199
 21
39.079999999999963
 31
0.0
  0
LINE
  5
154
  8
DATA
  6
CONTINUOUS
 62
     7
 10
-10.999708215296829
 20
40.40999999999994
 30
0.0
 11
11.000291784703199
 21
40.84999999999993
 31
0.0
  0
LINE
  5
155
  8
DATA
  6
CONTINUOUS
 62
     7
 10
-10.999708215296829
 20
42.179999999999907
 30
0.0
 11
11.000291784703199
 21
42.619999999999969
 31
0.0
  0
LINE
  5
156
  8
DATA
  6
CONTINUOUS
 62
     7
 10
-10.999708215296829
 20
43.949999999999932
 30
0.0
 11
11.000291784703199
 21
44.389999999999958
 31
0.0
  0
LINE
  5
157
  8
DATA
  6
CONTINUOUS
 62
     7
 10
-10.999708215296829
 20
45.719999999999928
 30
0.0
 11
11.000291784703199
 21
46.159999999999961
 31
0.0
  0
LINE
  5
158
  8
DATA
  6
CONTINUOUS
 62
     7
 10
-10.999708215296829
 20
47.489999999999952
 30
0.0
 11
11.000291784703199
 21
47.929999999999978
 31
0.0
  0
LINE
  5
159
  8
DATA
  6
CONTINUOUS
 62
     7
 10
-10.999708215296829
 20
49.259999999999962
 30
0.0
 11
11.000291784703199
 21
49.699999999999982
 31
0.0
  0
LINE
  5
15A
  8
DATA
  6
CONTINUOUS
 62
     7
 10
-10.999708215296829
 20
51.029999999999923
 30
0.0
 11
11.000291784703199
 21
51.469999999999942
 31
0.0
  0
LINE
  5
15B
  8
DATA
  6
CONTINUOUS
 62
     7
 10
-10.999708215296829
 20
52.79999999999994
 30
0.0
 11
11.000291784703199
 21
53.239999999999952
 31
0.0
  0
LINE
  5
15C
  8
DATA
  6
CONTINUOUS
 62
     7
 10
-10.999708215296829
 20
54.569999999999929
 30
0.0
 11
11.000291784703199
 21
55.009999999999962
 31
0.0
  0
LINE
  5
15D
  8
DATA
  6
CONTINUOUS
 62
     7
 10
-10.999708215296829
 20
56.339999999999932
 30
0.0
 11
11.000291784703199
 21
56.779999999999973
 31
0.0
  0
LINE
  5
15E
  8
DATA
  6
CONTINUOUS
 62
     7
 10
-10.999708215296829
 20
58.109999999999928
 30
0.0
 11
11.000291784703199
 21
58.549999999999983
 31
0.0
  0
LINE
  5
15F
  8
DATA
  6
CONTINUOUS
 62
     7
 10
-10.999708215296829
 20
59.879999999999967
 30
0.0
 11
11.000291784703199
 21
60.319999999999972
 31
0.0
  0
LINE
  5
160
  8
DATA
  6
CONTINUOUS
 62
     7
 10
-10.999708215296829
 20
61.649999999999928
 30
0.0
 11
11.000291784703199
 21
62.090000000000003
 31
0.0
  0
LINE
  5
161
  8
DATA
  6
CONTINUOUS
 62
     7
 10
-10.999708215296829
 20
63.41999999999998
 30
0.0
 11
11.000291784703199
 21
63.859999999999992
 31
0.0
  0
LINE
  5
162
  8
DATA
  6
CONTINUOUS
 62
     7
 10
-10.999708215296829
 20
65.189999999999969
 30
0.0
 11
11.000291784703199
 21
65.629999999999995
 31
0.0
  0
LINE
  5
163
  8
DATA
  6
CONTINUOUS
 62
     7
 10
-10.999708215296829
 20
66.959999999999965
 30
0.0
 11
11.000291784703199
 21
67.400000000000006
 31
0.0
  0
LINE
  5
164
  8
DATA
  6
CONTINUOUS
 62
     7
 10
-10.999708215296829
 20
68.729999999999933
 30
0.0
 11
11.000291784703199
 21
69.169999999999959
 31
0.0
  0
LINE
  5
165
  8
DATA
  6
CONTINUOUS
 62
     7
 10
-9.9997082152968062
 20
20.05499999999995
 30
0.0
 11
10.000291784703199
 21
20.495000000000001
 31
0.0
  0
LINE
  5
166
  8
DATA
  6
CONTINUOUS
 62
     7
 10
-9.9997082152968062
 20
21.824999999999928
 30
0.0
 11
10.000291784703199
 21
22.26499999999999
 31
0.0
  0
LINE
  5
167
  8
DATA
  6
CONTINUOUS
 62
     7
 10
-9.9997082152968062
 20
23.59499999999997
 30
0.0
 11
10.000291784703199
 21
24.034999999999972
 31
0.0
  0
LINE
  5
168
  8
DATA
  6
CONTINUOUS
 62
     7
 10
-9.9997082152968062
 20
25.364999999999949
 30
0.0
 11
10.000291784703199
 21
25.80499999999995
 31
0.0
  0
LINE
  5
169
  8
DATA
  6
CONTINUOUS
 62
     7
 10
-9.9997082152968062
 20
27.134999999999931
 30
0.0
 11
10.000291784703199
 21
27.574999999999989
 31
0.0
  0
LINE
  5
16A
  8
DATA
  6
CONTINUOUS
 62
     7
 10
-9.9997082152968062
 20
28.904999999999969
 30
0.0
 11
10.000291784703199
 21
29.34499999999997
 31
0.0
  0
LINE
  5
16B
  8
DATA
  6
CONTINUOUS
 62
     7
 10
-9.9997082152968062
 20
30.674999999999951
 30
0.0
 11
10.000291784703199
 21
31.114999999999949
 31
0.0
  0
LINE
  5
16C
  8
DATA
  6
CONTINUOUS
 62
     7
 10
-9.9997082152968062
 20
32.444999999999908
 30
0.0
 11
10.000291784703199
 21
32.884999999999962
 31
0.0
  0
LINE
  5
16D
  8
DATA
  6
CONTINUOUS
 62
     7
 10
-9.9997082152968062
 20
34.214999999999947
 30
0.0
 11
10.000291784703199
 21
34.654999999999951
 31
0.0
  0
LINE
  5
16E
  8
DATA
  6
CONTINUOUS
 62
     7
 10
-9.9997082152968062
 20
35.984999999999928
 30
0.0
 11
10.000291784703199
 21
36.424999999999983
 31
0.0
  0
LINE
  5
16F
  8
DATA
  6
CONTINUOUS
 62
     7
 10
-9.9997082152968062
 20
37.754999999999967
 30
0.0
 11
10.000291784703199
 21
38.194999999999972
 31
0.0
  0
LINE
  5
170
  8
DATA
  6
CONTINUOUS
 62
     7
 10
-9.9997082152968062
 20
39.524999999999949
 30
0.0
 11
10.000291784703199
 21
39.964999999999968
 31
0.0
  0
LINE
  5
171
  8
DATA
  6
CONTINUOUS
 62
     7
 10
-9.9997082152968062
 20
41.294999999999952
 30
0.0
 11
10.000291784703199
 21
41.734999999999992
 31
0.0
  0
LINE
  5
172
  8
DATA
  6
CONTINUOUS
 62
     7
 10
-9.9997082152968062
 20
43.064999999999898
 30
0.0
 11
10.000291784703199
 21
43.504999999999932
 31
0.0
  0
LINE
  5
173
  8
DATA
  6
CONTINUOUS
 62
     7
 10
-9.9997082152968062
 20
44.834999999999923
 30
0.0
 11
10.000291784703199
 21
45.274999999999928
 31
0.0
  0
LINE
  5
174
  8
DATA
  6
CONTINUOUS
 62
     7
 10
-9.9997082152968062
 20
46.604999999999933
 30
0.0
 11
10.000291784703199
 21
47.044999999999952
 31
0.0
  0
LINE
  5
175
  8
DATA
  6
CONTINUOUS
 62
     7
 10
-9.9997082152968062
 20
48.374999999999943
 30
0.0
 11
10.000291784703199
 21
48.814999999999969
 31
0.0
  0
LINE
  5
176
  8
DATA
  6
CONTINUOUS
 62
     7
 10
-9.9997082152968062
 20
50.144999999999953
 30
0.0
 11
10.000291784703199
 21
50.584999999999951
 31
0.0
  0
LINE
  5
177
  8
DATA
  6
CONTINUOUS
 62
     7
 10
-9.9997082152968062
 20
51.914999999999942
 30
0.0
 11
10.000291784703199
 21
52.35499999999999
 31
0.0
  0
LINE
  5
178
  8
DATA
  6
CONTINUOUS
 62
     7
 10
-9.9997082152968062
 20
53.684999999999967
 30
0.0
 11
10.000291784703199
 21
54.124999999999972
 31
0.0
  0
LINE
  5
179
  8
DATA
  6
CONTINUOUS
 62
     7
 10
-9.9997082152968062
 20
55.454999999999963
 30
0.0
 11
10.000291784703199
 21
55.89500000000001
 31
0.0
  0
LINE
  5
17A
  8
DATA
  6
CONTINUOUS
 62
     7
 10
-9.9997082152968062
 20
57.224999999999973
 30
0.0
 11
10.000291784703199
 21
57.664999999999992
 31
0.0
  0
LINE
  5
17B
  8
DATA
  6
CONTINUOUS
 62
     7
 10
-9.9997082152968062
 20
58.994999999999983
 30
0.0
 11
10.000291784703199
 21
59.435000000000002
 31
0.0
  0
LINE
  5
17C
  8
DATA
  6
CONTINUOUS
 62
     7
 10
-9.9997082152968062
 20
60.764999999999993
 30
0.0
 11
10.000291784703199
 21
61.205000000000013
 31
0.0
  0
LINE
  5
17D
  8
DATA
  6
CONTINUOUS
 62
     7
 10
-9.9997082152968062
 20
62.534999999999989
 30
0.0
 11
10.000291784703199
 21
62.975000000000023
 31
0.0
  0
LINE
  5
17E
  8
DATA
  6
CONTINUOUS
 62
     7
 10
-9.9997082152968062
 20
64.304999999999936
 30
0.0
 11
10.000291784703199
 21
64.744999999999976
 31
0.0
  0
LINE
  5
17F
  8
DATA
  6
CONTINUOUS
 62
     7
 10
-9.9997082152968062
 20
66.07499999999996
 30
0.0
 11
10.000291784703199
 21
66.514999999999986
 31
0.0
  0
LINE
  5
180
  8
DATA
  6
CONTINUOUS
 62
     7
 10
-9.9997082152968062
 20
67.844999999999928
 30
0.0
 11
10.000291784703199
 21
68.284999999999997
 31
0.0
  0
LINE
  5
181
  8
DATA
  6
CONTINUOUS
 62
     7
 10
-9.9997082152972876
 20
0.0
 30
0.0
 11
10.000291784703199
 21
0.0
 31
0.0
  0
LINE
  5
182
  8
DATA
  6
CONTINUOUS
 62
     7
 10
-16.0
 20
0.0
 30
0.0
 11
16.000000000000021
 21
0.0
 31
0.0
  0
LINE
  5
183
  8
DATA
  6
CONTINUOUS
 62
     7
 10
-16.0
 20
0.0
 30
0.0
 11
-16.0
 21
15.5
 31
0.0
  0
LINE
  5
184
  8
DATA
  6
CONTINUOUS
 62
     7
 10
16.000000000000021
 20
0.0
 30
0.0
 11
16.000000000000021
 21
15.5
 31
0.0
  0
LINE
  5
185
  8
DATA
  6
CONTINUOUS
 62
     7
 10
-16.0
 20
15.5
 30
0.0
 11
16.000000000000021
 21
15.5
 31
0.0
  0
LINE
  5
186
  8
DATA
  6
CONTINUOUS
 62
     7
 10
16.000000000000021
 20
1.5
 30
0.0
 11
22.250000000000011
 21
1.5
 31
0.0
  0
LINE
  5
187
  8
DATA
  6
CONTINUOUS
 62
     7
 10
16.000000000000021
 20
14.0
 30
0.0
 11
22.250000000000011
 21
14.0
 31
0.0
  0
ARC
  5
188
  8
DATA
  6
CONTINUOUS
 62
     7
 10
22.250000000000011
 20
7.75
 30
0.0
 40
6.25
 50
270.0
 51
90.0
  0
LINE
  5
189
  8
DATA
  6
CONTINUOUS
 62
     7
 10
-16.0
 20
1.5
 30
0.0
 11
-22.25
 21
1.5
 31
0.0
  0
LINE
  5
18A
  8
DATA
  6
CONTINUOUS
 62
     7
 10
-16.0
 20
14.0
 30
0.0
 11
-22.25
 21
14.0
 31
0.0
  0
ARC
  5
18B
  8
DATA
  6
CONTINUOUS
 62
     7
 10
-22.25
 20
7.75
 30
0.0
 40
6.25
 50
90.0
 51
270.0
  0
LINE
  5
18C
  8
DATA
  6
CONTINUOUS
 62
     7
 10
-15.499999999999369
 20
17.0
 30
0.0
 11
15.50000000000065
 21
17.0
 31
0.0
  0
LINE
  5
18D
  8
DATA
  6
CONTINUOUS
 62
     7
 10
-15.499999999999369
 20
17.0
 30
0.0
 11
-15.499999999999369
 21
15.5
 31
0.0
  0
LINE
  5
18E
  8
DATA
  6
CONTINUOUS
 62
     7
 10
15.50000000000065
 20
17.0
 30
0.0
 11
15.50000000000065
 21
15.5
 31
0.0
  0
LINE
  5
18F
  8
DATA
  6
CONTINUOUS
 62
     7
 10
-12.499999999999369
 20
20.0
 30
0.0
 11
12.50000000000065
 21
20.0
 31
0.0
  0
LINE
  5
190
  8
DATA
  6
CONTINUOUS
 62
     7
 10
-12.499999999999369
 20
20.0
 30
0.0
 11
-12.499999999999369
 21
17.0
 31
0.0
  0
LINE
  5
191
  8
DATA
  6
CONTINUOUS
 62
     7
 10
12.50000000000065
 20
20.0
 30
0.0
 11
12.50000000000065
 21
17.0
 31
0.0
  0
LINE
  5
192
  8
DATA
  6
STYLE_01
 62
     7
 10
-10.999708215296829
 20
20.0
 30
0.0
 11
-10.999708215296829
 21
0.0
 31
0.0
  0
LINE
  5
193
  8
DATA
  6
STYLE_01
 62
     7
 10
11.000291784703199
 20
20.0
 30
0.0
 11
11.000291784703199
 21
0.0
 31
0.0
  0
LINE
  5
194
  8
DATA
  6
CONTINUOUS
 62
     7
 10
11.000291784703199
 20
79.849999999999937
 30
0.0
 11
-10.999708215296829
 21
79.849999999999937
 31
0.0
  0
LINE
  5
195
  8
DATA
  6
CONTINUOUS
 62
     7
 10
-15.499999999999369
 20
82.849999999999937
 30
0.0
 11
15.50000000000065
 21
82.849999999999937
 31
0.0
  0
LINE
  5
196
  8
DATA
  6
CONTINUOUS
 62
     7
 10
-15.499999999999369
 20
82.849999999999937
 30
0.0
 11
-15.499999999999369
 21
84.349999999999923
 31
0.0
  0
LINE
  5
197
  8
DATA
  6
CONTINUOUS
 62
     7
 10
15.50000000000065
 20
82.849999999999937
 30
0.0
 11
15.50000000000065
 21
84.349999999999923
 31
0.0
  0
LINE
  5
198
  8
DATA
  6
CONTINUOUS
 62
     7
 10
-12.499999999999369
 20
79.849999999999937
 30
0.0
 11
12.50000000000065
 21
79.849999999999937
 31
0.0
  0
LINE
  5
199
  8
DATA
  6
CONTINUOUS
 62
     7
 10
-12.499999999999369
 20
79.849999999999937
 30
0.0
 11
-12.499999999999369
 21
82.849999999999937
 31
0.0
  0
LINE
  5
19A
  8
DATA
  6
CONTINUOUS
 62
     7
 10
12.50000000000065
 20
79.849999999999937
 30
0.0
 11
12.50000000000065
 21
82.849999999999937
 31
0.0
  0
LINE
  5
19B
  8
DATA
  6
CONTINUOUS
 62
     7
 10
-15.499999999999369
 20
84.349999999999923
 30
0.0
 11
15.50000000000065
 21
84.349999999999923
 31
0.0
  0
LINE
  5
19C
  8
DATA
  6
CONTINUOUS
 62
     7
 10
-14.99970821529706
 20
86.999999999999929
 30
0.0
 11
15.000291784702959
 21
86.999999999999929
 31
0.0
  0
LINE
  5
19D
  8
DATA
  6
CONTINUOUS
 62
     7
 10
-15.99970821529706
 20
84.349999999999923
 30
0.0
 11
16.000291784702959
 21
84.349999999999923
 31
0.0
  0
LINE
  5
19E
  8
DATA
  6
CONTINUOUS
 62
     7
 10
-15.99970821529706
 20
86.349999999999937
 30
0.0
 11
16.000291784702959
 21
86.349999999999937
 31
0.0
  0
LINE
  5
19F
  8
DATA
  6
CONTINUOUS
 62
     7
 10
-15.99970821529706
 20
84.349999999999923
 30
0.0
 11
-15.99970821529706
 21
86.349999999999937
 31
0.0
  0
LINE
  5
1A0
  8
DATA
  6
CONTINUOUS
 62
     7
 10
-15.99970821529706
 20
86.349999999999937
 30
0.0
 11
-14.99970821529706
 21
86.999999999999929
 31
0.0
  0
LINE
  5
1A1
  8
DATA
  6
CONTINUOUS
 62
     7
 10
15.000291784702959
 20
86.999999999999929
 30
0.0
 11
16.000291784702959
 21
86.349999999999937
 31
0.0
  0
LINE
  5
1A2
  8
DATA
  6
CONTINUOUS
 62
     7
 10
16.000291784702959
 20
86.349999999999937
 30
0.0
 11
16.000291784702959
 21
84.349999999999923
 31
0.0
  0
LINE
  5
1A3
  8
DATA
  6
CONTINUOUS
 62
     7
 10
-10.99970821529706
 20
79.849999999999937
 30
0.0
 11
-10.99970821529706
 21
75.349999999999923
 31
0.0
  0
LINE
  5
1A4
  8
DATA
  6
CONTINUOUS
 62
     7
 10
11.000291784702959
 20
79.849999999999937
 30
0.0
 11
11.000291784702959
 21
75.349999999999923
 31
0.0
  0
LINE
  5
1A5
  8
DATA
  6
CONTINUOUS
 62
     7
 10
-10.999708215296829
 20
70.499999999999929
 30
0.0
 11
-9.9997082152968062
 21
69.614999999999981
 31
0.0
  0
LINE
  5
1A6
  8
DATA
  6
CONTINUOUS
 62
     7
 10
-10.999708215296829
 20
70.499999999999929
 30
0.0
 11
-9.9997082152968062
 21
71.384999999999948
 31
0.0
  0
LINE
  5
1A7
  8
DATA
  6
CONTINUOUS
 62
     7
 10
-10.999708215296829
 20
72.269999999999953
 30
0.0
 11
-9.9997082152968062
 21
71.384999999999948
 31
0.0
  0
LINE
  5
1A8
  8
DATA
  6
CONTINUOUS
 62
     7
 10
-10.999708215296829
 20
72.269999999999953
 30
0.0
 11
-9.9997082152968062
 21
73.154999999999973
 31
0.0
  0
LINE
  5
1A9
  8
DATA
  6
CONTINUOUS
 62
     7
 10
-10.999708215296829
 20
74.039999999999935
 30
0.0
 11
-9.9997082152968062
 21
73.154999999999973
 31
0.0
  0
LINE
  5
1AA
  8
DATA
  6
CONTINUOUS
 62
     7
 10
-10.999708215296829
 20
74.039999999999935
 30
0.0
 11
-9.9997082152968062
 21
74.924999999999926
 31
0.0
  0
LINE
  5
1AB
  8
DATA
  6
CONTINUOUS
 62
     7
 10
-10.47993420399737
 20
75.349999999999923
 30
0.0
 11
-9.9997082152968062
 21
74.924999999999983
 31
0.0
  0
LINE
  5
1AC
  8
DATA
  6
CONTINUOUS
 62
     7
 10
10.000291784703199
 20
68.287499999999966
 30
0.0
 11
11.000291784703199
 21
69.172499999999928
 31
0.0
  0
LINE
  5
1AD
  8
DATA
  6
CONTINUOUS
 62
     7
 10
11.000291784703199
 20
69.172499999999928
 30
0.0
 11
10.000291784703199
 21
70.057499999999976
 31
0.0
  0
LINE
  5
1AE
  8
DATA
  6
CONTINUOUS
 62
     7
 10
10.000291784703199
 20
70.057499999999976
 30
0.0
 11
11.000291784703199
 21
70.942499999999967
 31
0.0
  0
LINE
  5
1AF
  8
DATA
  6
CONTINUOUS
 62
     7
 10
11.000291784703199
 20
70.942499999999967
 30
0.0
 11
10.000291784703199
 21
71.827499999999986
 31
0.0
  0
LINE
  5
1B0
  8
DATA
  6
CONTINUOUS
 62
     7
 10
10.000291784703199
 20
71.82749999999993
 30
0.0
 11
11.000291784703199
 21
72.712499999999935
 31
0.0
  0
LINE
  5
1B1
  8
DATA
  6
CONTINUOUS
 62
     7
 10
11.000291784703199
 20
72.712499999999935
 30
0.0
 11
10.000291784703199
 21
73.59749999999994
 31
0.0
  0
LINE
  5
1B2
  8
DATA
  6
CONTINUOUS
 62
     7
 10
10.000291784703199
 20
73.59749999999994
 30
0.0
 11
11.000291784703199
 21
74.482499999999973
 31
0.0
  0
LINE
  5
1B3
  8
DATA
  6
CONTINUOUS
 62
     7
 10
11.000291784703199
 20
74.482499999999973
 30
0.0
 11
10.000291784703199
 21
75.36749999999995
 31
0.0
  0
LINE
  5
1B4
  8
DATA
  6
CONTINUOUS
 62
     7
 10
-9.9997082152968062
 20
69.614999999999981
 30
0.0
 11
10.000291784703199
 21
70.054999999999964
 31
0.0
  0
LINE
  5
1B5
  8
DATA
  6
CONTINUOUS
 62
     7
 10
-10.999708215296829
 20
68.729999999999933
 30
0.0
 11
11.000291784703199
 21
69.169999999999959
 31
0.0
  0
LINE
  5
1B6
  8
DATA
  6
CONTINUOUS
 62
     7
 10
-9.9997082152968062
 20
71.384999999999948
 30
0.0
 11
10.000291784703199
 21
71.825000000000017
 31
0.0
  0
LINE
  5
1B7
  8
DATA
  6
CONTINUOUS
 62
     7
 10
-10.999708215296829
 20
70.499999999999929
 30
0.0
 11
11.000291784703199
 21
70.939999999999969
 31
0.0
  0
LINE
  5
1B8
  8
DATA
  6
CONTINUOUS
 62
     7
 10
-9.9997082152968062
 20
73.154999999999973
 30
0.0
 11
10.000291784703199
 21
73.594999999999999
 31
0.0
  0
LINE
  5
1B9
  8
DATA
  6
CONTINUOUS
 62
     7
 10
-10.999708215296829
 20
72.269999999999953
 30
0.0
 11
11.000291784703199
 21
72.709999999999951
 31
0.0
  0
LINE
  5
1BA
  8
DATA
  6
CONTINUOUS
 62
     7
 10
-9.9997082152968062
 20
74.924999999999983
 30
0.0
 11
10.000291784703199
 21
75.365000000000023
 31
0.0
  0
LINE
  5
1BB
  8
DATA
  6
CONTINUOUS
 62
     7
 10
-10.999708215296829
 20
74.039999999999935
 30
0.0
 11
11.000291784703199
 21
74.479999999999976
 31
0.0
  0
LINE
  5
1BC
  8
DATA
  6
CONTINUOUS
 62
     7
 10
11.000291784702959
 20
75.349999999999923
 30
0.0
 11
-10.99970821529706
 21
75.349999999999923
 31
0.0
  0
LINE
  5
1BD
  8
DATA
  6
CONTINUOUS
 62
     7
 10
-9.7497082152970602
 20
87.499999999999957
 30
0.0
 11
9.7502917847029664
 21
87.499999999999957
 31
0.0
  0
LINE
  5
1BE
  8
DATA
  6
CONTINUOUS
 62
     7
 10
-7.7497082152970611
 20
97.499999999999943
 30
0.0
 11
7.7502917847029664
 21
97.499999999999943
 31
0.0
  0
LINE
  5
1BF
  8
DATA
  6
CONTINUOUS
 62
     7
 10
-5.9997082152970327
 20
99.499999999999943
 30
0.0
 11
6.0002917847029664
 21
99.499999999999943
 31
0.0
  0
LINE
  5
1C0
  8
DATA
  6
CONTINUOUS
 62
     7
 10
-9.7497082152970602
 20
87.499999999999957
 30
0.0
 11
-7.7497082152970611
 21
97.499999999999943
 31
0.0
  0
LINE
  5
1C1
  8
DATA
  6
CONTINUOUS
 62
     7
 10
9.7502917847029664
 20
87.499999999999957
 30
0.0
 11
7.7502917847029664
 21
97.499999999999943
 31
0.0
  0
LINE
  5
1C2
  8
DATA
  6
CONTINUOUS
 62
     7
 10
6.0002917847029664
 20
99.499999999999943
 30
0.0
 11
7.7502917847029664
 21
97.499999999999943
 31
0.0
  0
LINE
  5
1C3
  8
DATA
  6
CONTINUOUS
 62
     7
 10
-3.9997082152970331
 20
101.4999999999999
 30
0.0
 11
4.0002917847029664
 21
101.4999999999999
 31
0.0
  0
LINE
  5
1C4
  8
DATA
  6
CONTINUOUS
 62
     7
 10
-3.9997082152970331
 20
101.4999999999999
 30
0.0
 11
-5.4997082152970327
 21
99.499999999999943
 31
0.0
  0
LINE
  5
1C5
  8
DATA
  6
CONTINUOUS
 62
     7
 10
4.0002917847029664
 20
101.4999999999999
 30
0.0
 11
5.5002917847029664
 21
99.499999999999943
 31
0.0
  0
LINE
  5
1C6
  8
DATA
  6
CONTINUOUS
 62
     7
 10
-5.9997082152970327
 20
99.499999999999943
 30
0.0
 11
-7.7497082152970611
 21
97.499999999999943
 31
0.0
  0
LINE
  5
1C7
  8
DATA
  6
CONTINUOUS
 62
     7
 10
-7.7497082152970611
 20
86.999999999999929
 30
0.0
 11
-7.7497082152970611
 21
87.499999999999957
 31
0.0
  0
LINE
  5
1C8
  8
DATA
  6
CONTINUOUS
 62
     7
 10
7.7502917847029664
 20
86.999999999999929
 30
0.0
 11
7.7502917847029664
 21
87.499999999999957
 31
0.0
  0
LINE
  5
1C9
  8
DATA
  6
CONTINUOUS
 62
     7
 10
5.0227011344772157
 20
108.8259465314416
 30
0.0
 11
56.63317732622388
 21
233.4241184290824
 31
0.0
  0
LINE
  5
1CA
  8
DATA
  6
CONTINUOUS
 62
     7
 10
-1.2160941906356291
 20
113.36260671782991
 30
0.0
 11
49.704080832389216
 21
236.29424417182051
 31
0.0
  0
LINE
  5
1CB
  8
DATA
  6
CONTINUOUS
 62
     7
 10
-3.4997082152970331
 20
101.4999999999999
 30
0.0
 11
-3.4997082152970331
 21
101.88210374687731
 31
0.0
  0
ARC
  5
1CC
  8
DATA
  6
CONTINUOUS
 62
     7
 10
26.50029178470297
 20
101.88210374687721
 30
0.0
 40
30.0
 50
157.5
 51
179.99999999999989
  0
ARC
  5
1CD
  8
DATA
  6
CONTINUOUS
 62
     7
 10
23.50029178470297
 20
101.1722778841398
 30
0.0
 40
20.000000000000011
 50
157.5
 51
179.0611032758822
  0
CIRCLE
  5
1CE
  8
DATA
  6
CONTINUOUS
 62
     7
 10
0.0
 20
-80.0
 30
0.0
 40
16.000000000000021
  0
LINE
  5
1CF
  8
DATA
  6
CONTINUOUS
 62
     7
 10
28.5
 20
-82.399999999999977
 30
0.0
 11
28.5
 21
-77.600000000000023
 31
0.0
  0
LINE
  5
1D0
  8
DATA
  6
CONTINUOUS
 62
     7
 10
-28.500000000000028
 20
-82.399999999999977
 30
0.0
 11
-28.500000000000028
 21
-77.600000000000023
 31
0.0
  0
LINE
  5
1D1
  8
DATA
  6
CONTINUOUS
 62
     7
 10
28.5
 20
-77.600000000000023
 30
0.0
 11
15.81897594662815
 21
-77.600000000000023
 31
0.0
  0
LINE
  5
1D2
  8
DATA
  6
CONTINUOUS
 62
     7
 10
-15.818975946628139
 20
-77.600000000000023
 30
0.0
 11
-28.500000000000028
 21
-77.600000000000023
 31
0.0
  0
LINE
  5
1D3
  8
DATA
  6
CONTINUOUS
 62
     7
 10
28.5
 20
-82.399999999999977
 30
0.0
 11
15.692534052854541
 21
-82.399999999999977
 31
0.0
  0
LINE
  5
1D4
  8
DATA
  6
CONTINUOUS
 62
     7
 10
-15.692534052854571
 20
-82.399999999999977
 30
0.0
 11
-28.500000000000028
 21
-82.399999999999977
 31
0.0
  0
CIRCLE
  5
1D5
  8
DATA
  6
CONTINUOUS
 62
     7
 10
0.0
 20
-80.0
 30
0.0
 40
11.750000000000011
  0
CIRCLE
  5
1D6
  8
DATA
  6
CONTINUOUS
 62
     7
 10
0.0
 20
-80.0
 30
0.0
 40
11.000000000000011
  0
CIRCLE
  5
1D7
  8
DATA
  6
CONTINUOUS
 62
     7
 10
0.0
 20
-80.0
 30
0.0
 40
10.000000000000011
  0
TEXT
  5
1D8
  8
DATA
 62
     7
 10
176.13201205533349
 20
190.57255531909729
 30
0.0
 40
10.85894097222222
  1
MX410LP
 41
0.7
 11
176.13201205533349
 21
201.4314962913196
 31
0.0
 73
     3
  0
LINE
  5
1D9
  8
DATA
  6
CONTINUOUS
 62
     7
 10
168.7986787220002
 20
187.37477754131959
 30
0.0
 11
230.13201205533349
 21
187.37477754131959
 31
0.0
  0
TEXT
  5
1DA
  8
DATA
 62
     7
 10
176.13201205533349
 20
36.572555319097383
 30
0.0
 40
10.85894097222222
  1
MX400SMP
 41
0.7
 11
176.13201205533349
 21
47.43149629131959
 31
0.0
 73
     3
  0
LINE
  5
1DB
  8
DATA
  6
CONTINUOUS
 62
     7
 10
168.7986787220002
 20
33.374777541319652
 30
0.0
 11
238.13201205533349
 21
33.374777541319652
 31
0.0
  0
ARC
  5
1DC
  8
DATA
  6
CONTINUOUS
 62
     7
 10
0.0000000000000568
 20
-80.000000000000057
 30
0.0
 40
8.0000000000000231
 50
143.96159757196369
 51
126.0384024280351
  0
CIRCLE
  5
1DD
  8
DATA
  6
CONTINUOUS
 62
     7
 10
0.0000000000000853
 20
-75.5
 30
0.0
 40
0.75
  0
ARC
  5
1DE
  8
DATA
  6
CONTINUOUS
 62
     7
 10
-5.656854249492226
 20
-74.343145750507688
 30
0.0
 40
1.249999999999956
 50
40.519201214022893
 51
229.48079878597889
  0
CIRCLE
  5
1DF
  8
DATA
  6
CONTINUOUS
 62
     7
 10
3.1819805153395739
 20
-76.818019484660553
 30
0.0
 40
0.7499999999999659
  0
CIRCLE
  5
1E0
  8
DATA
  6
CONTINUOUS
 62
     7
 10
4.5000000000000844
 20
-80.000000000000099
 30
0.0
 40
0.75
  0
CIRCLE
  5
1E1
  8
DATA
  6
CONTINUOUS
 62
     7
 10
3.1819805153394891
 20
-83.181980515339546
 30
0.0
 40
0.7499999999999859
  0
CIRCLE
  5
1E2
  8
DATA
  6
CONTINUOUS
 62
     7
 10
-0.0000000000000284
 20
-84.500000000000085
 30
0.0
 40
0.75
  0
CIRCLE
  5
1E3
  8
DATA
  6
CONTINUOUS
 62
     7
 10
0.0000000000000568
 20
-80.000000000000057
 30
0.0
 40
15.74999999999998
  0
LINE
  5
1E4
  8
DATA
  6
CONTINUOUS
 62
     7
 10
56.63317732622388
 20
233.4241184290824
 30
0.0
 11
49.704080832389216
 21
236.29424417182051
 31
0.0
  0
LINE
  5
1E5
  8
DATA
  6
CONTINUOUS
 62
     7
 10
56.362579276150761
 20
234.07739991152059
 30
0.0
 11
56.74526270851586
 21
235.00127944403181
 31
0.0
  0
LINE
  5
1E6
  8
DATA
  6
CONTINUOUS
 62
     7
 10
50.931387463375053
 20
237.95066152066059
 30
0.0
 11
50.54870403100994
 21
237.02678198814931
 31
0.0
  0
LINE
  5
1E7
  8
DATA
  6
CONTINUOUS
 62
     7
 10
50.357362314827398
 20
236.5648422218936
 30
0.0
 11
50.166020598644849
 21
236.102902455638
 31
0.0
  0
LINE
  5
1E8
  8
DATA
  6
CONTINUOUS
 62
     7
 10
56.171237559968219
 20
233.6154601452649
 30
0.0
 11
50.357362314827398
 21
236.5648422218936
 31
0.0
  0
LINE
  5
1E9
  8
DATA
  6
CONTINUOUS
 62
     7
 10
55.915358103447637
 20
234.30427545587659
 30
0.0
 11
55.724016387265102
 21
233.842335689621
 31
0.0
  0
LINE
  5
1EA
  8
DATA
  6
CONTINUOUS
 62
     7
 10
50.995925203713092
 20
236.79990644379319
 30
0.0
 11
50.80458348753055
 21
236.33796667753759
 31
0.0
  0
LINE
  5
1EB
  8
DATA
  6
CONTINUOUS
 62
     7
 10
56.362579276150761
 20
234.07739991152059
 30
0.0
 11
50.54870403100994
 21
237.02678198814931
 31
0.0
  0
LINE
  5
1EC
  8
DATA
  6
CONTINUOUS
 62
     7
 10
56.74526270851586
 20
235.00127944403181
 30
0.0
 11
50.931387463375053
 21
237.95066152066059
 31
0.0
  0
LINE
  5
1ED
  8
DATA
  6
CONTINUOUS
 62
     7
 10
56.93660442469838
 20
235.46321921028741
 30
0.0
 11
57.319287857063493
 21
236.3870987427988
 31
0.0
  0
LINE
  5
1EE
  8
DATA
  6
CONTINUOUS
 62
     7
 10
51.505412611922686
 20
239.33648081942749
 30
0.0
 11
51.122729179557581
 21
238.4126012869161
 31
0.0
  0
LINE
  5
1EF
  8
DATA
  6
CONTINUOUS
 62
     7
 10
56.93660442469838
 20
235.46321921028741
 30
0.0
 11
51.122729179557581
 21
238.4126012869161
 31
0.0
  0
LINE
  5
1F0
  8
DATA
  6
CONTINUOUS
 62
     7
 10
57.319287857063493
 20
236.3870987427988
 30
0.0
 11
51.505412611922686
 21
239.33648081942749
 31
0.0
  0
LINE
  5
1F1
  8
DATA
  6
CONTINUOUS
 62
     7
 10
57.510629573246021
 20
236.8490385090544
 30
0.0
 11
57.893313005611112
 21
237.7729180415657
 31
0.0
  0
LINE
  5
1F2
  8
DATA
  6
CONTINUOUS
 62
     7
 10
52.079437760470313
 20
240.7223001181944
 30
0.0
 11
51.696754328105222
 21
239.7984205856832
 31
0.0
  0
LINE
  5
1F3
  8
DATA
  6
CONTINUOUS
 62
     7
 10
57.510629573246021
 20
236.8490385090544
 30
0.0
 11
51.696754328105222
 21
239.7984205856832
 31
0.0
  0
LINE
  5
1F4
  8
DATA
  6
CONTINUOUS
 62
     7
 10
57.893313005611112
 20
237.7729180415657
 30
0.0
 11
52.079437760470313
 21
240.7223001181944
 31
0.0
  0
LINE
  5
1F5
  8
DATA
  6
CONTINUOUS
 62
     7
 10
58.084654721793648
 20
238.23485780782141
 30
0.0
 11
58.467338154158753
 21
239.15873734033261
 31
0.0
  0
LINE
  5
1F6
  8
DATA
  6
CONTINUOUS
 62
     7
 10
52.653462909017932
 20
242.10811941696139
 30
0.0
 11
52.270779476652848
 21
241.18423988445011
 31
0.0
  0
LINE
  5
1F7
  8
DATA
  6
CONTINUOUS
 62
     7
 10
58.084654721793648
 20
238.23485780782141
 30
0.0
 11
52.270779476652848
 21
241.18423988445011
 31
0.0
  0
LINE
  5
1F8
  8
DATA
  6
CONTINUOUS
 62
     7
 10
58.467338154158753
 20
239.15873734033261
 30
0.0
 11
52.653462909017932
 21
242.10811941696139
 31
0.0
  0
LINE
  5
1F9
  8
DATA
  6
CONTINUOUS
 62
     7
 10
58.658679870341281
 20
239.62067710658829
 30
0.0
 11
59.041363302706387
 21
240.5445566390996
 31
0.0
  0
LINE
  5
1FA
  8
DATA
  6
CONTINUOUS
 62
     7
 10
53.227488057565573
 20
243.49393871572829
 30
0.0
 11
52.844804625200467
 21
242.57005918321701
 31
0.0
  0
LINE
  5
1FB
  8
DATA
  6
CONTINUOUS
 62
     7
 10
58.658679870341281
 20
239.62067710658829
 30
0.0
 11
52.844804625200467
 21
242.57005918321701
 31
0.0
  0
LINE
  5
1FC
  8
DATA
  6
CONTINUOUS
 62
     7
 10
59.041363302706387
 20
240.5445566390996
 30
0.0
 11
53.227488057565573
 21
243.49393871572829
 31
0.0
  0
LINE
  5
1FD
  8
DATA
  6
CONTINUOUS
 62
     7
 10
59.23270501888895
 20
241.00649640535519
 30
0.0
 11
59.615388451254027
 21
241.9303759378665
 31
0.0
  0
LINE
  5
1FE
  8
DATA
  6
CONTINUOUS
 62
     7
 10
53.801513206113221
 20
244.8797580144952
 30
0.0
 11
53.418829773748122
 21
243.955878481984
 31
0.0
  0
LINE
  5
1FF
  8
DATA
  6
CONTINUOUS
 62
     7
 10
59.23270501888895
 20
241.00649640535519
 30
0.0
 11
53.418829773748122
 21
243.955878481984
 31
0.0
  0
LINE
  5
200
  8
DATA
  6
CONTINUOUS
 62
     7
 10
59.615388451254027
 20
241.9303759378665
 30
0.0
 11
53.801513206113221
 21
244.8797580144952
 31
0.0
  0
LINE
  5
201
  8
DATA
  6
CONTINUOUS
 62
     7
 10
59.806730167436577
 20
242.3923157041221
 30
0.0
 11
60.18941359980164
 21
243.3161952366334
 31
0.0
  0
LINE
  5
202
  8
DATA
  6
CONTINUOUS
 62
     7
 10
54.375538354660847
 20
246.2655773132621
 30
0.0
 11
53.992854922295749
 21
245.34169778075091
 31
0.0
  0
LINE
  5
203
  8
DATA
  6
CONTINUOUS
 62
     7
 10
59.806730167436577
 20
242.3923157041221
 30
0.0
 11
53.992854922295749
 21
245.34169778075091
 31
0.0
  0
LINE
  5
204
  8
DATA
  6
CONTINUOUS
 62
     7
 10
60.18941359980164
 20
243.3161952366334
 30
0.0
 11
54.375538354660847
 21
246.2655773132621
 31
0.0
  0
LINE
  5
205
  8
DATA
  6
CONTINUOUS
 62
     7
 10
60.380755315984182
 20
243.77813500288909
 30
0.0
 11
60.763438748349287
 21
244.70201453540039
 31
0.0
  0
LINE
  5
206
  8
DATA
  6
CONTINUOUS
 62
     7
 10
54.949563503208481
 20
247.65139661202909
 30
0.0
 11
54.566880070843382
 21
246.7275170795177
 31
0.0
  0
LINE
  5
207
  8
DATA
  6
CONTINUOUS
 62
     7
 10
60.380755315984182
 20
243.77813500288909
 30
0.0
 11
54.566880070843382
 21
246.7275170795177
 31
0.0
  0
LINE
  5
208
  8
DATA
  6
CONTINUOUS
 62
     7
 10
60.763438748349287
 20
244.70201453540039
 30
0.0
 11
54.949563503208481
 21
247.65139661202909
 31
0.0
  0
LINE
  5
209
  8
DATA
  6
CONTINUOUS
 62
     7
 10
60.954780464531851
 20
245.16395430165599
 30
0.0
 11
61.337463896896928
 21
246.0878338341673
 31
0.0
  0
LINE
  5
20A
  8
DATA
  6
CONTINUOUS
 62
     7
 10
55.523588651756107
 20
249.03721591079599
 30
0.0
 11
55.140905219391037
 21
248.11333637828471
 31
0.0
  0
LINE
  5
20B
  8
DATA
  6
CONTINUOUS
 62
     7
 10
60.954780464531851
 20
245.16395430165599
 30
0.0
 11
55.140905219391037
 21
248.11333637828471
 31
0.0
  0
LINE
  5
20C
  8
DATA
  6
CONTINUOUS
 62
     7
 10
61.337463896896928
 20
246.0878338341673
 30
0.0
 11
55.523588651756107
 21
249.03721591079599
 31
0.0
  0
LINE
  5
20D
  8
DATA
  6
CONTINUOUS
 62
     7
 10
61.528805613079491
 20
246.5497736004229
 30
0.0
 11
61.911489045444583
 21
247.4736531329342
 31
0.0
  0
LINE
  5
20E
  8
DATA
  6
CONTINUOUS
 62
     7
 10
56.097613800303741
 20
250.4230352095629
 30
0.0
 11
55.714930367938649
 21
249.49915567705159
 31
0.0
  0
LINE
  5
20F
  8
DATA
  6
CONTINUOUS
 62
     7
 10
61.528805613079491
 20
246.5497736004229
 30
0.0
 11
55.714930367938649
 21
249.49915567705159
 31
0.0
  0
LINE
  5
210
  8
DATA
  6
CONTINUOUS
 62
     7
 10
61.911489045444583
 20
247.4736531329342
 30
0.0
 11
56.097613800303741
 21
250.4230352095629
 31
0.0
  0
LINE
  5
211
  8
DATA
  6
CONTINUOUS
 62
     7
 10
62.102830761627096
 20
247.93559289918991
 30
0.0
 11
62.485514193992202
 21
248.85947243170119
 31
0.0
  0
LINE
  5
212
  8
DATA
  6
CONTINUOUS
 62
     7
 10
56.671638948851381
 20
251.80885450832989
 30
0.0
 11
56.288955516486311
 21
250.88497497581849
 31
0.0
  0
LINE
  5
213
  8
DATA
  6
CONTINUOUS
 62
     7
 10
62.102830761627096
 20
247.93559289918991
 30
0.0
 11
56.288955516486311
 21
250.88497497581849
 31
0.0
  0
LINE
  5
214
  8
DATA
  6
CONTINUOUS
 62
     7
 10
62.485514193992202
 20
248.85947243170119
 30
0.0
 11
56.671638948851381
 21
251.80885450832989
 31
0.0
  0
LINE
  5
215
  8
DATA
  6
CONTINUOUS
 62
     7
 10
62.676855910174751
 20
249.32141219795679
 30
0.0
 11
63.059539342539843
 21
250.2452917304681
 31
0.0
  0
LINE
  5
216
  8
DATA
  6
CONTINUOUS
 62
     7
 10
57.245664097399001
 20
253.19467380709679
 30
0.0
 11
56.862980665033938
 21
252.2707942745856
 31
0.0
  0
LINE
  5
217
  8
DATA
  6
CONTINUOUS
 62
     7
 10
62.676855910174751
 20
249.32141219795679
 30
0.0
 11
56.862980665033938
 21
252.2707942745856
 31
0.0
  0
LINE
  5
218
  8
DATA
  6
CONTINUOUS
 62
     7
 10
63.059539342539843
 20
250.2452917304681
 30
0.0
 11
57.245664097399001
 21
253.19467380709679
 31
0.0
  0
LINE
  5
219
  8
DATA
  6
CONTINUOUS
 62
     7
 10
63.250881058722392
 20
250.70723149672369
 30
0.0
 11
63.633564491087469
 21
251.631111029235
 31
0.0
  0
LINE
  5
21A
  8
DATA
  6
CONTINUOUS
 62
     7
 10
57.819689245946627
 20
254.5804931058637
 30
0.0
 11
57.437005813581543
 21
253.65661357335239
 31
0.0
  0
LINE
  5
21B
  8
DATA
  6
CONTINUOUS
 62
     7
 10
63.250881058722392
 20
250.70723149672369
 30
0.0
 11
57.437005813581543
 21
253.65661357335239
 31
0.0
  0
LINE
  5
21C
  8
DATA
  6
CONTINUOUS
 62
     7
 10
63.633564491087469
 20
251.631111029235
 30
0.0
 11
57.819689245946627
 21
254.5804931058637
 31
0.0
  0
LINE
  5
21D
  8
DATA
  6
CONTINUOUS
 62
     7
 10
63.824906207270011
 20
252.09305079549071
 30
0.0
 11
64.207589639635103
 21
253.01693032800199
 31
0.0
  0
LINE
  5
21E
  8
DATA
  6
CONTINUOUS
 62
     7
 10
58.393714394494289
 20
255.96631240463071
 30
0.0
 11
58.011030962129198
 21
255.04243287211941
 31
0.0
  0
LINE
  5
21F
  8
DATA
  6
CONTINUOUS
 62
     7
 10
63.824906207270011
 20
252.09305079549071
 30
0.0
 11
58.011030962129198
 21
255.04243287211941
 31
0.0
  0
LINE
  5
220
  8
DATA
  6
CONTINUOUS
 62
     7
 10
64.207589639635103
 20
253.01693032800199
 30
0.0
 11
58.393714394494289
 21
255.96631240463071
 31
0.0
  0
LINE
  5
221
  8
DATA
  6
CONTINUOUS
 62
     7
 10
64.398931355817652
 20
253.47887009425759
 30
0.0
 11
64.78161478818275
 21
254.40274962676881
 31
0.0
  0
LINE
  5
222
  8
DATA
  6
CONTINUOUS
 62
     7
 10
58.967739543041922
 20
257.35213170339762
 30
0.0
 11
58.585056110676831
 21
256.42825217088631
 31
0.0
  0
LINE
  5
223
  8
DATA
  6
CONTINUOUS
 62
     7
 10
64.398931355817652
 20
253.47887009425759
 30
0.0
 11
58.585056110676831
 21
256.42825217088631
 31
0.0
  0
LINE
  5
224
  8
DATA
  6
CONTINUOUS
 62
     7
 10
64.78161478818275
 20
254.40274962676881
 30
0.0
 11
58.967739543041922
 21
257.35213170339762
 31
0.0
  0
LINE
  5
225
  8
DATA
  6
CONTINUOUS
 62
     7
 10
64.9729565043653
 20
254.86468939302449
 30
0.0
 11
65.355639936730384
 21
255.7885689255358
 31
0.0
  0
LINE
  5
226
  8
DATA
  6
CONTINUOUS
 62
     7
 10
59.541764691589528
 20
258.73795100216461
 30
0.0
 11
59.159081259224472
 21
257.81407146965319
 31
0.0
  0
LINE
  5
227
  8
DATA
  6
CONTINUOUS
 62
     7
 10
64.9729565043653
 20
254.86468939302449
 30
0.0
 11
59.159081259224472
 21
257.81407146965319
 31
0.0
  0
LINE
  5
228
  8
DATA
  6
CONTINUOUS
 62
     7
 10
65.355639936730384
 20
255.7885689255358
 30
0.0
 11
59.541764691589528
 21
258.73795100216461
 31
0.0
  0
LINE
  5
229
  8
DATA
  6
CONTINUOUS
 62
     7
 10
65.546981652912933
 20
256.25050869179148
 30
0.0
 11
65.929665085277989
 21
257.17438822430267
 31
0.0
  0
LINE
  5
22A
  8
DATA
  6
CONTINUOUS
 62
     7
 10
60.115789840137197
 20
260.12377030093148
 30
0.0
 11
59.733106407772098
 21
259.19989076842012
 31
0.0
  0
LINE
  5
22B
  8
DATA
  6
CONTINUOUS
 62
     7
 10
65.546981652912933
 20
256.25050869179148
 30
0.0
 11
59.733106407772098
 21
259.19989076842012
 31
0.0
  0
LINE
  5
22C
  8
DATA
  6
CONTINUOUS
 62
     7
 10
65.929665085277989
 20
257.17438822430267
 30
0.0
 11
60.115789840137197
 21
260.12377030093148
 31
0.0
  0
LINE
  5
22D
  8
DATA
  6
CONTINUOUS
 62
     7
 10
66.121006801460567
 20
257.63632799055841
 30
0.0
 11
66.503690233825651
 21
258.56020752306961
 31
0.0
  0
LINE
  5
22E
  8
DATA
  6
CONTINUOUS
 62
     7
 10
60.689814988684823
 20
261.50958959969842
 30
0.0
 11
60.307131556319717
 21
260.58571006718711
 31
0.0
  0
LINE
  5
22F
  8
DATA
  6
CONTINUOUS
 62
     7
 10
66.121006801460567
 20
257.63632799055841
 30
0.0
 11
60.307131556319717
 21
260.58571006718711
 31
0.0
  0
LINE
  5
230
  8
DATA
  6
CONTINUOUS
 62
     7
 10
66.503690233825651
 20
258.56020752306961
 30
0.0
 11
60.689814988684823
 21
261.50958959969842
 31
0.0
  0
LINE
  5
231
  8
DATA
  6
CONTINUOUS
 62
     7
 10
66.6950319500082
 20
259.02214728932529
 30
0.0
 11
67.077715382373285
 21
259.9460268218366
 31
0.0
  0
LINE
  5
232
  8
DATA
  6
CONTINUOUS
 62
     7
 10
61.263840137232428
 20
262.89540889846529
 30
0.0
 11
60.881156704867358
 21
261.97152936595398
 31
0.0
  0
LINE
  5
233
  8
DATA
  6
CONTINUOUS
 62
     7
 10
66.6950319500082
 20
259.02214728932529
 30
0.0
 11
60.881156704867358
 21
261.97152936595398
 31
0.0
  0
LINE
  5
234
  8
DATA
  6
CONTINUOUS
 62
     7
 10
67.077715382373285
 20
259.9460268218366
 30
0.0
 11
61.263840137232428
 21
262.89540889846529
 31
0.0
  0
LINE
  5
235
  8
DATA
  6
CONTINUOUS
 62
     7
 10
67.269057098555848
 20
260.40796658809222
 30
0.0
 11
67.651740530920875
 21
261.33184612060359
 31
0.0
  0
LINE
  5
236
  8
DATA
  6
CONTINUOUS
 62
     7
 10
61.837865285780111
 20
264.28122819723228
 30
0.0
 11
61.455181853415013
 21
263.35734866472097
 31
0.0
  0
LINE
  5
237
  8
DATA
  6
CONTINUOUS
 62
     7
 10
67.269057098555848
 20
260.40796658809222
 30
0.0
 11
61.455181853415013
 21
263.35734866472097
 31
0.0
  0
LINE
  5
238
  8
DATA
  6
CONTINUOUS
 62
     7
 10
67.651740530920875
 20
261.33184612060359
 30
0.0
 11
61.837865285780111
 21
264.28122819723228
 31
0.0
  0
LINE
  5
239
  8
DATA
  6
CONTINUOUS
 62
     7
 10
67.843082247103467
 20
261.79378588685921
 30
0.0
 11
68.225765679468552
 21
262.71766541937041
 31
0.0
  0
LINE
  5
23A
  8
DATA
  6
CONTINUOUS
 62
     7
 10
62.411890434327752
 20
265.6670474959991
 30
0.0
 11
62.029207001962661
 21
264.74316796348791
 31
0.0
  0
LINE
  5
23B
  8
DATA
  6
CONTINUOUS
 62
     7
 10
67.843082247103467
 20
261.79378588685921
 30
0.0
 11
62.029207001962661
 21
264.74316796348791
 31
0.0
  0
LINE
  5
23C
  8
DATA
  6
CONTINUOUS
 62
     7
 10
68.225765679468552
 20
262.71766541937041
 30
0.0
 11
62.411890434327752
 21
265.6670474959991
 31
0.0
  0
LINE
  5
23D
  8
DATA
  6
CONTINUOUS
 62
     7
 10
68.417107395651101
 20
263.17960518562609
 30
0.0
 11
68.799790828016199
 21
264.10348471813728
 31
0.0
  0
LINE
  5
23E
  8
DATA
  6
CONTINUOUS
 62
     7
 10
62.985915582875379
 20
267.05286679476609
 30
0.0
 11
62.60323215051028
 21
266.12898726225478
 31
0.0
  0
LINE
  5
23F
  8
DATA
  6
CONTINUOUS
 62
     7
 10
68.417107395651101
 20
263.17960518562609
 30
0.0
 11
62.60323215051028
 21
266.12898726225478
 31
0.0
  0
LINE
  5
240
  8
DATA
  6
CONTINUOUS
 62
     7
 10
68.799790828016199
 20
264.10348471813728
 30
0.0
 11
62.985915582875379
 21
267.05286679476609
 31
0.0
  0
LINE
  5
241
  8
DATA
  6
CONTINUOUS
 62
     7
 10
68.991132544198749
 20
264.56542448439302
 30
0.0
 11
69.373815976563819
 21
265.48930401690438
 31
0.0
  0
LINE
  5
242
  8
DATA
  6
CONTINUOUS
 62
     7
 10
63.559940731423012
 20
268.43868609353308
 30
0.0
 11
63.177257299057921
 21
267.51480656102183
 31
0.0
  0
LINE
  5
243
  8
DATA
  6
CONTINUOUS
 62
     7
 10
68.991132544198749
 20
264.56542448439302
 30
0.0
 11
63.177257299057921
 21
267.51480656102183
 31
0.0
  0
LINE
  5
244
  8
DATA
  6
CONTINUOUS
 62
     7
 10
69.373815976563819
 20
265.48930401690438
 30
0.0
 11
63.559940731423012
 21
268.43868609353308
 31
0.0
  0
LINE
  5
245
  8
DATA
  6
CONTINUOUS
 62
     7
 10
69.565157692746368
 20
265.95124378316001
 30
0.0
 11
69.947841125111466
 21
266.8751233156712
 31
0.0
  0
LINE
  5
246
  8
DATA
  6
CONTINUOUS
 62
     7
 10
64.133965879970646
 20
269.8245053922999
 30
0.0
 11
63.75128244760554
 21
268.9006258597887
 31
0.0
  0
LINE
  5
247
  8
DATA
  6
CONTINUOUS
 62
     7
 10
69.565157692746368
 20
265.95124378316001
 30
0.0
 11
63.75128244760554
 21
268.9006258597887
 31
0.0
  0
LINE
  5
248
  8
DATA
  6
CONTINUOUS
 62
     7
 10
69.947841125111466
 20
266.8751233156712
 30
0.0
 11
64.133965879970646
 21
269.8245053922999
 31
0.0
  0
LINE
  5
249
  8
DATA
  6
CONTINUOUS
 62
     7
 10
70.139182841294001
 20
267.33706308192689
 30
0.0
 11
70.5218662736591
 21
268.26094261443808
 31
0.0
  0
LINE
  5
24A
  8
DATA
  6
CONTINUOUS
 62
     7
 10
64.707991028518265
 20
271.21032469106677
 30
0.0
 11
64.325307596153181
 21
270.28644515855558
 31
0.0
  0
LINE
  5
24B
  8
DATA
  6
CONTINUOUS
 62
     7
 10
70.139182841294001
 20
267.33706308192689
 30
0.0
 11
64.325307596153181
 21
270.28644515855558
 31
0.0
  0
LINE
  5
24C
  8
DATA
  6
CONTINUOUS
 62
     7
 10
70.5218662736591
 20
268.26094261443808
 30
0.0
 11
64.707991028518265
 21
271.21032469106677
 31
0.0
  0
LINE
  5
24D
  8
DATA
  6
CONTINUOUS
 62
     7
 10
56.489383251995257
 20
235.6900947546435
 30
0.0
 11
56.298041535812729
 21
235.22815498838801
 31
0.0
  0
LINE
  5
24E
  8
DATA
  6
CONTINUOUS
 62
     7
 10
51.56995035226074
 20
238.18572574256009
 30
0.0
 11
51.378608636078177
 21
237.72378597630461
 31
0.0
  0
LINE
  5
24F
  8
DATA
  6
CONTINUOUS
 62
     7
 10
52.143975500808352
 20
239.5715450413272
 30
0.0
 11
51.95263378462581
 21
239.10960527507149
 31
0.0
  0
LINE
  5
250
  8
DATA
  6
CONTINUOUS
 62
     7
 10
52.718000649356021
 20
240.95736434009399
 30
0.0
 11
52.526658933173451
 21
240.49542457383839
 31
0.0
  0
LINE
  5
251
  8
DATA
  6
CONTINUOUS
 62
     7
 10
53.292025797903648
 20
242.34318363886101
 30
0.0
 11
53.100684081721099
 21
241.8812438726053
 31
0.0
  0
LINE
  5
252
  8
DATA
  6
CONTINUOUS
 62
     7
 10
53.866050946451253
 20
243.72900293762791
 30
0.0
 11
53.674709230268711
 21
243.2670631713722
 31
0.0
  0
LINE
  5
253
  8
DATA
  6
CONTINUOUS
 62
     7
 10
54.440076094998922
 20
245.11482223639479
 30
0.0
 11
54.248734378816337
 21
244.65288247013919
 31
0.0
  0
LINE
  5
254
  8
DATA
  6
CONTINUOUS
 62
     7
 10
55.014101243546541
 20
246.50064153516169
 30
0.0
 11
54.822759527363999
 21
246.03870176890609
 31
0.0
  0
LINE
  5
255
  8
DATA
  6
CONTINUOUS
 62
     7
 10
55.588126392094182
 20
247.88646083392871
 30
0.0
 11
55.396784675911618
 21
247.424521067673
 31
0.0
  0
LINE
  5
256
  8
DATA
  6
CONTINUOUS
 62
     7
 10
56.162151540641823
 20
249.27228013269561
 30
0.0
 11
55.970809824459238
 21
248.81034036643999
 31
0.0
  0
LINE
  5
257
  8
DATA
  6
CONTINUOUS
 62
     7
 10
56.736176689189463
 20
250.65809943146249
 30
0.0
 11
56.544834973006907
 21
250.19615966520689
 31
0.0
  0
LINE
  5
258
  8
DATA
  6
CONTINUOUS
 62
     7
 10
57.310201837737061
 20
252.04391873022951
 30
0.0
 11
57.118860121554533
 21
251.5819789639738
 31
0.0
  0
LINE
  5
259
  8
DATA
  6
CONTINUOUS
 62
     7
 10
57.884226986284702
 20
253.42973802899641
 30
0.0
 11
57.692885270102138
 21
252.96779826274081
 31
0.0
  0
LINE
  5
25A
  8
DATA
  6
CONTINUOUS
 62
     7
 10
58.458252134832343
 20
254.81555732776329
 30
0.0
 11
58.2669104186498
 21
254.35361756150769
 31
0.0
  0
LINE
  5
25B
  8
DATA
  6
CONTINUOUS
 62
     7
 10
59.032277283379962
 20
256.2013766265303
 30
0.0
 11
58.840935567197441
 21
255.73943686027459
 31
0.0
  0
LINE
  5
25C
  8
DATA
  6
CONTINUOUS
 62
     7
 10
59.606302431927602
 20
257.58719592529718
 30
0.0
 11
59.414960715745039
 21
257.12525615904161
 31
0.0
  0
LINE
  5
25D
  8
DATA
  6
CONTINUOUS
 62
     7
 10
60.18032758047525
 20
258.97301522406411
 30
0.0
 11
59.988985864292701
 21
258.51107545780837
 31
0.0
  0
LINE
  5
25E
  8
DATA
  6
CONTINUOUS
 62
     7
 10
60.754352729022862
 20
260.3588345228311
 30
0.0
 11
60.563011012840342
 21
259.89689475657542
 31
0.0
  0
LINE
  5
25F
  8
DATA
  6
CONTINUOUS
 62
     7
 10
61.328377877570503
 20
261.74465382159798
 30
0.0
 11
61.137036161387961
 21
261.28271405534241
 31
0.0
  0
LINE
  5
260
  8
DATA
  6
CONTINUOUS
 62
     7
 10
61.902403026118137
 20
263.1304731203648
 30
0.0
 11
61.711061309935609
 21
262.66853335410929
 31
0.0
  0
LINE
  5
261
  8
DATA
  6
CONTINUOUS
 62
     7
 10
62.476428174665777
 20
264.5162924191319
 30
0.0
 11
62.285086458483249
 21
264.05435265287622
 31
0.0
  0
LINE
  5
262
  8
DATA
  6
CONTINUOUS
 62
     7
 10
63.050453323213418
 20
265.90211171789878
 30
0.0
 11
62.859111607030869
 21
265.44017195164309
 31
0.0
  0
LINE
  5
263
  8
DATA
  6
CONTINUOUS
 62
     7
 10
63.624478471761037
 20
267.28793101666571
 30
0.0
 11
63.433136755578531
 21
266.82599125041008
 31
0.0
  0
LINE
  5
264
  8
DATA
  6
CONTINUOUS
 62
     7
 10
64.198503620308685
 20
268.67375031543253
 30
0.0
 11
64.00716190412615
 21
268.2118105491769
 31
0.0
  0
LINE
  5
265
  8
DATA
  6
CONTINUOUS
 62
     7
 10
64.772528768856318
 20
270.05956961419957
 30
0.0
 11
64.581187052673783
 21
269.59762984794389
 31
0.0
  0
LINE
  5
266
  8
DATA
  6
CONTINUOUS
 62
     7
 10
65.169930794773919
 20
271.01898297488441
 30
0.0
 11
65.155212201221417
 21
270.98344914671088
 31
0.0
  0
LINE
  5
267
  8
DATA
  6
CONTINUOUS
 62
     7
 10
71.175147756097303
 20
268.53154066451128
 30
0.0
 11
64.246051262262625
 21
271.40166640724942
 31
0.0
  0
LINE
  5
268
  8
DATA
  6
CONTINUOUS
 62
     7
 10
75.813776229967473
 20
275.81049154230959
 30
0.0
 11
66.113041138598959
 21
279.828667582143
 31
0.0
  0
LINE
  5
269
  8
DATA
  6
CONTINUOUS
 62
     7
 10
75.813776229967473
 20
275.81049154230959
 30
0.0
 11
71.175147756097303
 21
268.53154066451128
 31
0.0
  0
LINE
  5
26A
  8
DATA
  6
CONTINUOUS
 62
     7
 10
66.113041138598959
 20
279.828667582143
 30
0.0
 11
64.246051262262625
 21
271.40166640724942
 31
0.0
  0
LINE
  5
26B
  8
DATA
  6
CONTINUOUS
 62
     7
 10
76.10078880424129
 20
276.503401191693
 30
0.0
 11
66.400053712872776
 21
280.52157723152641
 31
0.0
  0
LINE
  5
26C
  8
DATA
  6
CONTINUOUS
 62
     7
 10
76.10078880424129
 20
276.503401191693
 30
0.0
 11
78.014205966066726
 21
281.12279885424948
 31
0.0
  0
LINE
  5
26D
  8
DATA
  6
CONTINUOUS
 62
     7
 10
78.014205966066726
 20
281.12279885424948
 30
0.0
 11
68.313470874698226
 21
285.14097489408289
 31
0.0
  0
LINE
  5
26E
  8
DATA
  6
CONTINUOUS
 62
     7
 10
68.313470874698226
 20
285.14097489408289
 30
0.0
 11
66.400053712872776
 21
280.52157723152641
 31
0.0
  0
LINE
  5
26F
  8
DATA
  6
CONTINUOUS
 62
     7
 10
80.118964844074696
 20
286.20413628306159
 30
0.0
 11
70.418229752706239
 21
290.22231232289488
 31
0.0
  0
LINE
  5
270
  8
DATA
  6
CONTINUOUS
 62
     7
 10
80.118964844074696
 20
286.20413628306159
 30
0.0
 11
82.032382005900189
 21
290.8235339456179
 31
0.0
  0
LINE
  5
271
  8
DATA
  6
CONTINUOUS
 62
     7
 10
82.032382005900189
 20
290.8235339456179
 30
0.0
 11
72.33164691453166
 21
294.84170998545142
 31
0.0
  0
LINE
  5
272
  8
DATA
  6
CONTINUOUS
 62
     7
 10
72.33164691453166
 20
294.84170998545142
 30
0.0
 11
70.418229752706239
 21
290.22231232289488
 31
0.0
  0
LINE
  5
273
  8
DATA
  6
CONTINUOUS
 62
     7
 10
77.090326433555447
 20
281.50548228661449
 30
0.0
 11
77.66435158210308
 21
282.89130158538148
 31
0.0
  0
LINE
  5
274
  8
DATA
  6
CONTINUOUS
 62
     7
 10
77.85569329828563
 20
283.35324135163711
 30
0.0
 11
78.429718446833263
 21
284.73906065040399
 31
0.0
  0
LINE
  5
275
  8
DATA
  6
CONTINUOUS
 62
     7
 10
78.621060163015812
 20
285.20100041665972
 30
0.0
 11
79.195085311563432
 21
286.5868197154266
 31
0.0
  0
LINE
  5
276
  8
DATA
  6
CONTINUOUS
 62
     7
 10
69.237350407209505
 20
284.75829146171782
 30
0.0
 11
69.811375555757166
 21
286.14411076048469
 31
0.0
  0
LINE
  5
277
  8
DATA
  6
CONTINUOUS
 62
     7
 10
70.002717271939702
 20
286.60605052674038
 30
0.0
 11
70.576742420487349
 21
287.99186982550719
 31
0.0
  0
LINE
  5
278
  8
DATA
  6
CONTINUOUS
 62
     7
 10
70.76808413666987
 20
288.45380959176288
 30
0.0
 11
71.342109285217504
 21
289.83962889052992
 31
0.0
  0
LINE
  5
279
  8
DATA
  6
CONTINUOUS
 62
     7
 10
78.588231114614416
 20
282.5086181530163
 30
0.0
 11
68.887496023245859
 21
286.52679419284982
 31
0.0
  0
LINE
  5
27A
  8
DATA
  6
CONTINUOUS
 62
     7
 10
78.779572830796937
 20
282.9705579192721
 30
0.0
 11
69.078837739428394
 21
286.9887339591055
 31
0.0
  0
LINE
  5
27B
  8
DATA
  6
CONTINUOUS
 62
     7
 10
79.353597979344556
 20
284.35637721803892
 30
0.0
 11
69.65286288797607
 21
288.37455325787238
 31
0.0
  0
LINE
  5
27C
  8
DATA
  6
CONTINUOUS
 62
     7
 10
79.544939695527091
 20
284.8183169842946
 30
0.0
 11
69.844204604158591
 21
288.836493024128
 31
0.0
  0
LINE
  5
27D
  8
DATA
  6
CONTINUOUS
 62
     7
 10
79.544939695527091
 20
284.8183169842946
 30
0.0
 11
79.353597979344556
 21
284.35637721803892
 31
0.0
  0
LINE
  5
27E
  8
DATA
  6
CONTINUOUS
 62
     7
 10
78.779572830796937
 20
282.9705579192721
 30
0.0
 11
78.588231114614416
 21
282.5086181530163
 31
0.0
  0
LINE
  5
27F
  8
DATA
  6
CONTINUOUS
 62
     7
 10
69.844204604158591
 20
288.836493024128
 30
0.0
 11
69.65286288797607
 21
288.37455325787238
 31
0.0
  0
LINE
  5
280
  8
DATA
  6
CONTINUOUS
 62
     7
 10
69.078837739428394
 20
286.9887339591055
 30
0.0
 11
68.887496023245859
 21
286.52679419284982
 31
0.0
  0
LINE
  5
281
  8
DATA
  6
CONTINUOUS
 62
     7
 10
75.638849037985622
 20
276.69474290787559
 30
0.0
 11
75.35183646371182
 21
276.00183325849213
 31
0.0
  0
LINE
  5
282
  8
DATA
  6
CONTINUOUS
 62
     7
 10
66.861993479128415
 20
280.33023551534399
 30
0.0
 11
66.574980904854613
 21
279.63732586596052
 31
0.0
  0
LINE
  5
283
  8
DATA
  6
CONTINUOUS
 62
     7
 10
82.550364463301776
 20
291.42077273691018
 30
0.0
 11
72.38768960567765
 21
295.63029049292618
 31
0.0
  0
LINE
  5
284
  8
DATA
  6
CONTINUOUS
 62
     7
 10
84.925721391382908
 20
295.84882868328413
 30
0.0
 11
73.839167001247503
 21
300.44102987166519
 31
0.0
  0
LINE
  5
285
  8
DATA
  6
CONTINUOUS
 62
     7
 10
84.925721391382908
 20
295.84882868328413
 30
0.0
 11
82.550364463301776
 21
291.42077273691018
 31
0.0
  0
LINE
  5
286
  8
DATA
  6
CONTINUOUS
 62
     7
 10
73.839167001247503
 20
300.44102987166519
 30
0.0
 11
72.38768960567765
 21
295.63029049292618
 31
0.0
  0
LINE
  5
287
  8
DATA
  6
CONTINUOUS
 62
     7
 10
85.499746539930541
 20
297.234647982051
 30
0.0
 11
74.413192149795094
 21
301.82684917043213
 31
0.0
  0
LINE
  5
288
  8
DATA
  6
CONTINUOUS
 62
     7
 10
91.239998025406877
 20
311.09284096972033
 30
0.0
 11
84.925721391382908
 21
295.84882868328413
 31
0.0
  0
LINE
  5
289
  8
DATA
  6
CONTINUOUS
 62
     7
 10
80.153443635271458
 20
315.68504215810128
 30
0.0
 11
73.839167001247503
 21
300.44102987166519
 31
0.0
  0
LINE
  5
28A
  8
DATA
  6
CONTINUOUS
 62
     7
 10
90.091947728311624
 20
308.32120237218641
 30
0.0
 11
79.005393338176177
 21
312.91340356056747
 31
0.0
  0
LINE
  5
28B
  8
DATA
  6
CONTINUOUS
 62
     7
 10
90.857314593041835
 20
310.16896143720908
 30
0.0
 11
79.770760202906374
 21
314.76116262558998
 31
0.0
  0
LINE
  5
28C
  8
DATA
  6
CONTINUOUS
 62
     7
 10
91.239998025406877
 20
311.09284096972033
 30
0.0
 11
80.153443635271458
 21
315.68504215810128
 31
0.0
  0
LINE
  5
28D
  8
DATA
  6
CONTINUOUS
 62
     7
 10
91.160741691516293
 20
312.20806221841411
 30
0.0
 11
80.998066833892182
 21
316.41757997443011
 31
0.0
  0
LINE
  5
28E
  8
DATA
  6
CONTINUOUS
 62
     7
 10
91.239998025406877
 20
311.09284096972033
 30
0.0
 11
91.160741691516293
 21
312.20806221841411
 31
0.0
  0
LINE
  5
28F
  8
DATA
  6
CONTINUOUS
 62
     7
 10
80.998066833892182
 20
316.41757997443011
 30
0.0
 11
80.153443635271458
 21
315.68504215810128
 31
0.0
  0
LINE
  5
290
  8
DATA
  6
CONTINUOUS
 62
     7
 10
92.0461441734586
 20
312.88745543803202
 30
0.0
 11
91.160741691516293
 21
312.20806221841411
 31
0.0
  0
LINE
  5
291
  8
DATA
  6
CONTINUOUS
 62
     7
 10
93.568927667998864
 20
319.32850042843131
 30
0.0
 11
84.330132342885989
 21
323.1553347520823
 31
0.0
  0
LINE
  5
292
  8
DATA
  6
CONTINUOUS
 62
     7
 10
93.568927667998864
 20
319.32850042843131
 30
0.0
 11
92.005364890137088
 21
312.94060003474289
 31
0.0
  0
LINE
  5
293
  8
DATA
  6
CONTINUOUS
 62
     7
 10
92.005364890137088
 20
312.94060003474289
 30
0.0
 11
80.918810500001626
 21
317.5328012231239
 31
0.0
  0
LINE
  5
294
  8
DATA
  6
CONTINUOUS
 62
     7
 10
84.330132342885989
 20
323.1553347520823
 30
0.0
 11
80.918810500001626
 21
317.5328012231239
 31
0.0
  0
LINE
  5
295
  8
DATA
  6
CONTINUOUS
 62
     7
 10
80.918810500001626
 20
317.5328012231239
 30
0.0
 11
80.998066833892182
 21
316.41757997443011
 31
0.0
  0
LINE
  5
296
  8
DATA
  6
CONTINUOUS
 62
     7
 10
81.570442239644535
 20
291.01487566180049
 30
0.0
 11
81.857454813918366
 21
291.70778531118401
 31
0.0
  0
LINE
  5
297
  8
DATA
  6
CONTINUOUS
 62
     7
 10
72.793586680787314
 20
294.65036826926888
 30
0.0
 11
73.080599255061088
 21
295.3432779186524
 31
0.0
  0
LINE
  5
298
  8
DATA
  6
CONTINUOUS
 62
     7
 10
92.038193938538512
 20
315.63298229838608
 30
0.0
 11
88.342675808493368
 21
317.16371602784648
 31
0.0
  0
LINE
  5
299
  8
DATA
  6
CONTINUOUS
 62
     7
 10
86.494916743470782
 20
317.92908289257667
 30
0.0
 11
82.799398613425623
 21
319.45981662203712
 31
0.0
  0
LINE
  5
29A
  8
DATA
  6
CONTINUOUS
 62
     7
 10
91.6555105061734
 20
314.70910276587489
 30
0.0
 11
87.95999237612827
 21
316.23983649533523
 31
0.0
  0
LINE
  5
29B
  8
DATA
  6
CONTINUOUS
 62
     7
 10
86.112233311105697
 20
317.00520336006542
 30
0.0
 11
82.416715181060539
 21
318.53593708952582
 31
0.0
  0
LINE
  5
29C
  8
DATA
  6
CONTINUOUS
 62
     7
 10
88.342675808493368
 20
317.16371602784648
 30
0.0
 11
87.95999237612827
 21
316.23983649533523
 31
0.0
  0
LINE
  5
29D
  8
DATA
  6
CONTINUOUS
 62
     7
 10
86.494916743470782
 20
317.92908289257667
 30
0.0
 11
86.112233311105697
 21
317.00520336006542
 31
0.0
  0
LINE
  5
29E
  8
DATA
  6
CONTINUOUS
 62
     7
 10
82.799398613425623
 20
319.45981662203712
 30
0.0
 11
82.416715181060539
 21
318.53593708952582
 31
0.0
  0
LINE
  5
29F
  8
DATA
  6
CONTINUOUS
 62
     7
 10
92.038193938538512
 20
315.63298229838608
 30
0.0
 11
91.6555105061734
 21
314.70910276587489
 31
0.0
  0
LINE
  5
2A0
  8
DATA
  6
CONTINUOUS
 62
     7
 10
57.063408400542883
 20
237.0759140534104
 30
0.0
 11
56.872066684360362
 21
236.6139742871548
 31
0.0
  0
LINE
  5
2A1
  8
DATA
  6
CONTINUOUS
 62
     7
 10
57.637433549090517
 20
238.46173335217739
 30
0.0
 11
57.446091832907982
 21
237.99979358592179
 31
0.0
  0
LINE
  5
2A2
  8
DATA
  6
CONTINUOUS
 62
     7
 10
58.21145869763815
 20
239.84755265094441
 30
0.0
 11
58.020116981455622
 21
239.3856128846887
 31
0.0
  0
LINE
  5
2A3
  8
DATA
  6
CONTINUOUS
 62
     7
 10
58.785483846185777
 20
241.2333719497112
 30
0.0
 11
58.594142130003249
 21
240.7714321834556
 31
0.0
  0
LINE
  5
2A4
  8
DATA
  6
CONTINUOUS
 62
     7
 10
59.359508994733417
 20
242.61919124847819
 30
0.0
 11
59.168167278550882
 21
242.15725148222251
 31
0.0
  0
LINE
  5
2A5
  8
DATA
  6
CONTINUOUS
 62
     7
 10
59.933534143281051
 20
244.00501054724509
 30
0.0
 11
59.742192427098523
 21
243.5430707809895
 31
0.0
  0
LINE
  5
2A6
  8
DATA
  6
CONTINUOUS
 62
     7
 10
60.507559291828692
 20
245.390829846012
 30
0.0
 11
60.316217575646142
 21
244.9288900797564
 31
0.0
  0
LINE
  5
2A7
  8
DATA
  6
CONTINUOUS
 62
     7
 10
61.081584440376311
 20
246.77664914477899
 30
0.0
 11
60.890242724193783
 21
246.3147093785233
 31
0.0
  0
LINE
  5
2A8
  8
DATA
  6
CONTINUOUS
 62
     7
 10
61.65560958892398
 20
248.16246844354589
 30
0.0
 11
61.464267872741416
 21
247.70052867729029
 31
0.0
  0
LINE
  5
2A9
  8
DATA
  6
CONTINUOUS
 62
     7
 10
62.229634737471599
 20
249.54828774231279
 30
0.0
 11
62.038293021289057
 21
249.0863479760572
 31
0.0
  0
LINE
  5
2AA
  8
DATA
  6
CONTINUOUS
 62
     7
 10
62.803659886019247
 20
250.93410704107981
 30
0.0
 11
62.612318169836698
 21
250.4721672748241
 31
0.0
  0
LINE
  5
2AB
  8
DATA
  6
CONTINUOUS
 62
     7
 10
63.377685034566881
 20
252.31992633984669
 30
0.0
 11
63.186343318384331
 21
251.85798657359101
 31
0.0
  0
LINE
  5
2AC
  8
DATA
  6
CONTINUOUS
 62
     7
 10
63.9517101831145
 20
253.70574563861359
 30
0.0
 11
63.760368466931972
 21
253.243805872358
 31
0.0
  0
LINE
  5
2AD
  8
DATA
  6
CONTINUOUS
 62
     7
 10
64.525735331662148
 20
255.0915649373805
 30
0.0
 11
64.334393615479598
 21
254.6296251711249
 31
0.0
  0
LINE
  5
2AE
  8
DATA
  6
CONTINUOUS
 62
     7
 10
65.099760480209781
 20
256.47738423614749
 30
0.0
 11
64.908418764027218
 21
256.01544446989192
 31
0.0
  0
LINE
  5
2AF
  8
DATA
  6
CONTINUOUS
 62
     7
 10
65.6737856287574
 20
257.86320353491442
 30
0.0
 11
65.48244391257488
 21
257.40126376865891
 31
0.0
  0
LINE
  5
2B0
  8
DATA
  6
CONTINUOUS
 62
     7
 10
66.247810777305062
 20
259.24902283368129
 30
0.0
 11
66.056469061122499
 21
258.78708306742573
 31
0.0
  0
LINE
  5
2B1
  8
DATA
  6
CONTINUOUS
 62
     7
 10
66.821835925852696
 20
260.63484213244828
 30
0.0
 11
66.630494209670147
 21
260.1729023661926
 31
0.0
  0
LINE
  5
2B2
  8
DATA
  6
CONTINUOUS
 62
     7
 10
67.395861074400315
 20
262.02066143121522
 30
0.0
 11
67.20451935821778
 21
261.55872166495959
 31
0.0
  0
LINE
  5
2B3
  8
DATA
  6
CONTINUOUS
 62
     7
 10
67.969886222947963
 20
263.40648072998209
 30
0.0
 11
67.7785445067654
 21
262.94454096372652
 31
0.0
  0
LINE
  5
2B4
  8
DATA
  6
CONTINUOUS
 62
     7
 10
68.543911371495597
 20
264.79230002874908
 30
0.0
 11
68.352569655313033
 21
264.3303602624934
 31
0.0
  0
LINE
  5
2B5
  8
DATA
  6
CONTINUOUS
 62
     7
 10
69.11793652004323
 20
266.17811932751601
 30
0.0
 11
68.926594803860709
 21
265.71617956126039
 31
0.0
  0
LINE
  5
2B6
  8
DATA
  6
CONTINUOUS
 62
     7
 10
69.691961668590864
 20
267.563938626283
 30
0.0
 11
69.5006199524083
 21
267.10199886002732
 31
0.0
  0
LINE
  5
2B7
  8
DATA
  6
CONTINUOUS
 62
     7
 10
70.251268223585981
 20
268.9142240968763
 30
0.0
 11
70.074645100955962
 21
268.4878181587942
 31
0.0
  0
ENDSEC
  0
EOF
