  0
SECTION
  2
HEADER
  9
$ACADVER
  1
AC1009
  9
$INSBASE
 10
0.0
 20
0.0
 30
0.0
  9
$EXTMIN
 10
-260.021970979895
 20
-398.91419333393958
 30
-0.0015258207003583
  9
$EXTMAX
 10
460.0219743326561
 20
670.62804802803294
 30
0.0000000349246037
  9
$LIMMIN
 10
0.0
 20
0.0
  9
$LIMMAX
 10
0.0
 20
0.0
  9
$ORTHOMODE
 70
     0
  9
$REGENMODE
 70
     1
  9
$FILLMODE
 70
     1
  9
$QTEXTMODE
 70
     0
  9
$MIRRTEXT
 70
     1
  9
$DRAGMODE
 70
     2
  9
$LTSCALE
 40
20.32
  9
$OSMODE
 70
   167
  9
$ATTMODE
 70
     1
  9
$TEXTSIZE
 40
0.0
  9
$TRACEWID
 40
1.0
  9
$TEXTSTYLE
  7
STANDARD
  9
$CLAYER
  8
0
  9
$CELTYPE
  6
CONTINUOUS
  9
$CECOLOR
 62
   256
  9
$DIMSCALE
 40
1.0
  9
$DIMASZ
 40
0.18
  9
$DIMEXO
 40
0.0625
  9
$DIMDLI
 40
0.38
  9
$DIMRND
 40
0.0
  9
$DIMDLE
 40
0.0
  9
$DIMEXE
 40
0.18
  9
$DIMTP
 40
0.0
  9
$DIMTM
 40
0.0
  9
$DIMTXT
 40
0.18
  9
$DIMCEN
 40
0.09
  9
$DIMTSZ
 40
0.0
  9
$DIMTOL
 70
     0
  9
$DIMLIM
 70
     0
  9
$DIMTIH
 70
     1
  9
$DIMTOH
 70
     1
  9
$DIMSE1
 70
     0
  9
$DIMSE2
 70
     0
  9
$DIMTAD
 70
     0
  9
$DIMZIN
 70
     0
  9
$DIMBLK
  1

  9
$DIMASO
 70
     1
  9
$DIMSHO
 70
     1
  9
$DIMPOST
  1

  9
$DIMAPOST
  1

  9
$DIMALT
 70
     0
  9
$DIMALTD
 70
     2
  9
$DIMALTF
 40
25.399999999999999
  9
$DIMLFAC
 40
1.0
  9
$DIMTOFL
 70
     0
  9
$DIMTVP
 40
0.0
  9
$DIMTIX
 70
     0
  9
$DIMSOXD
 70
     0
  9
$DIMSAH
 70
     0
  9
$DIMBLK1
  1

  9
$DIMBLK2
  1

  9
$DIMSTYLE
  2
STANDARD
  9
$DIMCLRD
 70
     0
  9
$DIMCLRE
 70
     0
  9
$DIMCLRT
 70
     0
  9
$DIMTFAC
 40
1.0
  9
$DIMGAP
 40
0.09
  9
$LUNITS
 70
     2
  9
$LUPREC
 70
     4
  9
$SKETCHINC
 40
0.1
  9
$FILLETRAD
 40
0.0
  9
$AUNITS
 70
     0
  9
$AUPREC
 70
     0
  9
$MENU
  1
acad
  9
$ELEVATION
 40
0.0
  9
$PELEVATION
 40
0.0
  9
$THICKNESS
 40
0.0
  9
$LIMCHECK
 70
     0
  9
$BLIPMODE
 70
     0
  9
$CHAMFERA
 40
0.0
  9
$CHAMFERB
 40
0.0
  9
$SKPOLY
 70
     0
  9
$TDCREATE
 40
2452626.6487962962
  9
$TDUPDATE
 40
2452626.6494494211
  9
$TDINDWG
 40
0.0003903935
  9
$TDUSRTIMER
 40
0.0003891204
  9
$USRTIMER
 70
     1
  9
$ANGBASE
 50
0.0
  9
$ANGDIR
 70
     0
  9
$PDMODE
 70
     1
  9
$PDSIZE
 40
-2.0
  9
$PLINEWID
 40
0.0
  9
$COORDS
 70
     0
  9
$SPLFRAME
 70
     0
  9
$SPLINETYPE
 70
     6
  9
$SPLINESEGS
 70
     8
  9
$ATTDIA
 70
     0
  9
$ATTREQ
 70
     1
  9
$HANDLING
 70
     1
  9
$HANDSEED
  5
8C3
  9
$SURFTAB1
 70
     6
  9
$SURFTAB2
 70
     6
  9
$SURFTYPE
 70
     6
  9
$SURFU
 70
     6
  9
$SURFV
 70
     6
  9
$UCSNAME
  2

  9
$UCSORG
 10
0.0
 20
0.0
 30
0.0
  9
$UCSXDIR
 10
1.0
 20
0.0
 30
0.0
  9
$UCSYDIR
 10
0.0
 20
1.0
 30
0.0
  9
$PUCSNAME
  2

  9
$PUCSORG
 10
0.0
 20
0.0
 30
0.0
  9
$PUCSXDIR
 10
1.0
 20
0.0
 30
0.0
  9
$PUCSYDIR
 10
0.0
 20
1.0
 30
0.0
  9
$USERI1
 70
     0
  9
$USERI2
 70
     0
  9
$USERI3
 70
     0
  9
$USERI4
 70
     0
  9
$USERI5
 70
     0
  9
$USERR1
 40
0.0
  9
$USERR2
 40
0.0
  9
$USERR3
 40
0.0
  9
$USERR4
 40
0.0
  9
$USERR5
 40
0.0
  9
$WORLDVIEW
 70
     1
  9
$SHADEDGE
 70
     3
  9
$SHADEDIF
 70
    70
  9
$TILEMODE
 70
     1
  9
$MAXACTVP
 70
    16
  9
$PLIMCHECK
 70
     0
  9
$PEXTMIN
 10
1.0000000000000000E+020
 20
1.0000000000000000E+020
 30
1.0000000000000000E+020
  9
$PEXTMAX
 10
-1.0000000000000000E+020
 20
-1.0000000000000000E+020
 30
-1.0000000000000000E+020
  9
$PLIMMIN
 10
0.0
 20
0.0
  9
$PLIMMAX
 10
12.0
 20
9.0
  9
$UNITMODE
 70
     0
  9
$VISRETAIN
 70
     0
  9
$PLINEGEN
 70
     1
  9
$PSLTSCALE
 70
     0
  0
ENDSEC
  0
SECTION
  2
TABLES
  0
TABLE
  2
VPORT
 70
     2
  0
VPORT
  2
*ACTIVE
 70
     0
 10
0.0
 20
0.0
 11
1.0
 21
1.0
 12
100.00000167638041
 22
135.85692734704659
 13
0.0
 23
0.0
 14
1.0
 24
1.0
 15
0.0
 25
0.0
 16
0.0
 26
0.0
 36
1.0
 17
0.0
 27
0.0
 37
0.0
 40
1081.0426955701651
 41
1.703770197486534
 42
50.0
 43
0.0
 44
0.0
 50
0.0
 51
0.0
 71
     0
 72
   100
 73
     1
 74
     1
 75
     0
 76
     0
 77
     0
 78
     0
  0
ENDTAB
  0
TABLE
  2
LTYPE
 70
    11
  0
LTYPE
  2
CONTINUOUS
 70
     0
  3
Solid line
 72
    65
 73
     0
 40
0.0
  0
LTYPE
  2
STYLE_01
 70
     0
  3

 72
    65
 73
     2
 40
0.4166412353515625
 49
0.208282470703125
 49
-0.2083587646484375
  0
LTYPE
  2
STYLE_02
 70
     0
  3

 72
    65
 73
     2
 40
0.694427490234375
 49
0.4860687255859375
 49
-0.2083587646484375
  0
LTYPE
  2
STYLE_03
 70
     0
  3

 72
    65
 73
     2
 40
1.25
 49
1.0416412353515621
 49
-0.2083587646484375
  0
LTYPE
  2
STYLE_04
 70
     0
  3

 72
    65
 73
     2
 40
1.5277099609375
 49
1.319427490234375
 49
-0.208282470703125
  0
LTYPE
  2
STYLE_05
 70
     0
  3

 72
    65
 73
     2
 40
0.208282470703125
 49
0.069427490234375
 49
-0.13885498046875
  0
LTYPE
  2
STYLE_06
 70
     0
  3

 72
    65
 73
     4
 40
1.0416412353515621
 49
0.625
 49
-0.208282470703125
 49
0.069427490234375
 49
-0.1389312744140625
  0
LTYPE
  2
STYLE_07
 70
     0
  3

 72
    65
 73
     6
 40
1.875
 49
0.625
 49
-0.208282470703125
 49
0.625
 49
-0.2083587646484375
 49
0.069427490234375
 49
-0.1389312744140625
  0
LTYPE
  2
STYLE_08
 70
     0
  3

 72
    65
 73
     6
 40
1.25
 49
0.625
 49
-0.208282470703125
 49
0.069427490234375
 49
-0.1389312744140625
 49
0.069427490234375
 49
-0.1389312744140625
  0
LTYPE
  2
STYLE_09
 70
     0
  3

 72
    65
 73
     4
 40
5.0
 49
3.75
 49
-0.2777862548828125
 49
0.694427490234375
 49
-0.2777862548828125
  0
LTYPE
  2
STYLE_10
 70
     0
  3

 72
    65
 73
     6
 40
5.9375
 49
3.75
 49
-0.2777862548828125
 49
0.694427490234375
 49
-0.2777862548828125
 49
0.625
 49
-0.3125
  0
ENDTAB
  0
TABLE
  2
LAYER
 70
     5
  0
LAYER
  2
0
 70
     0
 62
     7
  6
CONTINUOUS
  0
LAYER
  2
HIBINO-BASE
 70
     0
 62
     7
  6
CONTINUOUS
  0
LAYER
  2
SPEC
 70
     0
 62
     7
  6
CONTINUOUS
  0
LAYER
  2
DIMNSIONS
 70
     0
 62
     7
  6
CONTINUOUS
  0
LAYER
  2
DATA
 70
     0
 62
     7
  6
CONTINUOUS
  0
ENDTAB
  0
TABLE
  2
STYLE
 70
     2
  0
STYLE
  2
STANDARD
 70
     0
 40
0.0
 41
1.0
 50
0.0
 71
     0
 42
0.0
  3
txt
  4
BIGFONT.SHX
  0
ENDTAB
  0
TABLE
  2
VIEW
 70
     0
  0
ENDTAB
  0
TABLE
  2
UCS
 70
     0
  0
ENDTAB
  0
TABLE
  2
APPID
 70
     1
  0
APPID
  2
ACAD
 70
     0
  0
ENDTAB
  0
TABLE
  2
DIMSTYLE
 70
     1
  0
DIMSTYLE
  2
STANDARD
 70
     0
  3

  4

  5

  6

  7

 40
1.0
 41
0.18
 42
0.0625
 43
0.38
 44
0.18
 45
0.0
 46
0.0
 47
0.0
 48
0.0
140
0.18
141
0.09
142
0.0
143
25.399999999999999
144
1.0
145
0.0
146
1.0
147
0.09
 71
     0
 72
     0
 73
     1
 74
     1
 75
     0
 76
     0
 77
     0
 78
     0
170
     0
171
     2
172
     0
173
     0
174
     0
175
     0
176
     0
177
     0
178
     0
  0
ENDTAB
  0
ENDSEC
  0
SECTION
  2
BLOCKS
  0
BLOCK
  8
0
  2
$MODEL_SPACE
 70
     0
 10
0.0
 20
0.0
 30
0.0
  3
$MODEL_SPACE
  1

  0
ENDBLK
  5
6FA
  8
0
  0
BLOCK
 67
     1
  8
0
  2
$PAPER_SPACE
 70
     0
 10
0.0
 20
0.0
 30
0.0
  3
$PAPER_SPACE
  1

  0
ENDBLK
  5
6F6
 67
     1
  8
0
  0
BLOCK
  8
DATA
  2
*U0
 70
     1
 10
0.0
 20
0.0
 30
0.0
  3
*U0
  1

  0
LINE
  5
2E
  8
DATA
  6
STYLE_01
 62
     7
 10
2.6709671768222161
 20
161.64142607389101
 30
0.0
 11
-12.91748282317786
 21
152.64141607389101
 31
0.0
  0
LINE
  5
2F
  8
DATA
  6
STYLE_01
 62
     7
 10
-31.417492823177842
 20
184.684376073891
 30
0.0
 11
-15.82904282317787
 21
193.684376073891
 31
0.0
  0
ARC
  5
30
  8
DATA
  6
STYLE_01
 62
     7
 10
51.065787176822212
 20
210.944136073891
 30
0.0
 40
86.562500396049131
 50
197.6596358129502
 51
222.3403467421972
  0
ARC
  5
31
  8
DATA
  6
STYLE_01
 62
     7
 10
-79.812272823177793
 20
135.381636073891
 30
0.0
 40
86.562471381896813
 50
17.659662766043489
 51
42.340369467174519
  0
ENDBLK
  5
32
  8
DATA
  0
ENDSEC
  0
SECTION
  2
ENTITIES
  0
LINE
  5
33
  8
HIBINO-BASE
  6
CONTINUOUS
 62
     7
 10
-259.99999999999989
 20
670.59544499999981
 30
0.0
 11
460.0
 21
670.59544499999981
 31
0.0
  0
LINE
  5
34
  8
HIBINO-BASE
  6
CONTINUOUS
 62
     7
 10
460.0
 20
-369.40455500000002
 30
0.0
 11
-259.99999999999989
 21
-369.40455500000002
 31
0.0
  0
LINE
  5
35
  8
HIBINO-BASE
  6
CONTINUOUS
 62
     7
 10
-259.99999999999989
 20
-369.40455500000002
 30
0.0
 11
-259.99999999999989
 21
670.59544499999981
 31
0.0
  0
TEXT
  5
36
  8
HIBINO-BASE
 62
     7
 10
-231.2639999999999
 20
-393.91649099999989
 30
0.0
 40
14.970335999999991
  1
Hibino Corporation
 41
0.8
 11
-231.2639999999999
 21
-378.94615499999992
 31
0.0
 73
     3
  0
LINE
  5
37
  8
HIBINO-BASE
  6
CONTINUOUS
 62
     7
 10
460.0
 20
670.59544499999981
 30
0.0
 11
460.0
 21
-369.40455500000002
 31
0.0
  0
LINE
  5
38
  8
HIBINO-BASE
  6
CONTINUOUS
 62
     7
 10
100.0
 20
-279.40455500000002
 30
0.0
 11
460.0
 21
-279.40455500000002
 31
0.0
  0
LINE
  5
39
  8
HIBINO-BASE
  6
CONTINUOUS
 62
     7
 10
100.0
 20
-369.40455500000002
 30
0.0
 11
100.0
 21
-279.40455500000002
 31
0.0
  0
TEXT
  5
3A
  8
HIBINO-BASE
 62
     7
 10
103.59999999999989
 20
-289.64317899999998
 30
0.0
 40
7.4851840000000003
  1
NOTE
 41
0.8
 11
103.59999999999989
 21
-282.15799500000003
 31
0.0
 73
     3
  0
LINE
  5
3B
  8
HIBINO-BASE
  6
CONTINUOUS
 62
     7
 10
240.0
 20
-369.40455500000002
 30
0.0
 11
240.0
 21
-279.40455500000002
 31
0.0
  0
TEXT
  5
3C
  8
HIBINO-BASE
 62
     7
 10
243.59999999999991
 20
-289.64317899999998
 30
0.0
 40
7.4851840000000003
  1
TITLE
 41
0.8
 11
243.59999999999991
 21
-282.15799500000003
 31
0.0
 73
     3
  0
TEXT
  5
3D
  8
HIBINO-BASE
 62
     7
 10
300.27355999999992
 20
-393.91649099999989
 30
0.0
 40
14.970335999999991
  1
ヒビノ株式会社
 41
0.8
 11
300.27355999999992
 21
-378.94615499999992
 31
0.0
 73
     3
  0
LINE
  5
3E
  8
HIBINO-BASE
  6
CONTINUOUS
 62
     7
 10
100.0
 20
-329.40455500000002
 30
0.0
 11
460.0
 21
-329.40455500000002
 31
0.0
  0
TEXT
  5
3F
  8
HIBINO-BASE
 62
     7
 10
293.60000000000002
 20
-339.41789899999992
 30
0.0
 40
7.4851840000000003
  1
DRAWN
 41
0.8
 11
293.60000000000002
 21
-331.93271499999992
 31
0.0
 73
     3
  0
TEXT
  5
40
  8
HIBINO-BASE
 62
     7
 10
193.59999999999991
 20
-339.41789899999992
 30
0.0
 40
7.4851840000000003
  1
DATE
 41
0.8
 11
193.59999999999991
 21
-331.93271499999992
 31
0.0
 73
     3
  0
TEXT
  5
41
  8
HIBINO-BASE
 62
     7
 10
104.40000000000001
 20
-339.37437899999998
 30
0.0
 40
6.773343999999998
  1
図面サイズ
 41
0.8
 11
104.40000000000001
 21
-332.60103500000002
 31
0.0
 73
     3
  0
TEXT
  5
42
  8
HIBINO-BASE
 62
     7
 10
153.59999999999991
 20
-339.41789899999992
 30
0.0
 40
7.4851840000000003
  1
SCALE
 41
0.8
 11
153.59999999999991
 21
-331.93271499999992
 31
0.0
 73
     3
  0
TEXT
  5
43
  8
HIBINO-BASE
 62
     7
 10
243.59999999999991
 20
-339.41789899999992
 30
0.0
 40
7.4851840000000003
  1
DESIGN
 41
0.8
 11
243.59999999999991
 21
-331.93271499999992
 31
0.0
 73
     3
  0
TEXT
  5
44
  8
HIBINO-BASE
 62
     7
 10
393.60000000000002
 20
-339.41789899999992
 30
0.0
 40
7.4851840000000003
  1
DRAWING NO.
 41
0.8
 11
393.60000000000002
 21
-331.93271499999992
 31
0.0
 73
     3
  0
TEXT
  5
45
  8
HIBINO-BASE
 62
     7
 10
343.60000000000002
 20
-339.41789899999992
 30
0.0
 40
7.4851840000000003
  1
CHECK
 41
0.8
 11
343.60000000000002
 21
-331.93271499999992
 31
0.0
 73
     3
  0
LINE
  5
46
  8
HIBINO-BASE
  6
CONTINUOUS
 62
     7
 10
157.49999999999989
 20
-364.40455500000002
 30
0.0
 11
172.5
 21
-349.40455500000002
 31
0.0
  0
TEXT
  5
47
  8
HIBINO-BASE
 62
     7
 10
154.99999999999989
 20
-355.59009900000001
 30
0.0
 40
9.0311039999999991
  1
1
 41
0.8
 11
154.99999999999989
 21
-346.55899499999998
 31
0.0
 73
     3
  0
LINE
  5
48
  8
HIBINO-BASE
  6
CONTINUOUS
 62
     7
 10
149.99999999999989
 20
-369.40455500000002
 30
0.0
 11
149.99999999999989
 21
-329.40455500000002
 31
0.0
  0
LINE
  5
49
  8
HIBINO-BASE
  6
CONTINUOUS
 62
     7
 10
190.0
 20
-369.40455500000002
 30
0.0
 11
190.0
 21
-329.40455500000002
 31
0.0
  0
LINE
  5
4A
  8
HIBINO-BASE
  6
CONTINUOUS
 62
     7
 10
289.99999999999989
 20
-329.40455500000002
 30
0.0
 11
289.99999999999989
 21
-369.40455500000002
 31
0.0
  0
LINE
  5
4B
  8
HIBINO-BASE
  6
CONTINUOUS
 62
     7
 10
390.0
 20
-329.40455500000002
 30
0.0
 11
390.0
 21
-369.40455500000002
 31
0.0
  0
LINE
  5
4C
  8
HIBINO-BASE
  6
CONTINUOUS
 62
     7
 10
339.99999999999989
 20
-369.40455500000002
 30
0.0
 11
339.99999999999989
 21
-329.40455500000002
 31
0.0
  0
TEXT
  5
4D
  8
HIBINO-BASE
 62
     7
 10
115.64355999999989
 20
-358.39473099999992
 30
0.0
 40
13.546656
  1
A4
 41
0.8
 11
115.64355999999989
 21
-344.84807499999988
 31
0.0
 73
     3
  0
TEXT
  5
4E
  8
HIBINO-BASE
 62
     7
 10
193.42616000000001
 20
-358.15381899999988
 30
0.0
 40
7.4851840000000003
  1
'02.12.
 41
0.8
 11
193.42616000000001
 21
-350.66863499999988
 31
0.0
 73
     3
  0
TEXT
  5
4F
  8
HIBINO-BASE
 62
     7
 10
170.0
 20
-363.09009900000001
 30
0.0
 40
9.0311039999999991
  1
4
 41
0.8
 11
170.0
 21
-354.05899499999992
 31
0.0
 73
     3
  0
TEXT
  5
50
  8
HIBINO-BASE
 62
     7
 10
296.02324004413839
 20
-357.44196833333308
 30
0.0
 40
6.7733333333333317
  1
N.Sasaki
 41
0.8
 11
296.02324004413839
 21
-350.66863499999982
 31
0.0
 73
     3
  0
LINE
  5
51
  8
SPEC
  6
CONTINUOUS
 62
     7
 10
-229.97467939581091
 20
569.77999999999986
 30
0.0
 11
360.02530060419031
 21
569.77999999999986
 31
0.0
  0
LINE
  5
52
  8
SPEC
  6
CONTINUOUS
 62
     7
 10
-229.97467939581091
 20
629.78431488025035
 30
0.0
 11
360.02530060419031
 21
629.78431488025035
 31
0.0
  0
LINE
  5
53
  8
SPEC
  6
CONTINUOUS
 62
     7
 10
-229.97467939581091
 20
614.78431488025035
 30
0.0
 11
360.02530060419031
 21
614.78431488025035
 31
0.0
  0
LINE
  5
54
  8
SPEC
  6
CONTINUOUS
 62
     7
 10
-229.97467939581091
 20
599.78431488025035
 30
0.0
 11
360.02530060419031
 21
599.78431488025035
 31
0.0
  0
TEXT
  5
55
  8
SPEC
 62
     7
 10
-224.97467939581091
 20
636.11939488025041
 30
0.0
 40
10.16
  1
仕様
 41
0.8
 11
-224.97467939581091
 21
646.27939488025027
 31
0.0
 73
     3
  0
TEXT
  5
56
  8
SPEC
 62
     7
 10
-226.374679395811
 20
618.52831488025026
 30
0.0
 40
7.9008000000000003
  1
形式
 41
0.8
 11
-226.374679395811
 21
626.42911488025027
 31
0.0
 73
     3
  0
TEXT
  5
57
  8
SPEC
 62
     7
 10
-226.374679395811
 20
603.52831488025038
 30
0.0
 40
7.9008000000000003
  1
周波数特性
 41
0.8
 11
-226.374679395811
 21
611.42911488025038
 31
0.0
 73
     3
  0
TEXT
  5
58
  8
SPEC
 62
     7
 10
-226.374679395811
 20
588.52831488025026
 30
0.0
 40
7.9008000000000003
  1
指向特性
 41
0.8
 11
-226.374679395811
 21
596.42911488025027
 31
0.0
 73
     3
  0
LINE
  5
59
  8
SPEC
  6
CONTINUOUS
 62
     7
 10
-229.97467939581091
 20
434.77999999999992
 30
0.0
 11
-229.97467939581091
 21
629.78431488025035
 31
0.0
  0
LINE
  5
5A
  8
SPEC
  6
CONTINUOUS
 62
     7
 10
360.02530060419031
 20
629.78431488025035
 30
0.0
 11
360.02530060419031
 21
434.77999999999992
 31
0.0
  0
TEXT
  5
5B
  8
SPEC
 62
     7
 10
-226.374679395811
 20
528.52399999999989
 30
0.0
 40
7.9008000000000003
  1
出力インピーダンス
 41
0.8
 11
-226.374679395811
 21
536.42479999999989
 31
0.0
 73
     3
  0
LINE
  5
5C
  8
SPEC
  6
CONTINUOUS
 62
     7
 10
-229.97467939581091
 20
539.77999999999997
 30
0.0
 11
360.02530060419031
 21
539.77999999999997
 31
0.0
  0
TEXT
  5
5D
  8
SPEC
 62
     7
 10
-226.374679395811
 20
498.524
 30
0.0
 40
7.9008000000000003
  1
出力コネクター
 41
0.8
 11
-226.374679395811
 21
506.4248
 31
0.0
 73
     3
  0
TEXT
  5
5E
  8
SPEC
 62
     7
 10
-226.374679395811
 20
513.524
 30
0.0
 40
7.9008000000000003
  1
外装色
 41
0.8
 11
-226.374679395811
 21
521.4248
 31
0.0
 73
     3
  0
LINE
  5
5F
  8
SPEC
  6
CONTINUOUS
 62
     7
 10
-229.97467939581091
 20
509.77999999999992
 30
0.0
 11
360.02530060419031
 21
509.77999999999992
 31
0.0
  0
LINE
  5
60
  8
SPEC
  6
CONTINUOUS
 62
     7
 10
-229.97467939581091
 20
524.77999999999986
 30
0.0
 11
360.02530060419031
 21
524.77999999999986
 31
0.0
  0
TEXT
  5
61
  8
SPEC
 62
     7
 10
-226.374679395811
 20
483.52399999999989
 30
0.0
 40
7.9008000000000003
  1
電源
 41
0.8
 11
-226.374679395811
 21
491.42479999999989
 31
0.0
 73
     3
  0
LINE
  5
62
  8
SPEC
  6
CONTINUOUS
 62
     7
 10
-229.97467939581091
 20
494.77999999999992
 30
0.0
 11
360.02530060419031
 21
494.77999999999992
 31
0.0
  0
TEXT
  5
63
  8
SPEC
 62
     7
 10
-226.374679395811
 20
468.524
 30
0.0
 40
7.9008000000000003
  1
寸法
 41
0.8
 11
-226.374679395811
 21
476.4248
 31
0.0
 73
     3
  0
TEXT
  5
64
  8
SPEC
 62
     7
 10
-226.374679395811
 20
453.52399999999989
 30
0.0
 40
7.9008000000000003
  1
重量
 41
0.8
 11
-226.374679395811
 21
461.42479999999989
 31
0.0
 73
     3
  0
TEXT
  5
65
  8
SPEC
 62
     7
 10
-226.374679395811
 20
438.524
 30
0.0
 40
7.9008000000000003
  1
付属品 
 41
0.8
 11
-226.374679395811
 21
446.4248
 31
0.0
 73
     3
  0
LINE
  5
66
  8
SPEC
  6
CONTINUOUS
 62
     7
 10
-229.97467939581091
 20
464.77999999999997
 30
0.0
 11
360.02530060419031
 21
464.77999999999997
 31
0.0
  0
LINE
  5
67
  8
SPEC
  6
CONTINUOUS
 62
     7
 10
-229.97467939581091
 20
479.77999999999992
 30
0.0
 11
360.02530060419031
 21
479.77999999999992
 31
0.0
  0
LINE
  5
68
  8
SPEC
  6
CONTINUOUS
 62
     7
 10
-229.97467939581091
 20
449.77999999999992
 30
0.0
 11
360.02530060419031
 21
449.77999999999992
 31
0.0
  0
LINE
  5
69
  8
SPEC
  6
CONTINUOUS
 62
     7
 10
-229.97467939581091
 20
434.77999999999992
 30
0.0
 11
360.02530060419031
 21
434.77999999999992
 31
0.0
  0
TEXT
  5
6A
  8
SPEC
 62
     7
 10
-226.374679395811
 20
544.52576999999985
 30
0.0
 40
7.9008000000000003
  1
＊ 1 Pascal=94dB SPL
 41
0.8
 11
-226.374679395811
 21
552.42656999999986
 31
0.0
 73
     3
  0
TEXT
  5
6B
  8
SPEC
 62
     7
 10
-226.374679395811
 20
558.52576999999985
 30
0.0
 40
7.9008000000000003
  1
感度(at 1kHz, ref. 1V/Pascal *)
 41
0.8
 11
-226.374679395811
 21
566.42656999999986
 31
0.0
 73
     3
  0
TEXT
  5
6C
  8
SPEC
 62
     7
 10
-58.899980000000028
 20
558.52399999999989
 30
0.0
 40
7.9008000000000003
  1
MX418D/C:-33.5dB(2.11mV）
 41
0.8
 11
-58.899980000000028
 21
566.42479999999989
 31
0.0
 73
     3
  0
TEXT
  5
6D
  8
SPEC
 62
     7
 10
-58.899980000000028
 20
544.524
 30
0.0
 40
7.9008000000000003
  1
MX418D/S:-32.5dB(2.37mV）
 41
0.8
 11
-58.899980000000028
 21
552.4248
 31
0.0
 73
     3
  0
TEXT
  5
6E
  8
SPEC
 62
     7
 10
-58.899980000000028
 20
603.52831488025038
 30
0.0
 40
7.9008000000000003
  1
50～17,000Hz
 41
0.8
 11
-58.899980000000028
 21
611.42911488025038
 31
0.0
 73
     3
  0
TEXT
  5
6F
  8
SPEC
 62
     7
 10
-58.899980000000028
 20
588.52831488025026
 30
0.0
 40
7.9008000000000003
  1
MX418D/C:単一指向性
 41
0.8
 11
-58.899980000000028
 21
596.42911488025027
 31
0.0
 73
     3
  0
TEXT
  5
70
  8
SPEC
 62
     7
 10
-58.899980000000028
 20
574.52831488025038
 30
0.0
 40
7.9008000000000003
  1
MX418D/S:スーパー・カーディオイド
 41
0.8
 11
-58.899980000000028
 21
582.42911488025038
 31
0.0
 73
     3
  0
LINE
  5
71
  8
SPEC
  6
CONTINUOUS
 62
     7
 10
-62.500000000000021
 20
434.77999999999992
 30
0.0
 11
-62.500000000000021
 21
629.78431488025035
 31
0.0
  0
TEXT
  5
72
  8
SPEC
 62
     7
 10
-59.020523961523629
 20
618.23200023164407
 30
0.0
 40
7.9008000000000003
  1
エレクトレット・コンデンサー型 
 41
0.8
 11
-59.020523961523629
 21
626.13280023164407
 31
0.0
 73
     3
  0
TEXT
  5
73
  8
SPEC
 62
     7
 10
-58.899980000000028
 20
528.52399999999989
 30
0.0
 40
7.9008000000000003
  1
150Ω(180Ω実効)
 41
0.8
 11
-58.899980000000028
 21
536.42479999999989
 31
0.0
 73
     3
  0
TEXT
  5
74
  8
SPEC
 62
     7
 10
-58.899980000000028
 20
498.524
 30
0.0
 40
7.9008000000000003
  1
XLR3ピン　オス型
 41
0.8
 11
-58.899980000000028
 21
506.4248
 31
0.0
 73
     3
  0
TEXT
  5
75
  8
SPEC
 62
     7
 10
-58.899980000000028
 20
513.524
 30
0.0
 40
7.9008000000000003
  1
黒
 41
0.8
 11
-58.899980000000028
 21
521.4248
 31
0.0
 73
     3
  0
TEXT
  5
76
  8
SPEC
 62
     7
 10
-58.899980000000028
 20
483.52399999999989
 30
0.0
 40
7.9008000000000003
  1
ファンタム DC11～52V,2mA
 41
0.8
 11
-58.899980000000028
 21
491.42479999999989
 31
0.0
 73
     3
  0
TEXT
  5
77
  8
SPEC
 62
     7
 10
-58.899980000000028
 20
468.524
 30
0.0
 40
7.9008000000000003
  1
ベース:116(W)X52(H)162mm(D)  マイク:φ12X498mm
 41
0.8
 11
-58.899980000000028
 21
476.4248
 31
0.0
 73
     3
  0
TEXT
  5
78
  8
SPEC
 62
     7
 10
-58.899980000000028
 20
453.52399999999989
 30
0.0
 40
7.9008000000000003
  1
約820g
 41
0.8
 11
-58.899980000000028
 21
461.42479999999989
 31
0.0
 73
     3
  0
TEXT
  5
79
  8
SPEC
 62
     7
 10
151.78033861717839
 20
438.8717393085887
 30
0.0
 40
7.9008000000000003
  1
取扱説明書　1部 
 41
0.8
 11
151.78033861717839
 21
446.7725393085887
 31
0.0
 73
     3
  0
TEXT
  5
7A
  8
SPEC
 62
     7
 10
-58.899980000000028
 20
439.024
 30
0.0
 40
7.9008000000000003
  1
フォーム・ウインドスクリーン(黒）　1個    　　
 41
0.8
 11
-58.899980000000028
 21
446.9248
 31
0.0
 73
     3
  0
TEXT
  5
7B
  8
DIMNSIONS
 62
     7
 10
19.999999999999979
 20
-319.56459499999988
 30
0.0
 40
10.16
  1
(単位：mm)
 41
0.8
 11
19.999999999999979
 21
-309.40459499999992
 31
0.0
 73
     3
  0
LINE
  5
7C
  8
DIMNSIONS
  6
CONTINUOUS
 62
     7
 10
224.99958000000001
 20
-156.5005599701976
 30
0.0
 11
224.99958000000001
 21
-195.5005599701976
 31
0.0
  0
LINE
  5
7D
  8
DIMNSIONS
  6
CONTINUOUS
 62
     7
 10
386.90057000000002
 20
-156.5005599701976
 30
0.0
 11
386.90057000000002
 21
-195.5005599701976
 31
0.0
  0
LINE
  5
7F
  8
DIMNSIONS
 62
     7
 10
224.99958000000001
 20
-187.50056000000001
 30
0.0
 11
237.69958
 21
-184.09760525612469
 31
0.0
  0
LINE
  5
80
  8
DIMNSIONS
 62
     7
 10
224.99958000000001
 20
-187.50056000000001
 30
0.0
 11
237.69958
 21
-190.90351474387521
 31
0.0
  0
LINE
  5
81
  8
DIMNSIONS
 62
     7
 10
386.90057000000002
 20
-187.50056000000001
 30
0.0
 11
374.20057000000003
 21
-190.90351474387521
 31
0.0
  0
LINE
  5
82
  8
DIMNSIONS
 62
     7
 10
386.90057000000002
 20
-187.50056000000001
 30
0.0
 11
374.20057000000003
 21
-184.09760525612469
 31
0.0
  0
LINE
  5
7E
  8
DIMNSIONS
  6
CONTINUOUS
 62
     7
 10
224.99958000000001
 20
-187.50056000000001
 30
0.0
 11
386.90057000000002
 21
-187.50056000000001
 31
0.0
  0
TEXT
  5
83
  8
DIMNSIONS
 62
     7
 10
295.36675750000001
 20
-182.67835199999999
 30
0.0
 40
11.288872
  1
162
 41
0.8
 11
295.36675750000001
 21
-171.38947999999999
 31
0.0
 73
     3
  0
LINE
  5
84
  8
DIMNSIONS
  6
CONTINUOUS
 62
     7
 10
346.23101997019779
 20
-99.867139999999964
 30
0.0
 11
432.99956997019763
 21
-99.867139999999964
 31
0.0
  0
LINE
  5
85
  8
DIMNSIONS
  6
CONTINUOUS
 62
     7
 10
346.50056997019777
 20
-151.50056000000001
 30
0.0
 11
432.99956997019763
 21
-151.50056000000001
 31
0.0
  0
LINE
  5
87
  8
DIMNSIONS
 62
     7
 10
424.99957000000001
 20
-99.867139999999964
 30
0.0
 11
428.40252474387512
 21
-112.5671399999999
 31
0.0
  0
LINE
  5
88
  8
DIMNSIONS
 62
     7
 10
424.99957000000001
 20
-99.867139999999964
 30
0.0
 11
421.59661525612472
 21
-112.5671399999999
 31
0.0
  0
LINE
  5
89
  8
DIMNSIONS
 62
     7
 10
424.99957000000001
 20
-151.50056000000001
 30
0.0
 11
421.59661525612472
 21
-138.80055999999999
 31
0.0
  0
LINE
  5
8A
  8
DIMNSIONS
 62
     7
 10
424.99957000000001
 20
-151.50056000000001
 30
0.0
 11
428.40252474387512
 21
-138.80055999999999
 31
0.0
  0
LINE
  5
86
  8
DIMNSIONS
  6
CONTINUOUS
 62
     7
 10
424.99957000000001
 20
-99.867139999999964
 30
0.0
 11
424.99957000000001
 21
-151.50056000000001
 31
0.0
  0
TEXT
  5
8B
  8
DIMNSIONS
 62
     7
 10
420.1773619999999
 20
-132.739395
 30
0.0
 40
11.288872
  1
52
 50
90.0
 41
0.8
 11
408.88848999999988
 21
-132.739395
 31
0.0
 73
     3
  0
LINE
  5
8C
  8
DIMNSIONS
  6
CONTINUOUS
 62
     7
 10
-125.00037999999989
 20
67.499439999999993
 30
0.0
 11
-125.00037999999989
 21
99.999440000000007
 31
0.0
  0
LINE
  5
8D
  8
DIMNSIONS
  6
CONTINUOUS
 62
     7
 10
149.99959000000001
 20
-110.0005399999999
 30
0.0
 11
149.99959000000001
 21
72.499439999999979
 31
0.0
  0
LINE
  5
8F
  8
DIMNSIONS
 62
     7
 10
-125.00037999999989
 20
87.499450000000024
 30
0.0
 11
-112.3003799999999
 21
90.90240474387528
 31
0.0
  0
LINE
  5
90
  8
DIMNSIONS
 62
     7
 10
-125.00037999999989
 20
87.499450000000024
 30
0.0
 11
-112.3003799999999
 21
84.096495256124769
 31
0.0
  0
LINE
  5
8E
  8
DIMNSIONS
  6
CONTINUOUS
 62
     7
 10
-125.00037999999989
 20
87.499450000000024
 30
0.0
 11
134.9996000000001
 21
87.499450000000024
 31
0.0
  0
TEXT
  5
91
  8
DIMNSIONS
 62
     7
 10
3.8329399999999918
 20
95.766128000000009
 30
0.0
 40
11.288872
  1
約2900
 41
0.8
 11
3.8329399999999931
 21
107.05500000000001
 31
0.0
 73
     3
  0
LINE
  5
93
  8
DIMNSIONS
 62
     7
 10
36.92461999999999
 20
-125.00055999999989
 30
0.0
 11
49.624619999999993
 21
-121.59760525612469
 31
0.0
  0
LINE
  5
94
  8
DIMNSIONS
 62
     7
 10
36.92461999999999
 20
-125.00055999999989
 30
0.0
 11
49.624619999999993
 21
-128.40351474387521
 31
0.0
  0
LINE
  5
92
  8
DIMNSIONS
  6
CONTINUOUS
 62
     7
 10
36.92461999999999
 20
-125.00055999999989
 30
0.0
 11
134.9996000000001
 21
-125.00055999999989
 31
0.0
  0
ARC
  5
95
  8
DIMNSIONS
  6
CONTINUOUS
 62
     7
 10
134.9996000000001
 20
72.499439999999979
 30
0.0
 40
14.99998999999991
 50
0.0
 51
90.0
  0
ARC
  5
96
  8
DIMNSIONS
  6
CONTINUOUS
 62
     7
 10
134.9996000000001
 20
-110.0005399999999
 30
0.0
 40
15.000020000000029
 50
270.0
 51
0.0
  0
LINE
  5
97
  8
DIMNSIONS
  6
CONTINUOUS
 62
     7
 10
36.929610000000011
 20
-137.50056000000001
 30
0.0
 11
36.929610000000011
 21
-103.0605399999999
 31
0.0
  0
LINE
  5
98
  8
DIMNSIONS
  6
CONTINUOUS
 62
     7
 10
-127.0003799701976
 20
-150.00056000000001
 30
0.0
 11
-220.5003699701976
 21
-150.00056000000001
 31
0.0
  0
LINE
  5
99
  8
DIMNSIONS
  6
CONTINUOUS
 62
     7
 10
-127.0003799701976
 20
-34.11305999999999
 30
0.0
 11
-220.5003699701976
 21
-34.11305999999999
 31
0.0
  0
LINE
  5
9B
  8
DIMNSIONS
 62
     7
 10
-212.50037
 20
-150.00056000000001
 30
0.0
 11
-215.90332474387529
 21
-137.30055999999999
 31
0.0
  0
LINE
  5
9C
  8
DIMNSIONS
 62
     7
 10
-212.50037
 20
-150.00056000000001
 30
0.0
 11
-209.09741525612461
 21
-137.30055999999999
 31
0.0
  0
LINE
  5
9D
  8
DIMNSIONS
 62
     7
 10
-212.50037
 20
-34.11305999999999
 30
0.0
 11
-209.09741525612469
 21
-46.813059999999979
 31
0.0
  0
LINE
  5
9E
  8
DIMNSIONS
 62
     7
 10
-212.50037
 20
-34.11305999999999
 30
0.0
 11
-215.90332474387529
 21
-46.813059999999979
 31
0.0
  0
LINE
  5
9A
  8
DIMNSIONS
  6
CONTINUOUS
 62
     7
 10
-212.50037
 20
-150.00056000000001
 30
0.0
 11
-212.50037
 21
-34.11305999999999
 31
0.0
  0
TEXT
  5
9F
  8
DIMNSIONS
 62
     7
 10
-217.32257799999999
 20
-102.64012749999991
 30
0.0
 40
11.288872
  1
116
 50
90.0
 41
0.8
 11
-228.61144999999999
 21
-102.64012749999991
 31
0.0
 73
     3
  0
LINE
  5
A1
  8
DIMNSIONS
 62
     7
 10
-170.33815999999999
 20
41.503969999999988
 30
0.0
 11
-173.96224201913861
 21
28.865294020791609
 31
0.0
  0
LINE
  5
A2
  8
DIMNSIONS
 62
     7
 10
-170.33815999999999
 20
41.503969999999988
 30
0.0
 11
-179.79604508357659
 21
32.370596541374709
 31
0.0
  0
LINE
  5
A0
  8
DIMNSIONS
  6
CONTINUOUS
 62
     7
 10
-170.33815999999999
 20
41.503969999999988
 30
0.0
 11
-187.5003836485777
 21
12.49945330363553
 31
0.0
  0
LINE
  5
A3
  8
DIMNSIONS
  6
CONTINUOUS
 62
     7
 10
-187.5003836485777
 20
12.49945330363553
 30
0.0
 11
-135.27822364857769
 21
12.49945330363553
 31
0.0
  0
TEXT
  5
A4
  8
DIMNSIONS
 62
     7
 10
-163.5004036485777
 20
17.32166130363553
 30
0.0
 40
11.288872
  1
φ19
 41
0.8
 11
-163.5004036485777
 21
28.610533303635531
 31
0.0
 73
     3
  0
LINE
  5
A5
  8
DIMNSIONS
  6
CONTINUOUS
 62
     7
 10
94.308068428867543
 20
314.13340205536417
 30
0.0
 11
124.22490739317951
 21
331.40504836186858
 31
0.0
  0
LINE
  5
A6
  8
DIMNSIONS
  6
CONTINUOUS
 62
     7
 10
332.29928542143489
 20
-98.099733532059972
 30
0.0
 11
362.21612438574681
 21
-80.828087225555535
 31
0.0
  0
LINE
  5
A8
  8
DIMNSIONS
 62
     7
 10
117.29661908102941
 20
327.40519579122468
 30
0.0
 11
126.42999253965471
 21
317.947310707648
 31
0.0
  0
LINE
  5
A9
  8
DIMNSIONS
 62
     7
 10
117.29661908102941
 20
327.40519579122468
 30
0.0
 11
120.47740997666109
 21
314.64774031346082
 31
0.0
  0
LINE
  5
AA
  8
DIMNSIONS
 62
     7
 10
355.28783607359668
 20
-84.827939796199502
 30
0.0
 11
346.15446261497158
 21
-75.370054712622817
 31
0.0
  0
LINE
  5
AB
  8
DIMNSIONS
 62
     7
 10
355.28783607359668
 20
-84.827939796199502
 30
0.0
 11
352.10704517796512
 21
-72.070484318435547
 31
0.0
  0
LINE
  5
A7
  8
DIMNSIONS
  6
CONTINUOUS
 62
     7
 10
117.29661908102941
 20
327.40519579122468
 30
0.0
 11
355.28783607359668
 21
-84.827939796199502
 31
0.0
  0
TEXT
  5
AC
  8
DIMNSIONS
 62
     7
 10
236.90904624743069
 20
133.86516150316129
 30
0.0
 40
11.28888888888889
  1
476
 50
299.99878089975482
 41
0.8
 11
246.6856309021075
 21
139.5093979294297
 31
0.0
 73
     3
  0
LINE
  5
AD
  8
DIMNSIONS
  6
CONTINUOUS
 62
     7
 10
62.6617154971253
 20
364.61408875480072
 30
0.0
 11
54.124055147848608
 21
379.40175025751421
 31
0.0
  0
LINE
  5
AE
  8
DIMNSIONS
  6
CONTINUOUS
 62
     7
 10
52.54305594425422
 20
358.77207793811237
 30
0.0
 11
44.005395594977522
 21
373.55973944082592
 31
0.0
  0
LINE
  5
AF
  8
DIMNSIONS
  6
CONTINUOUS
 62
     7
 10
48.005395580076353
 20
366.63153623635998
 30
0.0
 11
58.124055132947447
 21
372.47354705304821
 31
0.0
  0
LINE
  5
B1
  8
DIMNSIONS
 62
     7
 10
58.124055132947447
 20
372.47354705304821
 30
0.0
 11
67.421100389072194
 21
381.77059230917291
 31
0.0
  0
LINE
  5
B2
  8
DIMNSIONS
 62
     7
 10
58.124055132947447
 20
372.47354705304821
 30
0.0
 11
70.824055132947436
 21
375.87650179692361
 31
0.0
  0
LINE
  5
B0
  8
DIMNSIONS
  6
CONTINUOUS
 62
     7
 10
58.124055132947447
 20
372.47354705304821
 30
0.0
 11
74.720580697847055
 21
382.05555555555549
 31
0.0
  0
LINE
  5
B4
  8
DIMNSIONS
 62
     7
 10
48.005395580076353
 20
366.63153623635998
 30
0.0
 11
38.708350323951613
 21
357.33449098023522
 31
0.0
  0
LINE
  5
B5
  8
DIMNSIONS
 62
     7
 10
48.005395580076353
 20
366.63153623635998
 30
0.0
 11
35.30539558007635
 21
363.22858149248481
 31
0.0
  0
LINE
  5
B3
  8
DIMNSIONS
  6
CONTINUOUS
 62
     7
 10
48.005395580076353
 20
366.63153623635998
 30
0.0
 11
30.684887486966101
 21
356.63153622630159
 31
0.0
  0
TEXT
  5
B6
  8
DIMNSIONS
 62
     7
 10
59.088888896339469
 20
380.90821774180228
 30
0.0
 40
11.28888888888889
  1
12
 50
29.99999999999994
 41
0.8
 11
53.444444451895038
 21
390.68468230008
 31
0.0
 73
     3
  0
LINE
  5
B7
  8
DIMNSIONS
  6
CONTINUOUS
 62
     7
 10
83.304988571519914
 20
333.1842839293912
 30
0.0
 11
136.32397329792661
 21
363.79386899903398
 31
0.0
  0
LINE
  5
B8
  8
DIMNSIONS
  6
CONTINUOUS
 62
     7
 10
332.29925350398253
 20
-98.099678247203741
 30
0.0
 11
385.3182382303894
 21
-67.490093177560851
 31
0.0
  0
LINE
  5
BA
  8
DIMNSIONS
 62
     7
 10
129.3957169032289
 20
359.79396114353392
 30
0.0
 11
138.5290903618542
 21
350.33607605995718
 31
0.0
  0
LINE
  5
BB
  8
DIMNSIONS
 62
     7
 10
129.3957169032289
 20
359.79396114353392
 30
0.0
 11
132.5765077988606
 21
347.03650566576988
 31
0.0
  0
LINE
  5
BC
  8
DIMNSIONS
 62
     7
 10
378.38998183569157
 20
-71.490001033061048
 30
0.0
 11
369.2566083770663
 21
-62.032115949484357
 31
0.0
  0
LINE
  5
BD
  8
DIMNSIONS
 62
     7
 10
378.38998183569157
 20
-71.490001033061048
 30
0.0
 11
375.2091909400599
 21
-58.732545555297101
 31
0.0
  0
LINE
  5
B9
  8
DIMNSIONS
  6
CONTINUOUS
 62
     7
 10
129.3957169032289
 20
359.79396114353392
 30
0.0
 11
378.38998183569157
 21
-71.490001033061048
 31
0.0
  0
TEXT
  5
BE
  8
DIMNSIONS
 62
     7
 10
254.50956768382579
 20
156.72851848245219
 30
0.0
 40
11.28888888888889
  1
498
 50
299.99923809727397
 41
0.8
 11
264.28610729943091
 21
162.3728329217958
 31
0.0
 73
     3
  0
TEXT
  5
BF
  8
DATA
 62
     7
 10
279.28547469797951
 20
-322.99802293283489
 30
0.0
 40
9.0311039999999991
  1
MX418D/C & MX418D/S
 41
0.8
 11
279.28547469797951
 21
-313.96691893283491
 31
0.0
 73
     3
  0
TEXT
  5
C0
  8
DATA
 62
     7
 10
279.28545469797939
 20
-294.62691893283488
 30
0.0
 40
10.16
  1
SHURE
 41
0.8
 11
279.28545469797939
 21
-284.46691893283491
 31
0.0
 73
     3
  0
TEXT
  5
C1
  8
DATA
 62
     7
 10
279.28545469797939
 20
-306.78872693283478
 30
0.0
 40
6.7733279999999993
  1
グ－スネック・マイクロフォン
 41
0.8
 11
279.28545469797939
 21
-300.01539893283478
 31
0.0
 73
     3
  0
LINE
  5
C2
  8
DATA
  6
CONTINUOUS
 62
     7
 10
225.99958000000001
 20
-150.00056000000001
 30
0.0
 11
385.90057000000002
 21
-150.00056000000001
 31
0.0
  0
LINE
  5
C3
  8
DATA
  6
CONTINUOUS
 62
     7
 10
243.50058999999999
 20
-151.50056000000001
 30
0.0
 11
233.50058999999999
 21
-151.50056000000001
 31
0.0
  0
LINE
  5
C4
  8
DATA
  6
CONTINUOUS
 62
     7
 10
338.5005700000001
 20
-151.50056000000001
 30
0.0
 11
328.5005700000001
 21
-151.50056000000001
 31
0.0
  0
LINE
  5
C5
  8
DATA
  6
CONTINUOUS
 62
     7
 10
409.58321999999998
 20
-150.00056000000001
 30
0.0
 11
385.90057000000002
 21
-150.00056000000001
 31
0.0
  0
LINE
  5
C6
  8
DATA
  6
CONTINUOUS
 62
     7
 10
406.99794000000003
 20
-144.00056000000001
 30
0.0
 11
382.35228999999998
 21
-144.00056000000001
 31
0.0
  0
ARC
  5
C7
  8
DATA
  6
CONTINUOUS
 62
     7
 10
411.41557999999998
 20
-143.87556000000001
 30
0.0
 40
4.4194173824159213
 50
135.0
 51
225.0
  0
ARC
  5
C8
  8
DATA
  6
CONTINUOUS
 62
     7
 10
405.16557999999998
 20
-150.12556000000001
 30
0.0
 40
4.4194173824159213
 50
315.0
 51
45.0
  0
LINE
  5
C9
  8
DATA
  6
CONTINUOUS
 62
     7
 10
227.00057000000001
 20
-144.50056000000001
 30
0.0
 11
244.13901999999999
 21
-135.00056000000001
 31
0.0
  0
LINE
  5
CA
  8
DATA
  6
CONTINUOUS
 62
     7
 10
225.99958000000001
 20
-150.00056000000001
 30
0.0
 11
224.99958000000001
 21
-148.50056000000001
 31
0.0
  0
LINE
  5
CB
  8
DATA
  6
CONTINUOUS
 62
     7
 10
224.99958000000001
 20
-148.50056000000001
 30
0.0
 11
386.90057000000002
 21
-148.50056000000001
 31
0.0
  0
LINE
  5
CC
  8
DATA
  6
CONTINUOUS
 62
     7
 10
226.99958000000001
 20
-144.50056000000001
 30
0.0
 11
224.99958000000001
 21
-148.50056000000001
 31
0.0
  0
LINE
  5
CD
  8
DATA
  6
CONTINUOUS
 62
     7
 10
233.50058999999999
 20
-151.50056000000001
 30
0.0
 11
233.50058999999999
 21
-150.00056000000001
 31
0.0
  0
LINE
  5
CE
  8
DATA
  6
CONTINUOUS
 62
     7
 10
243.50058999999999
 20
-151.50056000000001
 30
0.0
 11
243.50058999999999
 21
-150.00056000000001
 31
0.0
  0
LINE
  5
CF
  8
DATA
  6
CONTINUOUS
 62
     7
 10
338.5005700000001
 20
-151.50056000000001
 30
0.0
 11
338.5005700000001
 21
-150.00056000000001
 31
0.0
  0
LINE
  5
D0
  8
DATA
  6
CONTINUOUS
 62
     7
 10
328.5005700000001
 20
-151.50056000000001
 30
0.0
 11
328.5005700000001
 21
-150.00056000000001
 31
0.0
  0
LINE
  5
D1
  8
DATA
  6
CONTINUOUS
 62
     7
 10
386.90057000000002
 20
-148.50056000000001
 30
0.0
 11
364.66444999999987
 21
-126.50055999999999
 31
0.0
  0
LINE
  5
D2
  8
DATA
  6
CONTINUOUS
 62
     7
 10
385.90057000000002
 20
-150.00056000000001
 30
0.0
 11
386.90057000000002
 21
-148.50056000000001
 31
0.0
  0
ARC
  5
D3
  8
DATA
  6
CONTINUOUS
 62
     7
 10
156.7612300000001
 20
928.11938000000021
 30
0.0
 40
1074.917188203968
 50
273.74654939568723
 51
281.15204414411619
  0
LINE
  5
D4
  8
DATA
  6
CONTINUOUS
 62
     7
 10
351.90057000000002
 20
-116.50055999999989
 30
0.0
 11
364.66444999999987
 21
-126.50055999999999
 31
0.0
  0
ARC
  5
D5
  8
DATA
  6
CONTINUOUS
 62
     7
 10
152.27023
 20
723.23323999999968
 30
0.0
 40
863.13679682800216
 50
276.10990442766331
 51
283.37272035899798
  0
ARC
  5
D6
  8
DATA
  6
CONTINUOUS
 62
     7
 10
370.88740999999999
 20
-550.20059000000003
 30
0.0
 40
434.11544100064719
 50
92.506736287795434
 51
106.9758913726632
  0
LINE
  5
D7
  8
DATA
  6
CONTINUOUS
 62
     7
 10
347.94475
 20
-116.69182000000001
 30
0.0
 11
338.23102000000011
 21
-99.867139999999964
 31
0.0
  0
LINE
  5
D8
  8
DATA
  6
CONTINUOUS
 62
     7
 10
338.23102000000011
 20
-99.867139999999964
 30
0.0
 11
317.01167000000009
 21
-112.11812999999989
 31
0.0
  0
LINE
  5
D9
  8
DATA
  6
CONTINUOUS
 62
     7
 10
320.96482999999989
 20
-118.96519000000001
 30
0.0
 11
317.01167000000009
 21
-112.11812999999989
 31
0.0
  0
LINE
  5
DA
  8
DATA
  6
CONTINUOUS
 62
     7
 10
336.7472800000001
 20
-99.799589999999995
 30
0.0
 11
317.69472000000002
 21
-110.7995899999999
 31
0.0
  0
LINE
  5
DB
  8
DATA
  6
CONTINUOUS
 62
     7
 10
317.01167000000009
 20
-112.11812999999989
 30
0.0
 11
317.69472000000002
 21
-110.7995899999999
 31
0.0
  0
LINE
  5
DC
  8
DATA
  6
CONTINUOUS
 62
     7
 10
336.7472800000001
 20
-99.799589999999995
 30
0.0
 11
338.23102000000011
 21
-99.867139999999964
 31
0.0
  0
LINE
  5
DD
  8
DATA
  6
CONTINUOUS
 62
     7
 10
336.75100999999989
 20
-99.799589999999995
 30
0.0
 11
336.00100999999989
 21
-98.500539999999958
 31
0.0
  0
LINE
  5
DE
  8
DATA
  6
CONTINUOUS
 62
     7
 10
317.69472000000002
 20
-110.7995899999999
 30
0.0
 11
316.94845000000009
 21
-109.5005399999999
 31
0.0
  0
LINE
  5
DF
  8
DATA
  6
CONTINUOUS
 62
     7
 10
330.56718000000001
 20
-99.09957
 30
0.0
 11
320.17487
 21
-105.09957
 31
0.0
  0
LINE
  5
E0
  8
DATA
  6
CONTINUOUS
 62
     7
 10
330.56718000000001
 20
-99.09957
 30
0.0
 11
336.00100999999989
 21
-98.500539999999958
 31
0.0
  0
LINE
  5
E1
  8
DATA
  6
CONTINUOUS
 62
     7
 10
336.00100999999989
 20
-98.500539999999958
 30
0.0
 11
316.94845000000009
 21
-109.5005399999999
 31
0.0
  0
LINE
  5
E2
  8
DATA
  6
CONTINUOUS
 62
     7
 10
316.94845000000009
 20
-109.5005399999999
 30
0.0
 11
320.17101999999988
 21
-105.09957
 31
0.0
  0
LINE
  5
E3
  8
DATA
  6
CONTINUOUS
 62
     7
 10
330.56718000000001
 20
-99.09957
 30
0.0
 11
320.17487
 21
-105.09957
 31
0.0
  0
ARC
  5
E4
  8
DATA
  6
CONTINUOUS
 62
     7
 10
294.99959000000001
 20
-122.76958999999999
 30
0.0
 40
1.5000016405324279
 50
29.99996382112889
 51
190.16552374669959
  0
LINE
  5
E5
  8
DATA
  6
CONTINUOUS
 62
     7
 10
296.57217000000003
 20
-122.49336
 30
0.0
 11
296.29863
 21
-122.01958999999989
 31
0.0
  0
ARC
  5
E6
  8
DATA
  6
CONTINUOUS
 62
     7
 10
196.68126000000001
 20
-92.060539999999961
 30
0.0
 40
302.5416600661066
 50
171.92457858068801
 51
179.3094094784237
  0
ARC
  5
E7
  8
DATA
  6
CONTINUOUS
 62
     7
 10
196.68126000000001
 20
-92.060539999999961
 30
0.0
 40
302.54163104347452
 50
180.69192770873511
 51
188.07542007634919
  0
LINE
  5
E8
  8
DATA
  6
CONTINUOUS
 62
     7
 10
67.179630000000074
 20
-89.560539999999961
 30
0.0
 11
76.924610000000015
 21
-89.560539999999961
 31
0.0
  0
LINE
  5
E9
  8
DATA
  6
CONTINUOUS
 62
     7
 10
-88.993849999999966
 20
50.57362999999998
 30
0.0
 11
-86.926240000000021
 21
48.505999999999972
 31
0.0
  0
LINE
  5
EA
  8
DATA
  6
CONTINUOUS
 62
     7
 10
-88.074609999999907
 20
51.492869999999982
 30
0.0
 11
-86.006999999999962
 21
49.42525999999998
 31
0.0
  0
POLYLINE
  5
EB
  8
DATA
  6
CONTINUOUS
 62
     7
 66
     1
 10
0.0
 20
0.0
 30
0.0
 70
   128
  0
VERTEX
  5
715
  8
DATA
  6
CONTINUOUS
 62
     7
 10
-88.993849999999966
 20
50.57362999999998
 30
0.0
  0
VERTEX
  5
716
  8
DATA
  6
CONTINUOUS
 62
     7
 10
-89.028682478780794
 20
50.021883789223232
 30
0.0
  0
VERTEX
  5
717
  8
DATA
  6
CONTINUOUS
 62
     7
 10
-88.979719606481396
 20
49.553935424382708
 30
0.0
  0
VERTEX
  5
718
  8
DATA
  6
CONTINUOUS
 62
     7
 10
-88.846961383101728
 20
49.169784905478373
 30
0.0
  0
VERTEX
  5
719
  8
DATA
  6
CONTINUOUS
 62
     7
 10
-88.630407808641891
 20
48.86943223251027
 30
0.0
  0
VERTEX
  5
71A
  8
DATA
  6
CONTINUOUS
 62
     7
 10
-88.330058883101799
 20
48.652877405478357
 30
0.0
  0
VERTEX
  5
71B
  8
DATA
  6
CONTINUOUS
 62
     7
 10
-87.945914606481452
 20
48.520120424382696
 30
0.0
  0
VERTEX
  5
71C
  8
DATA
  6
CONTINUOUS
 62
     7
 10
-87.477974978780821
 20
48.471161289223232
 30
0.0
  0
VERTEX
  5
71D
  8
DATA
  6
CONTINUOUS
 62
     7
 10
-86.926240000000021
 20
48.505999999999972
 30
0.0
  0
VERTEX
  5
71E
  8
DATA
  6
CONTINUOUS
 62
     7
 10
-86.926240000000021
 20
48.505999999999972
 30
0.0
  0
SEQEND
  5
71F
  8
DATA
  6
CONTINUOUS
 62
     7
  0
POLYLINE
  5
F7
  8
DATA
  6
CONTINUOUS
 62
     7
 66
     1
 10
0.0
 20
0.0
 30
0.0
 70
   128
  0
VERTEX
  5
720
  8
DATA
  6
CONTINUOUS
 62
     7
 10
-88.074609999999907
 20
51.492869999999982
 30
0.0
  0
VERTEX
  5
721
  8
DATA
  6
CONTINUOUS
 62
     7
 10
-87.522861923225193
 20
51.527698112782929
 30
0.0
  0
VERTEX
  5
722
  8
DATA
  6
CONTINUOUS
 62
     7
 10
-87.054912939814741
 20
51.478732121913602
 30
0.0
  0
VERTEX
  5
723
  8
DATA
  6
CONTINUOUS
 62
     7
 10
-86.670763049768453
 20
51.34597202739198
 30
0.0
  0
VERTEX
  5
724
  8
DATA
  6
CONTINUOUS
 62
     7
 10
-86.370412253086371
 20
51.12941782921812
 30
0.0
  0
VERTEX
  5
725
  8
DATA
  6
CONTINUOUS
 62
     7
 10
-86.153860549768481
 20
50.829069527391987
 30
0.0
  0
VERTEX
  5
726
  8
DATA
  6
CONTINUOUS
 62
     7
 10
-86.021107939814783
 20
50.444927121913601
 30
0.0
  0
VERTEX
  5
727
  8
DATA
  6
CONTINUOUS
 62
     7
 10
-85.972154423225277
 20
49.976990612782899
 30
0.0
  0
VERTEX
  5
728
  8
DATA
  6
CONTINUOUS
 62
     7
 10
-86.006999999999962
 20
49.42525999999998
 30
0.0
  0
VERTEX
  5
729
  8
DATA
  6
CONTINUOUS
 62
     7
 10
-86.006999999999962
 20
49.42525999999998
 30
0.0
  0
SEQEND
  5
72A
  8
DATA
  6
CONTINUOUS
 62
     7
  0
CIRCLE
  5
103
  8
DATA
  6
CONTINUOUS
 62
     7
 10
-109.50037999999989
 20
49.999450000000017
 30
0.0
 40
1.5
  0
LINE
  5
104
  8
DATA
  6
CONTINUOUS
 62
     7
 10
-125.00037999999989
 20
59.499439999999993
 30
0.0
 11
-125.00037999999989
 21
40.49945000000001
 31
0.0
  0
CIRCLE
  5
105
  8
DATA
  6
CONTINUOUS
 62
     7
 10
-87.500399999999885
 20
49.999419999999994
 30
0.0
 40
2.499976024925048
  0
LINE
  5
106
  8
DATA
  6
CONTINUOUS
 62
     7
 10
-124.9860599999999
 20
59.579579999999972
 30
0.0
 11
-78.014709999999937
 21
57.939320000000009
 31
0.0
  0
LINE
  5
107
  8
DATA
  6
CONTINUOUS
 62
     7
 10
-78.014709999999937
 20
57.939320000000009
 30
0.0
 11
-78.014709999999937
 21
42.059579999999983
 31
0.0
  0
LINE
  5
108
  8
DATA
  6
CONTINUOUS
 62
     7
 10
-45.996490000000009
 20
46.249450000000017
 30
0.0
 11
-45.996490000000009
 21
53.749450000000017
 31
0.0
  0
LINE
  5
109
  8
DATA
  6
CONTINUOUS
 62
     7
 10
-45.996490000000009
 20
53.749450000000017
 30
0.0
 11
-78.014709999999937
 21
56.550669999999968
 31
0.0
  0
LINE
  5
10A
  8
DATA
  6
CONTINUOUS
 62
     7
 10
-45.996490000000009
 20
52.199849999999969
 30
0.0
 11
112.1996
 21
52.199849999999969
 31
0.0
  0
LINE
  5
10B
  8
DATA
  6
CONTINUOUS
 62
     7
 10
-45.996490000000009
 20
47.799859999999967
 30
0.0
 11
112.1996
 21
47.799859999999967
 31
0.0
  0
ARC
  5
10C
  8
DATA
  6
CONTINUOUS
 62
     7
 10
-165.4865099999999
 20
49.683589999999981
 30
0.0
 40
8.0000203959865157
 50
326.77095375898892
 51
308.84786355962598
  0
ARC
  5
10D
  8
DATA
  6
CONTINUOUS
 62
     7
 10
-159.96984999999989
 20
44.68304999999998
 30
0.0
 40
1.327208603535984
 50
247.93252213787019
 51
27.685473625389921
  0
CIRCLE
  5
10E
  8
DATA
  6
CONTINUOUS
 62
     7
 10
-165.5003999999999
 20
49.679919999999981
 30
0.0
 40
9.5000199999999495
  0
CIRCLE
  5
10F
  8
DATA
  6
CONTINUOUS
 62
     7
 10
-165.5003999999999
 20
45.479899999999986
 30
0.0
 40
1.2500227316332531
  0
CIRCLE
  5
110
  8
DATA
  6
CONTINUOUS
 62
     7
 10
-165.5003999999999
 20
53.879910000000002
 30
0.0
 40
1.250012716135269
  0
CIRCLE
  5
111
  8
DATA
  6
CONTINUOUS
 62
     7
 10
-169.5003999999999
 20
49.679919999999981
 30
0.0
 40
1.2500160408970209
  0
ARC
  5
112
  8
DATA
  6
CONTINUOUS
 62
     7
 10
157.78944000000001
 20
-92.056789999999964
 30
0.0
 40
282.78981647496653
 50
168.17633479481941
 51
179.26193354663889
  0
ARC
  5
113
  8
DATA
  6
CONTINUOUS
 62
     7
 10
157.78944000000001
 20
-92.056789999999964
 30
0.0
 40
282.78983052576473
 50
180.7410186921071
 51
191.82367073934179
  0
ARC
  5
114
  8
DATA
  6
CONTINUOUS
 62
     7
 10
17.353200000000001
 20
-92.056779999999975
 30
0.0
 40
19.571416642340949
 50
309.96617137467177
 51
50.033828625328177
  0
ARC
  5
115
  8
DATA
  6
CONTINUOUS
 62
     7
 10
-121.0335199999999
 20
-320.86482999999998
 30
0.0
 40
286.75899682119717
 50
58.235535918173589
 51
89.593767780005763
  0
ARC
  5
116
  8
DATA
  6
CONTINUOUS
 62
     7
 10
-121.0335199999999
 20
136.75122999999999
 30
0.0
 40
286.7589976381974
 50
270.4062342179904
 51
301.76446958303939
  0
ARC
  5
117
  8
DATA
  6
CONTINUOUS
 62
     7
 10
157.78944000000001
 20
-92.056789999999964
 30
0.0
 40
280.78996703073358
 50
168.83132247765789
 51
179.25667656809401
  0
ARC
  5
118
  8
DATA
  6
CONTINUOUS
 62
     7
 10
157.78944000000001
 20
-92.056789999999964
 30
0.0
 40
280.78998898370168
 50
180.74629667044869
 51
191.17170089443059
  0
ARC
  5
119
  8
DATA
  6
CONTINUOUS
 62
     7
 10
-8.4761699999999252
 20
-92.060539999999961
 30
0.0
 40
23.140628271438509
 50
310.86566672105198
 51
49.13433327894785
  0
ARC
  5
11A
  8
DATA
  6
CONTINUOUS
 62
     7
 10
-97.860399999999913
 20
-49.560540000000003
 30
0.0
 40
5.0
 50
90.0
 51
180.0
  0
ARC
  5
11B
  8
DATA
  6
CONTINUOUS
 62
     7
 10
-97.860399999999913
 20
-134.56056000000001
 30
0.0
 40
5.0
 50
180.0
 51
270.0
  0
ARC
  5
11C
  8
DATA
  6
CONTINUOUS
 62
     7
 10
-11.86502999999994
 20
-92.060539999999961
 30
0.0
 40
13.76563547107436
 50
294.76160834644088
 51
65.23839165355902
  0
ARC
  5
11D
  8
DATA
  6
CONTINUOUS
 62
     7
 10
-115.3670599999999
 20
-38.610559999999992
 30
0.0
 40
2.5
 50
90.0
 51
180.0
  0
ARC
  5
11E
  8
DATA
  6
CONTINUOUS
 62
     7
 10
-115.3670599999999
 20
-145.51053999999991
 30
0.0
 40
2.5
 50
180.0
 51
270.0
  0
ARC
  5
11F
  8
DATA
  6
CONTINUOUS
 62
     7
 10
-218.45384000000001
 20
-576.15956000000006
 30
0.0
 40
549.79980525628639
 50
65.829394278701656
 51
79.193149681218799
  0
ARC
  5
120
  8
DATA
  6
CONTINUOUS
 62
     7
 10
-218.45384000000001
 20
392.03843999999998
 30
0.0
 40
549.79976810636151
 50
280.8068511003666
 51
294.17060785480652
  0
ARC
  5
121
  8
DATA
  6
CONTINUOUS
 62
     7
 10
-162.11425999999989
 20
-350.80448999999987
 30
0.0
 40
312.91200551116111
 50
60.093223518775169
 51
78.150497705164227
  0
ARC
  5
122
  8
DATA
  6
CONTINUOUS
 62
     7
 10
-162.11425999999989
 20
166.68338999999989
 30
0.0
 40
312.9119931170776
 50
281.84949871077202
 51
299.90677580694489
  0
LINE
  5
123
  8
DATA
  6
CONTINUOUS
 62
     7
 10
36.693890000000003
 20
-89.060539999999946
 30
0.0
 11
66.679630000000074
 21
-89.060539999999946
 31
0.0
  0
LINE
  5
124
  8
DATA
  6
CONTINUOUS
 62
     7
 10
36.693890000000003
 20
-95.060539999999975
 30
0.0
 11
66.679630000000074
 21
-95.060539999999975
 31
0.0
  0
LINE
  5
125
  8
DATA
  6
CONTINUOUS
 62
     7
 10
76.924610000000015
 20
-89.560539999999961
 30
0.0
 11
76.924610000000015
 21
-94.560539999999961
 31
0.0
  0
LINE
  5
126
  8
DATA
  6
CONTINUOUS
 62
     7
 10
67.179630000000074
 20
-94.560539999999961
 30
0.0
 11
76.924610000000015
 21
-94.560539999999961
 31
0.0
  0
LINE
  5
127
  8
DATA
  6
CONTINUOUS
 62
     7
 10
66.679630000000074
 20
-89.060539999999946
 30
0.0
 11
67.179630000000074
 21
-89.560539999999961
 31
0.0
  0
LINE
  5
128
  8
DATA
  6
CONTINUOUS
 62
     7
 10
66.679630000000074
 20
-95.060539999999975
 30
0.0
 11
67.179630000000074
 21
-94.560539999999961
 31
0.0
  0
LINE
  5
129
  8
DATA
  6
CONTINUOUS
 62
     7
 10
76.924610000000015
 20
-89.860559999999964
 30
0.0
 11
112.1996
 21
-89.860559999999964
 31
0.0
  0
LINE
  5
12A
  8
DATA
  6
CONTINUOUS
 62
     7
 10
76.924610000000015
 20
-94.260559999999998
 30
0.0
 11
112.1996
 21
-94.260559999999998
 31
0.0
  0
LINE
  5
12B
  8
DATA
  6
CONTINUOUS
 62
     7
 10
-124.9860599999999
 20
40.419310000000003
 30
0.0
 11
-78.014709999999937
 21
42.059579999999983
 31
0.0
  0
LINE
  5
12C
  8
DATA
  6
CONTINUOUS
 62
     7
 10
-45.996490000000009
 20
46.249450000000017
 30
0.0
 11
-78.014709999999937
 21
43.448229999999967
 31
0.0
  0
LINE
  5
12D
  8
DATA
  6
CONTINUOUS
 62
     7
 10
122.79957999999991
 20
37.199849999999969
 30
0.0
 11
122.79957999999991
 21
-1.6069200000000019
 31
0.0
  0
LINE
  5
12E
  8
DATA
  6
CONTINUOUS
 62
     7
 10
122.79957999999991
 20
-9.6069200000000023
 30
0.0
 11
122.79957999999991
 21
-79.260559999999984
 31
0.0
  0
LINE
  5
12F
  8
DATA
  6
CONTINUOUS
 62
     7
 10
127.1996
 20
37.199849999999969
 30
0.0
 11
127.1996
 21
1.6058099999999911
 31
0.0
  0
LINE
  5
130
  8
DATA
  6
CONTINUOUS
 62
     7
 10
127.1996
 20
-6.3941800000000049
 30
0.0
 11
127.1996
 21
-79.260559999999984
 31
0.0
  0
ARC
  5
131
  8
DATA
  6
CONTINUOUS
 62
     7
 10
131.24958000000001
 20
-6.2505600000000072
 30
0.0
 40
8.8388489069788232
 50
44.999908326899167
 51
134.99995416341321
  0
ARC
  5
132
  8
DATA
  6
CONTINUOUS
 62
     7
 10
118.7496
 20
6.2494399999999919
 30
0.0
 40
8.8388489069788232
 50
224.99990832689909
 51
314.99999999999972
  0
ARC
  5
133
  8
DATA
  6
CONTINUOUS
 62
     7
 10
131.24958000000001
 20
-14.25056
 30
0.0
 40
8.8388489069788232
 50
44.999908326899167
 51
134.99995416341321
  0
ARC
  5
134
  8
DATA
  6
CONTINUOUS
 62
     7
 10
118.7496
 20
-1.750560000000007
 30
0.0
 40
8.8388489069788232
 50
224.99990832689909
 51
314.99999999999972
  0
ARC
  5
135
  8
DATA
  6
CONTINUOUS
 62
     7
 10
112.1996
 20
37.199849999999969
 30
0.0
 40
15.0
 50
0.0
 51
90.0
  0
ARC
  5
136
  8
DATA
  6
CONTINUOUS
 62
     7
 10
112.1996
 20
-79.260559999999984
 30
0.0
 40
15.0
 50
270.0
 51
0.0
  0
ARC
  5
137
  8
DATA
  6
CONTINUOUS
 62
     7
 10
112.1996
 20
-79.260559999999984
 30
0.0
 40
10.599999999999991
 50
270.0
 51
0.0
  0
ARC
  5
138
  8
DATA
  6
CONTINUOUS
 62
     7
 10
112.1996
 20
37.199849999999969
 30
0.0
 40
10.59997999999996
 50
0.0
 51
90.0
  0
ARC
  5
139
  8
DATA
  6
CONTINUOUS
 62
     7
 10
-96.000389999999953
 20
-58.560540000000003
 30
0.0
 40
3.9999986012496831
 50
30.00001156757672
 51
180.0
  0
ARC
  5
13A
  8
DATA
  6
CONTINUOUS
 62
     7
 10
460.62458999999978
 20
-92.060539999999961
 30
0.0
 40
561.62497005341618
 50
176.58037172916099
 51
179.6279933330303
  0
ARC
  5
13B
  8
DATA
  6
CONTINUOUS
 62
     7
 10
460.62458999999978
 20
-92.060539999999961
 30
0.0
 40
561.62496375120918
 50
180.37272795781209
 51
183.4196282708389
  0
ARC
  5
13C
  8
DATA
  6
CONTINUOUS
 62
     7
 10
-96.000389999999953
 20
-125.5605599999999
 30
0.0
 40
3.9999900000000239
 50
180.0
 51
330.00018410105019
  0
ARC
  5
13D
  8
DATA
  6
CONTINUOUS
 62
     7
 10
-193.91454999999999
 20
-92.060539999999961
 30
0.0
 40
107.414165828479
 50
340.70107822463791
 51
358.05080023083599
  0
ARC
  5
13E
  8
DATA
  6
CONTINUOUS
 62
     7
 10
-193.91454999999999
 20
-92.060539999999961
 30
0.0
 40
107.414152589305
 50
1.945437231924344
 51
19.298901637915911
  0
LINE
  5
13F
  8
DATA
  6
CONTINUOUS
 62
     7
 10
-96.000389999999953
 20
-82.060539999999975
 30
0.0
 11
-96.000389999999953
 21
-77.560539999999975
 31
0.0
  0
LINE
  5
140
  8
DATA
  6
CONTINUOUS
 62
     7
 10
-96.000389999999953
 20
-76.060539999999975
 30
0.0
 11
-96.000389999999953
 21
-70.645559999999975
 31
0.0
  0
LINE
  5
141
  8
DATA
  6
CONTINUOUS
 62
     7
 10
-96.000389999999953
 20
-69.060539999999975
 30
0.0
 11
-96.000389999999953
 21
-62.060540000000003
 31
0.0
  0
LINE
  5
142
  8
DATA
  6
CONTINUOUS
 62
     7
 10
-94.000389999999939
 20
-82.060539999999975
 30
0.0
 11
-96.000389999999953
 21
-82.060539999999975
 31
0.0
  0
LINE
  5
143
  8
DATA
  6
CONTINUOUS
 62
     7
 10
-94.000389999999939
 20
-82.060539999999975
 30
0.0
 11
-94.450399999999973
 21
-77.560539999999975
 31
0.0
  0
LINE
  5
144
  8
DATA
  6
CONTINUOUS
 62
     7
 10
-94.600389999999962
 20
-76.060539999999975
 30
0.0
 11
-95.150369999999967
 21
-70.560539999999975
 31
0.0
  0
LINE
  5
145
  8
DATA
  6
CONTINUOUS
 62
     7
 10
-95.300399999999968
 20
-69.060539999999975
 30
0.0
 11
-96.000389999999953
 21
-62.060540000000003
 31
0.0
  0
LINE
  5
146
  8
DATA
  6
CONTINUOUS
 62
     7
 10
-94.450399999999973
 20
-77.560539999999975
 30
0.0
 11
-96.000389999999953
 21
-77.560539999999975
 31
0.0
  0
LINE
  5
147
  8
DATA
  6
CONTINUOUS
 62
     7
 10
-95.150369999999967
 20
-70.560539999999975
 30
0.0
 11
-96.000389999999953
 21
-70.645559999999975
 31
0.0
  0
LINE
  5
148
  8
DATA
  6
CONTINUOUS
 62
     7
 10
-94.600389999999962
 20
-76.060539999999975
 30
0.0
 11
-96.000389999999953
 21
-76.060539999999975
 31
0.0
  0
LINE
  5
149
  8
DATA
  6
CONTINUOUS
 62
     7
 10
-95.300399999999968
 20
-69.060539999999975
 30
0.0
 11
-96.000389999999953
 21
-69.060539999999975
 31
0.0
  0
LINE
  5
14A
  8
DATA
  6
CONTINUOUS
 62
     7
 10
-96.000389999999953
 20
-102.0605399999999
 30
0.0
 11
-96.000389999999953
 21
-106.5605399999999
 31
0.0
  0
LINE
  5
14B
  8
DATA
  6
CONTINUOUS
 62
     7
 10
-96.000389999999953
 20
-108.0605399999999
 30
0.0
 11
-96.000389999999953
 21
-113.47555
 31
0.0
  0
LINE
  5
14C
  8
DATA
  6
CONTINUOUS
 62
     7
 10
-96.000389999999953
 20
-115.0605399999999
 30
0.0
 11
-96.000389999999953
 21
-122.06056
 31
0.0
  0
LINE
  5
14D
  8
DATA
  6
CONTINUOUS
 62
     7
 10
-94.000389999999939
 20
-102.0605399999999
 30
0.0
 11
-96.000389999999953
 21
-102.0605399999999
 31
0.0
  0
LINE
  5
14E
  8
DATA
  6
CONTINUOUS
 62
     7
 10
-94.000389999999939
 20
-102.0605399999999
 30
0.0
 11
-94.450399999999973
 21
-106.5605399999999
 31
0.0
  0
LINE
  5
14F
  8
DATA
  6
CONTINUOUS
 62
     7
 10
-94.600389999999962
 20
-108.0605399999999
 30
0.0
 11
-95.150369999999967
 21
-113.5605399999999
 31
0.0
  0
LINE
  5
150
  8
DATA
  6
CONTINUOUS
 62
     7
 10
-95.300399999999968
 20
-115.0605399999999
 30
0.0
 11
-96.000389999999953
 21
-122.06056
 31
0.0
  0
LINE
  5
151
  8
DATA
  6
CONTINUOUS
 62
     7
 10
-94.450399999999973
 20
-106.5605399999999
 30
0.0
 11
-96.000389999999953
 21
-106.5605399999999
 31
0.0
  0
LINE
  5
152
  8
DATA
  6
CONTINUOUS
 62
     7
 10
-95.150369999999967
 20
-113.5605399999999
 30
0.0
 11
-96.000389999999953
 21
-113.47555
 31
0.0
  0
LINE
  5
153
  8
DATA
  6
CONTINUOUS
 62
     7
 10
-94.600389999999962
 20
-108.0605399999999
 30
0.0
 11
-96.000389999999953
 21
-108.0605399999999
 31
0.0
  0
LINE
  5
154
  8
DATA
  6
CONTINUOUS
 62
     7
 10
-95.300399999999968
 20
-115.0605399999999
 30
0.0
 11
-96.000389999999953
 21
-115.0605399999999
 31
0.0
  0
TEXT
  5
155
  8
DATA
 62
     7
 10
-95.012597999999997
 20
-85.944639999999978
 30
0.0
 40
3.9510879999999999
  1
P
 50
270.0
 41
0.8
 11
-91.061509999999998
 21
-85.944639999999978
 31
0.0
 73
     3
  0
TEXT
  5
156
  8
DATA
 62
     7
 10
-95.012597999999997
 20
-95.714070000000007
 30
0.0
 40
3.9510879999999999
  1
h
 50
270.0
 41
0.8
 11
-91.061509999999998
 21
-95.714070000000007
 31
0.0
 73
     3
  0
POLYLINE
  5
157
  8
DATA
  6
CONTINUOUS
 62
     7
 66
     1
 10
0.0
 20
0.0
 30
0.0
 70
   128
  0
VERTEX
  5
72B
  8
DATA
  6
CONTINUOUS
 62
     7
 10
-32.6993399999999
 20
-89.076399999999964
 30
0.0
  0
VERTEX
  5
72C
  8
DATA
  6
CONTINUOUS
 62
     7
 10
-32.615294999999918
 20
-88.75265203124998
 30
0.0
  0
VERTEX
  5
72D
  8
DATA
  6
CONTINUOUS
 62
     7
 10
-32.522264999999962
 20
-88.431683124999964
 30
0.0
  0
VERTEX
  5
72E
  8
DATA
  6
CONTINUOUS
 62
     7
 10
-32.42024999999996
 20
-88.113493281249944
 30
0.0
  0
VERTEX
  5
72F
  8
DATA
  6
CONTINUOUS
 62
     7
 10
-32.30924999999997
 20
-87.798082499999964
 30
0.0
  0
VERTEX
  5
730
  8
DATA
  6
CONTINUOUS
 62
     7
 10
-32.189264999999992
 20
-87.485450781249966
 30
0.0
  0
VERTEX
  5
731
  8
DATA
  6
CONTINUOUS
 62
     7
 10
-32.060295000000011
 20
-87.175598124999965
 30
0.0
  0
VERTEX
  5
732
  8
DATA
  6
CONTINUOUS
 62
     7
 10
-31.922339999999998
 20
-86.868524531249975
 30
0.0
  0
VERTEX
  5
733
  8
DATA
  6
CONTINUOUS
 62
     7
 10
-31.775400000000001
 20
-86.564229999999981
 30
0.0
  0
VERTEX
  5
734
  8
DATA
  6
CONTINUOUS
 62
     7
 10
-31.775400000000001
 20
-86.564229999999981
 30
0.0
  0
VERTEX
  5
735
  8
DATA
  6
CONTINUOUS
 62
     7
 10
-31.441780312500001
 20
-85.942947187499968
 30
0.0
  0
VERTEX
  5
736
  8
DATA
  6
CONTINUOUS
 62
     7
 10
-31.078966249999961
 20
-85.355378749999971
 30
0.0
  0
VERTEX
  5
737
  8
DATA
  6
CONTINUOUS
 62
     7
 10
-30.686957812499951
 20
-84.801524687499963
 30
0.0
  0
VERTEX
  5
738
  8
DATA
  6
CONTINUOUS
 62
     7
 10
-30.26575499999996
 20
-84.281384999999972
 30
0.0
  0
VERTEX
  5
739
  8
DATA
  6
CONTINUOUS
 62
     7
 10
-29.815357812499979
 20
-83.794959687499968
 30
0.0
  0
VERTEX
  5
73A
  8
DATA
  6
CONTINUOUS
 62
     7
 10
-29.335766249999971
 20
-83.342248749999982
 30
0.0
  0
VERTEX
  5
73B
  8
DATA
  6
CONTINUOUS
 62
     7
 10
-28.826980312500002
 20
-82.923252187499983
 30
0.0
  0
VERTEX
  5
73C
  8
DATA
  6
CONTINUOUS
 62
     7
 10
-28.289000000000001
 20
-82.537970000000001
 30
0.0
  0
VERTEX
  5
73D
  8
DATA
  6
CONTINUOUS
 62
     7
 10
-28.289000000000001
 20
-82.537970000000001
 30
0.0
  0
VERTEX
  5
73E
  8
DATA
  6
CONTINUOUS
 62
     7
 10
-27.731089687499988
 20
-82.192562187500002
 30
0.0
  0
VERTEX
  5
73F
  8
DATA
  6
CONTINUOUS
 62
     7
 10
-27.162493749999982
 20
-81.893208749999985
 30
0.0
  0
VERTEX
  5
740
  8
DATA
  6
CONTINUOUS
 62
     7
 10
-26.58321218749996
 20
-81.639909687499966
 30
0.0
  0
VERTEX
  5
741
  8
DATA
  6
CONTINUOUS
 62
     7
 10
-25.993244999999959
 20
-81.432664999999986
 30
0.0
  0
VERTEX
  5
742
  8
DATA
  6
CONTINUOUS
 62
     7
 10
-25.39259218749994
 20
-81.271474687500003
 30
0.0
  0
VERTEX
  5
743
  8
DATA
  6
CONTINUOUS
 62
     7
 10
-24.78125374999993
 20
-81.156338749999975
 30
0.0
  0
VERTEX
  5
744
  8
DATA
  6
CONTINUOUS
 62
     7
 10
-24.15922968749992
 20
-81.087257187499972
 30
0.0
  0
VERTEX
  5
745
  8
DATA
  6
CONTINUOUS
 62
     7
 10
-23.526519999999898
 20
-81.064229999999966
 30
0.0
  0
VERTEX
  5
746
  8
DATA
  6
CONTINUOUS
 62
     7
 10
-23.526519999999898
 20
-81.064229999999966
 30
0.0
  0
VERTEX
  5
747
  8
DATA
  6
CONTINUOUS
 62
     7
 10
-22.893805312499911
 20
-81.087257187499972
 30
0.0
  0
VERTEX
  5
748
  8
DATA
  6
CONTINUOUS
 62
     7
 10
-22.271776249999899
 20
-81.156338749999975
 30
0.0
  0
VERTEX
  5
749
  8
DATA
  6
CONTINUOUS
 62
     7
 10
-21.660432812499899
 20
-81.271474687500003
 30
0.0
  0
VERTEX
  5
74A
  8
DATA
  6
CONTINUOUS
 62
     7
 10
-21.059774999999899
 20
-81.432664999999986
 30
0.0
  0
VERTEX
  5
74B
  8
DATA
  6
CONTINUOUS
 62
     7
 10
-20.4698028124999
 20
-81.639909687499966
 30
0.0
  0
VERTEX
  5
74C
  8
DATA
  6
CONTINUOUS
 62
     7
 10
-19.890516249999909
 20
-81.893208749999985
 30
0.0
  0
VERTEX
  5
74D
  8
DATA
  6
CONTINUOUS
 62
     7
 10
-19.321915312499911
 20
-82.192562187500002
 30
0.0
  0
VERTEX
  5
74E
  8
DATA
  6
CONTINUOUS
 62
     7
 10
-18.763999999999911
 20
-82.537970000000001
 30
0.0
  0
VERTEX
  5
74F
  8
DATA
  6
CONTINUOUS
 62
     7
 10
-18.763999999999911
 20
-82.537970000000001
 30
0.0
  0
VERTEX
  5
750
  8
DATA
  6
CONTINUOUS
 62
     7
 10
-18.226030781249921
 20
-82.923252187499983
 30
0.0
  0
VERTEX
  5
751
  8
DATA
  6
CONTINUOUS
 62
     7
 10
-17.717253124999932
 20
-83.342248749999982
 30
0.0
  0
VERTEX
  5
752
  8
DATA
  6
CONTINUOUS
 62
     7
 10
-17.237667031249948
 20
-83.794959687499968
 30
0.0
  0
VERTEX
  5
753
  8
DATA
  6
CONTINUOUS
 62
     7
 10
-16.787272499999951
 20
-84.281384999999972
 30
0.0
  0
VERTEX
  5
754
  8
DATA
  6
CONTINUOUS
 62
     7
 10
-16.366069531249959
 20
-84.801524687499963
 30
0.0
  0
VERTEX
  5
755
  8
DATA
  6
CONTINUOUS
 62
     7
 10
-15.97405812499998
 20
-85.355378749999971
 30
0.0
  0
VERTEX
  5
756
  8
DATA
  6
CONTINUOUS
 62
     7
 10
-15.61123828124998
 20
-85.942947187499968
 30
0.0
  0
VERTEX
  5
757
  8
DATA
  6
CONTINUOUS
 62
     7
 10
-15.27760999999999
 20
-86.564229999999981
 30
0.0
  0
VERTEX
  5
758
  8
DATA
  6
CONTINUOUS
 62
     7
 10
-15.27760999999999
 20
-86.564229999999981
 30
0.0
  0
VERTEX
  5
759
  8
DATA
  6
CONTINUOUS
 62
     7
 10
-14.97852406249998
 20
-87.208539999999957
 30
0.0
  0
VERTEX
  5
75A
  8
DATA
  6
CONTINUOUS
 62
     7
 10
-14.71931624999997
 20
-87.865189999999984
 30
0.0
  0
VERTEX
  5
75B
  8
DATA
  6
CONTINUOUS
 62
     7
 10
-14.49998656249997
 20
-88.534179999999964
 30
0.0
  0
VERTEX
  5
75C
  8
DATA
  6
CONTINUOUS
 62
     7
 10
-14.32053499999996
 20
-89.215509999999995
 30
0.0
  0
VERTEX
  5
75D
  8
DATA
  6
CONTINUOUS
 62
     7
 10
-14.180961562499959
 20
-89.909179999999978
 30
0.0
  0
VERTEX
  5
75E
  8
DATA
  6
CONTINUOUS
 62
     7
 10
-14.081266249999951
 20
-90.615189999999984
 30
0.0
  0
VERTEX
  5
75F
  8
DATA
  6
CONTINUOUS
 62
     7
 10
-14.021449062499951
 20
-91.333539999999957
 30
0.0
  0
VERTEX
  5
760
  8
DATA
  6
CONTINUOUS
 62
     7
 10
-14.00150999999995
 20
-92.064229999999995
 30
0.0
  0
VERTEX
  5
761
  8
DATA
  6
CONTINUOUS
 62
     7
 10
-14.00150999999995
 20
-92.064229999999995
 30
0.0
  0
VERTEX
  5
762
  8
DATA
  6
CONTINUOUS
 62
     7
 10
-14.021449062499951
 20
-92.794920000000005
 30
0.0
  0
VERTEX
  5
763
  8
DATA
  6
CONTINUOUS
 62
     7
 10
-14.081266249999951
 20
-93.513269999999949
 30
0.0
  0
VERTEX
  5
764
  8
DATA
  6
CONTINUOUS
 62
     7
 10
-14.180961562499959
 20
-94.219279999999983
 30
0.0
  0
VERTEX
  5
765
  8
DATA
  6
CONTINUOUS
 62
     7
 10
-14.32053499999996
 20
-94.912949999999967
 30
0.0
  0
VERTEX
  5
766
  8
DATA
  6
CONTINUOUS
 62
     7
 10
-14.49998656249997
 20
-95.594279999999983
 30
0.0
  0
VERTEX
  5
767
  8
DATA
  6
CONTINUOUS
 62
     7
 10
-14.71931624999997
 20
-96.263269999999963
 30
0.0
  0
VERTEX
  5
768
  8
DATA
  6
CONTINUOUS
 62
     7
 10
-14.97852406249998
 20
-96.919920000000005
 30
0.0
  0
VERTEX
  5
769
  8
DATA
  6
CONTINUOUS
 62
     7
 10
-15.27760999999999
 20
-97.564229999999981
 30
0.0
  0
VERTEX
  5
76A
  8
DATA
  6
CONTINUOUS
 62
     7
 10
-15.27760999999999
 20
-97.564229999999981
 30
0.0
  0
VERTEX
  5
76B
  8
DATA
  6
CONTINUOUS
 62
     7
 10
-15.61123828124998
 20
-98.185513281249953
 30
0.0
  0
VERTEX
  5
76C
  8
DATA
  6
CONTINUOUS
 62
     7
 10
-15.97405812499998
 20
-98.773083124999957
 30
0.0
  0
VERTEX
  5
76D
  8
DATA
  6
CONTINUOUS
 62
     7
 10
-16.366069531249959
 20
-99.326939531250005
 30
0.0
  0
VERTEX
  5
76E
  8
DATA
  6
CONTINUOUS
 62
     7
 10
-16.787272499999951
 20
-99.847082500000013
 30
0.0
  0
VERTEX
  5
76F
  8
DATA
  6
CONTINUOUS
 62
     7
 10
-17.237667031249948
 20
-100.33351203125
 30
0.0
  0
VERTEX
  5
770
  8
DATA
  6
CONTINUOUS
 62
     7
 10
-17.717253124999932
 20
-100.78622812499989
 30
0.0
  0
VERTEX
  5
771
  8
DATA
  6
CONTINUOUS
 62
     7
 10
-18.226030781249921
 20
-101.2052307812499
 30
0.0
  0
VERTEX
  5
772
  8
DATA
  6
CONTINUOUS
 62
     7
 10
-18.763999999999911
 20
-101.5905199999999
 30
0.0
  0
VERTEX
  5
773
  8
DATA
  6
CONTINUOUS
 62
     7
 10
-18.763999999999911
 20
-101.5905199999999
 30
0.0
  0
VERTEX
  5
774
  8
DATA
  6
CONTINUOUS
 62
     7
 10
-19.321915312499911
 20
-101.93592078125
 30
0.0
  0
VERTEX
  5
775
  8
DATA
  6
CONTINUOUS
 62
     7
 10
-19.890516249999909
 20
-102.235268125
 30
0.0
  0
VERTEX
  5
776
  8
DATA
  6
CONTINUOUS
 62
     7
 10
-20.4698028124999
 20
-102.48856203125
 30
0.0
  0
VERTEX
  5
777
  8
DATA
  6
CONTINUOUS
 62
     7
 10
-21.059774999999899
 20
-102.6958025
 30
0.0
  0
VERTEX
  5
778
  8
DATA
  6
CONTINUOUS
 62
     7
 10
-21.660432812499899
 20
-102.85698953124989
 30
0.0
  0
VERTEX
  5
779
  8
DATA
  6
CONTINUOUS
 62
     7
 10
-22.271776249999899
 20
-102.9721231249999
 30
0.0
  0
VERTEX
  5
77A
  8
DATA
  6
CONTINUOUS
 62
     7
 10
-22.893805312499911
 20
-103.04120328124991
 30
0.0
  0
VERTEX
  5
77B
  8
DATA
  6
CONTINUOUS
 62
     7
 10
-23.526519999999898
 20
-103.0642299999999
 30
0.0
  0
VERTEX
  5
77C
  8
DATA
  6
CONTINUOUS
 62
     7
 10
-23.526519999999898
 20
-103.0642299999999
 30
0.0
  0
VERTEX
  5
77D
  8
DATA
  6
CONTINUOUS
 62
     7
 10
-24.15922968749992
 20
-103.04120328124991
 30
0.0
  0
VERTEX
  5
77E
  8
DATA
  6
CONTINUOUS
 62
     7
 10
-24.78125374999993
 20
-102.9721231249999
 30
0.0
  0
VERTEX
  5
77F
  8
DATA
  6
CONTINUOUS
 62
     7
 10
-25.39259218749994
 20
-102.85698953124989
 30
0.0
  0
VERTEX
  5
780
  8
DATA
  6
CONTINUOUS
 62
     7
 10
-25.993244999999959
 20
-102.6958025
 30
0.0
  0
VERTEX
  5
781
  8
DATA
  6
CONTINUOUS
 62
     7
 10
-26.58321218749996
 20
-102.48856203125
 30
0.0
  0
VERTEX
  5
782
  8
DATA
  6
CONTINUOUS
 62
     7
 10
-27.162493749999982
 20
-102.235268125
 30
0.0
  0
VERTEX
  5
783
  8
DATA
  6
CONTINUOUS
 62
     7
 10
-27.731089687499988
 20
-101.93592078125
 30
0.0
  0
VERTEX
  5
784
  8
DATA
  6
CONTINUOUS
 62
     7
 10
-28.289000000000001
 20
-101.5905199999999
 30
0.0
  0
VERTEX
  5
785
  8
DATA
  6
CONTINUOUS
 62
     7
 10
-28.289000000000001
 20
-101.5905199999999
 30
0.0
  0
VERTEX
  5
786
  8
DATA
  6
CONTINUOUS
 62
     7
 10
-28.826980312500002
 20
-101.2052307812499
 30
0.0
  0
VERTEX
  5
787
  8
DATA
  6
CONTINUOUS
 62
     7
 10
-29.335766249999971
 20
-100.78622812499989
 30
0.0
  0
VERTEX
  5
788
  8
DATA
  6
CONTINUOUS
 62
     7
 10
-29.815357812499979
 20
-100.33351203125
 30
0.0
  0
VERTEX
  5
789
  8
DATA
  6
CONTINUOUS
 62
     7
 10
-30.26575499999996
 20
-99.847082500000013
 30
0.0
  0
VERTEX
  5
78A
  8
DATA
  6
CONTINUOUS
 62
     7
 10
-30.686957812499951
 20
-99.326939531250005
 30
0.0
  0
VERTEX
  5
78B
  8
DATA
  6
CONTINUOUS
 62
     7
 10
-31.078966249999961
 20
-98.773083124999957
 30
0.0
  0
VERTEX
  5
78C
  8
DATA
  6
CONTINUOUS
 62
     7
 10
-31.441780312500001
 20
-98.185513281249953
 30
0.0
  0
VERTEX
  5
78D
  8
DATA
  6
CONTINUOUS
 62
     7
 10
-31.775400000000001
 20
-97.564229999999981
 30
0.0
  0
VERTEX
  5
78E
  8
DATA
  6
CONTINUOUS
 62
     7
 10
-31.775400000000001
 20
-97.564229999999981
 30
0.0
  0
VERTEX
  5
78F
  8
DATA
  6
CONTINUOUS
 62
     7
 10
-31.963730937499989
 20
-97.170171718749955
 30
0.0
  0
VERTEX
  5
790
  8
DATA
  6
CONTINUOUS
 62
     7
 10
-32.137033749999979
 20
-96.771461874999957
 30
0.0
  0
VERTEX
  5
791
  8
DATA
  6
CONTINUOUS
 62
     7
 10
-32.295308437499962
 20
-96.368100468749958
 30
0.0
  0
VERTEX
  5
792
  8
DATA
  6
CONTINUOUS
 62
     7
 10
-32.438554999999958
 20
-95.960087499999986
 30
0.0
  0
VERTEX
  5
793
  8
DATA
  6
CONTINUOUS
 62
     7
 10
-32.56677343749994
 20
-95.547422968749956
 30
0.0
  0
VERTEX
  5
794
  8
DATA
  6
CONTINUOUS
 62
     7
 10
-32.679963749999949
 20
-95.130106874999996
 30
0.0
  0
VERTEX
  5
795
  8
DATA
  6
CONTINUOUS
 62
     7
 10
-32.778125937499922
 20
-94.708139218750006
 30
0.0
  0
VERTEX
  5
796
  8
DATA
  6
CONTINUOUS
 62
     7
 10
-32.861259999999923
 20
-94.28152
 30
0.0
  0
VERTEX
  5
797
  8
DATA
  6
CONTINUOUS
 62
     7
 10
-32.861259999999923
 20
-94.28152
 30
0.0
  0
SEQEND
  5
798
  8
DATA
  6
CONTINUOUS
 62
     7
  0
POLYLINE
  5
1C6
  8
DATA
  6
CONTINUOUS
 62
     7
 66
     1
 10
0.0
 20
0.0
 30
0.0
 70
   128
  0
VERTEX
  5
799
  8
DATA
  6
CONTINUOUS
 62
     7
 10
-25.80982999999992
 20
-95.014939999999996
 30
0.0
  0
VERTEX
  5
79A
  8
DATA
  6
CONTINUOUS
 62
     7
 10
-25.669767187499929
 20
-95.085086093750022
 30
0.0
  0
VERTEX
  5
79B
  8
DATA
  6
CONTINUOUS
 62
     7
 10
-25.527533749999922
 20
-95.145879375000007
 30
0.0
  0
VERTEX
  5
79C
  8
DATA
  6
CONTINUOUS
 62
     7
 10
-25.383129687499899
 20
-95.197319843749995
 30
0.0
  0
VERTEX
  5
79D
  8
DATA
  6
CONTINUOUS
 62
     7
 10
-25.23655499999991
 20
-95.239407499999956
 30
0.0
  0
VERTEX
  5
79E
  8
DATA
  6
CONTINUOUS
 62
     7
 10
-25.087809687499892
 20
-95.272142343749962
 30
0.0
  0
VERTEX
  5
79F
  8
DATA
  6
CONTINUOUS
 62
     7
 10
-24.936893749999911
 20
-95.295524374999957
 30
0.0
  0
VERTEX
  5
7A0
  8
DATA
  6
CONTINUOUS
 62
     7
 10
-24.783807187499921
 20
-95.309553593749968
 30
0.0
  0
VERTEX
  5
7A1
  8
DATA
  6
CONTINUOUS
 62
     7
 10
-24.628549999999919
 20
-95.314229999999981
 30
0.0
  0
VERTEX
  5
7A2
  8
DATA
  6
CONTINUOUS
 62
     7
 10
-24.628549999999919
 20
-95.314229999999981
 30
0.0
  0
VERTEX
  5
7A3
  8
DATA
  6
CONTINUOUS
 62
     7
 10
-24.441556874999929
 20
-95.307426874999962
 30
0.0
  0
VERTEX
  5
7A4
  8
DATA
  6
CONTINUOUS
 62
     7
 10
-24.257722499999922
 20
-95.287017500000005
 30
0.0
  0
VERTEX
  5
7A5
  8
DATA
  6
CONTINUOUS
 62
     7
 10
-24.07704687499993
 20
-95.253001874999995
 30
0.0
  0
VERTEX
  5
7A6
  8
DATA
  6
CONTINUOUS
 62
     7
 10
-23.89952999999992
 20
-95.205380000000005
 30
0.0
  0
VERTEX
  5
7A7
  8
DATA
  6
CONTINUOUS
 62
     7
 10
-23.72517187499993
 20
-95.144151874999963
 30
0.0
  0
VERTEX
  5
7A8
  8
DATA
  6
CONTINUOUS
 62
     7
 10
-23.553972499999912
 20
-95.069317499999968
 30
0.0
  0
VERTEX
  5
7A9
  8
DATA
  6
CONTINUOUS
 62
     7
 10
-23.385931874999908
 20
-94.980876874999979
 30
0.0
  0
VERTEX
  5
7AA
  8
DATA
  6
CONTINUOUS
 62
     7
 10
-23.221049999999892
 20
-94.878829999999994
 30
0.0
  0
VERTEX
  5
7AB
  8
DATA
  6
CONTINUOUS
 62
     7
 10
-23.221049999999892
 20
-94.878829999999994
 30
0.0
  0
VERTEX
  5
7AC
  8
DATA
  6
CONTINUOUS
 62
     7
 10
-23.062054062499922
 20
-94.764994374999986
 30
0.0
  0
VERTEX
  5
7AD
  8
DATA
  6
CONTINUOUS
 62
     7
 10
-22.911686249999949
 20
-94.641197499999961
 30
0.0
  0
VERTEX
  5
7AE
  8
DATA
  6
CONTINUOUS
 62
     7
 10
-22.76994656249995
 20
-94.507439375000004
 30
0.0
  0
VERTEX
  5
7AF
  8
DATA
  6
CONTINUOUS
 62
     7
 10
-22.636834999999969
 20
-94.363720000000001
 30
0.0
  0
VERTEX
  5
7B0
  8
DATA
  6
CONTINUOUS
 62
     7
 10
-22.512351562499969
 20
-94.210039374999994
 30
0.0
  0
VERTEX
  5
7B1
  8
DATA
  6
CONTINUOUS
 62
     7
 10
-22.396496249999981
 20
-94.046397499999983
 30
0.0
  0
VERTEX
  5
7B2
  8
DATA
  6
CONTINUOUS
 62
     7
 10
-22.289269062499979
 20
-93.872794374999984
 30
0.0
  0
VERTEX
  5
7B3
  8
DATA
  6
CONTINUOUS
 62
     7
 10
-22.190669999999962
 20
-93.689229999999981
 30
0.0
  0
VERTEX
  5
7B4
  8
DATA
  6
CONTINUOUS
 62
     7
 10
-22.190669999999962
 20
-93.689229999999981
 30
0.0
  0
VERTEX
  5
7B5
  8
DATA
  6
CONTINUOUS
 62
     7
 10
-22.102282499999969
 20
-93.498869062499963
 30
0.0
  0
VERTEX
  5
7B6
  8
DATA
  6
CONTINUOUS
 62
     7
 10
-22.02567999999998
 20
-93.304861250000002
 30
0.0
  0
VERTEX
  5
7B7
  8
DATA
  6
CONTINUOUS
 62
     7
 10
-21.960862499999969
 20
-93.107206562499982
 30
0.0
  0
VERTEX
  5
7B8
  8
DATA
  6
CONTINUOUS
 62
     7
 10
-21.907829999999969
 20
-92.905905000000004
 30
0.0
  0
VERTEX
  5
7B9
  8
DATA
  6
CONTINUOUS
 62
     7
 10
-21.866582499999971
 20
-92.700956562499968
 30
0.0
  0
VERTEX
  5
7BA
  8
DATA
  6
CONTINUOUS
 62
     7
 10
-21.837119999999981
 20
-92.492361250000016
 30
0.0
  0
VERTEX
  5
7BB
  8
DATA
  6
CONTINUOUS
 62
     7
 10
-21.81944249999998
 20
-92.280119062499963
 30
0.0
  0
VERTEX
  5
7BC
  8
DATA
  6
CONTINUOUS
 62
     7
 10
-21.813549999999971
 20
-92.064229999999995
 30
0.0
  0
VERTEX
  5
7BD
  8
DATA
  6
CONTINUOUS
 62
     7
 10
-21.813549999999971
 20
-92.064229999999995
 30
0.0
  0
VERTEX
  5
7BE
  8
DATA
  6
CONTINUOUS
 62
     7
 10
-21.81944249999998
 20
-91.848347500000003
 30
0.0
  0
VERTEX
  5
7BF
  8
DATA
  6
CONTINUOUS
 62
     7
 10
-21.837119999999981
 20
-91.636109999999945
 30
0.0
  0
VERTEX
  5
7C0
  8
DATA
  6
CONTINUOUS
 62
     7
 10
-21.866582499999971
 20
-91.427517499999965
 30
0.0
  0
VERTEX
  5
7C1
  8
DATA
  6
CONTINUOUS
 62
     7
 10
-21.907829999999969
 20
-91.222570000000005
 30
0.0
  0
VERTEX
  5
7C2
  8
DATA
  6
CONTINUOUS
 62
     7
 10
-21.960862499999969
 20
-91.021267499999965
 30
0.0
  0
VERTEX
  5
7C3
  8
DATA
  6
CONTINUOUS
 62
     7
 10
-22.02567999999998
 20
-90.823609999999974
 30
0.0
  0
VERTEX
  5
7C4
  8
DATA
  6
CONTINUOUS
 62
     7
 10
-22.102282499999969
 20
-90.629597500000003
 30
0.0
  0
VERTEX
  5
7C5
  8
DATA
  6
CONTINUOUS
 62
     7
 10
-22.190669999999962
 20
-90.439229999999966
 30
0.0
  0
VERTEX
  5
7C6
  8
DATA
  6
CONTINUOUS
 62
     7
 10
-22.190669999999962
 20
-90.439229999999966
 30
0.0
  0
VERTEX
  5
7C7
  8
DATA
  6
CONTINUOUS
 62
     7
 10
-22.289269062499979
 20
-90.25567249999996
 30
0.0
  0
VERTEX
  5
7C8
  8
DATA
  6
CONTINUOUS
 62
     7
 10
-22.396496249999981
 20
-90.082074999999946
 30
0.0
  0
VERTEX
  5
7C9
  8
DATA
  6
CONTINUOUS
 62
     7
 10
-22.512351562499969
 20
-89.918437499999996
 30
0.0
  0
VERTEX
  5
7CA
  8
DATA
  6
CONTINUOUS
 62
     7
 10
-22.636834999999969
 20
-89.764759999999967
 30
0.0
  0
VERTEX
  5
7CB
  8
DATA
  6
CONTINUOUS
 62
     7
 10
-22.76994656249995
 20
-89.621042499999945
 30
0.0
  0
VERTEX
  5
7CC
  8
DATA
  6
CONTINUOUS
 62
     7
 10
-22.911686249999949
 20
-89.487284999999986
 30
0.0
  0
VERTEX
  5
7CD
  8
DATA
  6
CONTINUOUS
 62
     7
 10
-23.062054062499922
 20
-89.363487499999962
 30
0.0
  0
VERTEX
  5
7CE
  8
DATA
  6
CONTINUOUS
 62
     7
 10
-23.221049999999892
 20
-89.24964999999996
 30
0.0
  0
VERTEX
  5
7CF
  8
DATA
  6
CONTINUOUS
 62
     7
 10
-23.221049999999892
 20
-89.24964999999996
 30
0.0
  0
VERTEX
  5
7D0
  8
DATA
  6
CONTINUOUS
 62
     7
 10
-23.385931874999908
 20
-89.147598437499965
 30
0.0
  0
VERTEX
  5
7D1
  8
DATA
  6
CONTINUOUS
 62
     7
 10
-23.553972499999912
 20
-89.059153749999965
 30
0.0
  0
VERTEX
  5
7D2
  8
DATA
  6
CONTINUOUS
 62
     7
 10
-23.72517187499993
 20
-88.984315937499943
 30
0.0
  0
VERTEX
  5
7D3
  8
DATA
  6
CONTINUOUS
 62
     7
 10
-23.89952999999992
 20
-88.923084999999958
 30
0.0
  0
VERTEX
  5
7D4
  8
DATA
  6
CONTINUOUS
 62
     7
 10
-24.07704687499993
 20
-88.87546093749998
 30
0.0
  0
VERTEX
  5
7D5
  8
DATA
  6
CONTINUOUS
 62
     7
 10
-24.257722499999922
 20
-88.841443749999982
 30
0.0
  0
VERTEX
  5
7D6
  8
DATA
  6
CONTINUOUS
 62
     7
 10
-24.441556874999929
 20
-88.821033437499963
 30
0.0
  0
VERTEX
  5
7D7
  8
DATA
  6
CONTINUOUS
 62
     7
 10
-24.628549999999919
 20
-88.814229999999981
 30
0.0
  0
VERTEX
  5
7D8
  8
DATA
  6
CONTINUOUS
 62
     7
 10
-24.628549999999919
 20
-88.814229999999981
 30
0.0
  0
VERTEX
  5
7D9
  8
DATA
  6
CONTINUOUS
 62
     7
 10
-24.776221562499941
 20
-88.818458437499984
 30
0.0
  0
VERTEX
  5
7DA
  8
DATA
  6
CONTINUOUS
 62
     7
 10
-24.921931249999961
 20
-88.831143749999967
 30
0.0
  0
VERTEX
  5
7DB
  8
DATA
  6
CONTINUOUS
 62
     7
 10
-25.06567906249996
 20
-88.852285937499957
 30
0.0
  0
VERTEX
  5
7DC
  8
DATA
  6
CONTINUOUS
 62
     7
 10
-25.20746499999996
 20
-88.881884999999983
 30
0.0
  0
VERTEX
  5
7DD
  8
DATA
  6
CONTINUOUS
 62
     7
 10
-25.347289062499971
 20
-88.919940937499959
 30
0.0
  0
VERTEX
  5
7DE
  8
DATA
  6
CONTINUOUS
 62
     7
 10
-25.485151249999959
 20
-88.966453749999957
 30
0.0
  0
VERTEX
  5
7DF
  8
DATA
  6
CONTINUOUS
 62
     7
 10
-25.62105156249995
 20
-89.021423437499962
 30
0.0
  0
VERTEX
  5
7E0
  8
DATA
  6
CONTINUOUS
 62
     7
 10
-25.754989999999921
 20
-89.084850000000003
 30
0.0
  0
VERTEX
  5
7E1
  8
DATA
  6
CONTINUOUS
 62
     7
 10
-25.754989999999921
 20
-89.084850000000003
 30
0.0
  0
SEQEND
  5
7E2
  8
DATA
  6
CONTINUOUS
 62
     7
  0
POLYLINE
  5
211
  8
DATA
  6
CONTINUOUS
 62
     7
 66
     1
 10
0.0
 20
0.0
 30
0.0
 70
   128
  0
VERTEX
  5
7E3
  8
DATA
  6
CONTINUOUS
 62
     7
 10
-32.797229999999907
 20
-94.415829999999985
 30
0.0
  0
VERTEX
  5
7E4
  8
DATA
  6
CONTINUOUS
 62
     7
 10
-32.705757656249929
 20
-94.906765937499998
 30
0.0
  0
VERTEX
  5
7E5
  8
DATA
  6
CONTINUOUS
 62
     7
 10
-32.596500624999919
 20
-95.392198750000006
 30
0.0
  0
VERTEX
  5
7E6
  8
DATA
  6
CONTINUOUS
 62
     7
 10
-32.469458906249947
 20
-95.872128437499995
 30
0.0
  0
VERTEX
  5
7E7
  8
DATA
  6
CONTINUOUS
 62
     7
 10
-32.324632499999957
 20
-96.346554999999995
 30
0.0
  0
VERTEX
  5
7E8
  8
DATA
  6
CONTINUOUS
 62
     7
 10
-32.162021406249963
 20
-96.815478437499962
 30
0.0
  0
VERTEX
  5
7E9
  8
DATA
  6
CONTINUOUS
 62
     7
 10
-31.981625624999939
 20
-97.278898749999968
 30
0.0
  0
VERTEX
  5
7EA
  8
DATA
  6
CONTINUOUS
 62
     7
 10
-31.78344515624995
 20
-97.736815937499983
 30
0.0
  0
VERTEX
  5
7EB
  8
DATA
  6
CONTINUOUS
 62
     7
 10
-31.56747999999995
 20
-98.189229999999981
 30
0.0
  0
VERTEX
  5
7EC
  8
DATA
  6
CONTINUOUS
 62
     7
 10
-31.56747999999995
 20
-98.189229999999981
 30
0.0
  0
VERTEX
  5
7ED
  8
DATA
  6
CONTINUOUS
 62
     7
 10
-31.19585109374993
 20
-98.88111734375002
 30
0.0
  0
VERTEX
  5
7EE
  8
DATA
  6
CONTINUOUS
 62
     7
 10
-30.791704374999942
 20
-99.535459375000016
 30
0.0
  0
VERTEX
  5
7EF
  8
DATA
  6
CONTINUOUS
 62
     7
 10
-30.355039843749921
 20
-100.15225609375
 30
0.0
  0
VERTEX
  5
7F0
  8
DATA
  6
CONTINUOUS
 62
     7
 10
-29.88585749999995
 20
-100.73150750000001
 30
0.0
  0
VERTEX
  5
7F1
  8
DATA
  6
CONTINUOUS
 62
     7
 10
-29.384157343749919
 20
-101.2732135937499
 30
0.0
  0
VERTEX
  5
7F2
  8
DATA
  6
CONTINUOUS
 62
     7
 10
-28.84993937499992
 20
-101.77737437499989
 30
0.0
  0
VERTEX
  5
7F3
  8
DATA
  6
CONTINUOUS
 62
     7
 10
-28.283203593749889
 20
-102.24398984375
 30
0.0
  0
VERTEX
  5
7F4
  8
DATA
  6
CONTINUOUS
 62
     7
 10
-27.683949999999879
 20
-102.67306000000001
 30
0.0
  0
VERTEX
  5
7F5
  8
DATA
  6
CONTINUOUS
 62
     7
 10
-27.683949999999879
 20
-102.67306000000001
 30
0.0
  0
VERTEX
  5
7F6
  8
DATA
  6
CONTINUOUS
 62
     7
 10
-27.062488437499908
 20
-103.05770921875001
 30
0.0
  0
VERTEX
  5
7F7
  8
DATA
  6
CONTINUOUS
 62
     7
 10
-26.429123749999921
 20
-103.39107187499999
 30
0.0
  0
VERTEX
  5
7F8
  8
DATA
  6
CONTINUOUS
 62
     7
 10
-25.78385593749994
 20
-103.67314796875
 30
0.0
  0
VERTEX
  5
7F9
  8
DATA
  6
CONTINUOUS
 62
     7
 10
-25.126684999999959
 20
-103.9039374999999
 30
0.0
  0
VERTEX
  5
7FA
  8
DATA
  6
CONTINUOUS
 62
     7
 10
-24.457610937499972
 20
-104.0834404687499
 30
0.0
  0
VERTEX
  5
7FB
  8
DATA
  6
CONTINUOUS
 62
     7
 10
-23.776633749999991
 20
-104.2116568749999
 30
0.0
  0
VERTEX
  5
7FC
  8
DATA
  6
CONTINUOUS
 62
     7
 10
-23.08375343749999
 20
-104.2885867187499
 30
0.0
  0
VERTEX
  5
7FD
  8
DATA
  6
CONTINUOUS
 62
     7
 10
-22.378969999999988
 20
-104.3142299999999
 30
0.0
  0
VERTEX
  5
7FE
  8
DATA
  6
CONTINUOUS
 62
     7
 10
-22.378969999999988
 20
-104.3142299999999
 30
0.0
  0
VERTEX
  5
7FF
  8
DATA
  6
CONTINUOUS
 62
     7
 10
-21.674183750000001
 20
-104.2885867187499
 30
0.0
  0
VERTEX
  5
800
  8
DATA
  6
CONTINUOUS
 62
     7
 10
-20.981300000000001
 20
-104.2116568749999
 30
0.0
  0
VERTEX
  5
801
  8
DATA
  6
CONTINUOUS
 62
     7
 10
-20.30031875000001
 20
-104.0834404687499
 30
0.0
  0
VERTEX
  5
802
  8
DATA
  6
CONTINUOUS
 62
     7
 10
-19.631239999999998
 20
-103.9039374999999
 30
0.0
  0
VERTEX
  5
803
  8
DATA
  6
CONTINUOUS
 62
     7
 10
-18.97406375000001
 20
-103.67314796875
 30
0.0
  0
VERTEX
  5
804
  8
DATA
  6
CONTINUOUS
 62
     7
 10
-18.328790000000001
 20
-103.39107187499999
 30
0.0
  0
VERTEX
  5
805
  8
DATA
  6
CONTINUOUS
 62
     7
 10
-17.69541874999998
 20
-103.05770921875001
 30
0.0
  0
VERTEX
  5
806
  8
DATA
  6
CONTINUOUS
 62
     7
 10
-17.073949999999979
 20
-102.67306000000001
 30
0.0
  0
VERTEX
  5
807
  8
DATA
  6
CONTINUOUS
 62
     7
 10
-17.073949999999979
 20
-102.67306000000001
 30
0.0
  0
VERTEX
  5
808
  8
DATA
  6
CONTINUOUS
 62
     7
 10
-16.47469890624998
 20
-102.24398984375
 30
0.0
  0
VERTEX
  5
809
  8
DATA
  6
CONTINUOUS
 62
     7
 10
-15.90796562499998
 20
-101.77737437499989
 30
0.0
  0
VERTEX
  5
80A
  8
DATA
  6
CONTINUOUS
 62
     7
 10
-15.373750156249979
 20
-101.2732135937499
 30
0.0
  0
VERTEX
  5
80B
  8
DATA
  6
CONTINUOUS
 62
     7
 10
-14.872052499999979
 20
-100.73150750000001
 30
0.0
  0
VERTEX
  5
80C
  8
DATA
  6
CONTINUOUS
 62
     7
 10
-14.402872656249979
 20
-100.15225609375
 30
0.0
  0
VERTEX
  5
80D
  8
DATA
  6
CONTINUOUS
 62
     7
 10
-13.966210624999979
 20
-99.535459375000016
 30
0.0
  0
VERTEX
  5
80E
  8
DATA
  6
CONTINUOUS
 62
     7
 10
-13.562066406249979
 20
-98.88111734375002
 30
0.0
  0
VERTEX
  5
80F
  8
DATA
  6
CONTINUOUS
 62
     7
 10
-13.190439999999979
 20
-98.189229999999981
 30
0.0
  0
VERTEX
  5
810
  8
DATA
  6
CONTINUOUS
 62
     7
 10
-13.190439999999979
 20
-98.189229999999981
 30
0.0
  0
VERTEX
  5
811
  8
DATA
  6
CONTINUOUS
 62
     7
 10
-12.857282968749979
 20
-97.471703749999961
 30
0.0
  0
VERTEX
  5
812
  8
DATA
  6
CONTINUOUS
 62
     7
 10
-12.56854687499998
 20
-96.740435000000005
 30
0.0
  0
VERTEX
  5
813
  8
DATA
  6
CONTINUOUS
 62
     7
 10
-12.324231718749971
 20
-95.995423749999986
 30
0.0
  0
VERTEX
  5
814
  8
DATA
  6
CONTINUOUS
 62
     7
 10
-12.12433749999998
 20
-95.236670000000004
 30
0.0
  0
VERTEX
  5
815
  8
DATA
  6
CONTINUOUS
 62
     7
 10
-11.968864218749969
 20
-94.464173749999986
 30
0.0
  0
VERTEX
  5
816
  8
DATA
  6
CONTINUOUS
 62
     7
 10
-11.85781187499998
 20
-93.677935000000005
 30
0.0
  0
VERTEX
  5
817
  8
DATA
  6
CONTINUOUS
 62
     7
 10
-11.79118046874998
 20
-92.877953749999961
 30
0.0
  0
VERTEX
  5
818
  8
DATA
  6
CONTINUOUS
 62
     7
 10
-11.76896999999998
 20
-92.064229999999995
 30
0.0
  0
VERTEX
  5
819
  8
DATA
  6
CONTINUOUS
 62
     7
 10
-11.76896999999998
 20
-92.064229999999995
 30
0.0
  0
VERTEX
  5
81A
  8
DATA
  6
CONTINUOUS
 62
     7
 10
-11.79118046874998
 20
-91.250510624999976
 30
0.0
  0
VERTEX
  5
81B
  8
DATA
  6
CONTINUOUS
 62
     7
 10
-11.85781187499998
 20
-90.45053249999998
 30
0.0
  0
VERTEX
  5
81C
  8
DATA
  6
CONTINUOUS
 62
     7
 10
-11.968864218749969
 20
-89.66429562499998
 30
0.0
  0
VERTEX
  5
81D
  8
DATA
  6
CONTINUOUS
 62
     7
 10
-12.12433749999998
 20
-88.891800000000003
 30
0.0
  0
VERTEX
  5
81E
  8
DATA
  6
CONTINUOUS
 62
     7
 10
-12.324231718749971
 20
-88.133045624999994
 30
0.0
  0
VERTEX
  5
81F
  8
DATA
  6
CONTINUOUS
 62
     7
 10
-12.56854687499998
 20
-87.38803249999998
 30
0.0
  0
VERTEX
  5
820
  8
DATA
  6
CONTINUOUS
 62
     7
 10
-12.857282968749979
 20
-86.656760624999947
 30
0.0
  0
VERTEX
  5
821
  8
DATA
  6
CONTINUOUS
 62
     7
 10
-13.190439999999979
 20
-85.939229999999981
 30
0.0
  0
VERTEX
  5
822
  8
DATA
  6
CONTINUOUS
 62
     7
 10
-13.190439999999979
 20
-85.939229999999981
 30
0.0
  0
VERTEX
  5
823
  8
DATA
  6
CONTINUOUS
 62
     7
 10
-13.562066406249979
 20
-85.247349531249981
 30
0.0
  0
VERTEX
  5
824
  8
DATA
  6
CONTINUOUS
 62
     7
 10
-13.966210624999979
 20
-84.59301312499997
 30
0.0
  0
VERTEX
  5
825
  8
DATA
  6
CONTINUOUS
 62
     7
 10
-14.402872656249979
 20
-83.976220781249978
 30
0.0
  0
VERTEX
  5
826
  8
DATA
  6
CONTINUOUS
 62
     7
 10
-14.872052499999979
 20
-83.396972500000004
 30
0.0
  0
VERTEX
  5
827
  8
DATA
  6
CONTINUOUS
 62
     7
 10
-15.373750156249979
 20
-82.855268281250005
 30
0.0
  0
VERTEX
  5
828
  8
DATA
  6
CONTINUOUS
 62
     7
 10
-15.90796562499998
 20
-82.351108124999982
 30
0.0
  0
VERTEX
  5
829
  8
DATA
  6
CONTINUOUS
 62
     7
 10
-16.47469890624998
 20
-81.884492031249977
 30
0.0
  0
VERTEX
  5
82A
  8
DATA
  6
CONTINUOUS
 62
     7
 10
-17.073949999999979
 20
-81.455419999999975
 30
0.0
  0
VERTEX
  5
82B
  8
DATA
  6
CONTINUOUS
 62
     7
 10
-17.073949999999979
 20
-81.455419999999975
 30
0.0
  0
VERTEX
  5
82C
  8
DATA
  6
CONTINUOUS
 62
     7
 10
-17.69541874999998
 20
-81.070766093749953
 30
0.0
  0
VERTEX
  5
82D
  8
DATA
  6
CONTINUOUS
 62
     7
 10
-18.328790000000001
 20
-80.737399374999995
 30
0.0
  0
VERTEX
  5
82E
  8
DATA
  6
CONTINUOUS
 62
     7
 10
-18.97406375000001
 20
-80.455319843749976
 30
0.0
  0
VERTEX
  5
82F
  8
DATA
  6
CONTINUOUS
 62
     7
 10
-19.631239999999998
 20
-80.224527499999965
 30
0.0
  0
VERTEX
  5
830
  8
DATA
  6
CONTINUOUS
 62
     7
 10
-20.30031875000001
 20
-80.045022343749935
 30
0.0
  0
VERTEX
  5
831
  8
DATA
  6
CONTINUOUS
 62
     7
 10
-20.981300000000001
 20
-79.91680437499997
 30
0.0
  0
VERTEX
  5
832
  8
DATA
  6
CONTINUOUS
 62
     7
 10
-21.674183750000001
 20
-79.839873593749985
 30
0.0
  0
VERTEX
  5
833
  8
DATA
  6
CONTINUOUS
 62
     7
 10
-22.378969999999988
 20
-79.814229999999981
 30
0.0
  0
VERTEX
  5
834
  8
DATA
  6
CONTINUOUS
 62
     7
 10
-22.378969999999988
 20
-79.814229999999981
 30
0.0
  0
VERTEX
  5
835
  8
DATA
  6
CONTINUOUS
 62
     7
 10
-23.08375343749999
 20
-79.839873593749985
 30
0.0
  0
VERTEX
  5
836
  8
DATA
  6
CONTINUOUS
 62
     7
 10
-23.776633749999991
 20
-79.91680437499997
 30
0.0
  0
VERTEX
  5
837
  8
DATA
  6
CONTINUOUS
 62
     7
 10
-24.457610937499972
 20
-80.045022343749935
 30
0.0
  0
VERTEX
  5
838
  8
DATA
  6
CONTINUOUS
 62
     7
 10
-25.126684999999959
 20
-80.224527499999965
 30
0.0
  0
VERTEX
  5
839
  8
DATA
  6
CONTINUOUS
 62
     7
 10
-25.78385593749994
 20
-80.455319843749976
 30
0.0
  0
VERTEX
  5
83A
  8
DATA
  6
CONTINUOUS
 62
     7
 10
-26.429123749999921
 20
-80.737399374999995
 30
0.0
  0
VERTEX
  5
83B
  8
DATA
  6
CONTINUOUS
 62
     7
 10
-27.062488437499908
 20
-81.070766093749953
 30
0.0
  0
VERTEX
  5
83C
  8
DATA
  6
CONTINUOUS
 62
     7
 10
-27.683949999999879
 20
-81.455419999999975
 30
0.0
  0
VERTEX
  5
83D
  8
DATA
  6
CONTINUOUS
 62
     7
 10
-27.683949999999879
 20
-81.455419999999975
 30
0.0
  0
VERTEX
  5
83E
  8
DATA
  6
CONTINUOUS
 62
     7
 10
-28.283203593749889
 20
-81.884492031249977
 30
0.0
  0
VERTEX
  5
83F
  8
DATA
  6
CONTINUOUS
 62
     7
 10
-28.84993937499992
 20
-82.351108124999982
 30
0.0
  0
VERTEX
  5
840
  8
DATA
  6
CONTINUOUS
 62
     7
 10
-29.384157343749919
 20
-82.855268281250005
 30
0.0
  0
VERTEX
  5
841
  8
DATA
  6
CONTINUOUS
 62
     7
 10
-29.88585749999995
 20
-83.396972500000004
 30
0.0
  0
VERTEX
  5
842
  8
DATA
  6
CONTINUOUS
 62
     7
 10
-30.355039843749921
 20
-83.976220781249978
 30
0.0
  0
VERTEX
  5
843
  8
DATA
  6
CONTINUOUS
 62
     7
 10
-30.791704374999942
 20
-84.59301312499997
 30
0.0
  0
VERTEX
  5
844
  8
DATA
  6
CONTINUOUS
 62
     7
 10
-31.19585109374993
 20
-85.247349531249981
 30
0.0
  0
VERTEX
  5
845
  8
DATA
  6
CONTINUOUS
 62
     7
 10
-31.56747999999995
 20
-85.939229999999981
 30
0.0
  0
VERTEX
  5
846
  8
DATA
  6
CONTINUOUS
 62
     7
 10
-31.56747999999995
 20
-85.939229999999981
 30
0.0
  0
VERTEX
  5
847
  8
DATA
  6
CONTINUOUS
 62
     7
 10
-31.749049062499921
 20
-86.316655156249965
 30
0.0
  0
VERTEX
  5
848
  8
DATA
  6
CONTINUOUS
 62
     7
 10
-31.918216249999961
 20
-86.697915624999993
 30
0.0
  0
VERTEX
  5
849
  8
DATA
  6
CONTINUOUS
 62
     7
 10
-32.074981562499929
 20
-87.08301140624998
 30
0.0
  0
VERTEX
  5
84A
  8
DATA
  6
CONTINUOUS
 62
     7
 10
-32.219344999999919
 20
-87.471942500000026
 30
0.0
  0
VERTEX
  5
84B
  8
DATA
  6
CONTINUOUS
 62
     7
 10
-32.35130656249995
 20
-87.864708906249945
 30
0.0
  0
VERTEX
  5
84C
  8
DATA
  6
CONTINUOUS
 62
     7
 10
-32.470866249999929
 20
-88.261310624999979
 30
0.0
  0
VERTEX
  5
84D
  8
DATA
  6
CONTINUOUS
 62
     7
 10
-32.578024062499892
 20
-88.661747656249986
 30
0.0
  0
VERTEX
  5
84E
  8
DATA
  6
CONTINUOUS
 62
     7
 10
-32.672779999999889
 20
-89.066019999999966
 30
0.0
  0
VERTEX
  5
84F
  8
DATA
  6
CONTINUOUS
 62
     7
 10
-32.672779999999889
 20
-89.066019999999966
 30
0.0
  0
SEQEND
  5
850
  8
DATA
  6
CONTINUOUS
 62
     7
  0
LINE
  5
280
  8
DATA
  6
CONTINUOUS
 62
     7
 10
-24.625919999999962
 20
-89.042789999999982
 30
0.0
 11
-24.625919999999962
 21
-95.091240000000013
 31
0.0
  0
LINE
  5
281
  8
DATA
  6
CONTINUOUS
 62
     7
 10
-27.80356999999993
 20
-95.092759999999984
 30
0.0
 11
-28.228729999999949
 21
-89.042789999999982
 31
0.0
  0
LINE
  5
282
  8
DATA
  6
CONTINUOUS
 62
     7
 10
-28.333319999999961
 20
-95.092759999999984
 30
0.0
 11
-28.758460000000031
 21
-89.042789999999982
 31
0.0
  0
LINE
  5
283
  8
DATA
  6
CONTINUOUS
 62
     7
 10
-28.70324999999993
 20
-89.828249999999983
 30
0.0
 11
-29.173509999999968
 21
-89.828249999999983
 31
0.0
  0
LINE
  5
284
  8
DATA
  6
CONTINUOUS
 62
     7
 10
-28.379999999999889
 20
-94.428269999999983
 30
0.0
 11
-28.85026999999992
 21
-94.428269999999983
 31
0.0
  0
LINE
  5
285
  8
DATA
  6
CONTINUOUS
 62
     7
 10
-28.758460000000031
 20
-89.042789999999982
 30
0.0
 11
-28.228729999999949
 21
-89.042789999999982
 31
0.0
  0
LINE
  5
286
  8
DATA
  6
CONTINUOUS
 62
     7
 10
-28.333319999999961
 20
-95.092759999999984
 30
0.0
 11
-27.80356999999993
 21
-95.092759999999984
 31
0.0
  0
LINE
  5
287
  8
DATA
  6
CONTINUOUS
 62
     7
 10
-28.80359
 20
-95.092759999999984
 30
0.0
 11
-29.228729999999949
 21
-89.042789999999982
 31
0.0
  0
LINE
  5
288
  8
DATA
  6
CONTINUOUS
 62
     7
 10
-29.333319999999961
 20
-95.092759999999984
 30
0.0
 11
-29.758460000000031
 21
-89.042789999999982
 31
0.0
  0
LINE
  5
289
  8
DATA
  6
CONTINUOUS
 62
     7
 10
-29.758460000000031
 20
-89.042789999999982
 30
0.0
 11
-29.228729999999949
 21
-89.042789999999982
 31
0.0
  0
LINE
  5
28A
  8
DATA
  6
CONTINUOUS
 62
     7
 10
-29.333319999999961
 20
-95.092759999999984
 30
0.0
 11
-28.80359
 21
-95.092759999999984
 31
0.0
  0
LINE
  5
28B
  8
DATA
  6
CONTINUOUS
 62
     7
 10
-27.70324999999993
 20
-89.828249999999983
 30
0.0
 11
-28.173509999999968
 21
-89.828249999999983
 31
0.0
  0
LINE
  5
28C
  8
DATA
  6
CONTINUOUS
 62
     7
 10
-27.379999999999889
 20
-94.428269999999983
 30
0.0
 11
-27.85026999999992
 21
-94.428269999999983
 31
0.0
  0
LINE
  5
28D
  8
DATA
  6
CONTINUOUS
 62
     7
 10
-29.70324999999993
 20
-89.828249999999983
 30
0.0
 11
-30.173509999999968
 21
-89.828249999999983
 31
0.0
  0
LINE
  5
28E
  8
DATA
  6
CONTINUOUS
 62
     7
 10
-29.379999999999889
 20
-94.428269999999983
 30
0.0
 11
-29.85026999999992
 21
-94.428269999999983
 31
0.0
  0
LINE
  5
28F
  8
DATA
  6
CONTINUOUS
 62
     7
 10
-29.80359
 20
-95.092759999999984
 30
0.0
 11
-30.228729999999949
 21
-89.042789999999982
 31
0.0
  0
LINE
  5
290
  8
DATA
  6
CONTINUOUS
 62
     7
 10
-30.333319999999961
 20
-95.092759999999984
 30
0.0
 11
-30.758460000000031
 21
-89.042789999999982
 31
0.0
  0
LINE
  5
291
  8
DATA
  6
CONTINUOUS
 62
     7
 10
-30.758460000000031
 20
-89.042789999999982
 30
0.0
 11
-30.228729999999949
 21
-89.042789999999982
 31
0.0
  0
LINE
  5
292
  8
DATA
  6
CONTINUOUS
 62
     7
 10
-30.333319999999961
 20
-95.092759999999984
 30
0.0
 11
-29.80359
 21
-95.092759999999984
 31
0.0
  0
LINE
  5
293
  8
DATA
  6
CONTINUOUS
 62
     7
 10
-30.70324999999993
 20
-89.828249999999983
 30
0.0
 11
-31.173509999999968
 21
-89.828249999999983
 31
0.0
  0
LINE
  5
294
  8
DATA
  6
CONTINUOUS
 62
     7
 10
-30.379999999999889
 20
-94.428269999999983
 30
0.0
 11
-30.85026999999992
 21
-94.428269999999983
 31
0.0
  0
LINE
  5
295
  8
DATA
  6
CONTINUOUS
 62
     7
 10
-30.80359
 20
-95.092759999999984
 30
0.0
 11
-31.228729999999938
 21
-89.042789999999982
 31
0.0
  0
LINE
  5
296
  8
DATA
  6
CONTINUOUS
 62
     7
 10
-31.333319999999961
 20
-95.092759999999984
 30
0.0
 11
-31.758460000000031
 21
-89.042789999999982
 31
0.0
  0
LINE
  5
297
  8
DATA
  6
CONTINUOUS
 62
     7
 10
-31.758460000000031
 20
-89.042789999999982
 30
0.0
 11
-31.228729999999938
 21
-89.042789999999982
 31
0.0
  0
LINE
  5
298
  8
DATA
  6
CONTINUOUS
 62
     7
 10
-31.333319999999961
 20
-95.092759999999984
 30
0.0
 11
-30.80359
 21
-95.092759999999984
 31
0.0
  0
LINE
  5
299
  8
DATA
  6
CONTINUOUS
 62
     7
 10
-31.703249999999919
 20
-89.828249999999983
 30
0.0
 11
-32.173509999999979
 21
-89.828249999999983
 31
0.0
  0
LINE
  5
29A
  8
DATA
  6
CONTINUOUS
 62
     7
 10
-31.379999999999889
 20
-94.428269999999983
 30
0.0
 11
-31.85026999999992
 21
-94.428269999999983
 31
0.0
  0
LINE
  5
29B
  8
DATA
  6
CONTINUOUS
 62
     7
 10
-31.80359
 20
-95.092759999999984
 30
0.0
 11
-32.228729999999942
 21
-89.042789999999982
 31
0.0
  0
LINE
  5
29C
  8
DATA
  6
CONTINUOUS
 62
     7
 10
-32.333319999999958
 20
-95.092759999999984
 30
0.0
 11
-32.758460000000028
 21
-89.042789999999982
 31
0.0
  0
LINE
  5
29D
  8
DATA
  6
CONTINUOUS
 62
     7
 10
-32.758460000000028
 20
-89.042789999999982
 30
0.0
 11
-32.228729999999942
 21
-89.042789999999982
 31
0.0
  0
LINE
  5
29E
  8
DATA
  6
CONTINUOUS
 62
     7
 10
-32.333319999999958
 20
-95.092759999999984
 30
0.0
 11
-31.80359
 21
-95.092759999999984
 31
0.0
  0
LINE
  5
29F
  8
DATA
  6
CONTINUOUS
 62
     7
 10
-32.703249999999919
 20
-89.828249999999983
 30
0.0
 11
-33.173509999999979
 21
-89.828249999999983
 31
0.0
  0
LINE
  5
2A0
  8
DATA
  6
CONTINUOUS
 62
     7
 10
-32.379999999999889
 20
-94.428269999999983
 30
0.0
 11
-32.850269999999917
 21
-94.428269999999983
 31
0.0
  0
LINE
  5
2A1
  8
DATA
  6
CONTINUOUS
 62
     7
 10
-32.80359
 20
-95.092759999999984
 30
0.0
 11
-33.228729999999949
 21
-89.042789999999982
 31
0.0
  0
LINE
  5
2A2
  8
DATA
  6
CONTINUOUS
 62
     7
 10
-33.333319999999958
 20
-95.092759999999984
 30
0.0
 11
-33.758460000000028
 21
-89.042789999999982
 31
0.0
  0
LINE
  5
2A3
  8
DATA
  6
CONTINUOUS
 62
     7
 10
-33.758460000000028
 20
-89.042789999999982
 30
0.0
 11
-33.228729999999949
 21
-89.042789999999982
 31
0.0
  0
LINE
  5
2A4
  8
DATA
  6
CONTINUOUS
 62
     7
 10
-33.333319999999958
 20
-95.092759999999984
 30
0.0
 11
-32.80359
 21
-95.092759999999984
 31
0.0
  0
LINE
  5
2A5
  8
DATA
  6
CONTINUOUS
 62
     7
 10
-33.703249999999919
 20
-89.828249999999983
 30
0.0
 11
-34.173509999999979
 21
-89.828249999999983
 31
0.0
  0
LINE
  5
2A6
  8
DATA
  6
CONTINUOUS
 62
     7
 10
-33.379999999999889
 20
-94.428269999999983
 30
0.0
 11
-33.850269999999917
 21
-94.428269999999983
 31
0.0
  0
LINE
  5
2A7
  8
DATA
  6
CONTINUOUS
 62
     7
 10
-33.80359
 20
-95.092759999999984
 30
0.0
 11
-34.228729999999949
 21
-89.042789999999982
 31
0.0
  0
LINE
  5
2A8
  8
DATA
  6
CONTINUOUS
 62
     7
 10
-34.333319999999958
 20
-95.092759999999984
 30
0.0
 11
-34.758460000000028
 21
-89.042789999999982
 31
0.0
  0
LINE
  5
2A9
  8
DATA
  6
CONTINUOUS
 62
     7
 10
-34.758460000000028
 20
-89.042789999999982
 30
0.0
 11
-34.228729999999949
 21
-89.042789999999982
 31
0.0
  0
LINE
  5
2AA
  8
DATA
  6
CONTINUOUS
 62
     7
 10
-34.333319999999958
 20
-95.092759999999984
 30
0.0
 11
-33.80359
 21
-95.092759999999984
 31
0.0
  0
LINE
  5
2AB
  8
DATA
  6
CONTINUOUS
 62
     7
 10
-34.703249999999919
 20
-89.828249999999983
 30
0.0
 11
-35.173509999999972
 21
-89.828249999999983
 31
0.0
  0
LINE
  5
2AC
  8
DATA
  6
CONTINUOUS
 62
     7
 10
-34.379999999999889
 20
-94.428269999999983
 30
0.0
 11
-34.850269999999917
 21
-94.428269999999983
 31
0.0
  0
LINE
  5
2AD
  8
DATA
  6
CONTINUOUS
 62
     7
 10
-34.803589999999993
 20
-95.092759999999984
 30
0.0
 11
-35.228729999999949
 21
-89.042789999999982
 31
0.0
  0
LINE
  5
2AE
  8
DATA
  6
CONTINUOUS
 62
     7
 10
-35.333319999999958
 20
-95.092759999999984
 30
0.0
 11
-35.758460000000028
 21
-89.042789999999982
 31
0.0
  0
LINE
  5
2AF
  8
DATA
  6
CONTINUOUS
 62
     7
 10
-35.758460000000028
 20
-89.042789999999982
 30
0.0
 11
-35.228729999999949
 21
-89.042789999999982
 31
0.0
  0
LINE
  5
2B0
  8
DATA
  6
CONTINUOUS
 62
     7
 10
-35.333319999999958
 20
-95.092759999999984
 30
0.0
 11
-34.803589999999993
 21
-95.092759999999984
 31
0.0
  0
LINE
  5
2B1
  8
DATA
  6
CONTINUOUS
 62
     7
 10
-35.703249999999919
 20
-89.828249999999983
 30
0.0
 11
-36.173509999999972
 21
-89.828249999999983
 31
0.0
  0
LINE
  5
2B2
  8
DATA
  6
CONTINUOUS
 62
     7
 10
-35.379999999999903
 20
-94.428269999999983
 30
0.0
 11
-35.850269999999917
 21
-94.428269999999983
 31
0.0
  0
LINE
  5
2B3
  8
DATA
  6
CONTINUOUS
 62
     7
 10
-35.80359
 20
-95.092759999999984
 30
0.0
 11
-36.228729999999928
 21
-89.042789999999982
 31
0.0
  0
LINE
  5
2B4
  8
DATA
  6
CONTINUOUS
 62
     7
 10
-36.333319999999958
 20
-95.092759999999984
 30
0.0
 11
-36.758460000000021
 21
-89.042789999999982
 31
0.0
  0
LINE
  5
2B5
  8
DATA
  6
CONTINUOUS
 62
     7
 10
-36.758460000000021
 20
-89.042789999999982
 30
0.0
 11
-36.228729999999928
 21
-89.042789999999982
 31
0.0
  0
LINE
  5
2B6
  8
DATA
  6
CONTINUOUS
 62
     7
 10
-36.333319999999958
 20
-95.092759999999984
 30
0.0
 11
-35.80359
 21
-95.092759999999984
 31
0.0
  0
LINE
  5
2B7
  8
DATA
  6
CONTINUOUS
 62
     7
 10
-36.703249999999919
 20
-89.828249999999983
 30
0.0
 11
-37.173509999999979
 21
-89.828249999999983
 31
0.0
  0
LINE
  5
2B8
  8
DATA
  6
CONTINUOUS
 62
     7
 10
-36.379999999999903
 20
-94.428269999999983
 30
0.0
 11
-36.850269999999917
 21
-94.428269999999983
 31
0.0
  0
LINE
  5
2B9
  8
DATA
  6
CONTINUOUS
 62
     7
 10
-36.80359
 20
-95.092759999999984
 30
0.0
 11
-37.228729999999928
 21
-89.042789999999982
 31
0.0
  0
LINE
  5
2BA
  8
DATA
  6
CONTINUOUS
 62
     7
 10
-37.333319999999958
 20
-95.092759999999984
 30
0.0
 11
-37.758460000000021
 21
-89.042789999999982
 31
0.0
  0
LINE
  5
2BB
  8
DATA
  6
CONTINUOUS
 62
     7
 10
-37.758460000000021
 20
-89.042789999999982
 30
0.0
 11
-37.228729999999928
 21
-89.042789999999982
 31
0.0
  0
LINE
  5
2BC
  8
DATA
  6
CONTINUOUS
 62
     7
 10
-37.333319999999958
 20
-95.092759999999984
 30
0.0
 11
-36.80359
 21
-95.092759999999984
 31
0.0
  0
LINE
  5
2BD
  8
DATA
  6
CONTINUOUS
 62
     7
 10
-37.703249999999919
 20
-89.828249999999983
 30
0.0
 11
-38.173509999999979
 21
-89.828249999999983
 31
0.0
  0
LINE
  5
2BE
  8
DATA
  6
CONTINUOUS
 62
     7
 10
-37.379999999999903
 20
-94.428269999999983
 30
0.0
 11
-37.850259999999942
 21
-94.428269999999983
 31
0.0
  0
LINE
  5
2BF
  8
DATA
  6
CONTINUOUS
 62
     7
 10
-37.80359
 20
-95.092759999999984
 30
0.0
 11
-38.228729999999928
 21
-89.042789999999982
 31
0.0
  0
LINE
  5
2C0
  8
DATA
  6
CONTINUOUS
 62
     7
 10
-38.333319999999958
 20
-95.092759999999984
 30
0.0
 11
-38.758460000000021
 21
-89.042789999999982
 31
0.0
  0
LINE
  5
2C1
  8
DATA
  6
CONTINUOUS
 62
     7
 10
-38.758460000000021
 20
-89.042789999999982
 30
0.0
 11
-38.228729999999928
 21
-89.042789999999982
 31
0.0
  0
LINE
  5
2C2
  8
DATA
  6
CONTINUOUS
 62
     7
 10
-38.333319999999958
 20
-95.092759999999984
 30
0.0
 11
-37.80359
 21
-95.092759999999984
 31
0.0
  0
LINE
  5
2C3
  8
DATA
  6
CONTINUOUS
 62
     7
 10
-38.703249999999919
 20
-89.828249999999983
 30
0.0
 11
-39.173509999999979
 21
-89.828249999999983
 31
0.0
  0
LINE
  5
2C4
  8
DATA
  6
CONTINUOUS
 62
     7
 10
-38.379999999999903
 20
-94.428269999999983
 30
0.0
 11
-38.850259999999942
 21
-94.428269999999983
 31
0.0
  0
LINE
  5
2C5
  8
DATA
  6
CONTINUOUS
 62
     7
 10
-38.80359
 20
-95.092759999999984
 30
0.0
 11
-39.228729999999928
 21
-89.042789999999982
 31
0.0
  0
LINE
  5
2C6
  8
DATA
  6
CONTINUOUS
 62
     7
 10
-39.333319999999958
 20
-95.092759999999984
 30
0.0
 11
-39.758460000000021
 21
-89.042789999999982
 31
0.0
  0
LINE
  5
2C7
  8
DATA
  6
CONTINUOUS
 62
     7
 10
-39.758460000000021
 20
-89.042789999999982
 30
0.0
 11
-39.228729999999928
 21
-89.042789999999982
 31
0.0
  0
LINE
  5
2C8
  8
DATA
  6
CONTINUOUS
 62
     7
 10
-39.333319999999958
 20
-95.092759999999984
 30
0.0
 11
-38.80359
 21
-95.092759999999984
 31
0.0
  0
LINE
  5
2C9
  8
DATA
  6
CONTINUOUS
 62
     7
 10
-39.703249999999919
 20
-89.828249999999983
 30
0.0
 11
-40.173509999999972
 21
-89.828249999999983
 31
0.0
  0
LINE
  5
2CA
  8
DATA
  6
CONTINUOUS
 62
     7
 10
-39.379999999999903
 20
-94.428269999999983
 30
0.0
 11
-39.850259999999949
 21
-94.428269999999983
 31
0.0
  0
LINE
  5
2CB
  8
DATA
  6
CONTINUOUS
 62
     7
 10
-39.803589999999993
 20
-95.092759999999984
 30
0.0
 11
-40.228729999999928
 21
-89.042789999999982
 31
0.0
  0
LINE
  5
2CC
  8
DATA
  6
CONTINUOUS
 62
     7
 10
-40.333319999999972
 20
-95.092759999999984
 30
0.0
 11
-40.758460000000021
 21
-89.042789999999982
 31
0.0
  0
LINE
  5
2CD
  8
DATA
  6
CONTINUOUS
 62
     7
 10
-40.758460000000021
 20
-89.042789999999982
 30
0.0
 11
-40.228729999999928
 21
-89.042789999999982
 31
0.0
  0
LINE
  5
2CE
  8
DATA
  6
CONTINUOUS
 62
     7
 10
-40.333319999999972
 20
-95.092759999999984
 30
0.0
 11
-39.803589999999993
 21
-95.092759999999984
 31
0.0
  0
LINE
  5
2CF
  8
DATA
  6
CONTINUOUS
 62
     7
 10
-40.703249999999919
 20
-89.828249999999983
 30
0.0
 11
-41.173509999999979
 21
-89.828249999999983
 31
0.0
  0
LINE
  5
2D0
  8
DATA
  6
CONTINUOUS
 62
     7
 10
-40.379999999999903
 20
-94.428269999999983
 30
0.0
 11
-40.850259999999942
 21
-94.428269999999983
 31
0.0
  0
LINE
  5
2D1
  8
DATA
  6
CONTINUOUS
 62
     7
 10
-40.80359
 20
-95.092759999999984
 30
0.0
 11
-41.228729999999942
 21
-89.042789999999982
 31
0.0
  0
LINE
  5
2D2
  8
DATA
  6
CONTINUOUS
 62
     7
 10
-41.333319999999958
 20
-95.092759999999984
 30
0.0
 11
-41.758460000000021
 21
-89.042789999999982
 31
0.0
  0
LINE
  5
2D3
  8
DATA
  6
CONTINUOUS
 62
     7
 10
-41.758460000000021
 20
-89.042789999999982
 30
0.0
 11
-41.228729999999942
 21
-89.042789999999982
 31
0.0
  0
LINE
  5
2D4
  8
DATA
  6
CONTINUOUS
 62
     7
 10
-41.333319999999958
 20
-95.092759999999984
 30
0.0
 11
-40.80359
 21
-95.092759999999984
 31
0.0
  0
LINE
  5
2D5
  8
DATA
  6
CONTINUOUS
 62
     7
 10
-41.703249999999919
 20
-89.828249999999983
 30
0.0
 11
-42.173509999999979
 21
-89.828249999999983
 31
0.0
  0
LINE
  5
2D6
  8
DATA
  6
CONTINUOUS
 62
     7
 10
-41.379999999999903
 20
-94.428269999999983
 30
0.0
 11
-41.850259999999949
 21
-94.428269999999983
 31
0.0
  0
LINE
  5
2D7
  8
DATA
  6
CONTINUOUS
 62
     7
 10
-41.80359
 20
-95.092759999999984
 30
0.0
 11
-42.228729999999928
 21
-89.042789999999982
 31
0.0
  0
LINE
  5
2D8
  8
DATA
  6
CONTINUOUS
 62
     7
 10
-42.333319999999958
 20
-95.092759999999984
 30
0.0
 11
-42.758460000000021
 21
-89.042789999999982
 31
0.0
  0
LINE
  5
2D9
  8
DATA
  6
CONTINUOUS
 62
     7
 10
-42.758460000000021
 20
-89.042789999999982
 30
0.0
 11
-42.228729999999928
 21
-89.042789999999982
 31
0.0
  0
LINE
  5
2DA
  8
DATA
  6
CONTINUOUS
 62
     7
 10
-42.333319999999958
 20
-95.092759999999984
 30
0.0
 11
-41.80359
 21
-95.092759999999984
 31
0.0
  0
LINE
  5
2DB
  8
DATA
  6
CONTINUOUS
 62
     7
 10
-42.703249999999919
 20
-89.828249999999983
 30
0.0
 11
-43.173509999999972
 21
-89.828249999999983
 31
0.0
  0
LINE
  5
2DC
  8
DATA
  6
CONTINUOUS
 62
     7
 10
-42.379999999999903
 20
-94.428269999999983
 30
0.0
 11
-42.850259999999942
 21
-94.428269999999983
 31
0.0
  0
LINE
  5
2DD
  8
DATA
  6
CONTINUOUS
 62
     7
 10
-42.803589999999993
 20
-95.092759999999984
 30
0.0
 11
-43.228729999999928
 21
-89.042789999999982
 31
0.0
  0
LINE
  5
2DE
  8
DATA
  6
CONTINUOUS
 62
     7
 10
-43.333319999999972
 20
-95.092759999999984
 30
0.0
 11
-43.758460000000007
 21
-89.042789999999982
 31
0.0
  0
LINE
  5
2DF
  8
DATA
  6
CONTINUOUS
 62
     7
 10
-43.758460000000007
 20
-89.042789999999982
 30
0.0
 11
-43.228729999999928
 21
-89.042789999999982
 31
0.0
  0
LINE
  5
2E0
  8
DATA
  6
CONTINUOUS
 62
     7
 10
-43.333319999999972
 20
-95.092759999999984
 30
0.0
 11
-42.803589999999993
 21
-95.092759999999984
 31
0.0
  0
LINE
  5
2E1
  8
DATA
  6
CONTINUOUS
 62
     7
 10
-43.703249999999933
 20
-89.828249999999983
 30
0.0
 11
-44.173509999999979
 21
-89.828249999999983
 31
0.0
  0
LINE
  5
2E2
  8
DATA
  6
CONTINUOUS
 62
     7
 10
-43.379999999999889
 20
-94.428269999999983
 30
0.0
 11
-43.850259999999942
 21
-94.428269999999983
 31
0.0
  0
LINE
  5
2E3
  8
DATA
  6
CONTINUOUS
 62
     7
 10
-43.80359
 20
-95.092759999999984
 30
0.0
 11
-44.228729999999928
 21
-89.042789999999982
 31
0.0
  0
LINE
  5
2E4
  8
DATA
  6
CONTINUOUS
 62
     7
 10
-44.333319999999972
 20
-95.092759999999984
 30
0.0
 11
-44.758460000000021
 21
-89.042789999999982
 31
0.0
  0
LINE
  5
2E5
  8
DATA
  6
CONTINUOUS
 62
     7
 10
-44.758460000000021
 20
-89.042789999999982
 30
0.0
 11
-44.228729999999928
 21
-89.042789999999982
 31
0.0
  0
LINE
  5
2E6
  8
DATA
  6
CONTINUOUS
 62
     7
 10
-44.333319999999972
 20
-95.092759999999984
 30
0.0
 11
-43.80359
 21
-95.092759999999984
 31
0.0
  0
LINE
  5
2E7
  8
DATA
  6
CONTINUOUS
 62
     7
 10
-44.703249999999933
 20
-89.828249999999983
 30
0.0
 11
-45.173509999999972
 21
-89.828249999999983
 31
0.0
  0
LINE
  5
2E8
  8
DATA
  6
CONTINUOUS
 62
     7
 10
-44.379999999999889
 20
-94.428269999999983
 30
0.0
 11
-44.850259999999942
 21
-94.428269999999983
 31
0.0
  0
LINE
  5
2E9
  8
DATA
  6
CONTINUOUS
 62
     7
 10
-44.803589999999993
 20
-95.092759999999984
 30
0.0
 11
-45.228729999999928
 21
-89.042789999999982
 31
0.0
  0
LINE
  5
2EA
  8
DATA
  6
CONTINUOUS
 62
     7
 10
-45.333319999999972
 20
-95.092759999999984
 30
0.0
 11
-45.758460000000021
 21
-89.042789999999982
 31
0.0
  0
LINE
  5
2EB
  8
DATA
  6
CONTINUOUS
 62
     7
 10
-45.758460000000021
 20
-89.042789999999982
 30
0.0
 11
-45.228729999999928
 21
-89.042789999999982
 31
0.0
  0
LINE
  5
2EC
  8
DATA
  6
CONTINUOUS
 62
     7
 10
-45.333319999999972
 20
-95.092759999999984
 30
0.0
 11
-44.803589999999993
 21
-95.092759999999984
 31
0.0
  0
LINE
  5
2ED
  8
DATA
  6
CONTINUOUS
 62
     7
 10
-45.703249999999933
 20
-89.828249999999983
 30
0.0
 11
-46.173509999999979
 21
-89.828249999999983
 31
0.0
  0
LINE
  5
2EE
  8
DATA
  6
CONTINUOUS
 62
     7
 10
-45.379999999999889
 20
-94.428269999999983
 30
0.0
 11
-45.850259999999928
 21
-94.428269999999983
 31
0.0
  0
LINE
  5
2EF
  8
DATA
  6
CONTINUOUS
 62
     7
 10
-45.80359
 20
-95.092759999999984
 30
0.0
 11
-46.228729999999942
 21
-89.042789999999982
 31
0.0
  0
LINE
  5
2F0
  8
DATA
  6
CONTINUOUS
 62
     7
 10
-46.333309999999997
 20
-95.092759999999984
 30
0.0
 11
-46.758460000000021
 21
-89.042789999999982
 31
0.0
  0
LINE
  5
2F1
  8
DATA
  6
CONTINUOUS
 62
     7
 10
-46.758460000000021
 20
-89.042789999999982
 30
0.0
 11
-46.228729999999942
 21
-89.042789999999982
 31
0.0
  0
LINE
  5
2F2
  8
DATA
  6
CONTINUOUS
 62
     7
 10
-46.333309999999997
 20
-95.092759999999984
 30
0.0
 11
-45.80359
 21
-95.092759999999984
 31
0.0
  0
LINE
  5
2F3
  8
DATA
  6
CONTINUOUS
 62
     7
 10
-46.703249999999933
 20
-89.828249999999983
 30
0.0
 11
-47.173509999999979
 21
-89.828249999999983
 31
0.0
  0
LINE
  5
2F4
  8
DATA
  6
CONTINUOUS
 62
     7
 10
-46.379999999999903
 20
-94.428269999999983
 30
0.0
 11
-46.850259999999928
 21
-94.428269999999983
 31
0.0
  0
LINE
  5
2F5
  8
DATA
  6
CONTINUOUS
 62
     7
 10
-46.80359
 20
-95.092759999999984
 30
0.0
 11
-47.228729999999928
 21
-89.042789999999982
 31
0.0
  0
LINE
  5
2F6
  8
DATA
  6
CONTINUOUS
 62
     7
 10
-47.33330999999999
 20
-95.092759999999984
 30
0.0
 11
-47.758460000000021
 21
-89.042789999999982
 31
0.0
  0
LINE
  5
2F7
  8
DATA
  6
CONTINUOUS
 62
     7
 10
-47.758460000000021
 20
-89.042789999999982
 30
0.0
 11
-47.228729999999928
 21
-89.042789999999982
 31
0.0
  0
LINE
  5
2F8
  8
DATA
  6
CONTINUOUS
 62
     7
 10
-47.33330999999999
 20
-95.092759999999984
 30
0.0
 11
-46.80359
 21
-95.092759999999984
 31
0.0
  0
LINE
  5
2F9
  8
DATA
  6
CONTINUOUS
 62
     7
 10
-47.703249999999933
 20
-89.828249999999983
 30
0.0
 11
-48.173509999999979
 21
-89.828249999999983
 31
0.0
  0
LINE
  5
2FA
  8
DATA
  6
CONTINUOUS
 62
     7
 10
-47.379999999999889
 20
-94.428269999999983
 30
0.0
 11
-47.850259999999942
 21
-94.428269999999983
 31
0.0
  0
LINE
  5
2FB
  8
DATA
  6
CONTINUOUS
 62
     7
 10
-47.803589999999993
 20
-95.092759999999984
 30
0.0
 11
-48.228729999999942
 21
-89.042789999999982
 31
0.0
  0
LINE
  5
2FC
  8
DATA
  6
CONTINUOUS
 62
     7
 10
-48.333309999999997
 20
-95.092759999999984
 30
0.0
 11
-48.758460000000021
 21
-89.042789999999982
 31
0.0
  0
LINE
  5
2FD
  8
DATA
  6
CONTINUOUS
 62
     7
 10
-48.758460000000021
 20
-89.042789999999982
 30
0.0
 11
-48.228729999999942
 21
-89.042789999999982
 31
0.0
  0
LINE
  5
2FE
  8
DATA
  6
CONTINUOUS
 62
     7
 10
-48.333309999999997
 20
-95.092759999999984
 30
0.0
 11
-47.803589999999993
 21
-95.092759999999984
 31
0.0
  0
LINE
  5
2FF
  8
DATA
  6
CONTINUOUS
 62
     7
 10
-48.70324999999994
 20
-89.828249999999983
 30
0.0
 11
-49.173509999999979
 21
-89.828249999999983
 31
0.0
  0
LINE
  5
300
  8
DATA
  6
CONTINUOUS
 62
     7
 10
-48.379999999999903
 20
-94.428269999999983
 30
0.0
 11
-48.850259999999928
 21
-94.428269999999983
 31
0.0
  0
LINE
  5
301
  8
DATA
  6
CONTINUOUS
 62
     7
 10
-48.80359
 20
-95.092759999999984
 30
0.0
 11
-49.228729999999928
 21
-89.042789999999982
 31
0.0
  0
LINE
  5
302
  8
DATA
  6
CONTINUOUS
 62
     7
 10
-49.33330999999999
 20
-95.092759999999984
 30
0.0
 11
-49.758460000000021
 21
-89.042789999999982
 31
0.0
  0
LINE
  5
303
  8
DATA
  6
CONTINUOUS
 62
     7
 10
-49.758460000000021
 20
-89.042789999999982
 30
0.0
 11
-49.228729999999928
 21
-89.042789999999982
 31
0.0
  0
LINE
  5
304
  8
DATA
  6
CONTINUOUS
 62
     7
 10
-49.33330999999999
 20
-95.092759999999984
 30
0.0
 11
-48.80359
 21
-95.092759999999984
 31
0.0
  0
LINE
  5
305
  8
DATA
  6
CONTINUOUS
 62
     7
 10
-49.703249999999933
 20
-89.828249999999983
 30
0.0
 11
-50.173509999999972
 21
-89.828249999999983
 31
0.0
  0
LINE
  5
306
  8
DATA
  6
CONTINUOUS
 62
     7
 10
-49.379999999999889
 20
-94.428269999999983
 30
0.0
 11
-49.850259999999942
 21
-94.428269999999983
 31
0.0
  0
LINE
  5
307
  8
DATA
  6
CONTINUOUS
 62
     7
 10
-49.803589999999993
 20
-95.092759999999984
 30
0.0
 11
-50.228729999999928
 21
-89.042789999999982
 31
0.0
  0
LINE
  5
308
  8
DATA
  6
CONTINUOUS
 62
     7
 10
-50.333309999999997
 20
-95.092759999999984
 30
0.0
 11
-50.758460000000021
 21
-89.042789999999982
 31
0.0
  0
LINE
  5
309
  8
DATA
  6
CONTINUOUS
 62
     7
 10
-50.758460000000021
 20
-89.042789999999982
 30
0.0
 11
-50.228729999999928
 21
-89.042789999999982
 31
0.0
  0
LINE
  5
30A
  8
DATA
  6
CONTINUOUS
 62
     7
 10
-50.333309999999997
 20
-95.092759999999984
 30
0.0
 11
-49.803589999999993
 21
-95.092759999999984
 31
0.0
  0
LINE
  5
30B
  8
DATA
  6
CONTINUOUS
 62
     7
 10
-50.703249999999933
 20
-89.828249999999983
 30
0.0
 11
-51.173509999999979
 21
-89.828249999999983
 31
0.0
  0
LINE
  5
30C
  8
DATA
  6
CONTINUOUS
 62
     7
 10
-50.379999999999889
 20
-94.428269999999983
 30
0.0
 11
-50.850259999999928
 21
-94.428269999999983
 31
0.0
  0
LINE
  5
30D
  8
DATA
  6
CONTINUOUS
 62
     7
 10
-50.80359
 20
-95.092759999999984
 30
0.0
 11
-51.228729999999942
 21
-89.042789999999982
 31
0.0
  0
LINE
  5
30E
  8
DATA
  6
CONTINUOUS
 62
     7
 10
-51.333309999999997
 20
-95.092759999999984
 30
0.0
 11
-51.758460000000021
 21
-89.042789999999982
 31
0.0
  0
LINE
  5
30F
  8
DATA
  6
CONTINUOUS
 62
     7
 10
-51.758460000000021
 20
-89.042789999999982
 30
0.0
 11
-51.228729999999942
 21
-89.042789999999982
 31
0.0
  0
LINE
  5
310
  8
DATA
  6
CONTINUOUS
 62
     7
 10
-51.333309999999997
 20
-95.092759999999984
 30
0.0
 11
-50.80359
 21
-95.092759999999984
 31
0.0
  0
LINE
  5
311
  8
DATA
  6
CONTINUOUS
 62
     7
 10
-51.703299999999899
 20
-89.828249999999983
 30
0.0
 11
-52.173509999999979
 21
-89.828249999999983
 31
0.0
  0
LINE
  5
312
  8
DATA
  6
CONTINUOUS
 62
     7
 10
-51.379999999999903
 20
-94.428269999999983
 30
0.0
 11
-51.850259999999928
 21
-94.428269999999983
 31
0.0
  0
LINE
  5
313
  8
DATA
  6
CONTINUOUS
 62
     7
 10
-51.80359
 20
-95.092759999999984
 30
0.0
 11
-52.228729999999928
 21
-89.042789999999982
 31
0.0
  0
LINE
  5
314
  8
DATA
  6
CONTINUOUS
 62
     7
 10
-52.333339999999922
 20
-95.092759999999984
 30
0.0
 11
-52.758460000000021
 21
-89.042789999999982
 31
0.0
  0
LINE
  5
315
  8
DATA
  6
CONTINUOUS
 62
     7
 10
-52.758460000000021
 20
-89.042789999999982
 30
0.0
 11
-52.228729999999928
 21
-89.042789999999982
 31
0.0
  0
LINE
  5
316
  8
DATA
  6
CONTINUOUS
 62
     7
 10
-52.333339999999922
 20
-95.092759999999984
 30
0.0
 11
-51.80359
 21
-95.092759999999984
 31
0.0
  0
LINE
  5
317
  8
DATA
  6
CONTINUOUS
 62
     7
 10
-52.703299999999899
 20
-89.828249999999983
 30
0.0
 11
-53.173509999999979
 21
-89.828249999999983
 31
0.0
  0
LINE
  5
318
  8
DATA
  6
CONTINUOUS
 62
     7
 10
-52.380049999999997
 20
-94.428269999999983
 30
0.0
 11
-52.850259999999942
 21
-94.428269999999983
 31
0.0
  0
LINE
  5
319
  8
DATA
  6
CONTINUOUS
 62
     7
 10
-52.803580000000018
 20
-95.092759999999984
 30
0.0
 11
-53.228729999999942
 21
-89.042789999999982
 31
0.0
  0
LINE
  5
31A
  8
DATA
  6
CONTINUOUS
 62
     7
 10
-53.333339999999922
 20
-95.092759999999984
 30
0.0
 11
-53.758460000000021
 21
-89.042789999999982
 31
0.0
  0
LINE
  5
31B
  8
DATA
  6
CONTINUOUS
 62
     7
 10
-53.758460000000021
 20
-89.042789999999982
 30
0.0
 11
-53.228729999999942
 21
-89.042789999999982
 31
0.0
  0
LINE
  5
31C
  8
DATA
  6
CONTINUOUS
 62
     7
 10
-53.333339999999922
 20
-95.092759999999984
 30
0.0
 11
-52.803580000000018
 21
-95.092759999999984
 31
0.0
  0
LINE
  5
31D
  8
DATA
  6
CONTINUOUS
 62
     7
 10
-53.703299999999913
 20
-89.828249999999983
 30
0.0
 11
-54.173509999999979
 21
-89.828249999999983
 31
0.0
  0
LINE
  5
31E
  8
DATA
  6
CONTINUOUS
 62
     7
 10
-53.38004999999999
 20
-94.428269999999983
 30
0.0
 11
-53.850259999999928
 21
-94.428269999999983
 31
0.0
  0
LINE
  5
31F
  8
DATA
  6
CONTINUOUS
 62
     7
 10
-53.803580000000011
 20
-95.092759999999984
 30
0.0
 11
-54.228729999999928
 21
-89.042789999999982
 31
0.0
  0
LINE
  5
320
  8
DATA
  6
CONTINUOUS
 62
     7
 10
-54.333339999999922
 20
-95.092759999999984
 30
0.0
 11
-54.758460000000021
 21
-89.042789999999982
 31
0.0
  0
LINE
  5
321
  8
DATA
  6
CONTINUOUS
 62
     7
 10
-54.758460000000021
 20
-89.042789999999982
 30
0.0
 11
-54.228729999999928
 21
-89.042789999999982
 31
0.0
  0
LINE
  5
322
  8
DATA
  6
CONTINUOUS
 62
     7
 10
-54.333339999999922
 20
-95.092759999999984
 30
0.0
 11
-53.803580000000011
 21
-95.092759999999984
 31
0.0
  0
LINE
  5
323
  8
DATA
  6
CONTINUOUS
 62
     7
 10
-54.703299999999899
 20
-89.828249999999983
 30
0.0
 11
-55.173509999999972
 21
-89.828249999999983
 31
0.0
  0
LINE
  5
324
  8
DATA
  6
CONTINUOUS
 62
     7
 10
-54.380049999999997
 20
-94.428269999999983
 30
0.0
 11
-54.850259999999942
 21
-94.428269999999983
 31
0.0
  0
LINE
  5
325
  8
DATA
  6
CONTINUOUS
 62
     7
 10
-54.803580000000018
 20
-95.092759999999984
 30
0.0
 11
-55.228729999999928
 21
-89.042789999999982
 31
0.0
  0
LINE
  5
326
  8
DATA
  6
CONTINUOUS
 62
     7
 10
-55.333339999999922
 20
-95.092759999999984
 30
0.0
 11
-55.758460000000021
 21
-89.042789999999982
 31
0.0
  0
LINE
  5
327
  8
DATA
  6
CONTINUOUS
 62
     7
 10
-55.758460000000021
 20
-89.042789999999982
 30
0.0
 11
-55.228729999999928
 21
-89.042789999999982
 31
0.0
  0
LINE
  5
328
  8
DATA
  6
CONTINUOUS
 62
     7
 10
-55.333339999999922
 20
-95.092759999999984
 30
0.0
 11
-54.803580000000018
 21
-95.092759999999984
 31
0.0
  0
LINE
  5
329
  8
DATA
  6
CONTINUOUS
 62
     7
 10
-55.703299999999913
 20
-89.828249999999983
 30
0.0
 11
-56.173499999999898
 21
-89.828249999999983
 31
0.0
  0
LINE
  5
32A
  8
DATA
  6
CONTINUOUS
 62
     7
 10
-55.380049999999997
 20
-94.428269999999983
 30
0.0
 11
-55.850259999999928
 21
-94.428269999999983
 31
0.0
  0
LINE
  5
32B
  8
DATA
  6
CONTINUOUS
 62
     7
 10
-55.803580000000018
 20
-95.092759999999984
 30
0.0
 11
-56.228729999999942
 21
-89.042789999999982
 31
0.0
  0
LINE
  5
32C
  8
DATA
  6
CONTINUOUS
 62
     7
 10
-56.333339999999922
 20
-95.092759999999984
 30
0.0
 11
-56.758460000000021
 21
-89.042789999999982
 31
0.0
  0
LINE
  5
32D
  8
DATA
  6
CONTINUOUS
 62
     7
 10
-56.758460000000021
 20
-89.042789999999982
 30
0.0
 11
-56.228729999999942
 21
-89.042789999999982
 31
0.0
  0
LINE
  5
32E
  8
DATA
  6
CONTINUOUS
 62
     7
 10
-56.333339999999922
 20
-95.092759999999984
 30
0.0
 11
-55.803580000000018
 21
-95.092759999999984
 31
0.0
  0
LINE
  5
32F
  8
DATA
  6
CONTINUOUS
 62
     7
 10
-56.703299999999899
 20
-89.828249999999983
 30
0.0
 11
-57.173499999999891
 21
-89.828249999999983
 31
0.0
  0
LINE
  5
330
  8
DATA
  6
CONTINUOUS
 62
     7
 10
-56.38004999999999
 20
-94.428269999999983
 30
0.0
 11
-56.850259999999928
 21
-94.428269999999983
 31
0.0
  0
LINE
  5
331
  8
DATA
  6
CONTINUOUS
 62
     7
 10
-56.803580000000011
 20
-95.092759999999984
 30
0.0
 11
-57.228729999999928
 21
-89.042789999999982
 31
0.0
  0
LINE
  5
332
  8
DATA
  6
CONTINUOUS
 62
     7
 10
-57.333339999999922
 20
-95.092759999999984
 30
0.0
 11
-57.758449999999932
 21
-89.042789999999982
 31
0.0
  0
LINE
  5
333
  8
DATA
  6
CONTINUOUS
 62
     7
 10
-57.758449999999932
 20
-89.042789999999982
 30
0.0
 11
-57.228729999999928
 21
-89.042789999999982
 31
0.0
  0
LINE
  5
334
  8
DATA
  6
CONTINUOUS
 62
     7
 10
-57.333339999999922
 20
-95.092759999999984
 30
0.0
 11
-56.803580000000011
 21
-95.092759999999984
 31
0.0
  0
LINE
  5
335
  8
DATA
  6
CONTINUOUS
 62
     7
 10
-57.703299999999899
 20
-89.828249999999983
 30
0.0
 11
-58.173499999999898
 21
-89.828249999999983
 31
0.0
  0
LINE
  5
336
  8
DATA
  6
CONTINUOUS
 62
     7
 10
-57.380049999999997
 20
-94.428269999999983
 30
0.0
 11
-57.850259999999942
 21
-94.428269999999983
 31
0.0
  0
LINE
  5
337
  8
DATA
  6
CONTINUOUS
 62
     7
 10
-57.803580000000018
 20
-95.092759999999984
 30
0.0
 11
-58.228729999999942
 21
-89.042789999999982
 31
0.0
  0
LINE
  5
338
  8
DATA
  6
CONTINUOUS
 62
     7
 10
-58.333339999999922
 20
-95.092759999999984
 30
0.0
 11
-58.758449999999932
 21
-89.042789999999982
 31
0.0
  0
LINE
  5
339
  8
DATA
  6
CONTINUOUS
 62
     7
 10
-58.758449999999932
 20
-89.042789999999982
 30
0.0
 11
-58.228729999999942
 21
-89.042789999999982
 31
0.0
  0
LINE
  5
33A
  8
DATA
  6
CONTINUOUS
 62
     7
 10
-58.333339999999922
 20
-95.092759999999984
 30
0.0
 11
-57.803580000000018
 21
-95.092759999999984
 31
0.0
  0
LINE
  5
33B
  8
DATA
  6
CONTINUOUS
 62
     7
 10
-58.703299999999913
 20
-89.828249999999983
 30
0.0
 11
-59.173499999999898
 21
-89.828249999999983
 31
0.0
  0
LINE
  5
33C
  8
DATA
  6
CONTINUOUS
 62
     7
 10
-58.38004999999999
 20
-94.428269999999983
 30
0.0
 11
-58.850259999999928
 21
-94.428269999999983
 31
0.0
  0
LINE
  5
33D
  8
DATA
  6
CONTINUOUS
 62
     7
 10
-58.803580000000011
 20
-95.092759999999984
 30
0.0
 11
-59.228729999999928
 21
-89.042789999999982
 31
0.0
  0
LINE
  5
33E
  8
DATA
  6
CONTINUOUS
 62
     7
 10
-59.333339999999922
 20
-95.092759999999984
 30
0.0
 11
-59.758449999999932
 21
-89.042789999999982
 31
0.0
  0
LINE
  5
33F
  8
DATA
  6
CONTINUOUS
 62
     7
 10
-59.758449999999932
 20
-89.042789999999982
 30
0.0
 11
-59.228729999999928
 21
-89.042789999999982
 31
0.0
  0
LINE
  5
340
  8
DATA
  6
CONTINUOUS
 62
     7
 10
-59.333339999999922
 20
-95.092759999999984
 30
0.0
 11
-58.803580000000011
 21
-95.092759999999984
 31
0.0
  0
LINE
  5
341
  8
DATA
  6
CONTINUOUS
 62
     7
 10
-64.62407999999995
 20
-96.567750000000004
 30
0.0
 11
-64.62407999999995
 21
-87.567749999999975
 31
0.0
  0
LINE
  5
342
  8
DATA
  6
CONTINUOUS
 62
     7
 10
-64.62407999999995
 20
-87.567749999999975
 30
0.0
 11
-68.916629999999955
 21
-87.567749999999975
 31
0.0
  0
LINE
  5
343
  8
DATA
  6
CONTINUOUS
 62
     7
 10
-64.62407999999995
 20
-96.567750000000004
 30
0.0
 11
-68.917699999999982
 21
-96.567750000000004
 31
0.0
  0
LINE
  5
344
  8
DATA
  6
CONTINUOUS
 62
     7
 10
-75.624059999999872
 20
-88.417779999999965
 30
0.0
 11
-70.329769999999954
 21
-87.667779999999979
 31
0.0
  0
LINE
  5
345
  8
DATA
  6
CONTINUOUS
 62
     7
 10
-75.624059999999872
 20
-95.717759999999984
 30
0.0
 11
-70.331199999999981
 21
-96.467669999999998
 31
0.0
  0
LINE
  5
346
  8
DATA
  6
CONTINUOUS
 62
     7
 10
-136.12590999999989
 20
-88.417779999999965
 30
0.0
 11
-75.624059999999872
 21
-88.417779999999965
 31
0.0
  0
LINE
  5
347
  8
DATA
  6
CONTINUOUS
 62
     7
 10
-136.12590999999989
 20
-95.717759999999984
 30
0.0
 11
-75.624059999999872
 21
-95.717759999999984
 31
0.0
  0
LINE
  5
348
  8
DATA
  6
CONTINUOUS
 62
     7
 10
-139.62590999999989
 20
-88.717759999999998
 30
0.0
 11
-136.12590999999989
 21
-88.417779999999965
 31
0.0
  0
LINE
  5
349
  8
DATA
  6
CONTINUOUS
 62
     7
 10
-139.62590999999989
 20
-95.417779999999979
 30
0.0
 11
-136.12590999999989
 21
-95.717759999999984
 31
0.0
  0
LINE
  5
34A
  8
DATA
  6
CONTINUOUS
 62
     7
 10
-68.916629999999955
 20
-87.567749999999975
 30
0.0
 11
-70.329769999999954
 21
-87.667779999999979
 31
0.0
  0
LINE
  5
34B
  8
DATA
  6
CONTINUOUS
 62
     7
 10
-68.917699999999982
 20
-96.567750000000004
 30
0.0
 11
-70.331199999999981
 21
-96.467669999999998
 31
0.0
  0
LINE
  5
34C
  8
DATA
  6
CONTINUOUS
 62
     7
 10
-64.62407999999995
 20
-95.567750000000004
 30
0.0
 11
-68.917699999999982
 21
-95.567750000000004
 31
0.0
  0
LINE
  5
34D
  8
DATA
  6
CONTINUOUS
 62
     7
 10
-64.62407999999995
 20
-94.567750000000004
 30
0.0
 11
-68.917699999999982
 21
-94.567750000000004
 31
0.0
  0
LINE
  5
34E
  8
DATA
  6
CONTINUOUS
 62
     7
 10
-68.917699999999982
 20
-95.567750000000004
 30
0.0
 11
-68.917699999999982
 21
-96.567750000000004
 31
0.0
  0
LINE
  5
34F
  8
DATA
  6
CONTINUOUS
 62
     7
 10
-68.917699999999982
 20
-94.567750000000004
 30
0.0
 11
-68.916629999999955
 21
-87.567749999999975
 31
0.0
  0
LINE
  5
350
  8
DATA
  6
CONTINUOUS
 62
     7
 10
-139.62590999999989
 20
-94.417789999999997
 30
0.0
 11
-136.12590999999989
 21
-94.417789999999997
 31
0.0
  0
LINE
  5
351
  8
DATA
  6
CONTINUOUS
 62
     7
 10
-136.12590999999989
 20
-95.717759999999984
 30
0.0
 11
-136.12590999999989
 21
-94.417789999999997
 31
0.0
  0
LINE
  5
352
  8
DATA
  6
CONTINUOUS
 62
     7
 10
-136.12590999999989
 20
-93.417789999999997
 30
0.0
 11
-136.12590999999989
 21
-88.417779999999965
 31
0.0
  0
LINE
  5
353
  8
DATA
  6
CONTINUOUS
 62
     7
 10
-139.62590999999989
 20
-93.417789999999997
 30
0.0
 11
-136.12590999999989
 21
-93.417789999999997
 31
0.0
  0
LINE
  5
354
  8
DATA
  6
CONTINUOUS
 62
     7
 10
-26.80356999999993
 20
-95.092759999999984
 30
0.0
 11
-27.228709999999989
 21
-89.042789999999982
 31
0.0
  0
LINE
  5
355
  8
DATA
  6
CONTINUOUS
 62
     7
 10
-27.333310000000001
 20
-95.092759999999984
 30
0.0
 11
-27.758449999999929
 21
-89.042789999999982
 31
0.0
  0
LINE
  5
356
  8
DATA
  6
CONTINUOUS
 62
     7
 10
-27.758449999999929
 20
-89.042789999999982
 30
0.0
 11
-27.228709999999989
 21
-89.042789999999982
 31
0.0
  0
LINE
  5
357
  8
DATA
  6
CONTINUOUS
 62
     7
 10
-27.333310000000001
 20
-95.092759999999984
 30
0.0
 11
-26.80356999999993
 21
-95.092759999999984
 31
0.0
  0
LINE
  5
358
  8
DATA
  6
CONTINUOUS
 62
     7
 10
-26.703249999999919
 20
-89.828249999999983
 30
0.0
 11
-27.173509999999968
 21
-89.828249999999983
 31
0.0
  0
LINE
  5
359
  8
DATA
  6
CONTINUOUS
 62
     7
 10
-26.379999999999889
 20
-94.428269999999983
 30
0.0
 11
-26.85026999999992
 21
-94.428269999999983
 31
0.0
  0
LINE
  5
35A
  8
DATA
  6
CONTINUOUS
 62
     7
 10
-25.80356999999993
 20
-95.092759999999984
 30
0.0
 11
-26.228709999999989
 21
-89.042789999999982
 31
0.0
  0
LINE
  5
35B
  8
DATA
  6
CONTINUOUS
 62
     7
 10
-26.333310000000001
 20
-95.092759999999984
 30
0.0
 11
-26.758449999999929
 21
-89.042789999999982
 31
0.0
  0
LINE
  5
35C
  8
DATA
  6
CONTINUOUS
 62
     7
 10
-26.758449999999929
 20
-89.042789999999982
 30
0.0
 11
-26.228709999999989
 21
-89.042789999999982
 31
0.0
  0
LINE
  5
35D
  8
DATA
  6
CONTINUOUS
 62
     7
 10
-26.333310000000001
 20
-95.092759999999984
 30
0.0
 11
-25.80356999999993
 21
-95.092759999999984
 31
0.0
  0
LINE
  5
35E
  8
DATA
  6
CONTINUOUS
 62
     7
 10
-25.70324999999993
 20
-89.828249999999983
 30
0.0
 11
-26.173509999999968
 21
-89.828249999999983
 31
0.0
  0
LINE
  5
35F
  8
DATA
  6
CONTINUOUS
 62
     7
 10
-25.379999999999889
 20
-94.428269999999983
 30
0.0
 11
-25.85026999999992
 21
-94.428269999999983
 31
0.0
  0
LINE
  5
360
  8
DATA
  6
CONTINUOUS
 62
     7
 10
-24.80356999999993
 20
-95.092759999999984
 30
0.0
 11
-25.228709999999982
 21
-89.042789999999982
 31
0.0
  0
LINE
  5
361
  8
DATA
  6
CONTINUOUS
 62
     7
 10
-25.333310000000001
 20
-95.092759999999984
 30
0.0
 11
-25.758449999999929
 21
-89.042789999999982
 31
0.0
  0
LINE
  5
362
  8
DATA
  6
CONTINUOUS
 62
     7
 10
-25.758449999999929
 20
-89.042789999999982
 30
0.0
 11
-25.228709999999982
 21
-89.042789999999982
 31
0.0
  0
LINE
  5
363
  8
DATA
  6
CONTINUOUS
 62
     7
 10
-25.333310000000001
 20
-95.092759999999984
 30
0.0
 11
-24.80356999999993
 21
-95.092759999999984
 31
0.0
  0
LINE
  5
364
  8
DATA
  6
CONTINUOUS
 62
     7
 10
-24.70324999999993
 20
-89.828249999999983
 30
0.0
 11
-25.173509999999968
 21
-89.828249999999983
 31
0.0
  0
LINE
  5
365
  8
DATA
  6
CONTINUOUS
 62
     7
 10
-24.625919999999962
 20
-94.428269999999983
 30
0.0
 11
-24.85026999999992
 21
-94.428269999999983
 31
0.0
  0
LINE
  5
366
  8
DATA
  6
CONTINUOUS
 62
     7
 10
-24.625919999999962
 20
-90.929069999999996
 30
0.0
 11
-24.758449999999929
 21
-89.042789999999982
 31
0.0
  0
LINE
  5
367
  8
DATA
  6
CONTINUOUS
 62
     7
 10
-24.758449999999929
 20
-89.042789999999982
 30
0.0
 11
-24.625919999999962
 21
-89.042789999999982
 31
0.0
  0
LINE
  5
368
  8
DATA
  6
CONTINUOUS
 62
     7
 10
-139.62590999999989
 20
-95.417779999999979
 30
0.0
 11
-139.62590999999989
 21
-88.717759999999998
 31
0.0
  0
LINE
  5
369
  8
DATA
  6
CONTINUOUS
 62
     7
 10
-192.62591999999989
 20
-97.464250000000021
 30
0.0
 11
-192.62591999999989
 21
-86.664239999999964
 31
0.0
  0
LINE
  5
36A
  8
DATA
  6
CONTINUOUS
 62
     7
 10
-192.6268
 20
-95.564229999999981
 30
0.0
 11
-192.47676000000001
 21
-95.564229999999981
 31
0.0
  0
LINE
  5
36B
  8
DATA
  6
CONTINUOUS
 62
     7
 10
-192.47676000000001
 20
-95.564229999999981
 30
0.0
 11
-192.47676000000001
 21
-88.564229999999966
 31
0.0
  0
LINE
  5
36C
  8
DATA
  6
CONTINUOUS
 62
     7
 10
-192.47676000000001
 20
-88.564229999999966
 30
0.0
 11
-192.6268
 21
-88.564229999999966
 31
0.0
  0
LINE
  5
36D
  8
DATA
  6
CONTINUOUS
 62
     7
 10
-173.6268
 20
-95.714240000000004
 30
0.0
 11
-173.6268
 21
-88.414249999999996
 31
0.0
  0
LINE
  5
36E
  8
DATA
  6
CONTINUOUS
 62
     7
 10
-173.6268
 20
-88.414249999999996
 30
0.0
 11
-176.53221999999991
 21
-88.414249999999996
 31
0.0
  0
LINE
  5
36F
  8
DATA
  6
CONTINUOUS
 62
     7
 10
-173.6268
 20
-95.714240000000004
 30
0.0
 11
-176.4985099999999
 21
-95.714240000000004
 31
0.0
  0
LINE
  5
370
  8
DATA
  6
CONTINUOUS
 62
     7
 10
-177.5758899999999
 20
-88.327010000000001
 30
0.0
 11
-177.5758899999999
 21
-95.807249999999996
 31
0.0
  0
LINE
  5
371
  8
DATA
  6
CONTINUOUS
 62
     7
 10
-183.06170999999989
 20
-97.619749999999996
 30
0.0
 11
-178.6373999999999
 21
-96.082970000000003
 31
0.0
  0
POLYLINE
  5
372
  8
DATA
  6
CONTINUOUS
 62
     7
 66
     1
 10
0.0
 20
0.0
 30
0.0
 70
   128
  0
VERTEX
  5
851
  8
DATA
  6
CONTINUOUS
 62
     7
 10
-177.7405599999999
 20
-88.411909999999963
 30
0.0
  0
VERTEX
  5
852
  8
DATA
  6
CONTINUOUS
 62
     7
 10
-177.7192085937499
 20
-88.412472499999964
 30
0.0
  0
VERTEX
  5
853
  8
DATA
  6
CONTINUOUS
 62
     7
 10
-177.69781937499991
 20
-88.412959999999984
 30
0.0
  0
VERTEX
  5
854
  8
DATA
  6
CONTINUOUS
 62
     7
 10
-177.67639234374991
 20
-88.41337249999998
 30
0.0
  0
VERTEX
  5
855
  8
DATA
  6
CONTINUOUS
 62
     7
 10
-177.65492750000001
 20
-88.41370999999998
 30
0.0
  0
VERTEX
  5
856
  8
DATA
  6
CONTINUOUS
 62
     7
 10
-177.63342484374991
 20
-88.413972499999986
 30
0.0
  0
VERTEX
  5
857
  8
DATA
  6
CONTINUOUS
 62
     7
 10
-177.6118843749999
 20
-88.414159999999981
 30
0.0
  0
VERTEX
  5
858
  8
DATA
  6
CONTINUOUS
 62
     7
 10
-177.59030609374989
 20
-88.414272499999981
 30
0.0
  0
VERTEX
  5
859
  8
DATA
  6
CONTINUOUS
 62
     7
 10
-177.56868999999989
 20
-88.41431
 30
0.0
  0
VERTEX
  5
85A
  8
DATA
  6
CONTINUOUS
 62
     7
 10
-177.56868999999989
 20
-88.41431
 30
0.0
  0
SEQEND
  5
85B
  8
DATA
  6
CONTINUOUS
 62
     7
  0
POLYLINE
  5
37E
  8
DATA
  6
CONTINUOUS
 62
     7
 66
     1
 10
0.0
 20
0.0
 30
0.0
 70
   128
  0
VERTEX
  5
85C
  8
DATA
  6
CONTINUOUS
 62
     7
 10
-177.5679199999999
 20
-95.714240000000004
 30
0.0
  0
VERTEX
  5
85D
  8
DATA
  6
CONTINUOUS
 62
     7
 10
-177.59094374999989
 20
-95.714282343749957
 30
0.0
  0
VERTEX
  5
85E
  8
DATA
  6
CONTINUOUS
 62
     7
 10
-177.61392499999991
 20
-95.714409375000002
 30
0.0
  0
VERTEX
  5
85F
  8
DATA
  6
CONTINUOUS
 62
     7
 10
-177.63686374999989
 20
-95.714621093749997
 30
0.0
  0
VERTEX
  5
860
  8
DATA
  6
CONTINUOUS
 62
     7
 10
-177.65975999999989
 20
-95.714917499999984
 30
0.0
  0
VERTEX
  5
861
  8
DATA
  6
CONTINUOUS
 62
     7
 10
-177.68261374999989
 20
-95.715298593750006
 30
0.0
  0
VERTEX
  5
862
  8
DATA
  6
CONTINUOUS
 62
     7
 10
-177.70542499999991
 20
-95.715764375000006
 30
0.0
  0
VERTEX
  5
863
  8
DATA
  6
CONTINUOUS
 62
     7
 10
-177.72819374999989
 20
-95.716314843749998
 30
0.0
  0
VERTEX
  5
864
  8
DATA
  6
CONTINUOUS
 62
     7
 10
-177.75091999999989
 20
-95.716949999999997
 30
0.0
  0
VERTEX
  5
865
  8
DATA
  6
CONTINUOUS
 62
     7
 10
-177.75091999999989
 20
-95.716949999999997
 30
0.0
  0
SEQEND
  5
866
  8
DATA
  6
CONTINUOUS
 62
     7
  0
LINE
  5
38A
  8
DATA
  6
CONTINUOUS
 62
     7
 10
-177.5758899999999
 20
-88.864249999999998
 30
0.0
 11
-173.6268
 21
-88.864249999999998
 31
0.0
  0
LINE
  5
38B
  8
DATA
  6
CONTINUOUS
 62
     7
 10
-177.5758899999999
 20
-95.264249999999961
 30
0.0
 11
-173.6268
 21
-95.264249999999961
 31
0.0
  0
LINE
  5
38C
  8
DATA
  6
CONTINUOUS
 62
     7
 10
-177.5758899999999
 20
-88.414249999999996
 30
0.0
 11
-177.5722899999999
 21
-88.327629999999985
 31
0.0
  0
LINE
  5
38D
  8
DATA
  6
CONTINUOUS
 62
     7
 10
-177.5758899999999
 20
-95.714240000000004
 30
0.0
 11
-177.5719299999999
 21
-95.80659999999996
 31
0.0
  0
LINE
  5
38E
  8
DATA
  6
CONTINUOUS
 62
     7
 10
-171.8441499999999
 20
-95.089240000000004
 30
0.0
 11
-172.2692899999999
 21
-89.039249999999996
 31
0.0
  0
LINE
  5
38F
  8
DATA
  6
CONTINUOUS
 62
     7
 10
-172.33480999999989
 20
-95.089240000000004
 30
0.0
 11
-172.7599499999998
 21
-89.039249999999996
 31
0.0
  0
LINE
  5
390
  8
DATA
  6
CONTINUOUS
 62
     7
 10
-171.7047399999999
 20
-89.824709999999982
 30
0.0
 11
-172.21405999999999
 21
-89.824709999999982
 31
0.0
  0
LINE
  5
391
  8
DATA
  6
CONTINUOUS
 62
     7
 10
-171.3814999999999
 20
-94.424749999999989
 30
0.0
 11
-171.89084999999989
 21
-94.424749999999989
 31
0.0
  0
LINE
  5
392
  8
DATA
  6
STYLE_02
 62
     7
 10
-172.33480999999989
 20
-95.089240000000004
 30
0.0
 11
-171.8441499999999
 21
-95.089240000000004
 31
0.0
  0
LINE
  5
393
  8
DATA
  6
CONTINUOUS
 62
     7
 10
-172.7599499999998
 20
-89.039249999999996
 30
0.0
 11
-172.2692899999999
 21
-89.039249999999996
 31
0.0
  0
LINE
  5
394
  8
DATA
  6
CONTINUOUS
 62
     7
 10
-170.8441499999999
 20
-95.089240000000004
 30
0.0
 11
-171.2692899999999
 21
-89.039249999999996
 31
0.0
  0
LINE
  5
395
  8
DATA
  6
CONTINUOUS
 62
     7
 10
-171.33480999999989
 20
-95.089240000000004
 30
0.0
 11
-171.7599499999998
 21
-89.039249999999996
 31
0.0
  0
LINE
  5
396
  8
DATA
  6
STYLE_02
 62
     7
 10
-171.33480999999989
 20
-95.089240000000004
 30
0.0
 11
-170.8441499999999
 21
-95.089240000000004
 31
0.0
  0
LINE
  5
397
  8
DATA
  6
CONTINUOUS
 62
     7
 10
-171.7599499999998
 20
-89.039249999999996
 30
0.0
 11
-171.2692899999999
 21
-89.039249999999996
 31
0.0
  0
LINE
  5
398
  8
DATA
  6
CONTINUOUS
 62
     7
 10
-172.8441499999999
 20
-95.089240000000004
 30
0.0
 11
-173.2692899999999
 21
-89.039249999999996
 31
0.0
  0
LINE
  5
399
  8
DATA
  6
CONTINUOUS
 62
     7
 10
-173.33480999999989
 20
-95.089240000000004
 30
0.0
 11
-173.6268
 21
-90.933949999999996
 31
0.0
  0
LINE
  5
39A
  8
DATA
  6
CONTINUOUS
 62
     7
 10
-172.7047399999999
 20
-89.824709999999982
 30
0.0
 11
-173.21405999999999
 21
-89.824709999999982
 31
0.0
  0
LINE
  5
39B
  8
DATA
  6
CONTINUOUS
 62
     7
 10
-172.3814999999999
 20
-94.424749999999989
 30
0.0
 11
-172.89085
 21
-94.424749999999989
 31
0.0
  0
LINE
  5
39C
  8
DATA
  6
STYLE_02
 62
     7
 10
-173.33480999999989
 20
-95.089240000000004
 30
0.0
 11
-172.8441499999999
 21
-95.089240000000004
 31
0.0
  0
LINE
  5
39D
  8
DATA
  6
CONTINUOUS
 62
     7
 10
-173.6268
 20
-89.039249999999996
 30
0.0
 11
-173.2692899999999
 21
-89.039249999999996
 31
0.0
  0
LINE
  5
39E
  8
DATA
  6
CONTINUOUS
 62
     7
 10
-173.3814999999999
 20
-94.424749999999989
 30
0.0
 11
-173.6268
 21
-94.424749999999989
 31
0.0
  0
LINE
  5
39F
  8
DATA
  6
CONTINUOUS
 62
     7
 10
-170.7047399999999
 20
-89.824709999999982
 30
0.0
 11
-171.21405999999999
 21
-89.824709999999982
 31
0.0
  0
LINE
  5
3A0
  8
DATA
  6
CONTINUOUS
 62
     7
 10
-170.3814999999999
 20
-94.424749999999989
 30
0.0
 11
-170.89084999999989
 21
-94.424749999999989
 31
0.0
  0
LINE
  5
3A1
  8
DATA
  6
CONTINUOUS
 62
     7
 10
-169.8441499999999
 20
-95.089240000000004
 30
0.0
 11
-170.2692899999999
 21
-89.039249999999996
 31
0.0
  0
LINE
  5
3A2
  8
DATA
  6
CONTINUOUS
 62
     7
 10
-170.33480999999989
 20
-95.089240000000004
 30
0.0
 11
-170.7599499999998
 21
-89.039249999999996
 31
0.0
  0
LINE
  5
3A3
  8
DATA
  6
STYLE_02
 62
     7
 10
-170.33480999999989
 20
-95.089240000000004
 30
0.0
 11
-169.8441499999999
 21
-95.089240000000004
 31
0.0
  0
LINE
  5
3A4
  8
DATA
  6
CONTINUOUS
 62
     7
 10
-170.7599499999998
 20
-89.039249999999996
 30
0.0
 11
-170.2692899999999
 21
-89.039249999999996
 31
0.0
  0
LINE
  5
3A5
  8
DATA
  6
CONTINUOUS
 62
     7
 10
-169.7047399999999
 20
-89.824709999999982
 30
0.0
 11
-170.21405999999999
 21
-89.824709999999982
 31
0.0
  0
LINE
  5
3A6
  8
DATA
  6
CONTINUOUS
 62
     7
 10
-169.3814999999999
 20
-94.424749999999989
 30
0.0
 11
-169.89084999999989
 21
-94.424749999999989
 31
0.0
  0
LINE
  5
3A7
  8
DATA
  6
CONTINUOUS
 62
     7
 10
-168.84414999999979
 20
-95.089240000000004
 30
0.0
 11
-169.2692899999999
 21
-89.039249999999996
 31
0.0
  0
LINE
  5
3A8
  8
DATA
  6
CONTINUOUS
 62
     7
 10
-169.33480999999989
 20
-95.089240000000004
 30
0.0
 11
-169.7599499999998
 21
-89.039249999999996
 31
0.0
  0
LINE
  5
3A9
  8
DATA
  6
STYLE_02
 62
     7
 10
-169.33480999999989
 20
-95.089240000000004
 30
0.0
 11
-168.84414999999979
 21
-95.089240000000004
 31
0.0
  0
LINE
  5
3AA
  8
DATA
  6
CONTINUOUS
 62
     7
 10
-169.7599499999998
 20
-89.039249999999996
 30
0.0
 11
-169.2692899999999
 21
-89.039249999999996
 31
0.0
  0
LINE
  5
3AB
  8
DATA
  6
CONTINUOUS
 62
     7
 10
-168.7047399999999
 20
-89.824709999999982
 30
0.0
 11
-169.21405999999999
 21
-89.824709999999982
 31
0.0
  0
LINE
  5
3AC
  8
DATA
  6
CONTINUOUS
 62
     7
 10
-168.3814999999999
 20
-94.424749999999989
 30
0.0
 11
-168.89085
 21
-94.424749999999989
 31
0.0
  0
LINE
  5
3AD
  8
DATA
  6
CONTINUOUS
 62
     7
 10
-167.8441499999999
 20
-95.089240000000004
 30
0.0
 11
-168.2692899999999
 21
-89.039249999999996
 31
0.0
  0
LINE
  5
3AE
  8
DATA
  6
CONTINUOUS
 62
     7
 10
-168.33480999999989
 20
-95.089240000000004
 30
0.0
 11
-168.7599499999998
 21
-89.039249999999996
 31
0.0
  0
LINE
  5
3AF
  8
DATA
  6
STYLE_02
 62
     7
 10
-168.33480999999989
 20
-95.089240000000004
 30
0.0
 11
-167.8441499999999
 21
-95.089240000000004
 31
0.0
  0
LINE
  5
3B0
  8
DATA
  6
CONTINUOUS
 62
     7
 10
-168.7599499999998
 20
-89.039249999999996
 30
0.0
 11
-168.2692899999999
 21
-89.039249999999996
 31
0.0
  0
LINE
  5
3B1
  8
DATA
  6
CONTINUOUS
 62
     7
 10
-167.7047399999999
 20
-89.824709999999982
 30
0.0
 11
-168.21405999999999
 21
-89.824709999999982
 31
0.0
  0
LINE
  5
3B2
  8
DATA
  6
CONTINUOUS
 62
     7
 10
-167.3814999999999
 20
-94.424749999999989
 30
0.0
 11
-167.89085
 21
-94.424749999999989
 31
0.0
  0
LINE
  5
3B3
  8
DATA
  6
CONTINUOUS
 62
     7
 10
-166.8441499999999
 20
-95.089240000000004
 30
0.0
 11
-167.2692899999999
 21
-89.039249999999996
 31
0.0
  0
LINE
  5
3B4
  8
DATA
  6
CONTINUOUS
 62
     7
 10
-167.33480999999989
 20
-95.089240000000004
 30
0.0
 11
-167.7599499999998
 21
-89.039249999999996
 31
0.0
  0
LINE
  5
3B5
  8
DATA
  6
STYLE_02
 62
     7
 10
-167.33480999999989
 20
-95.089240000000004
 30
0.0
 11
-166.8441499999999
 21
-95.089240000000004
 31
0.0
  0
LINE
  5
3B6
  8
DATA
  6
CONTINUOUS
 62
     7
 10
-167.7599499999998
 20
-89.039249999999996
 30
0.0
 11
-167.2692899999999
 21
-89.039249999999996
 31
0.0
  0
LINE
  5
3B7
  8
DATA
  6
CONTINUOUS
 62
     7
 10
-166.7047399999999
 20
-89.824709999999982
 30
0.0
 11
-167.21405999999999
 21
-89.824709999999982
 31
0.0
  0
LINE
  5
3B8
  8
DATA
  6
CONTINUOUS
 62
     7
 10
-166.3814999999999
 20
-94.424749999999989
 30
0.0
 11
-166.89085
 21
-94.424749999999989
 31
0.0
  0
LINE
  5
3B9
  8
DATA
  6
CONTINUOUS
 62
     7
 10
-165.8441499999999
 20
-95.089240000000004
 30
0.0
 11
-166.2692899999999
 21
-89.039249999999996
 31
0.0
  0
LINE
  5
3BA
  8
DATA
  6
CONTINUOUS
 62
     7
 10
-166.33480999999989
 20
-95.089240000000004
 30
0.0
 11
-166.7599499999998
 21
-89.039249999999996
 31
0.0
  0
LINE
  5
3BB
  8
DATA
  6
STYLE_02
 62
     7
 10
-166.33480999999989
 20
-95.089240000000004
 30
0.0
 11
-165.8441499999999
 21
-95.089240000000004
 31
0.0
  0
LINE
  5
3BC
  8
DATA
  6
CONTINUOUS
 62
     7
 10
-166.7599499999998
 20
-89.039249999999996
 30
0.0
 11
-166.2692899999999
 21
-89.039249999999996
 31
0.0
  0
LINE
  5
3BD
  8
DATA
  6
CONTINUOUS
 62
     7
 10
-165.7047399999999
 20
-89.824709999999982
 30
0.0
 11
-166.21405999999999
 21
-89.824709999999982
 31
0.0
  0
LINE
  5
3BE
  8
DATA
  6
CONTINUOUS
 62
     7
 10
-165.3814999999999
 20
-94.424749999999989
 30
0.0
 11
-165.89085
 21
-94.424749999999989
 31
0.0
  0
LINE
  5
3BF
  8
DATA
  6
CONTINUOUS
 62
     7
 10
-164.84414999999979
 20
-95.089240000000004
 30
0.0
 11
-165.2692899999999
 21
-89.039249999999996
 31
0.0
  0
LINE
  5
3C0
  8
DATA
  6
CONTINUOUS
 62
     7
 10
-165.33480999999989
 20
-95.089240000000004
 30
0.0
 11
-165.7599499999998
 21
-89.039249999999996
 31
0.0
  0
LINE
  5
3C1
  8
DATA
  6
STYLE_02
 62
     7
 10
-165.33480999999989
 20
-95.089240000000004
 30
0.0
 11
-164.84414999999979
 21
-95.089240000000004
 31
0.0
  0
LINE
  5
3C2
  8
DATA
  6
CONTINUOUS
 62
     7
 10
-165.7599499999998
 20
-89.039249999999996
 30
0.0
 11
-165.2692899999999
 21
-89.039249999999996
 31
0.0
  0
LINE
  5
3C3
  8
DATA
  6
CONTINUOUS
 62
     7
 10
-164.7047399999999
 20
-89.824709999999982
 30
0.0
 11
-165.21405999999999
 21
-89.824709999999982
 31
0.0
  0
LINE
  5
3C4
  8
DATA
  6
CONTINUOUS
 62
     7
 10
-164.3814999999999
 20
-94.424749999999989
 30
0.0
 11
-164.89085
 21
-94.424749999999989
 31
0.0
  0
LINE
  5
3C5
  8
DATA
  6
CONTINUOUS
 62
     7
 10
-163.84414999999979
 20
-95.089240000000004
 30
0.0
 11
-164.2692899999999
 21
-89.039249999999996
 31
0.0
  0
LINE
  5
3C6
  8
DATA
  6
CONTINUOUS
 62
     7
 10
-164.33480999999989
 20
-95.089240000000004
 30
0.0
 11
-164.7599499999998
 21
-89.039249999999996
 31
0.0
  0
LINE
  5
3C7
  8
DATA
  6
STYLE_02
 62
     7
 10
-164.33480999999989
 20
-95.089240000000004
 30
0.0
 11
-163.84414999999979
 21
-95.089240000000004
 31
0.0
  0
LINE
  5
3C8
  8
DATA
  6
CONTINUOUS
 62
     7
 10
-164.7599499999998
 20
-89.039249999999996
 30
0.0
 11
-164.2692899999999
 21
-89.039249999999996
 31
0.0
  0
LINE
  5
3C9
  8
DATA
  6
CONTINUOUS
 62
     7
 10
-163.7047399999999
 20
-89.824709999999982
 30
0.0
 11
-164.21405999999999
 21
-89.824709999999982
 31
0.0
  0
LINE
  5
3CA
  8
DATA
  6
CONTINUOUS
 62
     7
 10
-163.3814999999999
 20
-94.424749999999989
 30
0.0
 11
-163.89085
 21
-94.424749999999989
 31
0.0
  0
LINE
  5
3CB
  8
DATA
  6
CONTINUOUS
 62
     7
 10
-162.8441499999999
 20
-95.089240000000004
 30
0.0
 11
-163.2692899999999
 21
-89.039249999999996
 31
0.0
  0
LINE
  5
3CC
  8
DATA
  6
CONTINUOUS
 62
     7
 10
-163.33480999999989
 20
-95.089240000000004
 30
0.0
 11
-163.7599499999998
 21
-89.039249999999996
 31
0.0
  0
LINE
  5
3CD
  8
DATA
  6
STYLE_02
 62
     7
 10
-163.33480999999989
 20
-95.089240000000004
 30
0.0
 11
-162.8441499999999
 21
-95.089240000000004
 31
0.0
  0
LINE
  5
3CE
  8
DATA
  6
CONTINUOUS
 62
     7
 10
-163.7599499999998
 20
-89.039249999999996
 30
0.0
 11
-163.2692899999999
 21
-89.039249999999996
 31
0.0
  0
LINE
  5
3CF
  8
DATA
  6
CONTINUOUS
 62
     7
 10
-162.7047399999999
 20
-89.824709999999982
 30
0.0
 11
-163.21405999999999
 21
-89.824709999999982
 31
0.0
  0
LINE
  5
3D0
  8
DATA
  6
CONTINUOUS
 62
     7
 10
-162.3814999999999
 20
-94.424749999999989
 30
0.0
 11
-162.89085
 21
-94.424749999999989
 31
0.0
  0
LINE
  5
3D1
  8
DATA
  6
CONTINUOUS
 62
     7
 10
-161.84414999999979
 20
-95.089240000000004
 30
0.0
 11
-162.2692899999999
 21
-89.039249999999996
 31
0.0
  0
LINE
  5
3D2
  8
DATA
  6
CONTINUOUS
 62
     7
 10
-162.33480999999989
 20
-95.089240000000004
 30
0.0
 11
-162.7599499999998
 21
-89.039249999999996
 31
0.0
  0
LINE
  5
3D3
  8
DATA
  6
STYLE_02
 62
     7
 10
-162.33480999999989
 20
-95.089240000000004
 30
0.0
 11
-161.84414999999979
 21
-95.089240000000004
 31
0.0
  0
LINE
  5
3D4
  8
DATA
  6
CONTINUOUS
 62
     7
 10
-162.7599499999998
 20
-89.039249999999996
 30
0.0
 11
-162.2692899999999
 21
-89.039249999999996
 31
0.0
  0
LINE
  5
3D5
  8
DATA
  6
CONTINUOUS
 62
     7
 10
-161.70473999999979
 20
-89.824709999999982
 30
0.0
 11
-162.21405999999999
 21
-89.824709999999982
 31
0.0
  0
LINE
  5
3D6
  8
DATA
  6
CONTINUOUS
 62
     7
 10
-161.3814999999999
 20
-94.424749999999989
 30
0.0
 11
-161.89085
 21
-94.424749999999989
 31
0.0
  0
LINE
  5
3D7
  8
DATA
  6
CONTINUOUS
 62
     7
 10
-160.84414999999979
 20
-95.089240000000004
 30
0.0
 11
-161.2692899999999
 21
-89.039249999999996
 31
0.0
  0
LINE
  5
3D8
  8
DATA
  6
CONTINUOUS
 62
     7
 10
-161.33480999999989
 20
-95.089240000000004
 30
0.0
 11
-161.7599499999998
 21
-89.039249999999996
 31
0.0
  0
LINE
  5
3D9
  8
DATA
  6
STYLE_02
 62
     7
 10
-161.33480999999989
 20
-95.089240000000004
 30
0.0
 11
-160.84414999999979
 21
-95.089240000000004
 31
0.0
  0
LINE
  5
3DA
  8
DATA
  6
CONTINUOUS
 62
     7
 10
-161.7599499999998
 20
-89.039249999999996
 30
0.0
 11
-161.2692899999999
 21
-89.039249999999996
 31
0.0
  0
LINE
  5
3DB
  8
DATA
  6
CONTINUOUS
 62
     7
 10
-160.7047399999999
 20
-89.824709999999982
 30
0.0
 11
-161.21405999999999
 21
-89.824709999999982
 31
0.0
  0
LINE
  5
3DC
  8
DATA
  6
CONTINUOUS
 62
     7
 10
-160.3814999999999
 20
-94.424749999999989
 30
0.0
 11
-160.89085
 21
-94.424749999999989
 31
0.0
  0
LINE
  5
3DD
  8
DATA
  6
CONTINUOUS
 62
     7
 10
-159.84414999999979
 20
-95.089240000000004
 30
0.0
 11
-160.2692899999999
 21
-89.039249999999996
 31
0.0
  0
LINE
  5
3DE
  8
DATA
  6
CONTINUOUS
 62
     7
 10
-160.33480999999989
 20
-95.089240000000004
 30
0.0
 11
-160.7599499999998
 21
-89.039249999999996
 31
0.0
  0
LINE
  5
3DF
  8
DATA
  6
STYLE_02
 62
     7
 10
-160.33480999999989
 20
-95.089240000000004
 30
0.0
 11
-159.84414999999979
 21
-95.089240000000004
 31
0.0
  0
LINE
  5
3E0
  8
DATA
  6
CONTINUOUS
 62
     7
 10
-160.7599499999998
 20
-89.039249999999996
 30
0.0
 11
-160.2692899999999
 21
-89.039249999999996
 31
0.0
  0
LINE
  5
3E1
  8
DATA
  6
CONTINUOUS
 62
     7
 10
-159.7047399999999
 20
-89.824709999999982
 30
0.0
 11
-160.21405999999999
 21
-89.824709999999982
 31
0.0
  0
LINE
  5
3E2
  8
DATA
  6
CONTINUOUS
 62
     7
 10
-159.3814999999999
 20
-94.424749999999989
 30
0.0
 11
-159.89085
 21
-94.424749999999989
 31
0.0
  0
LINE
  5
3E3
  8
DATA
  6
CONTINUOUS
 62
     7
 10
-158.84414999999979
 20
-95.089240000000004
 30
0.0
 11
-159.2692899999999
 21
-89.039249999999996
 31
0.0
  0
LINE
  5
3E4
  8
DATA
  6
CONTINUOUS
 62
     7
 10
-159.33480999999989
 20
-95.089240000000004
 30
0.0
 11
-159.7599499999998
 21
-89.039249999999996
 31
0.0
  0
LINE
  5
3E5
  8
DATA
  6
STYLE_02
 62
     7
 10
-159.33480999999989
 20
-95.089240000000004
 30
0.0
 11
-158.84414999999979
 21
-95.089240000000004
 31
0.0
  0
LINE
  5
3E6
  8
DATA
  6
CONTINUOUS
 62
     7
 10
-159.7599499999998
 20
-89.039249999999996
 30
0.0
 11
-159.2692899999999
 21
-89.039249999999996
 31
0.0
  0
LINE
  5
3E7
  8
DATA
  6
CONTINUOUS
 62
     7
 10
-158.70473999999979
 20
-89.824709999999982
 30
0.0
 11
-159.21405999999999
 21
-89.824709999999982
 31
0.0
  0
LINE
  5
3E8
  8
DATA
  6
CONTINUOUS
 62
     7
 10
-158.3814999999999
 20
-94.424749999999989
 30
0.0
 11
-158.89085
 21
-94.424749999999989
 31
0.0
  0
LINE
  5
3E9
  8
DATA
  6
CONTINUOUS
 62
     7
 10
-157.84414999999979
 20
-95.089240000000004
 30
0.0
 11
-158.2692899999999
 21
-89.039249999999996
 31
0.0
  0
LINE
  5
3EA
  8
DATA
  6
CONTINUOUS
 62
     7
 10
-158.33480999999989
 20
-95.089240000000004
 30
0.0
 11
-158.7599499999998
 21
-89.039249999999996
 31
0.0
  0
LINE
  5
3EB
  8
DATA
  6
STYLE_02
 62
     7
 10
-158.33480999999989
 20
-95.089240000000004
 30
0.0
 11
-157.84414999999979
 21
-95.089240000000004
 31
0.0
  0
LINE
  5
3EC
  8
DATA
  6
CONTINUOUS
 62
     7
 10
-158.7599499999998
 20
-89.039249999999996
 30
0.0
 11
-158.2692899999999
 21
-89.039249999999996
 31
0.0
  0
LINE
  5
3ED
  8
DATA
  6
CONTINUOUS
 62
     7
 10
-157.70473999999979
 20
-89.824709999999982
 30
0.0
 11
-158.21405999999999
 21
-89.824709999999982
 31
0.0
  0
LINE
  5
3EE
  8
DATA
  6
CONTINUOUS
 62
     7
 10
-157.3814999999999
 20
-94.424749999999989
 30
0.0
 11
-157.89085
 21
-94.424749999999989
 31
0.0
  0
LINE
  5
3EF
  8
DATA
  6
CONTINUOUS
 62
     7
 10
-156.84414999999979
 20
-95.089240000000004
 30
0.0
 11
-157.2692899999999
 21
-89.039249999999996
 31
0.0
  0
LINE
  5
3F0
  8
DATA
  6
CONTINUOUS
 62
     7
 10
-157.33480999999989
 20
-95.089240000000004
 30
0.0
 11
-157.7599499999998
 21
-89.039249999999996
 31
0.0
  0
LINE
  5
3F1
  8
DATA
  6
STYLE_02
 62
     7
 10
-157.33480999999989
 20
-95.089240000000004
 30
0.0
 11
-156.84414999999979
 21
-95.089240000000004
 31
0.0
  0
LINE
  5
3F2
  8
DATA
  6
CONTINUOUS
 62
     7
 10
-157.7599499999998
 20
-89.039249999999996
 30
0.0
 11
-157.2692899999999
 21
-89.039249999999996
 31
0.0
  0
LINE
  5
3F3
  8
DATA
  6
CONTINUOUS
 62
     7
 10
-156.70473999999979
 20
-89.824709999999982
 30
0.0
 11
-157.21405999999999
 21
-89.824709999999982
 31
0.0
  0
LINE
  5
3F4
  8
DATA
  6
CONTINUOUS
 62
     7
 10
-156.3814999999999
 20
-94.424749999999989
 30
0.0
 11
-156.89085
 21
-94.424749999999989
 31
0.0
  0
LINE
  5
3F5
  8
DATA
  6
CONTINUOUS
 62
     7
 10
-155.8441399999999
 20
-95.089240000000004
 30
0.0
 11
-156.2692899999999
 21
-89.039249999999996
 31
0.0
  0
LINE
  5
3F6
  8
DATA
  6
CONTINUOUS
 62
     7
 10
-156.33480999999989
 20
-95.089240000000004
 30
0.0
 11
-156.7599499999998
 21
-89.039249999999996
 31
0.0
  0
LINE
  5
3F7
  8
DATA
  6
STYLE_02
 62
     7
 10
-156.33480999999989
 20
-95.089240000000004
 30
0.0
 11
-155.8441399999999
 21
-95.089240000000004
 31
0.0
  0
LINE
  5
3F8
  8
DATA
  6
CONTINUOUS
 62
     7
 10
-156.7599499999998
 20
-89.039249999999996
 30
0.0
 11
-156.2692899999999
 21
-89.039249999999996
 31
0.0
  0
LINE
  5
3F9
  8
DATA
  6
CONTINUOUS
 62
     7
 10
-155.70472999999981
 20
-89.824709999999982
 30
0.0
 11
-156.2140399999999
 21
-89.824709999999982
 31
0.0
  0
LINE
  5
3FA
  8
DATA
  6
CONTINUOUS
 62
     7
 10
-155.38149000000001
 20
-94.424749999999989
 30
0.0
 11
-155.89083999999991
 21
-94.424749999999989
 31
0.0
  0
LINE
  5
3FB
  8
DATA
  6
CONTINUOUS
 62
     7
 10
-154.8441399999999
 20
-95.089240000000004
 30
0.0
 11
-155.2692799999999
 21
-89.039249999999996
 31
0.0
  0
LINE
  5
3FC
  8
DATA
  6
CONTINUOUS
 62
     7
 10
-155.33480999999989
 20
-95.089240000000004
 30
0.0
 11
-155.7599499999998
 21
-89.039249999999996
 31
0.0
  0
LINE
  5
3FD
  8
DATA
  6
STYLE_02
 62
     7
 10
-155.33480999999989
 20
-95.089240000000004
 30
0.0
 11
-154.8441399999999
 21
-95.089240000000004
 31
0.0
  0
LINE
  5
3FE
  8
DATA
  6
CONTINUOUS
 62
     7
 10
-155.7599499999998
 20
-89.039249999999996
 30
0.0
 11
-155.2692799999999
 21
-89.039249999999996
 31
0.0
  0
LINE
  5
3FF
  8
DATA
  6
CONTINUOUS
 62
     7
 10
-154.7047299999999
 20
-89.824709999999982
 30
0.0
 11
-155.21401999999981
 21
-89.824709999999982
 31
0.0
  0
LINE
  5
400
  8
DATA
  6
CONTINUOUS
 62
     7
 10
-154.38149000000001
 20
-94.424749999999989
 30
0.0
 11
-154.89083999999991
 21
-94.424749999999989
 31
0.0
  0
LINE
  5
401
  8
DATA
  6
CONTINUOUS
 62
     7
 10
-153.8441399999999
 20
-95.089240000000004
 30
0.0
 11
-154.2692799999999
 21
-89.039249999999996
 31
0.0
  0
LINE
  5
402
  8
DATA
  6
CONTINUOUS
 62
     7
 10
-154.33480999999989
 20
-95.089240000000004
 30
0.0
 11
-154.7599499999998
 21
-89.039249999999996
 31
0.0
  0
LINE
  5
403
  8
DATA
  6
STYLE_02
 62
     7
 10
-154.33480999999989
 20
-95.089240000000004
 30
0.0
 11
-153.8441399999999
 21
-95.089240000000004
 31
0.0
  0
LINE
  5
404
  8
DATA
  6
CONTINUOUS
 62
     7
 10
-154.7599499999998
 20
-89.039249999999996
 30
0.0
 11
-154.2692799999999
 21
-89.039249999999996
 31
0.0
  0
LINE
  5
405
  8
DATA
  6
CONTINUOUS
 62
     7
 10
-153.7047299999999
 20
-89.824709999999982
 30
0.0
 11
-154.21401999999981
 21
-89.824709999999982
 31
0.0
  0
LINE
  5
406
  8
DATA
  6
CONTINUOUS
 62
     7
 10
-153.38149000000001
 20
-94.424749999999989
 30
0.0
 11
-153.89083999999991
 21
-94.424749999999989
 31
0.0
  0
LINE
  5
407
  8
DATA
  6
CONTINUOUS
 62
     7
 10
-152.8441499999999
 20
-95.089240000000004
 30
0.0
 11
-153.2692799999999
 21
-89.039249999999996
 31
0.0
  0
LINE
  5
408
  8
DATA
  6
CONTINUOUS
 62
     7
 10
-153.33480999999989
 20
-95.089240000000004
 30
0.0
 11
-153.7599499999998
 21
-89.039249999999996
 31
0.0
  0
LINE
  5
409
  8
DATA
  6
STYLE_02
 62
     7
 10
-153.33480999999989
 20
-95.089240000000004
 30
0.0
 11
-152.8441499999999
 21
-95.089240000000004
 31
0.0
  0
LINE
  5
40A
  8
DATA
  6
CONTINUOUS
 62
     7
 10
-153.7599499999998
 20
-89.039249999999996
 30
0.0
 11
-153.2692799999999
 21
-89.039249999999996
 31
0.0
  0
LINE
  5
40B
  8
DATA
  6
CONTINUOUS
 62
     7
 10
-152.7047299999999
 20
-89.824709999999982
 30
0.0
 11
-153.2140399999999
 21
-89.824709999999982
 31
0.0
  0
LINE
  5
40C
  8
DATA
  6
CONTINUOUS
 62
     7
 10
-152.38149000000001
 20
-94.424749999999989
 30
0.0
 11
-152.89083999999991
 21
-94.424749999999989
 31
0.0
  0
LINE
  5
40D
  8
DATA
  6
CONTINUOUS
 62
     7
 10
-151.8441499999999
 20
-95.089240000000004
 30
0.0
 11
-152.2692799999999
 21
-89.039249999999996
 31
0.0
  0
LINE
  5
40E
  8
DATA
  6
CONTINUOUS
 62
     7
 10
-152.33480999999989
 20
-95.089240000000004
 30
0.0
 11
-152.7599499999998
 21
-89.039249999999996
 31
0.0
  0
LINE
  5
40F
  8
DATA
  6
STYLE_02
 62
     7
 10
-152.33480999999989
 20
-95.089240000000004
 30
0.0
 11
-151.8441499999999
 21
-95.089240000000004
 31
0.0
  0
LINE
  5
410
  8
DATA
  6
CONTINUOUS
 62
     7
 10
-152.7599499999998
 20
-89.039249999999996
 30
0.0
 11
-152.2692799999999
 21
-89.039249999999996
 31
0.0
  0
LINE
  5
411
  8
DATA
  6
CONTINUOUS
 62
     7
 10
-151.7047299999999
 20
-89.824709999999982
 30
0.0
 11
-152.2140399999999
 21
-89.824709999999982
 31
0.0
  0
LINE
  5
412
  8
DATA
  6
CONTINUOUS
 62
     7
 10
-151.38149000000001
 20
-94.424749999999989
 30
0.0
 11
-151.89085999999989
 21
-94.424749999999989
 31
0.0
  0
LINE
  5
413
  8
DATA
  6
CONTINUOUS
 62
     7
 10
-150.84413999999981
 20
-95.089240000000004
 30
0.0
 11
-151.2692899999999
 21
-89.039249999999996
 31
0.0
  0
LINE
  5
414
  8
DATA
  6
CONTINUOUS
 62
     7
 10
-151.33480999999989
 20
-95.089240000000004
 30
0.0
 11
-151.7599499999998
 21
-89.039249999999996
 31
0.0
  0
LINE
  5
415
  8
DATA
  6
STYLE_02
 62
     7
 10
-151.33480999999989
 20
-95.089240000000004
 30
0.0
 11
-150.84413999999981
 21
-95.089240000000004
 31
0.0
  0
LINE
  5
416
  8
DATA
  6
CONTINUOUS
 62
     7
 10
-151.7599499999998
 20
-89.039249999999996
 30
0.0
 11
-151.2692899999999
 21
-89.039249999999996
 31
0.0
  0
LINE
  5
417
  8
DATA
  6
CONTINUOUS
 62
     7
 10
-150.7047299999999
 20
-89.824709999999982
 30
0.0
 11
-151.21401999999981
 21
-89.824709999999982
 31
0.0
  0
LINE
  5
418
  8
DATA
  6
CONTINUOUS
 62
     7
 10
-150.38149000000001
 20
-94.424749999999989
 30
0.0
 11
-150.89084999999989
 21
-94.424749999999989
 31
0.0
  0
LINE
  5
419
  8
DATA
  6
CONTINUOUS
 62
     7
 10
-149.8441399999999
 20
-95.089240000000004
 30
0.0
 11
-150.2692899999999
 21
-89.039249999999996
 31
0.0
  0
LINE
  5
41A
  8
DATA
  6
CONTINUOUS
 62
     7
 10
-150.33480999999989
 20
-95.089240000000004
 30
0.0
 11
-150.75992999999991
 21
-89.039249999999996
 31
0.0
  0
LINE
  5
41B
  8
DATA
  6
STYLE_02
 62
     7
 10
-150.33480999999989
 20
-95.089240000000004
 30
0.0
 11
-149.8441399999999
 21
-95.089240000000004
 31
0.0
  0
LINE
  5
41C
  8
DATA
  6
CONTINUOUS
 62
     7
 10
-150.75992999999991
 20
-89.039249999999996
 30
0.0
 11
-150.2692899999999
 21
-89.039249999999996
 31
0.0
  0
LINE
  5
41D
  8
DATA
  6
CONTINUOUS
 62
     7
 10
-149.7047299999999
 20
-89.824709999999982
 30
0.0
 11
-150.21401999999981
 21
-89.824709999999982
 31
0.0
  0
LINE
  5
41E
  8
DATA
  6
CONTINUOUS
 62
     7
 10
-149.38149000000001
 20
-94.424749999999989
 30
0.0
 11
-149.89084999999989
 21
-94.424749999999989
 31
0.0
  0
LINE
  5
41F
  8
DATA
  6
CONTINUOUS
 62
     7
 10
-148.8441399999999
 20
-95.089240000000004
 30
0.0
 11
-149.2692899999999
 21
-89.039249999999996
 31
0.0
  0
LINE
  5
420
  8
DATA
  6
CONTINUOUS
 62
     7
 10
-149.33480999999989
 20
-95.089240000000004
 30
0.0
 11
-149.75992999999991
 21
-89.039249999999996
 31
0.0
  0
LINE
  5
421
  8
DATA
  6
STYLE_02
 62
     7
 10
-149.33480999999989
 20
-95.089240000000004
 30
0.0
 11
-148.8441399999999
 21
-95.089240000000004
 31
0.0
  0
LINE
  5
422
  8
DATA
  6
CONTINUOUS
 62
     7
 10
-149.75992999999991
 20
-89.039249999999996
 30
0.0
 11
-149.2692899999999
 21
-89.039249999999996
 31
0.0
  0
LINE
  5
423
  8
DATA
  6
CONTINUOUS
 62
     7
 10
-148.7047299999999
 20
-89.824709999999982
 30
0.0
 11
-149.21401999999981
 21
-89.824709999999982
 31
0.0
  0
LINE
  5
424
  8
DATA
  6
CONTINUOUS
 62
     7
 10
-148.38149000000001
 20
-94.424749999999989
 30
0.0
 11
-148.89084999999989
 21
-94.424749999999989
 31
0.0
  0
LINE
  5
425
  8
DATA
  6
CONTINUOUS
 62
     7
 10
-147.8441399999999
 20
-95.089240000000004
 30
0.0
 11
-148.2692899999999
 21
-89.039249999999996
 31
0.0
  0
LINE
  5
426
  8
DATA
  6
CONTINUOUS
 62
     7
 10
-148.33480999999989
 20
-95.089240000000004
 30
0.0
 11
-148.75992999999991
 21
-89.039249999999996
 31
0.0
  0
LINE
  5
427
  8
DATA
  6
STYLE_02
 62
     7
 10
-148.33480999999989
 20
-95.089240000000004
 30
0.0
 11
-147.8441399999999
 21
-95.089240000000004
 31
0.0
  0
LINE
  5
428
  8
DATA
  6
CONTINUOUS
 62
     7
 10
-148.75992999999991
 20
-89.039249999999996
 30
0.0
 11
-148.2692899999999
 21
-89.039249999999996
 31
0.0
  0
LINE
  5
429
  8
DATA
  6
CONTINUOUS
 62
     7
 10
-147.7047299999999
 20
-89.824709999999982
 30
0.0
 11
-148.21401999999981
 21
-89.824709999999982
 31
0.0
  0
LINE
  5
42A
  8
DATA
  6
CONTINUOUS
 62
     7
 10
-147.38149000000001
 20
-94.424749999999989
 30
0.0
 11
-147.89085
 21
-94.424749999999989
 31
0.0
  0
LINE
  5
42B
  8
DATA
  6
CONTINUOUS
 62
     7
 10
-146.84413999999981
 20
-95.089240000000004
 30
0.0
 11
-147.2692899999999
 21
-89.039249999999996
 31
0.0
  0
LINE
  5
42C
  8
DATA
  6
CONTINUOUS
 62
     7
 10
-147.33480999999989
 20
-95.089240000000004
 30
0.0
 11
-147.7599499999998
 21
-89.039249999999996
 31
0.0
  0
LINE
  5
42D
  8
DATA
  6
STYLE_02
 62
     7
 10
-147.33480999999989
 20
-95.089240000000004
 30
0.0
 11
-146.84413999999981
 21
-95.089240000000004
 31
0.0
  0
LINE
  5
42E
  8
DATA
  6
CONTINUOUS
 62
     7
 10
-147.7599499999998
 20
-89.039249999999996
 30
0.0
 11
-147.2692899999999
 21
-89.039249999999996
 31
0.0
  0
LINE
  5
42F
  8
DATA
  6
CONTINUOUS
 62
     7
 10
-146.7047299999999
 20
-89.824709999999982
 30
0.0
 11
-147.21401999999981
 21
-89.824709999999982
 31
0.0
  0
LINE
  5
430
  8
DATA
  6
CONTINUOUS
 62
     7
 10
-146.38149000000001
 20
-94.424749999999989
 30
0.0
 11
-146.89084999999989
 21
-94.424749999999989
 31
0.0
  0
LINE
  5
431
  8
DATA
  6
CONTINUOUS
 62
     7
 10
-145.84411999999989
 20
-95.089240000000004
 30
0.0
 11
-146.2692899999999
 21
-89.039249999999996
 31
0.0
  0
LINE
  5
432
  8
DATA
  6
CONTINUOUS
 62
     7
 10
-146.33480999999989
 20
-95.089240000000004
 30
0.0
 11
-146.7599499999998
 21
-89.039249999999996
 31
0.0
  0
LINE
  5
433
  8
DATA
  6
STYLE_02
 62
     7
 10
-146.33480999999989
 20
-95.089240000000004
 30
0.0
 11
-145.84411999999989
 21
-95.089240000000004
 31
0.0
  0
LINE
  5
434
  8
DATA
  6
CONTINUOUS
 62
     7
 10
-146.7599499999998
 20
-89.039249999999996
 30
0.0
 11
-146.2692899999999
 21
-89.039249999999996
 31
0.0
  0
LINE
  5
435
  8
DATA
  6
CONTINUOUS
 62
     7
 10
-145.7047199999999
 20
-89.824709999999982
 30
0.0
 11
-146.21401999999981
 21
-89.824709999999982
 31
0.0
  0
LINE
  5
436
  8
DATA
  6
CONTINUOUS
 62
     7
 10
-145.38146999999981
 20
-94.424749999999989
 30
0.0
 11
-145.89080999999979
 21
-94.424749999999989
 31
0.0
  0
LINE
  5
437
  8
DATA
  6
CONTINUOUS
 62
     7
 10
-144.84411999999989
 20
-95.089240000000004
 30
0.0
 11
-145.2692799999999
 21
-89.039249999999996
 31
0.0
  0
LINE
  5
438
  8
DATA
  6
CONTINUOUS
 62
     7
 10
-145.33480999999989
 20
-95.089240000000004
 30
0.0
 11
-145.7599499999998
 21
-89.039249999999996
 31
0.0
  0
LINE
  5
439
  8
DATA
  6
STYLE_02
 62
     7
 10
-145.33480999999989
 20
-95.089240000000004
 30
0.0
 11
-144.84411999999989
 21
-95.089240000000004
 31
0.0
  0
LINE
  5
43A
  8
DATA
  6
CONTINUOUS
 62
     7
 10
-145.7599499999998
 20
-89.039249999999996
 30
0.0
 11
-145.2692799999999
 21
-89.039249999999996
 31
0.0
  0
LINE
  5
43B
  8
DATA
  6
CONTINUOUS
 62
     7
 10
-183.06170999999989
 20
-86.508739999999989
 30
0.0
 11
-178.6373999999999
 21
-88.045519999999996
 31
0.0
  0
LINE
  5
43C
  8
DATA
  6
CONTINUOUS
 62
     7
 10
-184.9759099999998
 20
-97.944239999999994
 30
0.0
 11
-183.06170999999989
 21
-97.619749999999996
 31
0.0
  0
LINE
  5
43D
  8
DATA
  6
CONTINUOUS
 62
     7
 10
-183.06170999999989
 20
-86.508739999999989
 30
0.0
 11
-184.9759099999998
 21
-86.260239999999996
 31
0.0
  0
LINE
  5
43E
  8
DATA
  6
CONTINUOUS
 62
     7
 10
-188.62591999999989
 20
-97.904250000000005
 30
0.0
 11
-188.62591999999989
 21
-86.22423999999998
 31
0.0
  0
LINE
  5
43F
  8
DATA
  6
CONTINUOUS
 62
     7
 10
-186.87591999999989
 20
-97.923429999999996
 30
0.0
 11
-186.87591999999989
 21
-86.241499999999959
 31
0.0
  0
LINE
  5
440
  8
DATA
  6
CONTINUOUS
 62
     7
 10
-189.12591999999989
 20
-97.814229999999981
 30
0.0
 11
-189.12591999999989
 21
-86.314259999999976
 31
0.0
  0
LINE
  5
441
  8
DATA
  6
CONTINUOUS
 62
     7
 10
-189.12591999999989
 20
-97.814229999999981
 30
0.0
 11
-192.62591999999989
 21
-97.464250000000021
 31
0.0
  0
LINE
  5
442
  8
DATA
  6
CONTINUOUS
 62
     7
 10
-189.12591999999989
 20
-86.314259999999976
 30
0.0
 11
-192.62591999999989
 21
-86.664239999999964
 31
0.0
  0
POLYLINE
  5
443
  8
DATA
  6
CONTINUOUS
 62
     7
 66
     1
 10
0.0
 20
0.0
 30
0.0
 70
     1
  0
VERTEX
  5
867
  8
DATA
  6
CONTINUOUS
 62
     7
 10
-190.12591999999989
 20
-96.275279999999981
 30
0.0
  0
VERTEX
  5
868
  8
DATA
  6
CONTINUOUS
 62
     7
 10
-190.12591999999989
 20
-92.228429999999946
 30
0.0
  0
VERTEX
  5
869
  8
DATA
  6
CONTINUOUS
 62
     7
 10
-189.62591999999989
 20
-92.228429999999946
 30
0.0
  0
VERTEX
  5
86A
  8
DATA
  6
CONTINUOUS
 62
     7
 10
-189.62591999999989
 20
-96.275279999999981
 30
0.0
  0
SEQEND
  5
86B
  8
DATA
  6
CONTINUOUS
 62
     7
  0
LINE
  5
449
  8
DATA
  6
CONTINUOUS
 62
     7
 10
-189.7759099999999
 20
-96.275279999999981
 30
0.0
 11
-190.12591999999989
 21
-95.575289999999995
 31
0.0
  0
LINE
  5
44A
  8
DATA
  6
CONTINUOUS
 62
     7
 10
-189.62591999999989
 20
-94.975279999999998
 30
0.0
 11
-190.12591999999989
 21
-95.975279999999998
 31
0.0
  0
LINE
  5
44B
  8
DATA
  6
CONTINUOUS
 62
     7
 10
-189.62591999999989
 20
-93.975279999999984
 30
0.0
 11
-190.12591999999989
 21
-94.975279999999998
 31
0.0
  0
LINE
  5
44C
  8
DATA
  6
CONTINUOUS
 62
     7
 10
-189.62591999999989
 20
-92.975279999999984
 30
0.0
 11
-190.12591999999989
 21
-93.975279999999984
 31
0.0
  0
LINE
  5
44D
  8
DATA
  6
CONTINUOUS
 62
     7
 10
-189.7524699999999
 20
-92.228429999999946
 30
0.0
 11
-190.12591999999989
 21
-92.975279999999984
 31
0.0
  0
LINE
  5
44E
  8
DATA
  6
CONTINUOUS
 62
     7
 10
-189.62591999999989
 20
-95.575280000000006
 30
0.0
 11
-190.12591999999989
 21
-94.575289999999995
 31
0.0
  0
LINE
  5
44F
  8
DATA
  6
CONTINUOUS
 62
     7
 10
-189.62591999999989
 20
-94.575280000000006
 30
0.0
 11
-190.12591999999989
 21
-93.575289999999995
 31
0.0
  0
LINE
  5
450
  8
DATA
  6
CONTINUOUS
 62
     7
 10
-189.7759099999999
 20
-93.275279999999995
 30
0.0
 11
-190.12591999999989
 21
-92.575289999999995
 31
0.0
  0
LINE
  5
451
  8
DATA
  6
CONTINUOUS
 62
     7
 10
-189.62591999999989
 20
-92.575280000000006
 30
0.0
 11
-189.79932999999991
 21
-92.228429999999946
 31
0.0
  0
LINE
  5
452
  8
DATA
  6
CONTINUOUS
 62
     7
 10
-189.62591999999989
 20
-90.428439999999995
 30
0.0
 11
-190.12591999999989
 21
-90.428439999999995
 31
0.0
  0
LINE
  5
453
  8
DATA
  6
CONTINUOUS
 62
     7
 10
-189.62591999999989
 20
-86.364249999999998
 30
0.0
 11
-189.62591999999989
 21
-90.428439999999995
 31
0.0
  0
LINE
  5
454
  8
DATA
  6
CONTINUOUS
 62
     7
 10
-190.12591999999989
 20
-90.428439999999995
 30
0.0
 11
-190.12591999999989
 21
-86.414239999999964
 31
0.0
  0
LINE
  5
455
  8
DATA
  6
CONTINUOUS
 62
     7
 10
-189.7759099999999
 20
-90.428439999999995
 30
0.0
 11
-190.12591999999989
 21
-89.728429999999946
 31
0.0
  0
LINE
  5
456
  8
DATA
  6
CONTINUOUS
 62
     7
 10
-189.62591999999989
 20
-89.12842999999998
 30
0.0
 11
-190.12591999999989
 21
-90.12842999999998
 31
0.0
  0
LINE
  5
457
  8
DATA
  6
CONTINUOUS
 62
     7
 10
-189.62591999999989
 20
-88.128429999999994
 30
0.0
 11
-190.12591999999989
 21
-89.12842999999998
 31
0.0
  0
LINE
  5
458
  8
DATA
  6
CONTINUOUS
 62
     7
 10
-189.62591999999989
 20
-87.128429999999966
 30
0.0
 11
-190.12591999999989
 21
-88.128429999999994
 31
0.0
  0
LINE
  5
459
  8
DATA
  6
CONTINUOUS
 62
     7
 10
-189.7524699999999
 20
-86.381599999999963
 30
0.0
 11
-190.12591999999989
 21
-87.128429999999966
 31
0.0
  0
LINE
  5
45A
  8
DATA
  6
CONTINUOUS
 62
     7
 10
-189.62591999999989
 20
-89.728419999999986
 30
0.0
 11
-190.12591999999989
 21
-88.72842999999996
 31
0.0
  0
LINE
  5
45B
  8
DATA
  6
CONTINUOUS
 62
     7
 10
-189.62591999999989
 20
-88.72842
 30
0.0
 11
-190.12591999999989
 21
-87.72842999999996
 31
0.0
  0
LINE
  5
45C
  8
DATA
  6
CONTINUOUS
 62
     7
 10
-189.7759099999999
 20
-87.428439999999981
 30
0.0
 11
-190.12591999999989
 21
-86.72842999999996
 31
0.0
  0
LINE
  5
45D
  8
DATA
  6
CONTINUOUS
 62
     7
 10
-189.62591999999989
 20
-86.728420000000014
 30
0.0
 11
-189.79932999999991
 21
-86.381599999999963
 31
0.0
  0
LINE
  5
45E
  8
DATA
  6
CONTINUOUS
 62
     7
 10
-188.37591999999989
 20
-97.906979999999976
 30
0.0
 11
-188.37591999999989
 21
-86.226719999999986
 31
0.0
  0
LINE
  5
45F
  8
DATA
  6
CONTINUOUS
 62
     7
 10
-188.37591999999989
 20
-86.364260000000002
 30
0.0
 11
-186.87591999999989
 21
-86.364260000000002
 31
0.0
  0
LINE
  5
460
  8
DATA
  6
CONTINUOUS
 62
     7
 10
-188.37591999999989
 20
-97.764249999999961
 30
0.0
 11
-186.87591999999989
 21
-97.764249999999961
 31
0.0
  0
LINE
  5
461
  8
DATA
  6
CONTINUOUS
 62
     7
 10
-188.62591999999989
 20
-97.904250000000005
 30
0.0
 11
-189.12591999999989
 21
-97.814229999999981
 31
0.0
  0
LINE
  5
462
  8
DATA
  6
CONTINUOUS
 62
     7
 10
-189.12591999999989
 20
-86.314259999999976
 30
0.0
 11
-188.62591999999989
 21
-86.22423999999998
 31
0.0
  0
LINE
  5
463
  8
DATA
  6
CONTINUOUS
 62
     7
 10
-188.62591999999989
 20
-86.22423999999998
 30
0.0
 11
-184.9759099999998
 21
-86.260239999999996
 31
0.0
  0
LINE
  5
464
  8
DATA
  6
CONTINUOUS
 62
     7
 10
-184.9759099999998
 20
-97.944239999999994
 30
0.0
 11
-188.62591999999989
 21
-97.904250000000005
 31
0.0
  0
LINE
  5
465
  8
DATA
  6
STYLE_01
 62
     7
 10
-183.92590000000001
 20
-83.067769999999982
 30
0.0
 11
-183.92590000000001
 21
-101.06777
 31
0.0
  0
LINE
  5
466
  8
DATA
  6
STYLE_01
 62
     7
 10
-202.42590000000001
 20
-101.06777
 30
0.0
 11
-202.42590000000001
 21
-83.067769999999982
 31
0.0
  0
POLYLINE
  5
467
  8
DATA
  6
STYLE_01
 62
     7
 66
     1
 10
0.0
 20
0.0
 30
0.0
 70
   128
  0
VERTEX
  5
86C
  8
DATA
  6
STYLE_01
 62
     7
 10
-195.15280000000001
 20
-103.0446699999999
 30
0.0
  0
VERTEX
  5
86D
  8
DATA
  6
STYLE_01
 62
     7
 10
-194.6585749999999
 20
-103.05489656249991
 30
0.0
  0
VERTEX
  5
86E
  8
DATA
  6
STYLE_01
 62
     7
 10
-194.1643499999999
 20
-103.06220125
 30
0.0
  0
VERTEX
  5
86F
  8
DATA
  6
STYLE_01
 62
     7
 10
-193.67012500000001
 20
-103.0665840624999
 30
0.0
  0
VERTEX
  5
870
  8
DATA
  6
STYLE_01
 62
     7
 10
-193.17590000000001
 20
-103.0680449999999
 30
0.0
  0
VERTEX
  5
871
  8
DATA
  6
STYLE_01
 62
     7
 10
-192.6816749999999
 20
-103.0665840624999
 30
0.0
  0
VERTEX
  5
872
  8
DATA
  6
STYLE_01
 62
     7
 10
-192.18745000000001
 20
-103.06220125
 30
0.0
  0
VERTEX
  5
873
  8
DATA
  6
STYLE_01
 62
     7
 10
-191.69322500000001
 20
-103.05489656249991
 30
0.0
  0
VERTEX
  5
874
  8
DATA
  6
STYLE_01
 62
     7
 10
-191.19900000000001
 20
-103.0446699999999
 30
0.0
  0
VERTEX
  5
875
  8
DATA
  6
STYLE_01
 62
     7
 10
-191.19900000000001
 20
-103.0446699999999
 30
0.0
  0
SEQEND
  5
876
  8
DATA
  6
STYLE_01
 62
     7
  0
POLYLINE
  5
473
  8
DATA
  6
STYLE_01
 62
     7
 66
     1
 10
0.0
 20
0.0
 30
0.0
 70
   128
  0
VERTEX
  5
877
  8
DATA
  6
STYLE_01
 62
     7
 10
-191.19900000000001
 20
-81.090879999999984
 30
0.0
  0
VERTEX
  5
878
  8
DATA
  6
STYLE_01
 62
     7
 10
-191.69322500000001
 20
-81.080651250000017
 30
0.0
  0
VERTEX
  5
879
  8
DATA
  6
STYLE_01
 62
     7
 10
-192.18745000000001
 20
-81.073345000000003
 30
0.0
  0
VERTEX
  5
87A
  8
DATA
  6
STYLE_01
 62
     7
 10
-192.6816749999999
 20
-81.068961250000001
 30
0.0
  0
VERTEX
  5
87B
  8
DATA
  6
STYLE_01
 62
     7
 10
-193.17590000000001
 20
-81.067499999999981
 30
0.0
  0
VERTEX
  5
87C
  8
DATA
  6
STYLE_01
 62
     7
 10
-193.67012500000001
 20
-81.068961250000001
 30
0.0
  0
VERTEX
  5
87D
  8
DATA
  6
STYLE_01
 62
     7
 10
-194.1643499999999
 20
-81.073345000000003
 30
0.0
  0
VERTEX
  5
87E
  8
DATA
  6
STYLE_01
 62
     7
 10
-194.6585749999999
 20
-81.080651250000017
 30
0.0
  0
VERTEX
  5
87F
  8
DATA
  6
STYLE_01
 62
     7
 10
-195.15280000000001
 20
-81.090879999999984
 30
0.0
  0
VERTEX
  5
880
  8
DATA
  6
STYLE_01
 62
     7
 10
-195.15280000000001
 20
-81.090879999999984
 30
0.0
  0
SEQEND
  5
881
  8
DATA
  6
STYLE_01
 62
     7
  0
POLYLINE
  5
47F
  8
DATA
  6
CONTINUOUS
 62
     7
 66
     1
 10
0.0
 20
0.0
 30
0.0
 70
   128
  0
VERTEX
  5
882
  8
DATA
  6
CONTINUOUS
 62
     7
 10
-24.62699999999996
 20
-95.092749999999995
 30
0.0
  0
VERTEX
  5
883
  8
DATA
  6
CONTINUOUS
 62
     7
 10
-24.536482109374958
 20
-95.086573359374995
 30
0.0
  0
VERTEX
  5
884
  8
DATA
  6
CONTINUOUS
 62
     7
 10
-24.447488437499981
 20
-95.067723437500007
 30
0.0
  0
VERTEX
  5
885
  8
DATA
  6
CONTINUOUS
 62
     7
 10
-24.360018984374999
 20
-95.036200234375002
 30
0.0
  0
VERTEX
  5
886
  8
DATA
  6
CONTINUOUS
 62
     7
 10
-24.274073749999999
 20
-94.992003750000023
 30
0.0
  0
VERTEX
  5
887
  8
DATA
  6
CONTINUOUS
 62
     7
 10
-24.189652734374992
 20
-94.935133984375057
 30
0.0
  0
VERTEX
  5
888
  8
DATA
  6
CONTINUOUS
 62
     7
 10
-24.10675593749998
 20
-94.865590937500045
 30
0.0
  0
VERTEX
  5
889
  8
DATA
  6
CONTINUOUS
 62
     7
 10
-24.02538335937496
 20
-94.783374609375016
 30
0.0
  0
VERTEX
  5
88A
  8
DATA
  6
CONTINUOUS
 62
     7
 10
-23.94553499999996
 20
-94.688485
 30
0.0
  0
VERTEX
  5
88B
  8
DATA
  6
CONTINUOUS
 62
     7
 10
-23.94553499999996
 20
-94.688485
 30
0.0
  0
VERTEX
  5
88C
  8
DATA
  6
CONTINUOUS
 62
     7
 10
-23.868536406249959
 20
-94.582617890625002
 30
0.0
  0
VERTEX
  5
88D
  8
DATA
  6
CONTINUOUS
 62
     7
 10
-23.795713124999921
 20
-94.467469062500001
 30
0.0
  0
VERTEX
  5
88E
  8
DATA
  6
CONTINUOUS
 62
     7
 10
-23.727065156249921
 20
-94.343038515624997
 30
0.0
  0
VERTEX
  5
88F
  8
DATA
  6
CONTINUOUS
 62
     7
 10
-23.662592499999921
 20
-94.209326250000004
 30
0.0
  0
VERTEX
  5
890
  8
DATA
  6
CONTINUOUS
 62
     7
 10
-23.602295156249909
 20
-94.066332265624993
 30
0.0
  0
VERTEX
  5
891
  8
DATA
  6
CONTINUOUS
 62
     7
 10
-23.5461731249999
 20
-93.914056562499994
 30
0.0
  0
VERTEX
  5
892
  8
DATA
  6
CONTINUOUS
 62
     7
 10
-23.494226406249918
 20
-93.752499140625005
 30
0.0
  0
VERTEX
  5
893
  8
DATA
  6
CONTINUOUS
 62
     7
 10
-23.446454999999911
 20
-93.581660000000014
 30
0.0
  0
VERTEX
  5
894
  8
DATA
  6
CONTINUOUS
 62
     7
 10
-23.446454999999911
 20
-93.581660000000014
 30
0.0
  0
VERTEX
  5
895
  8
DATA
  6
CONTINUOUS
 62
     7
 10
-23.403624062499929
 20
-93.404479531250004
 30
0.0
  0
VERTEX
  5
896
  8
DATA
  6
CONTINUOUS
 62
     7
 10
-23.36649874999992
 20
-93.223898125000005
 30
0.0
  0
VERTEX
  5
897
  8
DATA
  6
CONTINUOUS
 62
     7
 10
-23.33507906249994
 20
-93.039915781249974
 30
0.0
  0
VERTEX
  5
898
  8
DATA
  6
CONTINUOUS
 62
     7
 10
-23.309364999999939
 20
-92.852532499999995
 30
0.0
  0
VERTEX
  5
899
  8
DATA
  6
CONTINUOUS
 62
     7
 10
-23.28935656249994
 20
-92.661748281249956
 30
0.0
  0
VERTEX
  5
89A
  8
DATA
  6
CONTINUOUS
 62
     7
 10
-23.275053749999959
 20
-92.467563124999955
 30
0.0
  0
VERTEX
  5
89B
  8
DATA
  6
CONTINUOUS
 62
     7
 10
-23.266456562499979
 20
-92.269977031249994
 30
0.0
  0
VERTEX
  5
89C
  8
DATA
  6
CONTINUOUS
 62
     7
 10
-23.263564999999979
 20
-92.068989999999985
 30
0.0
  0
VERTEX
  5
89D
  8
DATA
  6
CONTINUOUS
 62
     7
 10
-23.263564999999979
 20
-92.068989999999985
 30
0.0
  0
VERTEX
  5
89E
  8
DATA
  6
CONTINUOUS
 62
     7
 10
-23.266380000000002
 20
-91.867997656249955
 30
0.0
  0
VERTEX
  5
89F
  8
DATA
  6
CONTINUOUS
 62
     7
 10
-23.27490250000001
 20
-91.670395624999983
 30
0.0
  0
VERTEX
  5
8A0
  8
DATA
  6
CONTINUOUS
 62
     7
 10
-23.289132500000001
 20
-91.476183906249986
 30
0.0
  0
VERTEX
  5
8A1
  8
DATA
  6
CONTINUOUS
 62
     7
 10
-23.309070000000009
 20
-91.285362500000005
 30
0.0
  0
VERTEX
  5
8A2
  8
DATA
  6
CONTINUOUS
 62
     7
 10
-23.334714999999999
 20
-91.097931406249984
 30
0.0
  0
VERTEX
  5
8A3
  8
DATA
  6
CONTINUOUS
 62
     7
 10
-23.3660675
 20
-90.913890624999993
 30
0.0
  0
VERTEX
  5
8A4
  8
DATA
  6
CONTINUOUS
 62
     7
 10
-23.403127499999979
 20
-90.733240156250005
 30
0.0
  0
VERTEX
  5
8A5
  8
DATA
  6
CONTINUOUS
 62
     7
 10
-23.445894999999961
 20
-90.555979999999963
 30
0.0
  0
VERTEX
  5
8A6
  8
DATA
  6
CONTINUOUS
 62
     7
 10
-23.445894999999961
 20
-90.555979999999963
 30
0.0
  0
VERTEX
  5
8A7
  8
DATA
  6
CONTINUOUS
 62
     7
 10
-23.493605468749941
 20
-90.385052421874946
 30
0.0
  0
VERTEX
  5
8A8
  8
DATA
  6
CONTINUOUS
 62
     7
 10
-23.545494374999929
 20
-90.223399687499963
 30
0.0
  0
VERTEX
  5
8A9
  8
DATA
  6
CONTINUOUS
 62
     7
 10
-23.60156171874992
 20
-90.071021796874973
 30
0.0
  0
VERTEX
  5
8AA
  8
DATA
  6
CONTINUOUS
 62
     7
 10
-23.66180749999992
 20
-89.927918749999961
 30
0.0
  0
VERTEX
  5
8AB
  8
DATA
  6
CONTINUOUS
 62
     7
 10
-23.726231718749919
 20
-89.794090546874983
 30
0.0
  0
VERTEX
  5
8AC
  8
DATA
  6
CONTINUOUS
 62
     7
 10
-23.794834374999919
 20
-89.669537187499984
 30
0.0
  0
VERTEX
  5
8AD
  8
DATA
  6
CONTINUOUS
 62
     7
 10
-23.867615468749921
 20
-89.554258671874976
 30
0.0
  0
VERTEX
  5
8AE
  8
DATA
  6
CONTINUOUS
 62
     7
 10
-23.94457499999994
 20
-89.448255000000003
 30
0.0
  0
VERTEX
  5
8AF
  8
DATA
  6
CONTINUOUS
 62
     7
 10
-23.94457499999994
 20
-89.448255000000003
 30
0.0
  0
VERTEX
  5
8B0
  8
DATA
  6
CONTINUOUS
 62
     7
 10
-24.024388671874959
 20
-89.353224140624974
 30
0.0
  0
VERTEX
  5
8B1
  8
DATA
  6
CONTINUOUS
 62
     7
 10
-24.10573218749995
 20
-89.270864062499982
 30
0.0
  0
VERTEX
  5
8B2
  8
DATA
  6
CONTINUOUS
 62
     7
 10
-24.18860554687496
 20
-89.201174765624984
 30
0.0
  0
VERTEX
  5
8B3
  8
DATA
  6
CONTINUOUS
 62
     7
 10
-24.27300874999996
 20
-89.14415624999998
 30
0.0
  0
VERTEX
  5
8B4
  8
DATA
  6
CONTINUOUS
 62
     7
 10
-24.358941796874991
 20
-89.099808515624986
 30
0.0
  0
VERTEX
  5
8B5
  8
DATA
  6
CONTINUOUS
 62
     7
 10
-24.446404687499971
 20
-89.068131562500014
 30
0.0
  0
VERTEX
  5
8B6
  8
DATA
  6
CONTINUOUS
 62
     7
 10
-24.535397421874968
 20
-89.049125390625022
 30
0.0
  0
VERTEX
  5
8B7
  8
DATA
  6
CONTINUOUS
 62
     7
 10
-24.625919999999962
 20
-89.042789999999982
 30
0.0
  0
VERTEX
  5
8B8
  8
DATA
  6
CONTINUOUS
 62
     7
 10
-24.625919999999962
 20
-89.042789999999982
 30
0.0
  0
SEQEND
  5
8B9
  8
DATA
  6
CONTINUOUS
 62
     7
  0
TEXT
  5
4B8
  8
DATA
 62
     7
 10
-43.482027999999879
 20
-85.890649999999965
 30
0.0
 40
3.9510879999999999
  1
S
 50
270.0
 41
0.8
 11
-39.530939999999887
 21
-85.890649999999965
 31
0.0
 73
     3
  0
TEXT
  5
4B9
  8
DATA
 62
     7
 10
-43.482027999999879
 20
-95.921200000000013
 30
0.0
 40
3.9510879999999999
  1
E
 50
270.0
 41
0.8
 11
-39.530939999999887
 21
-95.921200000000013
 31
0.0
 73
     3
  0
LINE
  5
4BA
  8
DATA
  6
CONTINUOUS
 62
     7
 10
147.03198060719831
 20
214.09261444751641
 30
0.0
 11
277.53384
 21
-11.943169999999981
 31
0.0
  0
LINE
  5
4BB
  8
DATA
  6
CONTINUOUS
 62
     7
 10
140.71003935483731
 20
210.44265090571349
 30
0.0
 11
271.21188000000001
 21
-15.59315999999998
 31
0.0
  0
LINE
  5
4BC
  8
DATA
  6
CONTINUOUS
 62
     7
 10
319.57362999999998
 20
-98.108169999999959
 30
0.0
 11
324.38792000000001
 21
-94.34681999999998
 31
0.0
  0
LINE
  5
4BD
  8
DATA
  6
CONTINUOUS
 62
     7
 10
319.04388999999992
 20
-97.190639999999945
 30
0.0
 11
323.85818000000012
 21
-93.429320000000004
 31
0.0
  0
LINE
  5
4BE
  8
DATA
  6
CONTINUOUS
 62
     7
 10
323.23313000000002
 20
-93.917629999999946
 30
0.0
 11
322.76289000000003
 21
-93.103129999999979
 31
0.0
  0
LINE
  5
4BF
  8
DATA
  6
CONTINUOUS
 62
     7
 10
319.57265000000001
 20
-96.777519999999981
 30
0.0
 11
319.10237999999998
 21
-95.963019999999986
 31
0.0
  0
LINE
  5
4C0
  8
DATA
  6
CONTINUOUS
 62
     7
 10
323.85818000000012
 20
-93.429320000000004
 30
0.0
 11
324.38792000000001
 21
-94.34681999999998
 31
0.0
  0
LINE
  5
4C1
  8
DATA
  6
CONTINUOUS
 62
     7
 10
319.04388999999992
 20
-97.190639999999945
 30
0.0
 11
319.57362999999998
 21
-98.108169999999959
 31
0.0
  0
LINE
  5
4C2
  8
DATA
  6
CONTINUOUS
 62
     7
 10
318.57363000000009
 20
-96.376140000000007
 30
0.0
 11
323.38792000000001
 21
-92.614790000000013
 31
0.0
  0
LINE
  5
4C3
  8
DATA
  6
CONTINUOUS
 62
     7
 10
318.04388999999992
 20
-95.458609999999993
 30
0.0
 11
322.85818000000012
 21
-91.69726
 31
0.0
  0
LINE
  5
4C4
  8
DATA
  6
CONTINUOUS
 62
     7
 10
322.85818000000012
 20
-91.69726
 30
0.0
 11
323.38792000000001
 21
-92.614790000000013
 31
0.0
  0
LINE
  5
4C5
  8
DATA
  6
CONTINUOUS
 62
     7
 10
318.04388999999992
 20
-95.458609999999993
 30
0.0
 11
318.57363000000009
 21
-96.376140000000007
 31
0.0
  0
LINE
  5
4C6
  8
DATA
  6
CONTINUOUS
 62
     7
 10
324.23313000000002
 20
-95.649699999999996
 30
0.0
 11
323.76289000000003
 21
-94.835159999999959
 31
0.0
  0
LINE
  5
4C7
  8
DATA
  6
CONTINUOUS
 62
     7
 10
320.57265000000001
 20
-98.50958
 30
0.0
 11
320.1023800000001
 21
-97.695049999999981
 31
0.0
  0
LINE
  5
4C8
  8
DATA
  6
CONTINUOUS
 62
     7
 10
322.23313000000002
 20
-92.185599999999994
 30
0.0
 11
321.76289000000003
 21
-91.371060000000014
 31
0.0
  0
LINE
  5
4C9
  8
DATA
  6
CONTINUOUS
 62
     7
 10
318.57265000000001
 20
-95.045479999999984
 30
0.0
 11
318.1023800000001
 21
-94.230949999999979
 31
0.0
  0
LINE
  5
4CA
  8
DATA
  6
CONTINUOUS
 62
     7
 10
317.57362999999998
 20
-94.644070000000013
 30
0.0
 11
322.38792000000001
 21
-90.882719999999964
 31
0.0
  0
LINE
  5
4CB
  8
DATA
  6
CONTINUOUS
 62
     7
 10
317.04388999999992
 20
-93.72654
 30
0.0
 11
321.85818000000012
 21
-89.965189999999964
 31
0.0
  0
LINE
  5
4CC
  8
DATA
  6
CONTINUOUS
 62
     7
 10
321.85818000000012
 20
-89.965189999999964
 30
0.0
 11
322.38792000000001
 21
-90.882719999999964
 31
0.0
  0
LINE
  5
4CD
  8
DATA
  6
CONTINUOUS
 62
     7
 10
317.04388999999992
 20
-93.72654
 30
0.0
 11
317.57362999999998
 21
-94.644070000000013
 31
0.0
  0
LINE
  5
4CE
  8
DATA
  6
CONTINUOUS
 62
     7
 10
321.23313000000002
 20
-90.453530000000001
 30
0.0
 11
320.76289000000003
 21
-89.639029999999977
 31
0.0
  0
LINE
  5
4CF
  8
DATA
  6
CONTINUOUS
 62
     7
 10
317.57265000000001
 20
-93.313419999999965
 30
0.0
 11
317.10237999999998
 21
-92.498919999999998
 31
0.0
  0
LINE
  5
4D0
  8
DATA
  6
CONTINUOUS
 62
     7
 10
316.57363000000009
 20
-92.912040000000005
 30
0.0
 11
321.38792000000001
 21
-89.150689999999983
 31
0.0
  0
LINE
  5
4D1
  8
DATA
  6
CONTINUOUS
 62
     7
 10
316.04388999999992
 20
-91.994479999999982
 30
0.0
 11
320.85818000000012
 21
-88.233159999999998
 31
0.0
  0
LINE
  5
4D2
  8
DATA
  6
CONTINUOUS
 62
     7
 10
320.85818000000012
 20
-88.233159999999998
 30
0.0
 11
321.38792000000001
 21
-89.150689999999983
 31
0.0
  0
LINE
  5
4D3
  8
DATA
  6
CONTINUOUS
 62
     7
 10
316.04388999999992
 20
-91.994479999999982
 30
0.0
 11
316.57363000000009
 21
-92.912040000000005
 31
0.0
  0
LINE
  5
4D4
  8
DATA
  6
CONTINUOUS
 62
     7
 10
320.23313000000002
 20
-88.721490000000003
 30
0.0
 11
319.76289000000003
 21
-87.906969999999987
 31
0.0
  0
LINE
  5
4D5
  8
DATA
  6
CONTINUOUS
 62
     7
 10
316.57265000000001
 20
-91.581390000000013
 30
0.0
 11
316.1023800000001
 21
-90.766849999999948
 31
0.0
  0
LINE
  5
4D6
  8
DATA
  6
CONTINUOUS
 62
     7
 10
315.57362999999998
 20
-91.17998
 30
0.0
 11
320.38792000000001
 21
-87.418619999999947
 31
0.0
  0
LINE
  5
4D7
  8
DATA
  6
CONTINUOUS
 62
     7
 10
315.04388999999992
 20
-90.262450000000015
 30
0.0
 11
319.85818000000012
 21
-86.501089999999962
 31
0.0
  0
LINE
  5
4D8
  8
DATA
  6
CONTINUOUS
 62
     7
 10
319.85818000000012
 20
-86.501089999999962
 30
0.0
 11
320.38792000000001
 21
-87.418619999999947
 31
0.0
  0
LINE
  5
4D9
  8
DATA
  6
CONTINUOUS
 62
     7
 10
315.04388999999992
 20
-90.262450000000015
 30
0.0
 11
315.57362999999998
 21
-91.17998
 31
0.0
  0
LINE
  5
4DA
  8
DATA
  6
CONTINUOUS
 62
     7
 10
319.23313000000002
 20
-86.989429999999984
 30
0.0
 11
318.76289000000003
 21
-86.174930000000003
 31
0.0
  0
LINE
  5
4DB
  8
DATA
  6
CONTINUOUS
 62
     7
 10
315.57265000000001
 20
-89.849319999999963
 30
0.0
 11
315.10237999999998
 21
-89.034819999999982
 31
0.0
  0
LINE
  5
4DC
  8
DATA
  6
CONTINUOUS
 62
     7
 10
314.57363000000009
 20
-89.447919999999968
 30
0.0
 11
319.38792000000001
 21
-85.686589999999981
 31
0.0
  0
LINE
  5
4DD
  8
DATA
  6
CONTINUOUS
 62
     7
 10
314.04388999999992
 20
-88.530379999999965
 30
0.0
 11
318.85818000000012
 21
-84.769059999999968
 31
0.0
  0
LINE
  5
4DE
  8
DATA
  6
CONTINUOUS
 62
     7
 10
318.85818000000012
 20
-84.769059999999968
 30
0.0
 11
319.38792000000001
 21
-85.686589999999981
 31
0.0
  0
LINE
  5
4DF
  8
DATA
  6
CONTINUOUS
 62
     7
 10
314.04388999999992
 20
-88.530379999999965
 30
0.0
 11
314.57363000000009
 21
-89.447919999999968
 31
0.0
  0
LINE
  5
4E0
  8
DATA
  6
CONTINUOUS
 62
     7
 10
318.23313000000002
 20
-85.257369999999966
 30
0.0
 11
317.76289000000003
 21
-84.442869999999999
 31
0.0
  0
LINE
  5
4E1
  8
DATA
  6
CONTINUOUS
 62
     7
 10
314.57265000000001
 20
-88.117289999999969
 30
0.0
 11
314.1023800000001
 21
-87.302749999999975
 31
0.0
  0
LINE
  5
4E2
  8
DATA
  6
CONTINUOUS
 62
     7
 10
313.57362999999998
 20
-87.715879999999984
 30
0.0
 11
318.38792000000001
 21
-83.954519999999974
 31
0.0
  0
LINE
  5
4E3
  8
DATA
  6
CONTINUOUS
 62
     7
 10
313.04388999999992
 20
-86.798349999999999
 30
0.0
 11
317.85818000000012
 21
-83.036989999999975
 31
0.0
  0
LINE
  5
4E4
  8
DATA
  6
CONTINUOUS
 62
     7
 10
317.85818000000012
 20
-83.036989999999975
 30
0.0
 11
318.38792000000001
 21
-83.954519999999974
 31
0.0
  0
LINE
  5
4E5
  8
DATA
  6
CONTINUOUS
 62
     7
 10
313.04388999999992
 20
-86.798349999999999
 30
0.0
 11
313.57362999999998
 21
-87.715879999999984
 31
0.0
  0
LINE
  5
4E6
  8
DATA
  6
CONTINUOUS
 62
     7
 10
317.23313000000002
 20
-83.52534
 30
0.0
 11
316.76289000000003
 21
-82.710809999999981
 31
0.0
  0
LINE
  5
4E7
  8
DATA
  6
CONTINUOUS
 62
     7
 10
313.57265000000001
 20
-86.385219999999961
 30
0.0
 11
313.1023800000001
 21
-85.570709999999977
 31
0.0
  0
LINE
  5
4E8
  8
DATA
  6
CONTINUOUS
 62
     7
 10
312.57363000000009
 20
-85.983849999999975
 30
0.0
 11
317.38792000000001
 21
-82.222489999999965
 31
0.0
  0
LINE
  5
4E9
  8
DATA
  6
CONTINUOUS
 62
     7
 10
312.04388999999992
 20
-85.066279999999963
 30
0.0
 11
316.85818000000012
 21
-81.304959999999994
 31
0.0
  0
LINE
  5
4EA
  8
DATA
  6
CONTINUOUS
 62
     7
 10
316.85818000000012
 20
-81.304959999999994
 30
0.0
 11
317.38792000000001
 21
-82.222489999999965
 31
0.0
  0
LINE
  5
4EB
  8
DATA
  6
CONTINUOUS
 62
     7
 10
312.04388999999992
 20
-85.066279999999963
 30
0.0
 11
312.57363000000009
 21
-85.983849999999975
 31
0.0
  0
LINE
  5
4EC
  8
DATA
  6
CONTINUOUS
 62
     7
 10
316.23313000000002
 20
-81.793269999999978
 30
0.0
 11
315.76289000000003
 21
-80.978779999999986
 31
0.0
  0
LINE
  5
4ED
  8
DATA
  6
CONTINUOUS
 62
     7
 10
312.57265000000001
 20
-84.653189999999995
 30
0.0
 11
312.1023800000001
 21
-83.838650000000001
 31
0.0
  0
LINE
  5
4EE
  8
DATA
  6
CONTINUOUS
 62
     7
 10
311.57362999999998
 20
-84.251789999999986
 30
0.0
 11
316.38792000000001
 21
-80.49042
 31
0.0
  0
LINE
  5
4EF
  8
DATA
  6
CONTINUOUS
 62
     7
 10
311.04388999999992
 20
-83.334249999999983
 30
0.0
 11
315.85818000000012
 21
-79.572890000000001
 31
0.0
  0
LINE
  5
4F0
  8
DATA
  6
CONTINUOUS
 62
     7
 10
315.85818000000012
 20
-79.572890000000001
 30
0.0
 11
316.38792000000001
 21
-80.49042
 31
0.0
  0
LINE
  5
4F1
  8
DATA
  6
CONTINUOUS
 62
     7
 10
311.04388999999992
 20
-83.334249999999983
 30
0.0
 11
311.57362999999998
 21
-84.251789999999986
 31
0.0
  0
LINE
  5
4F2
  8
DATA
  6
CONTINUOUS
 62
     7
 10
315.23313000000002
 20
-80.061239999999984
 30
0.0
 11
314.76289000000003
 21
-79.246709999999979
 31
0.0
  0
LINE
  5
4F3
  8
DATA
  6
CONTINUOUS
 62
     7
 10
311.57265000000001
 20
-82.921119999999974
 30
0.0
 11
311.1023800000001
 21
-82.106609999999989
 31
0.0
  0
LINE
  5
4F4
  8
DATA
  6
CONTINUOUS
 62
     7
 10
310.57363000000009
 20
-82.519719999999978
 30
0.0
 11
315.38792000000001
 21
-78.758389999999977
 31
0.0
  0
LINE
  5
4F5
  8
DATA
  6
CONTINUOUS
 62
     7
 10
310.04388999999992
 20
-81.602179999999976
 30
0.0
 11
314.85818000000012
 21
-77.840859999999978
 31
0.0
  0
LINE
  5
4F6
  8
DATA
  6
CONTINUOUS
 62
     7
 10
314.85818000000012
 20
-77.840859999999978
 30
0.0
 11
315.38792000000001
 21
-78.758389999999977
 31
0.0
  0
LINE
  5
4F7
  8
DATA
  6
CONTINUOUS
 62
     7
 10
310.04388999999992
 20
-81.602179999999976
 30
0.0
 11
310.57363000000009
 21
-82.519719999999978
 31
0.0
  0
LINE
  5
4F8
  8
DATA
  6
CONTINUOUS
 62
     7
 10
314.23313000000002
 20
-78.329169999999976
 30
0.0
 11
313.76290000000012
 21
-77.514679999999998
 31
0.0
  0
LINE
  5
4F9
  8
DATA
  6
CONTINUOUS
 62
     7
 10
310.57265000000001
 20
-81.189089999999979
 30
0.0
 11
310.10239000000001
 21
-80.374549999999985
 31
0.0
  0
LINE
  5
4FA
  8
DATA
  6
CONTINUOUS
 62
     7
 10
309.57362999999998
 20
-80.787689999999984
 30
0.0
 11
314.38792000000001
 21
-77.026330000000002
 31
0.0
  0
LINE
  5
4FB
  8
DATA
  6
CONTINUOUS
 62
     7
 10
309.04388999999992
 20
-79.870149999999981
 30
0.0
 11
313.85818000000012
 21
-76.108800000000002
 31
0.0
  0
LINE
  5
4FC
  8
DATA
  6
CONTINUOUS
 62
     7
 10
313.85818000000012
 20
-76.108800000000002
 30
0.0
 11
314.38792000000001
 21
-77.026330000000002
 31
0.0
  0
LINE
  5
4FD
  8
DATA
  6
CONTINUOUS
 62
     7
 10
309.04388999999992
 20
-79.870149999999981
 30
0.0
 11
309.57362999999998
 21
-80.787689999999984
 31
0.0
  0
LINE
  5
4FE
  8
DATA
  6
CONTINUOUS
 62
     7
 10
313.23313000000002
 20
-76.597139999999982
 30
0.0
 11
312.76290000000012
 21
-75.782609999999977
 31
0.0
  0
LINE
  5
4FF
  8
DATA
  6
CONTINUOUS
 62
     7
 10
309.57265000000001
 20
-79.45702
 30
0.0
 11
309.10239000000001
 21
-78.642519999999976
 31
0.0
  0
LINE
  5
500
  8
DATA
  6
CONTINUOUS
 62
     7
 10
308.57363000000009
 20
-79.055619999999976
 30
0.0
 11
313.38792000000001
 21
-75.294289999999975
 31
0.0
  0
LINE
  5
501
  8
DATA
  6
CONTINUOUS
 62
     7
 10
308.04388999999992
 20
-78.138080000000002
 30
0.0
 11
312.85818000000012
 21
-74.376759999999976
 31
0.0
  0
LINE
  5
502
  8
DATA
  6
CONTINUOUS
 62
     7
 10
312.85818000000012
 20
-74.376759999999976
 30
0.0
 11
313.38792000000001
 21
-75.294289999999975
 31
0.0
  0
LINE
  5
503
  8
DATA
  6
CONTINUOUS
 62
     7
 10
308.04388999999992
 20
-78.138080000000002
 30
0.0
 11
308.57363000000009
 21
-79.055619999999976
 31
0.0
  0
LINE
  5
504
  8
DATA
  6
CONTINUOUS
 62
     7
 10
312.23313000000002
 20
-74.865069999999974
 30
0.0
 11
311.76290000000012
 21
-74.050579999999982
 31
0.0
  0
LINE
  5
505
  8
DATA
  6
CONTINUOUS
 62
     7
 10
308.57265000000001
 20
-77.724959999999982
 30
0.0
 11
308.10239000000001
 21
-76.91046
 31
0.0
  0
LINE
  5
506
  8
DATA
  6
CONTINUOUS
 62
     7
 10
307.57362999999998
 20
-77.323589999999982
 30
0.0
 11
312.38792000000001
 21
-73.562229999999985
 31
0.0
  0
LINE
  5
507
  8
DATA
  6
CONTINUOUS
 62
     7
 10
307.04388999999992
 20
-76.406049999999979
 30
0.0
 11
311.85818000000012
 21
-72.6447
 31
0.0
  0
LINE
  5
508
  8
DATA
  6
CONTINUOUS
 62
     7
 10
311.85818000000012
 20
-72.6447
 30
0.0
 11
312.38792000000001
 21
-73.562229999999985
 31
0.0
  0
LINE
  5
509
  8
DATA
  6
CONTINUOUS
 62
     7
 10
307.04388999999992
 20
-76.406049999999979
 30
0.0
 11
307.57362999999998
 21
-77.323589999999982
 31
0.0
  0
LINE
  5
50A
  8
DATA
  6
CONTINUOUS
 62
     7
 10
311.23313000000007
 20
-73.13303999999998
 30
0.0
 11
310.76290000000012
 21
-72.318509999999975
 31
0.0
  0
LINE
  5
50B
  8
DATA
  6
CONTINUOUS
 62
     7
 10
307.57265000000001
 20
-75.992930000000001
 30
0.0
 11
307.10239000000001
 21
-75.178399999999982
 31
0.0
  0
LINE
  5
50C
  8
DATA
  6
CONTINUOUS
 62
     7
 10
306.57363000000009
 20
-75.591519999999974
 30
0.0
 11
311.38792000000001
 21
-71.830159999999978
 31
0.0
  0
LINE
  5
50D
  8
DATA
  6
CONTINUOUS
 62
     7
 10
306.04388999999992
 20
-74.67398
 30
0.0
 11
310.85818000000012
 21
-70.912639999999982
 31
0.0
  0
LINE
  5
50E
  8
DATA
  6
CONTINUOUS
 62
     7
 10
310.85818000000012
 20
-70.912639999999982
 30
0.0
 11
311.38792000000001
 21
-71.830159999999978
 31
0.0
  0
LINE
  5
50F
  8
DATA
  6
CONTINUOUS
 62
     7
 10
306.04388999999992
 20
-74.67398
 30
0.0
 11
306.57363000000009
 21
-75.591519999999974
 31
0.0
  0
LINE
  5
510
  8
DATA
  6
CONTINUOUS
 62
     7
 10
310.23313000000002
 20
-71.400970000000001
 30
0.0
 11
309.76290000000012
 21
-70.586479999999995
 31
0.0
  0
LINE
  5
511
  8
DATA
  6
CONTINUOUS
 62
     7
 10
306.57265000000001
 20
-74.260859999999965
 30
0.0
 11
306.10239000000001
 21
-73.446370000000002
 31
0.0
  0
LINE
  5
512
  8
DATA
  6
CONTINUOUS
 62
     7
 10
305.57362999999998
 20
-73.85948999999998
 30
0.0
 11
310.38792000000001
 21
-70.098129999999998
 31
0.0
  0
LINE
  5
513
  8
DATA
  6
CONTINUOUS
 62
     7
 10
305.04388999999992
 20
-72.941949999999977
 30
0.0
 11
309.85818000000012
 21
-69.180610000000001
 31
0.0
  0
LINE
  5
514
  8
DATA
  6
CONTINUOUS
 62
     7
 10
309.85818000000012
 20
-69.180610000000001
 30
0.0
 11
310.38792000000001
 21
-70.098129999999998
 31
0.0
  0
LINE
  5
515
  8
DATA
  6
CONTINUOUS
 62
     7
 10
305.04388999999992
 20
-72.941949999999977
 30
0.0
 11
305.57362999999998
 21
-73.85948999999998
 31
0.0
  0
LINE
  5
516
  8
DATA
  6
CONTINUOUS
 62
     7
 10
309.23313000000007
 20
-69.668939999999992
 30
0.0
 11
308.76290000000012
 21
-68.854410000000001
 31
0.0
  0
LINE
  5
517
  8
DATA
  6
CONTINUOUS
 62
     7
 10
305.57265000000001
 20
-72.528829999999999
 30
0.0
 11
305.10239000000001
 21
-71.71429999999998
 31
0.0
  0
LINE
  5
518
  8
DATA
  6
CONTINUOUS
 62
     7
 10
304.57363000000009
 20
-72.127420000000001
 30
0.0
 11
309.38792000000001
 21
-68.366059999999976
 31
0.0
  0
LINE
  5
519
  8
DATA
  6
CONTINUOUS
 62
     7
 10
304.04388999999992
 20
-71.209890000000001
 30
0.0
 11
308.85818000000012
 21
-67.448529999999977
 31
0.0
  0
LINE
  5
51A
  8
DATA
  6
CONTINUOUS
 62
     7
 10
308.85818000000012
 20
-67.448529999999977
 30
0.0
 11
309.38792000000001
 21
-68.366059999999976
 31
0.0
  0
LINE
  5
51B
  8
DATA
  6
CONTINUOUS
 62
     7
 10
304.04388999999992
 20
-71.209890000000001
 30
0.0
 11
304.57363000000009
 21
-72.127420000000001
 31
0.0
  0
LINE
  5
51C
  8
DATA
  6
CONTINUOUS
 62
     7
 10
308.23313000000002
 20
-67.936880000000002
 30
0.0
 11
307.76290000000012
 21
-67.122379999999993
 31
0.0
  0
LINE
  5
51D
  8
DATA
  6
CONTINUOUS
 62
     7
 10
304.57265000000001
 20
-70.796759999999978
 30
0.0
 11
304.10239000000001
 21
-69.982269999999986
 31
0.0
  0
LINE
  5
51E
  8
DATA
  6
CONTINUOUS
 62
     7
 10
303.57362999999998
 20
-70.395389999999963
 30
0.0
 11
308.38792000000001
 21
-66.634029999999996
 31
0.0
  0
LINE
  5
51F
  8
DATA
  6
CONTINUOUS
 62
     7
 10
303.04388999999992
 20
-69.47781999999998
 30
0.0
 11
307.85818000000017
 21
-65.716499999999996
 31
0.0
  0
LINE
  5
520
  8
DATA
  6
CONTINUOUS
 62
     7
 10
307.85818000000017
 20
-65.716499999999996
 30
0.0
 11
308.38792000000001
 21
-66.634029999999996
 31
0.0
  0
LINE
  5
521
  8
DATA
  6
CONTINUOUS
 62
     7
 10
303.04388999999992
 20
-69.47781999999998
 30
0.0
 11
303.57362999999998
 21
-70.395389999999963
 31
0.0
  0
LINE
  5
522
  8
DATA
  6
CONTINUOUS
 62
     7
 10
307.23313000000002
 20
-66.204809999999981
 30
0.0
 11
306.76290000000012
 21
-65.390320000000003
 31
0.0
  0
LINE
  5
523
  8
DATA
  6
CONTINUOUS
 62
     7
 10
303.57265000000001
 20
-69.064729999999997
 30
0.0
 11
303.10239000000001
 21
-68.250199999999978
 31
0.0
  0
LINE
  5
524
  8
DATA
  6
CONTINUOUS
 62
     7
 10
302.57363000000009
 20
-68.663330000000002
 30
0.0
 11
307.38792000000001
 21
-64.901960000000003
 31
0.0
  0
LINE
  5
525
  8
DATA
  6
CONTINUOUS
 62
     7
 10
302.04388999999992
 20
-67.74579
 30
0.0
 11
306.85818000000012
 21
-63.984430000000003
 31
0.0
  0
LINE
  5
526
  8
DATA
  6
CONTINUOUS
 62
     7
 10
306.85818000000012
 20
-63.984430000000003
 30
0.0
 11
307.38792000000001
 21
-64.901960000000003
 31
0.0
  0
LINE
  5
527
  8
DATA
  6
CONTINUOUS
 62
     7
 10
302.04388999999992
 20
-67.74579
 30
0.0
 11
302.57363000000009
 21
-68.663330000000002
 31
0.0
  0
LINE
  5
528
  8
DATA
  6
CONTINUOUS
 62
     7
 10
306.23313000000002
 20
-64.47278
 30
0.0
 11
305.76290000000012
 21
-63.658279999999991
 31
0.0
  0
LINE
  5
529
  8
DATA
  6
CONTINUOUS
 62
     7
 10
302.57265000000001
 20
-67.332659999999976
 30
0.0
 11
302.10239000000001
 21
-66.518159999999995
 31
0.0
  0
LINE
  5
52A
  8
DATA
  6
CONTINUOUS
 62
     7
 10
301.57362999999998
 20
-66.931289999999976
 30
0.0
 11
306.38792000000001
 21
-63.169939999999997
 31
0.0
  0
LINE
  5
52B
  8
DATA
  6
CONTINUOUS
 62
     7
 10
301.04388999999992
 20
-66.013719999999964
 30
0.0
 11
305.85818000000017
 21
-62.252400000000002
 31
0.0
  0
LINE
  5
52C
  8
DATA
  6
CONTINUOUS
 62
     7
 10
305.85818000000017
 20
-62.252400000000002
 30
0.0
 11
306.38792000000001
 21
-63.169939999999997
 31
0.0
  0
LINE
  5
52D
  8
DATA
  6
CONTINUOUS
 62
     7
 10
301.04388999999992
 20
-66.013719999999964
 30
0.0
 11
301.57362999999998
 21
-66.931289999999976
 31
0.0
  0
LINE
  5
52E
  8
DATA
  6
CONTINUOUS
 62
     7
 10
305.23313000000002
 20
-62.740709999999979
 30
0.0
 11
304.76290000000012
 21
-61.926220000000001
 31
0.0
  0
LINE
  5
52F
  8
DATA
  6
CONTINUOUS
 62
     7
 10
301.57265000000001
 20
-65.600629999999995
 30
0.0
 11
301.10239000000001
 21
-64.786090000000002
 31
0.0
  0
LINE
  5
530
  8
DATA
  6
CONTINUOUS
 62
     7
 10
300.57364000000001
 20
-65.199240000000003
 30
0.0
 11
305.38792000000001
 21
-61.43786999999999
 31
0.0
  0
LINE
  5
531
  8
DATA
  6
CONTINUOUS
 62
     7
 10
300.04388999999992
 20
-64.281689999999998
 30
0.0
 11
304.85818000000012
 21
-60.520330000000001
 31
0.0
  0
LINE
  5
532
  8
DATA
  6
CONTINUOUS
 62
     7
 10
304.85818000000012
 20
-60.520330000000001
 30
0.0
 11
305.38792000000001
 21
-61.43786999999999
 31
0.0
  0
LINE
  5
533
  8
DATA
  6
CONTINUOUS
 62
     7
 10
300.04388999999992
 20
-64.281689999999998
 30
0.0
 11
300.57364000000001
 21
-65.199240000000003
 31
0.0
  0
LINE
  5
534
  8
DATA
  6
CONTINUOUS
 62
     7
 10
304.23313000000002
 20
-61.008679999999998
 30
0.0
 11
303.76290000000012
 21
-60.194179999999989
 31
0.0
  0
LINE
  5
535
  8
DATA
  6
CONTINUOUS
 62
     7
 10
300.57265000000001
 20
-63.868560000000002
 30
0.0
 11
300.10239000000001
 21
-63.054059999999993
 31
0.0
  0
LINE
  5
536
  8
DATA
  6
CONTINUOUS
 62
     7
 10
299.57364000000001
 20
-63.467169999999982
 30
0.0
 11
304.38792000000001
 21
-59.705840000000002
 31
0.0
  0
LINE
  5
537
  8
DATA
  6
CONTINUOUS
 62
     7
 10
299.04388999999992
 20
-62.54961999999999
 30
0.0
 11
303.85818000000012
 21
-58.788299999999992
 31
0.0
  0
LINE
  5
538
  8
DATA
  6
CONTINUOUS
 62
     7
 10
303.85818000000012
 20
-58.788299999999992
 30
0.0
 11
304.38792000000001
 21
-59.705840000000002
 31
0.0
  0
LINE
  5
539
  8
DATA
  6
CONTINUOUS
 62
     7
 10
299.04388999999992
 20
-62.54961999999999
 30
0.0
 11
299.57364000000001
 21
-63.467169999999982
 31
0.0
  0
LINE
  5
53A
  8
DATA
  6
CONTINUOUS
 62
     7
 10
303.23313000000002
 20
-59.276609999999977
 30
0.0
 11
302.76290000000012
 21
-58.462130000000002
 31
0.0
  0
LINE
  5
53B
  8
DATA
  6
CONTINUOUS
 62
     7
 10
299.57265000000001
 20
-62.136529999999993
 30
0.0
 11
299.10239000000001
 21
-61.322000000000003
 31
0.0
  0
LINE
  5
53C
  8
DATA
  6
CONTINUOUS
 62
     7
 10
298.57364000000001
 20
-61.735140000000001
 30
0.0
 11
303.38792000000001
 21
-57.973770000000002
 31
0.0
  0
LINE
  5
53D
  8
DATA
  6
CONTINUOUS
 62
     7
 10
298.04389000000009
 20
-60.817590000000003
 30
0.0
 11
302.85818000000012
 21
-57.056240000000003
 31
0.0
  0
LINE
  5
53E
  8
DATA
  6
CONTINUOUS
 62
     7
 10
302.85818000000012
 20
-57.056240000000003
 30
0.0
 11
303.38792000000001
 21
-57.973770000000002
 31
0.0
  0
LINE
  5
53F
  8
DATA
  6
CONTINUOUS
 62
     7
 10
298.04389000000009
 20
-60.817590000000003
 30
0.0
 11
298.57364000000001
 21
-61.735140000000001
 31
0.0
  0
LINE
  5
540
  8
DATA
  6
CONTINUOUS
 62
     7
 10
302.23313000000002
 20
-57.544580000000003
 30
0.0
 11
301.76290000000012
 21
-56.730049999999977
 31
0.0
  0
LINE
  5
541
  8
DATA
  6
CONTINUOUS
 62
     7
 10
298.57265000000001
 20
-60.404470000000003
 30
0.0
 11
298.10239000000001
 21
-59.589959999999991
 31
0.0
  0
LINE
  5
542
  8
DATA
  6
CONTINUOUS
 62
     7
 10
297.57364000000001
 20
-60.003059999999977
 30
0.0
 11
302.38792000000001
 21
-56.24174
 31
0.0
  0
LINE
  5
543
  8
DATA
  6
CONTINUOUS
 62
     7
 10
297.04388999999998
 20
-59.085520000000002
 30
0.0
 11
301.85818000000012
 21
-55.32419999999999
 31
0.0
  0
LINE
  5
544
  8
DATA
  6
CONTINUOUS
 62
     7
 10
301.85818000000012
 20
-55.32419999999999
 30
0.0
 11
302.38792000000001
 21
-56.24174
 31
0.0
  0
LINE
  5
545
  8
DATA
  6
CONTINUOUS
 62
     7
 10
297.04388999999998
 20
-59.085520000000002
 30
0.0
 11
297.57364000000001
 21
-60.003059999999977
 31
0.0
  0
LINE
  5
546
  8
DATA
  6
CONTINUOUS
 62
     7
 10
301.23313000000002
 20
-55.812510000000003
 30
0.0
 11
300.76290000000012
 21
-54.99801999999999
 31
0.0
  0
LINE
  5
547
  8
DATA
  6
CONTINUOUS
 62
     7
 10
297.57265000000001
 20
-58.672399999999982
 30
0.0
 11
297.10239000000001
 21
-57.85790999999999
 31
0.0
  0
LINE
  5
548
  8
DATA
  6
CONTINUOUS
 62
     7
 10
296.57364000000001
 20
-58.27103000000001
 30
0.0
 11
301.38792000000001
 21
-54.509680000000003
 31
0.0
  0
LINE
  5
549
  8
DATA
  6
CONTINUOUS
 62
     7
 10
296.04389000000009
 20
-57.353490000000001
 30
0.0
 11
300.85818000000012
 21
-53.59214999999999
 31
0.0
  0
LINE
  5
54A
  8
DATA
  6
CONTINUOUS
 62
     7
 10
300.85818000000012
 20
-53.59214999999999
 30
0.0
 11
301.38792000000001
 21
-54.509680000000003
 31
0.0
  0
LINE
  5
54B
  8
DATA
  6
CONTINUOUS
 62
     7
 10
296.04389000000009
 20
-57.353490000000001
 30
0.0
 11
296.57364000000001
 21
-58.27103000000001
 31
0.0
  0
LINE
  5
54C
  8
DATA
  6
CONTINUOUS
 62
     7
 10
300.23311000000001
 20
-54.080419999999997
 30
0.0
 11
299.76290000000012
 21
-53.265949999999997
 31
0.0
  0
LINE
  5
54D
  8
DATA
  6
CONTINUOUS
 62
     7
 10
296.57265000000001
 20
-56.940370000000001
 30
0.0
 11
296.10239000000001
 21
-56.125859999999989
 31
0.0
  0
LINE
  5
54E
  8
DATA
  6
CONTINUOUS
 62
     7
 10
295.57364000000001
 20
-56.538960000000003
 30
0.0
 11
300.38792000000001
 21
-52.777609999999981
 31
0.0
  0
LINE
  5
54F
  8
DATA
  6
CONTINUOUS
 62
     7
 10
295.04387000000003
 20
-55.621389999999991
 30
0.0
 11
299.85818000000012
 21
-51.860079999999982
 31
0.0
  0
LINE
  5
550
  8
DATA
  6
CONTINUOUS
 62
     7
 10
299.85818000000012
 20
-51.860079999999982
 30
0.0
 11
300.38792000000001
 21
-52.777609999999981
 31
0.0
  0
LINE
  5
551
  8
DATA
  6
CONTINUOUS
 62
     7
 10
295.04387000000003
 20
-55.621389999999991
 30
0.0
 11
295.57364000000001
 21
-56.538960000000003
 31
0.0
  0
LINE
  5
552
  8
DATA
  6
CONTINUOUS
 62
     7
 10
299.23311000000001
 20
-52.348379999999992
 30
0.0
 11
298.7629
 21
-51.533920000000002
 31
0.0
  0
LINE
  5
553
  8
DATA
  6
CONTINUOUS
 62
     7
 10
295.57264000000009
 20
-55.208269999999999
 30
0.0
 11
295.10239000000001
 21
-54.393810000000002
 31
0.0
  0
LINE
  5
554
  8
DATA
  6
CONTINUOUS
 62
     7
 10
294.57364000000001
 20
-54.80693999999999
 30
0.0
 11
299.38792000000001
 21
-51.045580000000001
 31
0.0
  0
LINE
  5
555
  8
DATA
  6
CONTINUOUS
 62
     7
 10
294.04387000000003
 20
-53.88933999999999
 30
0.0
 11
298.85818
 21
-50.128050000000002
 31
0.0
  0
LINE
  5
556
  8
DATA
  6
CONTINUOUS
 62
     7
 10
298.85818
 20
-50.128050000000002
 30
0.0
 11
299.38792000000001
 21
-51.045580000000001
 31
0.0
  0
LINE
  5
557
  8
DATA
  6
CONTINUOUS
 62
     7
 10
294.04387000000003
 20
-53.88933999999999
 30
0.0
 11
294.57364000000001
 21
-54.80693999999999
 31
0.0
  0
LINE
  5
558
  8
DATA
  6
CONTINUOUS
 62
     7
 10
298.23311000000001
 20
-50.616320000000002
 30
0.0
 11
297.7629
 21
-49.801850000000002
 31
0.0
  0
LINE
  5
559
  8
DATA
  6
CONTINUOUS
 62
     7
 10
294.57264000000009
 20
-53.476199999999992
 30
0.0
 11
294.10239000000001
 21
-52.66173999999998
 31
0.0
  0
LINE
  5
55A
  8
DATA
  6
CONTINUOUS
 62
     7
 10
293.57364000000001
 20
-53.074869999999997
 30
0.0
 11
298.38792000000001
 21
-49.31350999999998
 31
0.0
  0
LINE
  5
55B
  8
DATA
  6
CONTINUOUS
 62
     7
 10
293.04387000000003
 20
-52.157289999999989
 30
0.0
 11
297.85818
 21
-48.39597999999998
 31
0.0
  0
LINE
  5
55C
  8
DATA
  6
CONTINUOUS
 62
     7
 10
297.85818
 20
-48.39597999999998
 30
0.0
 11
298.38792000000001
 21
-49.31350999999998
 31
0.0
  0
LINE
  5
55D
  8
DATA
  6
CONTINUOUS
 62
     7
 10
293.04387000000003
 20
-52.157289999999989
 30
0.0
 11
293.57364000000001
 21
-53.074869999999997
 31
0.0
  0
LINE
  5
55E
  8
DATA
  6
CONTINUOUS
 62
     7
 10
297.23311000000001
 20
-48.88427999999999
 30
0.0
 11
296.7629
 21
-48.069819999999993
 31
0.0
  0
LINE
  5
55F
  8
DATA
  6
CONTINUOUS
 62
     7
 10
293.57263999999998
 20
-51.744169999999997
 30
0.0
 11
293.1023899999999
 21
-50.92971
 31
0.0
  0
LINE
  5
560
  8
DATA
  6
CONTINUOUS
 62
     7
 10
292.57364000000001
 20
-51.342840000000002
 30
0.0
 11
297.38792000000001
 21
-47.581479999999999
 31
0.0
  0
LINE
  5
561
  8
DATA
  6
CONTINUOUS
 62
     7
 10
292.04387000000003
 20
-50.425240000000002
 30
0.0
 11
296.85818
 21
-46.66393999999999
 31
0.0
  0
LINE
  5
562
  8
DATA
  6
CONTINUOUS
 62
     7
 10
296.85818
 20
-46.66393999999999
 30
0.0
 11
297.38792000000001
 21
-47.581479999999999
 31
0.0
  0
LINE
  5
563
  8
DATA
  6
CONTINUOUS
 62
     7
 10
292.04387000000003
 20
-50.425240000000002
 30
0.0
 11
292.57364000000001
 21
-51.342840000000002
 31
0.0
  0
LINE
  5
564
  8
DATA
  6
CONTINUOUS
 62
     7
 10
296.23311000000001
 20
-47.152230000000003
 30
0.0
 11
295.7629
 21
-46.337760000000003
 31
0.0
  0
LINE
  5
565
  8
DATA
  6
CONTINUOUS
 62
     7
 10
292.57264000000009
 20
-50.012099999999997
 30
0.0
 11
292.10239000000001
 21
-49.197649999999982
 31
0.0
  0
LINE
  5
566
  8
DATA
  6
CONTINUOUS
 62
     7
 10
291.57364000000001
 20
-49.610770000000002
 30
0.0
 11
296.38792000000001
 21
-45.84940999999997
 31
0.0
  0
LINE
  5
567
  8
DATA
  6
CONTINUOUS
 62
     7
 10
291.04387000000003
 20
-48.693169999999981
 30
0.0
 11
295.85818
 21
-44.931870000000004
 31
0.0
  0
LINE
  5
568
  8
DATA
  6
CONTINUOUS
 62
     7
 10
295.85818
 20
-44.931870000000004
 30
0.0
 11
296.38792000000001
 21
-45.84940999999997
 31
0.0
  0
LINE
  5
569
  8
DATA
  6
CONTINUOUS
 62
     7
 10
291.04387000000003
 20
-48.693169999999981
 30
0.0
 11
291.57364000000001
 21
-49.610770000000002
 31
0.0
  0
LINE
  5
56A
  8
DATA
  6
CONTINUOUS
 62
     7
 10
295.23311000000001
 20
-45.420159999999981
 30
0.0
 11
294.7629
 21
-44.605730000000001
 31
0.0
  0
LINE
  5
56B
  8
DATA
  6
CONTINUOUS
 62
     7
 10
291.57263999999998
 20
-48.280070000000002
 30
0.0
 11
291.1023899999999
 21
-47.465609999999991
 31
0.0
  0
LINE
  5
56C
  8
DATA
  6
CONTINUOUS
 62
     7
 10
290.57364000000001
 20
-47.878739999999993
 30
0.0
 11
295.38792000000001
 21
-44.11737999999999
 31
0.0
  0
LINE
  5
56D
  8
DATA
  6
CONTINUOUS
 62
     7
 10
290.04387000000003
 20
-46.96114
 30
0.0
 11
294.85818
 21
-43.199840000000002
 31
0.0
  0
LINE
  5
56E
  8
DATA
  6
CONTINUOUS
 62
     7
 10
294.85818
 20
-43.199840000000002
 30
0.0
 11
295.38792000000001
 21
-44.11737999999999
 31
0.0
  0
LINE
  5
56F
  8
DATA
  6
CONTINUOUS
 62
     7
 10
290.04387000000003
 20
-46.96114
 30
0.0
 11
290.57364000000001
 21
-47.878739999999993
 31
0.0
  0
LINE
  5
570
  8
DATA
  6
CONTINUOUS
 62
     7
 10
294.23311000000001
 20
-43.688130000000001
 30
0.0
 11
293.7629
 21
-42.87366999999999
 31
0.0
  0
LINE
  5
571
  8
DATA
  6
CONTINUOUS
 62
     7
 10
290.57264000000009
 20
-46.548010000000012
 30
0.0
 11
290.10239000000001
 21
-45.733540000000012
 31
0.0
  0
LINE
  5
572
  8
DATA
  6
CONTINUOUS
 62
     7
 10
289.57364000000001
 20
-46.146680000000003
 30
0.0
 11
294.38791999999989
 21
-42.385309999999997
 31
0.0
  0
LINE
  5
573
  8
DATA
  6
CONTINUOUS
 62
     7
 10
289.04387000000003
 20
-45.229069999999979
 30
0.0
 11
293.85818
 21
-41.467780000000012
 31
0.0
  0
LINE
  5
574
  8
DATA
  6
CONTINUOUS
 62
     7
 10
293.85818
 20
-41.467780000000012
 30
0.0
 11
294.38791999999989
 21
-42.385309999999997
 31
0.0
  0
LINE
  5
575
  8
DATA
  6
CONTINUOUS
 62
     7
 10
289.04387000000003
 20
-45.229069999999979
 30
0.0
 11
289.57364000000001
 21
-46.146680000000003
 31
0.0
  0
LINE
  5
576
  8
DATA
  6
CONTINUOUS
 62
     7
 10
293.23311000000001
 20
-41.956059999999972
 30
0.0
 11
292.7629
 21
-41.141629999999992
 31
0.0
  0
LINE
  5
577
  8
DATA
  6
CONTINUOUS
 62
     7
 10
289.57263999999998
 20
-44.815969999999993
 30
0.0
 11
289.10239000000001
 21
-44.001510000000003
 31
0.0
  0
LINE
  5
578
  8
DATA
  6
CONTINUOUS
 62
     7
 10
288.57364000000001
 20
-44.414639999999977
 30
0.0
 11
293.38792000000001
 21
-40.653280000000002
 31
0.0
  0
LINE
  5
579
  8
DATA
  6
CONTINUOUS
 62
     7
 10
288.04387000000003
 20
-43.497039999999998
 30
0.0
 11
292.85818
 21
-39.735739999999993
 31
0.0
  0
LINE
  5
57A
  8
DATA
  6
CONTINUOUS
 62
     7
 10
292.85818
 20
-39.735739999999993
 30
0.0
 11
293.38792000000001
 21
-40.653280000000002
 31
0.0
  0
LINE
  5
57B
  8
DATA
  6
CONTINUOUS
 62
     7
 10
288.04387000000003
 20
-43.497039999999998
 30
0.0
 11
288.57364000000001
 21
-44.414639999999977
 31
0.0
  0
LINE
  5
57C
  8
DATA
  6
CONTINUOUS
 62
     7
 10
292.23311000000001
 20
-40.224029999999992
 30
0.0
 11
291.7629
 21
-39.409580000000012
 31
0.0
  0
LINE
  5
57D
  8
DATA
  6
CONTINUOUS
 62
     7
 10
288.57264000000009
 20
-43.083910000000003
 30
0.0
 11
288.10239000000001
 21
-42.269440000000003
 31
0.0
  0
LINE
  5
57E
  8
DATA
  6
CONTINUOUS
 62
     7
 10
287.57364000000001
 20
-42.682590000000012
 30
0.0
 11
292.38792000000001
 21
-38.921220000000012
 31
0.0
  0
LINE
  5
57F
  8
DATA
  6
CONTINUOUS
 62
     7
 10
287.04387000000003
 20
-41.764970000000012
 30
0.0
 11
291.85818
 21
-38.003680000000003
 31
0.0
  0
LINE
  5
580
  8
DATA
  6
CONTINUOUS
 62
     7
 10
291.85818
 20
-38.003680000000003
 30
0.0
 11
292.38792000000001
 21
-38.921220000000012
 31
0.0
  0
LINE
  5
581
  8
DATA
  6
CONTINUOUS
 62
     7
 10
287.04387000000003
 20
-41.764970000000012
 30
0.0
 11
287.57364000000001
 21
-42.682590000000012
 31
0.0
  0
LINE
  5
582
  8
DATA
  6
CONTINUOUS
 62
     7
 10
291.23311000000001
 20
-38.49195999999997
 30
0.0
 11
290.7629
 21
-37.677499999999988
 31
0.0
  0
LINE
  5
583
  8
DATA
  6
CONTINUOUS
 62
     7
 10
287.57263999999998
 20
-41.351839999999982
 30
0.0
 11
287.10239000000001
 21
-40.537410000000001
 31
0.0
  0
LINE
  5
584
  8
DATA
  6
CONTINUOUS
 62
     7
 10
286.57364000000001
 20
-40.950509999999973
 30
0.0
 11
291.38792000000001
 21
-37.189179999999993
 31
0.0
  0
LINE
  5
585
  8
DATA
  6
CONTINUOUS
 62
     7
 10
286.04387000000003
 20
-40.032940000000004
 30
0.0
 11
290.85818
 21
-36.271639999999991
 31
0.0
  0
LINE
  5
586
  8
DATA
  6
CONTINUOUS
 62
     7
 10
290.85818
 20
-36.271639999999991
 30
0.0
 11
291.38792000000001
 21
-37.189179999999993
 31
0.0
  0
LINE
  5
587
  8
DATA
  6
CONTINUOUS
 62
     7
 10
286.04387000000003
 20
-40.032940000000004
 30
0.0
 11
286.57364000000001
 21
-40.950509999999973
 31
0.0
  0
LINE
  5
588
  8
DATA
  6
CONTINUOUS
 62
     7
 10
290.2331099999999
 20
-36.759929999999997
 30
0.0
 11
289.7629
 21
-35.94547
 31
0.0
  0
LINE
  5
589
  8
DATA
  6
CONTINUOUS
 62
     7
 10
286.57264000000009
 20
-39.619810000000001
 30
0.0
 11
286.10239000000001
 21
-38.805349999999997
 31
0.0
  0
LINE
  5
58A
  8
DATA
  6
CONTINUOUS
 62
     7
 10
285.57364000000013
 20
-39.21848
 30
0.0
 11
290.38792000000001
 21
-35.45712000000001
 31
0.0
  0
LINE
  5
58B
  8
DATA
  6
CONTINUOUS
 62
     7
 10
285.04387000000003
 20
-38.300870000000003
 30
0.0
 11
289.85818
 21
-34.539589999999997
 31
0.0
  0
LINE
  5
58C
  8
DATA
  6
CONTINUOUS
 62
     7
 10
289.85818
 20
-34.539589999999997
 30
0.0
 11
290.38792000000001
 21
-35.45712000000001
 31
0.0
  0
LINE
  5
58D
  8
DATA
  6
CONTINUOUS
 62
     7
 10
285.04387000000003
 20
-38.300870000000003
 30
0.0
 11
285.57364000000013
 21
-39.21848
 31
0.0
  0
LINE
  5
58E
  8
DATA
  6
CONTINUOUS
 62
     7
 10
289.23311000000001
 20
-35.027859999999997
 30
0.0
 11
288.7629
 21
-34.213399999999979
 31
0.0
  0
LINE
  5
58F
  8
DATA
  6
CONTINUOUS
 62
     7
 10
285.57263999999998
 20
-37.88773999999998
 30
0.0
 11
285.10239000000001
 21
-37.073309999999992
 31
0.0
  0
LINE
  5
590
  8
DATA
  6
CONTINUOUS
 62
     7
 10
284.57364000000001
 20
-37.486409999999971
 30
0.0
 11
289.38792000000001
 21
-33.725049999999982
 31
0.0
  0
LINE
  5
591
  8
DATA
  6
CONTINUOUS
 62
     7
 10
284.04387000000003
 20
-36.568840000000002
 30
0.0
 11
288.85818
 21
-32.807539999999989
 31
0.0
  0
LINE
  5
592
  8
DATA
  6
CONTINUOUS
 62
     7
 10
288.85818
 20
-32.807539999999989
 30
0.0
 11
289.38792000000001
 21
-33.725049999999982
 31
0.0
  0
LINE
  5
593
  8
DATA
  6
CONTINUOUS
 62
     7
 10
284.04387000000003
 20
-36.568840000000002
 30
0.0
 11
284.57364000000001
 21
-37.486409999999971
 31
0.0
  0
LINE
  5
594
  8
DATA
  6
CONTINUOUS
 62
     7
 10
288.23311000000001
 20
-33.295829999999988
 30
0.0
 11
287.7629
 21
-32.481369999999991
 31
0.0
  0
LINE
  5
595
  8
DATA
  6
CONTINUOUS
 62
     7
 10
284.57264000000009
 20
-36.155709999999999
 30
0.0
 11
284.10239000000001
 21
-35.341260000000013
 31
0.0
  0
LINE
  5
596
  8
DATA
  6
CONTINUOUS
 62
     7
 10
283.57364000000001
 20
-35.754379999999998
 30
0.0
 11
288.3879300000001
 21
-31.993030000000001
 31
0.0
  0
LINE
  5
597
  8
DATA
  6
CONTINUOUS
 62
     7
 10
283.04387000000003
 20
-34.836779999999997
 30
0.0
 11
286.3362600000001
 21
-32.264479999999992
 31
0.0
  0
LINE
  5
598
  8
DATA
  6
CONTINUOUS
 62
     7
 10
287.99252999999999
 20
-31.308220000000009
 30
0.0
 11
288.3879300000001
 21
-31.993030000000001
 31
0.0
  0
LINE
  5
599
  8
DATA
  6
CONTINUOUS
 62
     7
 10
283.04387000000003
 20
-34.836779999999997
 30
0.0
 11
283.57364000000001
 21
-35.754379999999998
 31
0.0
  0
LINE
  5
59A
  8
DATA
  6
CONTINUOUS
 62
     7
 10
283.57263999999998
 20
-34.423639999999999
 30
0.0
 11
283.32857000000001
 21
-34.000959999999992
 31
0.0
  0
LINE
  5
59B
  8
DATA
  6
CONTINUOUS
 62
     7
 10
281.47575000000001
 20
-35.070679999999982
 30
0.0
 11
289.26997999999998
 21
-30.570679999999982
 31
0.0
  0
LINE
  5
59C
  8
DATA
  6
CONTINUOUS
 62
     7
 10
289.26997999999998
 20
-30.570679999999982
 30
0.0
 11
284.97744999999998
 21
-23.135799999999989
 31
0.0
  0
LINE
  5
59D
  8
DATA
  6
CONTINUOUS
 62
     7
 10
281.47575000000001
 20
-35.070679999999982
 30
0.0
 11
277.18213999999989
 21
-27.633959999999998
 31
0.0
  0
LINE
  5
59E
  8
DATA
  6
CONTINUOUS
 62
     7
 10
277.53384
 20
-11.943169999999981
 30
0.0
 11
283.4776500000001
 21
-20.738199999999999
 31
0.0
  0
LINE
  5
59F
  8
DATA
  6
CONTINUOUS
 62
     7
 10
271.21188000000001
 20
-15.59315999999998
 30
0.0
 11
275.85530999999997
 21
-25.135670000000001
 31
0.0
  0
LINE
  5
5A0
  8
DATA
  6
CONTINUOUS
 62
     7
 10
284.97744999999998
 20
-23.135799999999989
 30
0.0
 11
283.4776500000001
 21
-20.738199999999999
 31
0.0
  0
LINE
  5
5A1
  8
DATA
  6
CONTINUOUS
 62
     7
 10
277.18213999999989
 20
-27.633959999999998
 30
0.0
 11
275.85530999999997
 21
-25.135670000000001
 31
0.0
  0
LINE
  5
5A2
  8
DATA
  6
CONTINUOUS
 62
     7
 10
282.34176999999988
 20
-34.570679999999989
 30
0.0
 11
278.04817000000003
 21
-27.133959999999991
 31
0.0
  0
LINE
  5
5A3
  8
DATA
  6
CONTINUOUS
 62
     7
 10
283.20778000000001
 20
-34.070679999999982
 30
0.0
 11
278.91417000000001
 21
-26.633959999999998
 31
0.0
  0
LINE
  5
5A4
  8
DATA
  6
CONTINUOUS
 62
     7
 10
278.04817000000003
 20
-27.133959999999991
 30
0.0
 11
277.18213999999989
 21
-27.633959999999998
 31
0.0
  0
LINE
  5
5A5
  8
DATA
  6
CONTINUOUS
 62
     7
 10
278.91417000000001
 20
-26.633959999999998
 30
0.0
 11
284.97744999999998
 21
-23.135799999999989
 31
0.0
  0
LINE
  5
5A6
  8
DATA
  6
CONTINUOUS
 62
     7
 10
320.57363000000009
 20
-99.840239999999994
 30
0.0
 11
325.38792000000001
 21
-96.078879999999998
 31
0.0
  0
LINE
  5
5A7
  8
DATA
  6
CONTINUOUS
 62
     7
 10
320.04388999999992
 20
-98.922709999999995
 30
0.0
 11
324.85818000000012
 21
-95.161350000000013
 31
0.0
  0
LINE
  5
5A8
  8
DATA
  6
CONTINUOUS
 62
     7
 10
324.85818000000012
 20
-95.161350000000013
 30
0.0
 11
325.38792000000001
 21
-96.078879999999998
 31
0.0
  0
LINE
  5
5A9
  8
DATA
  6
CONTINUOUS
 62
     7
 10
320.04388999999992
 20
-98.922709999999995
 30
0.0
 11
320.57363000000009
 21
-99.840239999999994
 31
0.0
  0
LINE
  5
5AA
  8
DATA
  6
CONTINUOUS
 62
     7
 10
325.23313000000002
 20
-97.381729999999962
 30
0.0
 11
324.76289000000003
 21
-96.567229999999995
 31
0.0
  0
LINE
  5
5AB
  8
DATA
  6
CONTINUOUS
 62
     7
 10
321.57265000000001
 20
-100.2416399999999
 30
0.0
 11
321.10237999999998
 21
-99.427110000000013
 31
0.0
  0
LINE
  5
5AC
  8
DATA
  6
CONTINUOUS
 62
     7
 10
321.57362999999998
 20
-101.57227999999991
 30
0.0
 11
326.38792000000001
 21
-97.810950000000005
 31
0.0
  0
LINE
  5
5AD
  8
DATA
  6
CONTINUOUS
 62
     7
 10
321.04388999999992
 20
-100.6547399999999
 30
0.0
 11
325.85818000000012
 21
-96.893420000000006
 31
0.0
  0
LINE
  5
5AE
  8
DATA
  6
CONTINUOUS
 62
     7
 10
325.85818000000012
 20
-96.893420000000006
 30
0.0
 11
326.38792000000001
 21
-97.810950000000005
 31
0.0
  0
LINE
  5
5AF
  8
DATA
  6
CONTINUOUS
 62
     7
 10
321.04388999999992
 20
-100.6547399999999
 30
0.0
 11
321.57362999999998
 21
-101.57227999999991
 31
0.0
  0
LINE
  5
5B0
  8
DATA
  6
CONTINUOUS
 62
     7
 10
326.23313000000002
 20
-99.113800000000012
 30
0.0
 11
325.76289000000003
 21
-98.299269999999964
 31
0.0
  0
LINE
  5
5B1
  8
DATA
  6
CONTINUOUS
 62
     7
 10
322.57265000000001
 20
-101.9736699999999
 30
0.0
 11
322.1023800000001
 21
-101.15917
 31
0.0
  0
LINE
  5
5B2
  8
DATA
  6
CONTINUOUS
 62
     7
 10
322.57363000000009
 20
-103.30435
 30
0.0
 11
327.38792000000001
 21
-99.542980000000014
 31
0.0
  0
LINE
  5
5B3
  8
DATA
  6
CONTINUOUS
 62
     7
 10
322.04388999999992
 20
-102.38681
 30
0.0
 11
326.85818000000012
 21
-98.625449999999972
 31
0.0
  0
LINE
  5
5B4
  8
DATA
  6
CONTINUOUS
 62
     7
 10
326.85818000000012
 20
-98.625449999999972
 30
0.0
 11
327.38792000000001
 21
-99.542980000000014
 31
0.0
  0
LINE
  5
5B5
  8
DATA
  6
CONTINUOUS
 62
     7
 10
322.04388999999992
 20
-102.38681
 30
0.0
 11
322.57363000000009
 21
-103.30435
 31
0.0
  0
LINE
  5
5B6
  8
DATA
  6
CONTINUOUS
 62
     7
 10
327.23313000000002
 20
-100.84582999999991
 30
0.0
 11
326.76289000000003
 21
-100.03134
 31
0.0
  0
LINE
  5
5B7
  8
DATA
  6
CONTINUOUS
 62
     7
 10
323.32675999999992
 20
-103.2798199999999
 30
0.0
 11
323.10237999999998
 21
-102.8912
 31
0.0
  0
LINE
  5
5B8
  8
DATA
  6
CONTINUOUS
 62
     7
 10
326.3571500000001
 20
-101.53024000000001
 30
0.0
 11
327.85818000000012
 21
-100.35751999999999
 31
0.0
  0
LINE
  5
5B9
  8
DATA
  6
CONTINUOUS
 62
     7
 10
327.85818000000012
 20
-100.35751999999999
 30
0.0
 11
327.99070999999998
 21
-100.58710000000001
 31
0.0
  0
LINE
  5
5BA
  8
DATA
  6
CONTINUOUS
 62
     7
 10
58.736620156119329
 20
352.8028405867463
 30
0.0
 11
60.109100156119332
 21
357.92542058674638
 31
0.0
  0
LINE
  5
5BB
  8
DATA
  6
CONTINUOUS
 62
     7
 10
60.072090156119309
 20
351.6397905867463
 30
0.0
 11
61.847250156119351
 21
358.26496058674633
 31
0.0
  0
LINE
  5
5BC
  8
DATA
  6
CONTINUOUS
 62
     7
 10
61.62709015611938
 20
351.2962205867463
 30
0.0
 11
63.387340156119301
 21
357.79733058674628
 31
0.0
  0
LINE
  5
5BD
  8
DATA
  6
CONTINUOUS
 62
     7
 10
63.423430156119373
 20
351.78493058674638
 30
0.0
 11
64.677010156119294
 21
356.46361058674643
 31
0.0
  0
LINE
  5
5BE
  8
DATA
  6
CONTINUOUS
 62
     7
 10
63.831410156119318
 20
352.07827058674638
 30
0.0
 11
58.33327015611939
 21
353.5515805867463
 31
0.0
  0
LINE
  5
5BF
  8
DATA
  6
CONTINUOUS
 62
     7
 10
64.857870156119361
 20
353.4503105867463
 30
0.0
 11
58.151850156119387
 21
355.26553058674631
 31
0.0
  0
LINE
  5
5C0
  8
DATA
  6
CONTINUOUS
 62
     7
 10
65.098950156119372
 20
355.03277058674638
 30
0.0
 11
58.734370156119333
 21
356.7565505867463
 31
0.0
  0
LINE
  5
5C1
  8
DATA
  6
CONTINUOUS
 62
     7
 10
64.405420156119362
 20
356.8840505867463
 30
0.0
 11
60.238990156119357
 21
358.00041058674628
 31
0.0
  0
CIRCLE
  5
5C2
  8
DATA
  6
CONTINUOUS
 62
     7
 10
61.61951015611929
 20
354.77477058674629
 30
0.0
 40
5.5000275622945241
  0
CIRCLE
  5
5C3
  8
DATA
  6
CONTINUOUS
 62
     7
 10
61.61951015611929
 20
354.77477058674629
 30
0.0
 40
3.500028261671547
  0
CIRCLE
  5
5C4
  8
DATA
  6
CONTINUOUS
 62
     7
 10
61.61951015611929
 20
354.77477058674629
 30
0.0
 40
5.8420442868913351
  0
LINE
  5
5C5
  8
DATA
  6
CONTINUOUS
 62
     7
 10
143.27790511671739
 20
220.0081194847202
 30
0.0
 11
147.0377051167174
 21
214.09591948472021
 31
0.0
  0
LINE
  5
5C6
  8
DATA
  6
CONTINUOUS
 62
     7
 10
137.47552511671739
 20
216.6581094847202
 30
0.0
 11
140.71575511671739
 21
210.44593948472021
 31
0.0
  0
LINE
  5
5C7
  8
DATA
  6
CONTINUOUS
 62
     7
 10
138.3415551167175
 20
217.1581094847202
 30
0.0
 11
141.84155511671739
 21
211.0959194847203
 31
0.0
  0
LINE
  5
5C8
  8
DATA
  6
CONTINUOUS
 62
     7
 10
140.71575511671739
 20
210.44593948472021
 30
0.0
 11
141.84155511671739
 21
211.0959194847203
 31
0.0
  0
LINE
  5
5C9
  8
DATA
  6
CONTINUOUS
 62
     7
 10
142.7075651167174
 20
211.59591948472021
 30
0.0
 11
147.0377051167174
 21
214.09591948472021
 31
0.0
  0
LINE
  5
5CA
  8
DATA
  6
CONTINUOUS
 62
     7
 10
139.2075651167174
 20
217.6581094847202
 30
0.0
 11
142.7075651167174
 21
211.59591948472021
 31
0.0
  0
LINE
  5
5CB
  8
DATA
  6
CONTINUOUS
 62
     7
 10
137.47552511671739
 20
216.6581094847202
 30
0.0
 11
143.27790511671739
 21
220.0081194847202
 31
0.0
  0
LINE
  5
5CC
  8
DATA
  6
CONTINUOUS
 62
     7
 10
82.703245116717426
 20
307.43354948472017
 30
0.0
 11
92.056315116717428
 21
312.83354948472021
 31
0.0
  0
LINE
  5
5CD
  8
DATA
  6
CONTINUOUS
 62
     7
 10
84.347795116717535
 20
308.38509948472017
 30
0.0
 11
84.497845116717485
 21
308.1252094847203
 31
0.0
  0
LINE
  5
5CE
  8
DATA
  6
CONTINUOUS
 62
     7
 10
84.497845116717485
 20
308.1252094847203
 30
0.0
 11
90.560025116717512
 21
311.6252094847203
 31
0.0
  0
LINE
  5
5CF
  8
DATA
  6
CONTINUOUS
 62
     7
 10
90.560025116717512
 20
311.6252094847203
 30
0.0
 11
90.409975116717433
 21
311.88509948472017
 31
0.0
  0
LINE
  5
5D0
  8
DATA
  6
CONTINUOUS
 62
     7
 10
103.21791511671741
 20
275.4011194847202
 30
0.0
 11
109.53986511671739
 21
279.0511094847202
 31
0.0
  0
LINE
  5
5D1
  8
DATA
  6
CONTINUOUS
 62
     7
 10
109.53986511671739
 20
279.0511094847202
 30
0.0
 11
106.6344551167174
 21
284.0834394847202
 31
0.0
  0
LINE
  5
5D2
  8
DATA
  6
CONTINUOUS
 62
     7
 10
103.21791511671741
 20
275.4011194847202
 30
0.0
 11
100.3461951167174
 21
280.3750694847202
 31
0.0
  0
LINE
  5
5D3
  8
DATA
  6
CONTINUOUS
 62
     7
 10
105.66629511671751
 20
285.93478948472028
 30
0.0
 11
99.188235116717493
 21
282.19464948472017
 31
0.0
  0
LINE
  5
5D4
  8
DATA
  6
CONTINUOUS
 62
     7
 10
92.13275511671749
 20
290.79008948472023
 30
0.0
 11
97.88796511671751
 21
283.89537948472019
 31
0.0
  0
ARC
  5
5D5
  8
DATA
  6
CONTINUOUS
 62
     7
 10
128.2850951167174
 20
296.58343948472032
 30
0.0
 40
25.000082360402299
 50
200.4542194652646
 51
210.00000501524841
  0
ARC
  5
5D6
  8
DATA
  6
CONTINUOUS
 62
     7
 10
78.695575116717464
 20
267.87505948472028
 30
0.0
 40
24.999991927688679
 50
30.000037145002182
 51
39.852257239855533
  0
LINE
  5
5D7
  8
DATA
  6
CONTINUOUS
 62
     7
 10
105.20103511671741
 20
285.66616948472023
 30
0.0
 11
109.1501451167174
 21
278.82608948472023
 31
0.0
  0
LINE
  5
5D8
  8
DATA
  6
CONTINUOUS
 62
     7
 10
99.658475116717497
 20
282.46614948472029
 30
0.0
 11
103.60760511671739
 21
275.6261094847203
 31
0.0
  0
LINE
  5
5D9
  8
DATA
  6
CONTINUOUS
 62
     7
 10
105.59076511671741
 20
285.89115948472028
 30
0.0
 11
105.66938511671739
 21
285.92819948472021
 31
0.0
  0
LINE
  5
5DA
  8
DATA
  6
CONTINUOUS
 62
     7
 10
99.268785116717495
 20
282.24118948472022
 30
0.0
 11
99.19276511671741
 21
282.18807948472022
 31
0.0
  0
LINE
  5
5DB
  8
DATA
  6
CONTINUOUS
 62
     7
 10
105.5418251167174
 20
272.6259994847203
 30
0.0
 11
110.35608511671749
 21
276.38732948472023
 31
0.0
  0
LINE
  5
5DC
  8
DATA
  6
CONTINUOUS
 62
     7
 10
105.05114511671751
 20
273.4758494847203
 30
0.0
 11
109.8654451167174
 21
277.23717948472017
 31
0.0
  0
LINE
  5
5DD
  8
DATA
  6
CONTINUOUS
 62
     7
 10
110.2404051167174
 20
275.01678948472022
 30
0.0
 11
109.73112511671739
 21
275.89891948472018
 31
0.0
  0
LINE
  5
5DE
  8
DATA
  6
CONTINUOUS
 62
     7
 10
106.57993511671749
 20
272.15692948472031
 30
0.0
 11
106.07057511671739
 21
273.03911948472017
 31
0.0
  0
LINE
  5
5DF
  8
DATA
  6
STYLE_02
 62
     7
 10
105.05114511671751
 20
273.4758494847203
 30
0.0
 11
105.5418251167174
 21
272.6259994847203
 31
0.0
  0
LINE
  5
5E0
  8
DATA
  6
CONTINUOUS
 62
     7
 10
109.8654451167174
 20
277.23717948472017
 30
0.0
 11
110.35608511671749
 21
276.38732948472023
 31
0.0
  0
LINE
  5
5E1
  8
DATA
  6
CONTINUOUS
 62
     7
 10
106.5418251167174
 20
270.89392948472022
 30
0.0
 11
111.35608511671749
 21
274.65529948472022
 31
0.0
  0
LINE
  5
5E2
  8
DATA
  6
CONTINUOUS
 62
     7
 10
106.05114511671751
 20
271.74378948472031
 30
0.0
 11
110.8654451167174
 21
275.50510948472021
 31
0.0
  0
LINE
  5
5E3
  8
DATA
  6
STYLE_02
 62
     7
 10
106.05114511671751
 20
271.74378948472031
 30
0.0
 11
106.5418251167174
 21
270.89392948472022
 31
0.0
  0
LINE
  5
5E4
  8
DATA
  6
CONTINUOUS
 62
     7
 10
110.8654451167174
 20
275.50510948472021
 30
0.0
 11
111.35608511671749
 21
274.65529948472022
 31
0.0
  0
LINE
  5
5E5
  8
DATA
  6
CONTINUOUS
 62
     7
 10
104.5418251167174
 20
274.3580494847202
 30
0.0
 11
109.35608511671749
 21
278.11938948472022
 31
0.0
  0
LINE
  5
5E6
  8
DATA
  6
CONTINUOUS
 62
     7
 10
104.05114511671751
 20
275.2078994847202
 30
0.0
 11
107.35773511671739
 21
277.79125948472017
 31
0.0
  0
LINE
  5
5E7
  8
DATA
  6
CONTINUOUS
 62
     7
 10
109.2404051167174
 20
276.7488594847203
 30
0.0
 11
108.73112511671739
 21
277.6309894847202
 31
0.0
  0
LINE
  5
5E8
  8
DATA
  6
CONTINUOUS
 62
     7
 10
105.57993511671749
 20
273.88896948472018
 30
0.0
 11
105.07057511671739
 21
274.77117948472022
 31
0.0
  0
LINE
  5
5E9
  8
DATA
  6
STYLE_02
 62
     7
 10
104.05114511671751
 20
275.2078994847202
 30
0.0
 11
104.5418251167174
 21
274.3580494847202
 31
0.0
  0
LINE
  5
5EA
  8
DATA
  6
CONTINUOUS
 62
     7
 10
108.9985951167174
 20
278.7386094847202
 30
0.0
 11
109.35608511671749
 21
278.11938948472022
 31
0.0
  0
LINE
  5
5EB
  8
DATA
  6
CONTINUOUS
 62
     7
 10
104.57993511671749
 20
275.62102948472022
 30
0.0
 11
104.33463511671739
 21
276.0458694847203
 31
0.0
  0
LINE
  5
5EC
  8
DATA
  6
CONTINUOUS
 62
     7
 10
111.2404051167174
 20
273.28474948472018
 30
0.0
 11
110.73112511671739
 21
274.16688948472017
 31
0.0
  0
LINE
  5
5ED
  8
DATA
  6
CONTINUOUS
 62
     7
 10
107.57993511671749
 20
270.42485948472017
 30
0.0
 11
107.07057511671739
 21
271.30706948472022
 31
0.0
  0
LINE
  5
5EE
  8
DATA
  6
CONTINUOUS
 62
     7
 10
107.5418251167174
 20
269.16189948472021
 30
0.0
 11
112.35608511671749
 21
272.9232494847202
 31
0.0
  0
LINE
  5
5EF
  8
DATA
  6
CONTINUOUS
 62
     7
 10
107.05114511671751
 20
270.01174948472021
 30
0.0
 11
111.8654451167174
 21
273.77306948472022
 31
0.0
  0
LINE
  5
5F0
  8
DATA
  6
STYLE_02
 62
     7
 10
107.05114511671751
 20
270.01174948472021
 30
0.0
 11
107.5418251167174
 21
269.16189948472021
 31
0.0
  0
LINE
  5
5F1
  8
DATA
  6
CONTINUOUS
 62
     7
 10
111.8654451167174
 20
273.77306948472022
 30
0.0
 11
112.35608511671749
 21
272.9232494847202
 31
0.0
  0
LINE
  5
5F2
  8
DATA
  6
CONTINUOUS
 62
     7
 10
112.2404051167174
 20
271.5527094847202
 30
0.0
 11
111.73112511671739
 21
272.43483948472021
 31
0.0
  0
LINE
  5
5F3
  8
DATA
  6
CONTINUOUS
 62
     7
 10
108.57993511671739
 20
268.6928194847203
 30
0.0
 11
108.07057511671739
 21
269.57500948472023
 31
0.0
  0
LINE
  5
5F4
  8
DATA
  6
CONTINUOUS
 62
     7
 10
108.5418251167174
 20
267.42984948472031
 30
0.0
 11
113.35608511671749
 21
271.19117948472018
 31
0.0
  0
LINE
  5
5F5
  8
DATA
  6
CONTINUOUS
 62
     7
 10
108.05114511671751
 20
268.2796994847202
 30
0.0
 11
112.8654451167174
 21
272.04101948472021
 31
0.0
  0
LINE
  5
5F6
  8
DATA
  6
STYLE_02
 62
     7
 10
108.05114511671751
 20
268.2796994847202
 30
0.0
 11
108.5418251167174
 21
267.42984948472031
 31
0.0
  0
LINE
  5
5F7
  8
DATA
  6
CONTINUOUS
 62
     7
 10
112.8654451167174
 20
272.04101948472021
 30
0.0
 11
113.35608511671749
 21
271.19117948472018
 31
0.0
  0
LINE
  5
5F8
  8
DATA
  6
CONTINUOUS
 62
     7
 10
113.2404051167174
 20
269.82063948472018
 30
0.0
 11
112.73112511671739
 21
270.70276948472019
 31
0.0
  0
LINE
  5
5F9
  8
DATA
  6
CONTINUOUS
 62
     7
 10
109.57993511671739
 20
266.96076948472017
 30
0.0
 11
109.07057511671739
 21
267.84296948472019
 31
0.0
  0
LINE
  5
5FA
  8
DATA
  6
CONTINUOUS
 62
     7
 10
109.5418251167174
 20
265.6977894847202
 30
0.0
 11
114.3561051167174
 21
269.45914948472017
 31
0.0
  0
LINE
  5
5FB
  8
DATA
  6
CONTINUOUS
 62
     7
 10
109.05114511671751
 20
266.54763948472021
 30
0.0
 11
113.8654451167174
 21
270.3089494847203
 31
0.0
  0
LINE
  5
5FC
  8
DATA
  6
STYLE_02
 62
     7
 10
109.05114511671751
 20
266.54763948472021
 30
0.0
 11
109.5418251167174
 21
265.6977894847202
 31
0.0
  0
LINE
  5
5FD
  8
DATA
  6
CONTINUOUS
 62
     7
 10
113.8654451167174
 20
270.3089494847203
 30
0.0
 11
114.3561051167174
 21
269.45914948472017
 31
0.0
  0
LINE
  5
5FE
  8
DATA
  6
CONTINUOUS
 62
     7
 10
114.2404251167174
 20
268.08860948472022
 30
0.0
 11
113.73112511671739
 21
268.9707094847202
 31
0.0
  0
LINE
  5
5FF
  8
DATA
  6
CONTINUOUS
 62
     7
 10
110.57993511671739
 20
265.22871948472022
 30
0.0
 11
110.07057511671739
 21
266.1109294847202
 31
0.0
  0
LINE
  5
600
  8
DATA
  6
CONTINUOUS
 62
     7
 10
110.5417951167174
 20
263.96575948472031
 30
0.0
 11
115.3561151167174
 21
267.7270894847203
 31
0.0
  0
LINE
  5
601
  8
DATA
  6
CONTINUOUS
 62
     7
 10
110.05114511671751
 20
264.81557948472022
 30
0.0
 11
114.8654651167174
 21
268.57691948472018
 31
0.0
  0
LINE
  5
602
  8
DATA
  6
STYLE_02
 62
     7
 10
110.05114511671751
 20
264.81557948472022
 30
0.0
 11
110.5417951167174
 21
263.96575948472031
 31
0.0
  0
LINE
  5
603
  8
DATA
  6
CONTINUOUS
 62
     7
 10
114.8654651167174
 20
268.57691948472018
 30
0.0
 11
115.3561151167174
 21
267.7270894847203
 31
0.0
  0
LINE
  5
604
  8
DATA
  6
CONTINUOUS
 62
     7
 10
115.2404251167174
 20
266.35654948472018
 30
0.0
 11
114.73112511671739
 21
267.23868948472023
 31
0.0
  0
LINE
  5
605
  8
DATA
  6
CONTINUOUS
 62
     7
 10
111.57993511671739
 20
263.49664948472031
 30
0.0
 11
111.07057511671739
 21
264.37887948472019
 31
0.0
  0
LINE
  5
606
  8
DATA
  6
CONTINUOUS
 62
     7
 10
111.5417951167174
 20
262.2336994847202
 30
0.0
 11
116.3561151167174
 21
265.99503948472022
 31
0.0
  0
LINE
  5
607
  8
DATA
  6
CONTINUOUS
 62
     7
 10
111.05114511671751
 20
263.0835294847202
 30
0.0
 11
115.86543511671741
 21
266.84486948472028
 31
0.0
  0
LINE
  5
608
  8
DATA
  6
STYLE_02
 62
     7
 10
111.05114511671751
 20
263.0835294847202
 30
0.0
 11
111.5417951167174
 21
262.2336994847202
 31
0.0
  0
LINE
  5
609
  8
DATA
  6
CONTINUOUS
 62
     7
 10
115.86543511671741
 20
266.84486948472028
 30
0.0
 11
116.3561151167174
 21
265.99503948472022
 31
0.0
  0
LINE
  5
60A
  8
DATA
  6
CONTINUOUS
 62
     7
 10
116.2404251167174
 20
264.62450948472019
 30
0.0
 11
115.73112511671739
 21
265.50662948472018
 31
0.0
  0
LINE
  5
60B
  8
DATA
  6
CONTINUOUS
 62
     7
 10
112.57993511671739
 20
261.76461948472019
 30
0.0
 11
112.07057511671739
 21
262.6468194847202
 31
0.0
  0
LINE
  5
60C
  8
DATA
  6
CONTINUOUS
 62
     7
 10
112.5417951167174
 20
260.50167948472023
 30
0.0
 11
117.3561151167174
 21
264.2629694847202
 31
0.0
  0
LINE
  5
60D
  8
DATA
  6
CONTINUOUS
 62
     7
 10
112.05114511671751
 20
261.35148948472022
 30
0.0
 11
116.86543511671741
 21
265.11280948472017
 31
0.0
  0
LINE
  5
60E
  8
DATA
  6
STYLE_02
 62
     7
 10
112.05114511671751
 20
261.35148948472022
 30
0.0
 11
112.5417951167174
 21
260.50167948472023
 31
0.0
  0
LINE
  5
60F
  8
DATA
  6
CONTINUOUS
 62
     7
 10
116.86543511671741
 20
265.11280948472017
 30
0.0
 11
117.3561151167174
 21
264.2629694847202
 31
0.0
  0
LINE
  5
610
  8
DATA
  6
CONTINUOUS
 62
     7
 10
117.2404251167174
 20
262.89243948472023
 30
0.0
 11
116.73112511671739
 21
263.7745694847203
 31
0.0
  0
LINE
  5
611
  8
DATA
  6
CONTINUOUS
 62
     7
 10
113.57993511671739
 20
260.03259948472021
 30
0.0
 11
113.07057511671739
 21
260.9147894847203
 31
0.0
  0
LINE
  5
612
  8
DATA
  6
CONTINUOUS
 62
     7
 10
113.5417951167174
 20
258.76961948472029
 30
0.0
 11
118.3561151167174
 21
262.53092948472022
 31
0.0
  0
LINE
  5
613
  8
DATA
  6
CONTINUOUS
 62
     7
 10
113.05114511671751
 20
259.61947948472022
 30
0.0
 11
117.86543511671741
 21
263.38077948472022
 31
0.0
  0
LINE
  5
614
  8
DATA
  6
STYLE_02
 62
     7
 10
113.05114511671751
 20
259.61947948472022
 30
0.0
 11
113.5417951167174
 21
258.76961948472029
 31
0.0
  0
LINE
  5
615
  8
DATA
  6
CONTINUOUS
 62
     7
 10
117.86543511671741
 20
263.38077948472022
 30
0.0
 11
118.3561151167174
 21
262.53092948472022
 31
0.0
  0
LINE
  5
616
  8
DATA
  6
CONTINUOUS
 62
     7
 10
118.2404251167174
 20
261.16041948472031
 30
0.0
 11
117.73112511671739
 21
262.04253948472018
 31
0.0
  0
LINE
  5
617
  8
DATA
  6
CONTINUOUS
 62
     7
 10
114.57993511671739
 20
258.30053948472022
 30
0.0
 11
114.07057511671739
 21
259.18275948472018
 31
0.0
  0
LINE
  5
618
  8
DATA
  6
CONTINUOUS
 62
     7
 10
114.5418151167174
 20
257.03758948472017
 30
0.0
 11
119.3561151167174
 21
260.79889948472021
 31
0.0
  0
LINE
  5
619
  8
DATA
  6
CONTINUOUS
 62
     7
 10
114.05114511671751
 20
257.88740948472031
 30
0.0
 11
118.86543511671741
 21
261.6487094847202
 31
0.0
  0
LINE
  5
61A
  8
DATA
  6
STYLE_02
 62
     7
 10
114.05114511671751
 20
257.88740948472031
 30
0.0
 11
114.5418151167174
 21
257.03758948472017
 31
0.0
  0
LINE
  5
61B
  8
DATA
  6
CONTINUOUS
 62
     7
 10
118.86543511671741
 20
261.6487094847202
 30
0.0
 11
119.3561151167174
 21
260.79889948472021
 31
0.0
  0
LINE
  5
61C
  8
DATA
  6
CONTINUOUS
 62
     7
 10
119.2404251167174
 20
259.42838948472019
 30
0.0
 11
118.73112511671739
 21
260.31049948472031
 31
0.0
  0
LINE
  5
61D
  8
DATA
  6
CONTINUOUS
 62
     7
 10
115.57993511671739
 20
256.5684894847202
 30
0.0
 11
115.07057511671739
 21
257.4506994847203
 31
0.0
  0
LINE
  5
61E
  8
DATA
  6
CONTINUOUS
 62
     7
 10
115.5418151167174
 20
255.3055294847203
 30
0.0
 11
120.3561151167174
 21
259.0668694847202
 31
0.0
  0
LINE
  5
61F
  8
DATA
  6
CONTINUOUS
 62
     7
 10
115.05114511671751
 20
256.15535948472029
 30
0.0
 11
119.86543511671741
 21
259.91668948472022
 31
0.0
  0
LINE
  5
620
  8
DATA
  6
STYLE_02
 62
     7
 10
115.05114511671751
 20
256.15535948472029
 30
0.0
 11
115.5418151167174
 21
255.3055294847203
 31
0.0
  0
LINE
  5
621
  8
DATA
  6
CONTINUOUS
 62
     7
 10
119.86543511671741
 20
259.91668948472022
 30
0.0
 11
120.3561151167174
 21
259.0668694847202
 31
0.0
  0
LINE
  5
622
  8
DATA
  6
CONTINUOUS
 62
     7
 10
120.2404251167174
 20
257.6963094847203
 30
0.0
 11
119.73112511671739
 21
258.5784694847203
 31
0.0
  0
LINE
  5
623
  8
DATA
  6
CONTINUOUS
 62
     7
 10
116.57993511671739
 20
254.83642948472021
 30
0.0
 11
116.07057511671751
 21
255.7186494847202
 31
0.0
  0
LINE
  5
624
  8
DATA
  6
CONTINUOUS
 62
     7
 10
116.5418151167174
 20
253.5734794847202
 30
0.0
 11
121.3561051167174
 21
257.33482948472022
 31
0.0
  0
LINE
  5
625
  8
DATA
  6
CONTINUOUS
 62
     7
 10
116.05114511671751
 20
254.42329948472019
 30
0.0
 11
120.86543511671741
 21
258.18463948472021
 31
0.0
  0
LINE
  5
626
  8
DATA
  6
STYLE_02
 62
     7
 10
116.05114511671751
 20
254.42329948472019
 30
0.0
 11
116.5418151167174
 21
253.5734794847202
 31
0.0
  0
LINE
  5
627
  8
DATA
  6
CONTINUOUS
 62
     7
 10
120.86543511671741
 20
258.18463948472021
 30
0.0
 11
121.3561051167174
 21
257.33482948472022
 31
0.0
  0
LINE
  5
628
  8
DATA
  6
CONTINUOUS
 62
     7
 10
121.2404251167174
 20
255.96426948472021
 30
0.0
 11
120.73112511671739
 21
256.84641948472017
 31
0.0
  0
LINE
  5
629
  8
DATA
  6
CONTINUOUS
 62
     7
 10
117.57993511671739
 20
253.1043994847202
 30
0.0
 11
117.07057511671751
 21
253.98659948472019
 31
0.0
  0
LINE
  5
62A
  8
DATA
  6
CONTINUOUS
 62
     7
 10
117.5418151167174
 20
251.8414094847202
 30
0.0
 11
122.3561051167174
 21
255.60275948472031
 31
0.0
  0
LINE
  5
62B
  8
DATA
  6
CONTINUOUS
 62
     7
 10
117.05114511671751
 20
252.6912494847202
 30
0.0
 11
121.86543511671741
 21
256.45258948472031
 31
0.0
  0
LINE
  5
62C
  8
DATA
  6
STYLE_02
 62
     7
 10
117.05114511671751
 20
252.6912494847202
 30
0.0
 11
117.5418151167174
 21
251.8414094847202
 31
0.0
  0
LINE
  5
62D
  8
DATA
  6
CONTINUOUS
 62
     7
 10
121.86543511671741
 20
256.45258948472031
 30
0.0
 11
122.3561051167174
 21
255.60275948472031
 31
0.0
  0
LINE
  5
62E
  8
DATA
  6
CONTINUOUS
 62
     7
 10
122.2404251167174
 20
254.23220948472019
 30
0.0
 11
121.73112511671739
 21
255.11434948472021
 31
0.0
  0
LINE
  5
62F
  8
DATA
  6
CONTINUOUS
 62
     7
 10
118.57993511671739
 20
251.37232948472021
 30
0.0
 11
118.07057511671751
 21
252.2545494847202
 31
0.0
  0
LINE
  5
630
  8
DATA
  6
CONTINUOUS
 62
     7
 10
118.5418151167174
 20
250.1093594847203
 30
0.0
 11
123.3561051167174
 21
253.87069948472021
 31
0.0
  0
LINE
  5
631
  8
DATA
  6
CONTINUOUS
 62
     7
 10
118.05114511671751
 20
250.95921948472019
 30
0.0
 11
122.86543511671741
 21
254.72054948472021
 31
0.0
  0
LINE
  5
632
  8
DATA
  6
STYLE_02
 62
     7
 10
118.05114511671751
 20
250.95921948472019
 30
0.0
 11
118.5418151167174
 21
250.1093594847203
 31
0.0
  0
LINE
  5
633
  8
DATA
  6
CONTINUOUS
 62
     7
 10
122.86543511671741
 20
254.72054948472021
 30
0.0
 11
123.3561051167174
 21
253.87069948472021
 31
0.0
  0
LINE
  5
634
  8
DATA
  6
CONTINUOUS
 62
     7
 10
123.2404251167174
 20
252.50017948472021
 30
0.0
 11
122.73112511671739
 21
253.3823194847202
 31
0.0
  0
LINE
  5
635
  8
DATA
  6
CONTINUOUS
 62
     7
 10
119.57993511671739
 20
249.6402794847202
 30
0.0
 11
119.07057511671751
 21
250.52249948472021
 31
0.0
  0
LINE
  5
636
  8
DATA
  6
CONTINUOUS
 62
     7
 10
119.5418151167174
 20
248.37732948472021
 30
0.0
 11
124.3561051167174
 21
252.13864948472019
 31
0.0
  0
LINE
  5
637
  8
DATA
  6
CONTINUOUS
 62
     7
 10
119.05114511671751
 20
249.2271494847202
 30
0.0
 11
123.86543511671741
 21
252.98849948472031
 31
0.0
  0
LINE
  5
638
  8
DATA
  6
STYLE_02
 62
     7
 10
119.05114511671751
 20
249.2271494847202
 30
0.0
 11
119.5418151167174
 21
248.37732948472021
 31
0.0
  0
LINE
  5
639
  8
DATA
  6
CONTINUOUS
 62
     7
 10
123.86543511671741
 20
252.98849948472031
 30
0.0
 11
124.3561051167174
 21
252.13864948472019
 31
0.0
  0
LINE
  5
63A
  8
DATA
  6
CONTINUOUS
 62
     7
 10
124.2404251167174
 20
250.7681094847203
 30
0.0
 11
123.73112511671729
 21
251.65024948472021
 31
0.0
  0
LINE
  5
63B
  8
DATA
  6
CONTINUOUS
 62
     7
 10
120.57993511671739
 20
247.90821948472021
 30
0.0
 11
120.07057511671751
 21
248.79043948472031
 31
0.0
  0
LINE
  5
63C
  8
DATA
  6
CONTINUOUS
 62
     7
 10
120.5418151167174
 20
246.64525948472021
 30
0.0
 11
125.3561051167174
 21
250.40660948472021
 31
0.0
  0
LINE
  5
63D
  8
DATA
  6
CONTINUOUS
 62
     7
 10
120.05114511671751
 20
247.4950994847203
 30
0.0
 11
124.86543511671741
 21
251.25645948472021
 31
0.0
  0
LINE
  5
63E
  8
DATA
  6
STYLE_02
 62
     7
 10
120.05114511671751
 20
247.4950994847203
 30
0.0
 11
120.5418151167174
 21
246.64525948472021
 31
0.0
  0
LINE
  5
63F
  8
DATA
  6
CONTINUOUS
 62
     7
 10
124.86543511671741
 20
251.25645948472021
 30
0.0
 11
125.3561051167174
 21
250.40660948472021
 31
0.0
  0
LINE
  5
640
  8
DATA
  6
CONTINUOUS
 62
     7
 10
125.24043511671741
 20
249.0360594847202
 30
0.0
 11
124.73112511671739
 21
249.91819948472019
 31
0.0
  0
LINE
  5
641
  8
DATA
  6
CONTINUOUS
 62
     7
 10
121.5799251167175
 20
246.17616948472019
 30
0.0
 11
121.07057511671751
 21
247.05839948472021
 31
0.0
  0
LINE
  5
642
  8
DATA
  6
CONTINUOUS
 62
     7
 10
121.5418251167174
 20
244.9132094847202
 30
0.0
 11
126.3561051167174
 21
248.67454948472019
 31
0.0
  0
LINE
  5
643
  8
DATA
  6
CONTINUOUS
 62
     7
 10
121.05114511671751
 20
245.76306948472021
 30
0.0
 11
125.86543511671741
 21
249.52438948472019
 31
0.0
  0
LINE
  5
644
  8
DATA
  6
STYLE_02
 62
     7
 10
121.05114511671751
 20
245.76306948472021
 30
0.0
 11
121.5418251167174
 21
244.9132094847202
 31
0.0
  0
LINE
  5
645
  8
DATA
  6
CONTINUOUS
 62
     7
 10
125.86543511671741
 20
249.52438948472019
 30
0.0
 11
126.3561051167174
 21
248.67454948472019
 31
0.0
  0
LINE
  5
646
  8
DATA
  6
CONTINUOUS
 62
     7
 10
126.24043511671741
 20
247.3039894847202
 30
0.0
 11
125.7311451167174
 21
248.18611948472019
 31
0.0
  0
LINE
  5
647
  8
DATA
  6
CONTINUOUS
 62
     7
 10
122.5799251167175
 20
244.4441094847202
 30
0.0
 11
122.0706051167175
 21
245.32631948472019
 31
0.0
  0
LINE
  5
648
  8
DATA
  6
CONTINUOUS
 62
     7
 10
122.5418251167174
 20
243.18114948472021
 30
0.0
 11
127.3561051167174
 21
246.9424994847202
 31
0.0
  0
LINE
  5
649
  8
DATA
  6
CONTINUOUS
 62
     7
 10
122.05114511671751
 20
244.03099948472021
 30
0.0
 11
126.86543511671741
 21
247.79234948472021
 31
0.0
  0
LINE
  5
64A
  8
DATA
  6
STYLE_02
 62
     7
 10
122.05114511671751
 20
244.03099948472021
 30
0.0
 11
122.5418251167174
 21
243.18114948472021
 31
0.0
  0
LINE
  5
64B
  8
DATA
  6
CONTINUOUS
 62
     7
 10
126.86543511671741
 20
247.79234948472021
 30
0.0
 11
127.3561051167174
 21
246.9424994847202
 31
0.0
  0
LINE
  5
64C
  8
DATA
  6
CONTINUOUS
 62
     7
 10
127.24043511671741
 20
245.57195948472031
 30
0.0
 11
126.7311451167174
 21
246.4540794847203
 31
0.0
  0
LINE
  5
64D
  8
DATA
  6
CONTINUOUS
 62
     7
 10
123.5799251167175
 20
242.71207948472019
 30
0.0
 11
123.0706051167175
 21
243.59424948472031
 31
0.0
  0
LINE
  5
64E
  8
DATA
  6
CONTINUOUS
 62
     7
 10
123.5418251167174
 20
241.44908948472019
 30
0.0
 11
128.3561051167174
 21
245.2104494847203
 31
0.0
  0
LINE
  5
64F
  8
DATA
  6
CONTINUOUS
 62
     7
 10
123.05114511671751
 20
242.2989694847202
 30
0.0
 11
127.86543511671741
 21
246.06030948472019
 31
0.0
  0
LINE
  5
650
  8
DATA
  6
STYLE_02
 62
     7
 10
123.05114511671751
 20
242.2989694847202
 30
0.0
 11
123.5418251167174
 21
241.44908948472019
 31
0.0
  0
LINE
  5
651
  8
DATA
  6
CONTINUOUS
 62
     7
 10
127.86543511671741
 20
246.06030948472019
 30
0.0
 11
128.3561051167174
 21
245.2104494847203
 31
0.0
  0
LINE
  5
652
  8
DATA
  6
CONTINUOUS
 62
     7
 10
128.24043511671741
 20
243.83990948472021
 30
0.0
 11
127.7311451167174
 21
244.7220294847202
 31
0.0
  0
LINE
  5
653
  8
DATA
  6
CONTINUOUS
 62
     7
 10
124.5799251167175
 20
240.9800194847202
 30
0.0
 11
124.0706051167175
 21
241.86221948472021
 31
0.0
  0
LINE
  5
654
  8
DATA
  6
CONTINUOUS
 62
     7
 10
124.5418151167174
 20
239.71706948472021
 30
0.0
 11
129.3561051167174
 21
243.47841948472021
 31
0.0
  0
LINE
  5
655
  8
DATA
  6
CONTINUOUS
 62
     7
 10
124.05114511671751
 20
240.56691948472019
 30
0.0
 11
128.86543511671741
 21
244.32825948472021
 31
0.0
  0
LINE
  5
656
  8
DATA
  6
STYLE_02
 62
     7
 10
124.05114511671751
 20
240.56691948472019
 30
0.0
 11
124.5418151167174
 21
239.71706948472021
 31
0.0
  0
LINE
  5
657
  8
DATA
  6
CONTINUOUS
 62
     7
 10
128.86543511671741
 20
244.32825948472021
 30
0.0
 11
129.3561051167174
 21
243.47841948472021
 31
0.0
  0
LINE
  5
658
  8
DATA
  6
CONTINUOUS
 62
     7
 10
129.24043511671741
 20
242.1078494847203
 30
0.0
 11
128.7311151167174
 21
242.98998948472021
 31
0.0
  0
LINE
  5
659
  8
DATA
  6
CONTINUOUS
 62
     7
 10
125.5799251167175
 20
239.24794948472021
 30
0.0
 11
125.0706051167175
 21
240.13015948472031
 31
0.0
  0
LINE
  5
65A
  8
DATA
  6
CONTINUOUS
 62
     7
 10
125.5418151167174
 20
237.9850194847202
 30
0.0
 11
130.3561051167174
 21
241.7463694847203
 31
0.0
  0
LINE
  5
65B
  8
DATA
  6
CONTINUOUS
 62
     7
 10
125.05114511671751
 20
238.83484948472019
 30
0.0
 11
129.86543511671741
 21
242.5962094847203
 31
0.0
  0
LINE
  5
65C
  8
DATA
  6
STYLE_02
 62
     7
 10
125.05114511671751
 20
238.83484948472019
 30
0.0
 11
125.5418151167174
 21
237.9850194847202
 31
0.0
  0
LINE
  5
65D
  8
DATA
  6
CONTINUOUS
 62
     7
 10
129.86543511671741
 20
242.5962094847203
 30
0.0
 11
130.3561051167174
 21
241.7463694847203
 31
0.0
  0
LINE
  5
65E
  8
DATA
  6
CONTINUOUS
 62
     7
 10
130.24043511671741
 20
240.3757894847202
 30
0.0
 11
129.7311151167174
 21
241.25792948472031
 31
0.0
  0
LINE
  5
65F
  8
DATA
  6
CONTINUOUS
 62
     7
 10
126.5799251167175
 20
237.51589948472031
 30
0.0
 11
126.07057511671739
 21
238.39811948472021
 31
0.0
  0
LINE
  5
660
  8
DATA
  6
CONTINUOUS
 62
     7
 10
126.5418251167174
 20
236.2529394847202
 30
0.0
 11
131.3561051167174
 21
240.0143094847202
 31
0.0
  0
LINE
  5
661
  8
DATA
  6
CONTINUOUS
 62
     7
 10
126.05114511671751
 20
237.10279948472021
 30
0.0
 11
130.86543511671741
 21
240.8641394847202
 31
0.0
  0
LINE
  5
662
  8
DATA
  6
STYLE_02
 62
     7
 10
126.05114511671751
 20
237.10279948472021
 30
0.0
 11
126.5418251167174
 21
236.2529394847202
 31
0.0
  0
LINE
  5
663
  8
DATA
  6
CONTINUOUS
 62
     7
 10
130.86543511671741
 20
240.8641394847202
 30
0.0
 11
131.3561051167174
 21
240.0143094847202
 31
0.0
  0
LINE
  5
664
  8
DATA
  6
CONTINUOUS
 62
     7
 10
131.24043511671741
 20
238.64375948472019
 30
0.0
 11
130.7311451167175
 21
239.52584948472031
 31
0.0
  0
LINE
  5
665
  8
DATA
  6
CONTINUOUS
 62
     7
 10
127.5799251167174
 20
235.78386948472021
 30
0.0
 11
127.0706051167175
 21
236.6660494847203
 31
0.0
  0
LINE
  5
666
  8
DATA
  6
CONTINUOUS
 62
     7
 10
127.5418251167174
 20
234.52090948472019
 30
0.0
 11
132.3561051167174
 21
238.28227948472019
 31
0.0
  0
LINE
  5
667
  8
DATA
  6
CONTINUOUS
 62
     7
 10
127.05114511671751
 20
235.37076948472031
 30
0.0
 11
131.86547511671739
 21
239.1320394847202
 31
0.0
  0
LINE
  5
668
  8
DATA
  6
STYLE_02
 62
     7
 10
127.05114511671751
 20
235.37076948472031
 30
0.0
 11
127.5418251167174
 21
234.52090948472019
 31
0.0
  0
LINE
  5
669
  8
DATA
  6
CONTINUOUS
 62
     7
 10
131.86547511671739
 20
239.1320394847202
 30
0.0
 11
132.3561051167174
 21
238.28227948472019
 31
0.0
  0
LINE
  5
66A
  8
DATA
  6
CONTINUOUS
 62
     7
 10
132.24043511671741
 20
236.9116894847202
 30
0.0
 11
131.7311451167175
 21
237.7938194847203
 31
0.0
  0
LINE
  5
66B
  8
DATA
  6
CONTINUOUS
 62
     7
 10
128.57992511671739
 20
234.05179948472031
 30
0.0
 11
128.0706051167175
 21
234.9340194847203
 31
0.0
  0
LINE
  5
66C
  8
DATA
  6
CONTINUOUS
 62
     7
 10
128.5418251167174
 20
232.7888494847202
 30
0.0
 11
133.3561051167174
 21
236.5501994847202
 31
0.0
  0
LINE
  5
66D
  8
DATA
  6
CONTINUOUS
 62
     7
 10
128.05114511671749
 20
233.63869948472021
 30
0.0
 11
132.86547511671739
 21
237.39998948472021
 31
0.0
  0
LINE
  5
66E
  8
DATA
  6
STYLE_02
 62
     7
 10
128.05114511671749
 20
233.63869948472021
 30
0.0
 11
128.5418251167174
 21
232.7888494847202
 31
0.0
  0
LINE
  5
66F
  8
DATA
  6
CONTINUOUS
 62
     7
 10
132.86547511671739
 20
237.39998948472021
 30
0.0
 11
133.3561051167174
 21
236.5501994847202
 31
0.0
  0
LINE
  5
670
  8
DATA
  6
CONTINUOUS
 62
     7
 10
133.2404251167174
 20
235.17963948472021
 30
0.0
 11
132.7311451167175
 21
236.0617494847202
 31
0.0
  0
LINE
  5
671
  8
DATA
  6
CONTINUOUS
 62
     7
 10
129.57992511671739
 20
232.31974948472021
 30
0.0
 11
129.0706051167175
 21
233.20194948472019
 31
0.0
  0
LINE
  5
672
  8
DATA
  6
CONTINUOUS
 62
     7
 10
129.5418251167174
 20
231.05678948472021
 30
0.0
 11
134.3561051167174
 21
234.81814948472021
 31
0.0
  0
LINE
  5
673
  8
DATA
  6
CONTINUOUS
 62
     7
 10
129.05114511671749
 20
231.9066394847203
 30
0.0
 11
133.86547511671739
 21
235.66795948472031
 31
0.0
  0
LINE
  5
674
  8
DATA
  6
STYLE_02
 62
     7
 10
129.05114511671749
 20
231.9066394847203
 30
0.0
 11
129.5418251167174
 21
231.05678948472021
 31
0.0
  0
LINE
  5
675
  8
DATA
  6
CONTINUOUS
 62
     7
 10
133.86547511671739
 20
235.66795948472031
 30
0.0
 11
134.3561051167174
 21
234.81814948472021
 31
0.0
  0
LINE
  5
676
  8
DATA
  6
CONTINUOUS
 62
     7
 10
134.2404251167174
 20
233.4476094847202
 30
0.0
 11
133.7311451167175
 21
234.32969948472021
 31
0.0
  0
LINE
  5
677
  8
DATA
  6
CONTINUOUS
 62
     7
 10
130.57992511671739
 20
230.5877194847202
 30
0.0
 11
130.0706051167175
 21
231.4698994847202
 31
0.0
  0
LINE
  5
678
  8
DATA
  6
CONTINUOUS
 62
     7
 10
130.5418251167174
 20
229.3247594847202
 30
0.0
 11
135.3561051167174
 21
233.0861194847202
 31
0.0
  0
LINE
  5
679
  8
DATA
  6
CONTINUOUS
 62
     7
 10
130.05114511671749
 20
230.17460948472021
 30
0.0
 11
134.86543511671741
 21
233.9359294847203
 31
0.0
  0
LINE
  5
67A
  8
DATA
  6
STYLE_02
 62
     7
 10
130.05114511671749
 20
230.17460948472021
 30
0.0
 11
130.5418251167174
 21
229.3247594847202
 31
0.0
  0
LINE
  5
67B
  8
DATA
  6
CONTINUOUS
 62
     7
 10
134.86543511671741
 20
233.9359294847203
 30
0.0
 11
135.3561051167174
 21
233.0861194847202
 31
0.0
  0
LINE
  5
67C
  8
DATA
  6
CONTINUOUS
 62
     7
 10
135.2404251167174
 20
231.7155594847203
 30
0.0
 11
134.7311451167175
 21
232.59766948472031
 31
0.0
  0
LINE
  5
67D
  8
DATA
  6
CONTINUOUS
 62
     7
 10
131.57992511671739
 20
228.85566948472021
 30
0.0
 11
131.0706051167175
 21
229.73786948472031
 31
0.0
  0
LINE
  5
67E
  8
DATA
  6
CONTINUOUS
 62
     7
 10
131.5418251167174
 20
227.5926694847202
 30
0.0
 11
136.3561051167174
 21
231.3540694847203
 31
0.0
  0
LINE
  5
67F
  8
DATA
  6
CONTINUOUS
 62
     7
 10
131.05114511671741
 20
228.44255948472019
 30
0.0
 11
135.86543511671741
 21
232.20389948472021
 31
0.0
  0
LINE
  5
680
  8
DATA
  6
STYLE_02
 62
     7
 10
131.05114511671741
 20
228.44255948472019
 30
0.0
 11
131.5418251167174
 21
227.5926694847202
 31
0.0
  0
LINE
  5
681
  8
DATA
  6
CONTINUOUS
 62
     7
 10
135.86543511671741
 20
232.20389948472021
 30
0.0
 11
136.3561051167174
 21
231.3540694847203
 31
0.0
  0
LINE
  5
682
  8
DATA
  6
CONTINUOUS
 62
     7
 10
136.2404251167174
 20
229.98347948472031
 30
0.0
 11
135.73115511671739
 21
230.8655894847202
 31
0.0
  0
LINE
  5
683
  8
DATA
  6
CONTINUOUS
 62
     7
 10
132.5799551167174
 20
227.12358948472021
 30
0.0
 11
132.07061511671751
 21
228.0057694847203
 31
0.0
  0
LINE
  5
684
  8
DATA
  6
CONTINUOUS
 62
     7
 10
132.5418251167174
 20
225.86062948472019
 30
0.0
 11
137.3561051167174
 21
229.6219894847203
 31
0.0
  0
LINE
  5
685
  8
DATA
  6
CONTINUOUS
 62
     7
 10
132.05117511671739
 20
226.7104894847202
 30
0.0
 11
136.86543511671741
 21
230.47183948472031
 31
0.0
  0
LINE
  5
686
  8
DATA
  6
STYLE_02
 62
     7
 10
132.05117511671739
 20
226.7104894847202
 30
0.0
 11
132.5418251167174
 21
225.86062948472019
 31
0.0
  0
LINE
  5
687
  8
DATA
  6
CONTINUOUS
 62
     7
 10
136.86543511671741
 20
230.47183948472031
 30
0.0
 11
137.3561051167174
 21
229.6219894847203
 31
0.0
  0
LINE
  5
688
  8
DATA
  6
CONTINUOUS
 62
     7
 10
137.2404251167174
 20
228.2514094847202
 30
0.0
 11
136.7311151167174
 21
229.1335894847202
 31
0.0
  0
LINE
  5
689
  8
DATA
  6
CONTINUOUS
 62
     7
 10
133.5799551167174
 20
225.39151948472019
 30
0.0
 11
133.07061511671751
 21
226.27373948472021
 31
0.0
  0
LINE
  5
68A
  8
DATA
  6
CONTINUOUS
 62
     7
 10
133.5418251167174
 20
224.12855948472031
 30
0.0
 11
138.3561051167174
 21
227.8899494847202
 31
0.0
  0
LINE
  5
68B
  8
DATA
  6
CONTINUOUS
 62
     7
 10
133.05117511671739
 20
224.97841948472021
 30
0.0
 11
137.86543511671741
 21
228.73978948472021
 31
0.0
  0
LINE
  5
68C
  8
DATA
  6
STYLE_02
 62
     7
 10
133.05117511671739
 20
224.97841948472021
 30
0.0
 11
133.5418251167174
 21
224.12855948472031
 31
0.0
  0
LINE
  5
68D
  8
DATA
  6
CONTINUOUS
 62
     7
 10
137.86543511671741
 20
228.73978948472021
 30
0.0
 11
138.3561051167174
 21
227.8899494847202
 31
0.0
  0
LINE
  5
68E
  8
DATA
  6
CONTINUOUS
 62
     7
 10
138.2404251167174
 20
226.5194194847202
 30
0.0
 11
137.7311151167174
 21
227.40154948472031
 31
0.0
  0
LINE
  5
68F
  8
DATA
  6
CONTINUOUS
 62
     7
 10
134.5799251167175
 20
223.6595294847202
 30
0.0
 11
134.0705651167174
 21
224.5417194847202
 31
0.0
  0
LINE
  5
690
  8
DATA
  6
CONTINUOUS
 62
     7
 10
134.5418151167174
 20
222.39656948472029
 30
0.0
 11
139.3561051167174
 21
226.15789948472019
 31
0.0
  0
LINE
  5
691
  8
DATA
  6
CONTINUOUS
 62
     7
 10
134.05117511671739
 20
223.24636948472019
 30
0.0
 11
138.86543511671741
 21
227.00773948472019
 31
0.0
  0
LINE
  5
692
  8
DATA
  6
STYLE_02
 62
     7
 10
134.05117511671739
 20
223.24636948472019
 30
0.0
 11
134.5418151167174
 21
222.39656948472029
 31
0.0
  0
LINE
  5
693
  8
DATA
  6
CONTINUOUS
 62
     7
 10
138.86543511671741
 20
227.00773948472019
 30
0.0
 11
139.3561051167174
 21
226.15789948472019
 31
0.0
  0
LINE
  5
694
  8
DATA
  6
CONTINUOUS
 62
     7
 10
139.2404251167174
 20
224.78735948472021
 30
0.0
 11
138.7311151167174
 21
225.6694794847202
 31
0.0
  0
LINE
  5
695
  8
DATA
  6
CONTINUOUS
 62
     7
 10
135.5799251167175
 20
221.92746948472021
 30
0.0
 11
135.07057511671741
 21
222.80967948472031
 31
0.0
  0
LINE
  5
696
  8
DATA
  6
CONTINUOUS
 62
     7
 10
135.5418151167174
 20
220.66450948472021
 30
0.0
 11
140.3561051167174
 21
224.42585948472021
 31
0.0
  0
LINE
  5
697
  8
DATA
  6
CONTINUOUS
 62
     7
 10
135.05114511671741
 20
221.51435948472019
 30
0.0
 11
139.86543511671741
 21
225.27569948472021
 31
0.0
  0
LINE
  5
698
  8
DATA
  6
STYLE_02
 62
     7
 10
135.05114511671741
 20
221.51435948472019
 30
0.0
 11
135.5418151167174
 21
220.66450948472021
 31
0.0
  0
LINE
  5
699
  8
DATA
  6
CONTINUOUS
 62
     7
 10
139.86543511671741
 20
225.27569948472021
 30
0.0
 11
140.3561051167174
 21
224.42585948472021
 31
0.0
  0
LINE
  5
69A
  8
DATA
  6
CONTINUOUS
 62
     7
 10
140.2404251167174
 20
223.0553094847202
 30
0.0
 11
139.7311151167174
 21
223.93740948472021
 31
0.0
  0
LINE
  5
69B
  8
DATA
  6
CONTINUOUS
 62
     7
 10
136.5799251167175
 20
220.1954194847203
 30
0.0
 11
136.07057511671741
 21
221.0776094847202
 31
0.0
  0
LINE
  5
69C
  8
DATA
  6
CONTINUOUS
 62
     7
 10
136.54182511671729
 20
218.93243948472019
 30
0.0
 11
141.3561051167174
 21
222.69378948472021
 31
0.0
  0
LINE
  5
69D
  8
DATA
  6
CONTINUOUS
 62
     7
 10
136.05114511671741
 20
219.7822994847202
 30
0.0
 11
140.86543511671741
 21
223.54362948472021
 31
0.0
  0
LINE
  5
69E
  8
DATA
  6
STYLE_02
 62
     7
 10
136.05114511671741
 20
219.7822994847202
 30
0.0
 11
136.54182511671729
 21
218.93243948472019
 31
0.0
  0
LINE
  5
69F
  8
DATA
  6
CONTINUOUS
 62
     7
 10
140.86543511671741
 20
223.54362948472021
 30
0.0
 11
141.3561051167174
 21
222.69378948472021
 31
0.0
  0
LINE
  5
6A0
  8
DATA
  6
CONTINUOUS
 62
     7
 10
141.2404251167174
 20
221.3232394847202
 30
0.0
 11
140.7311151167174
 21
222.20535948472019
 31
0.0
  0
LINE
  5
6A1
  8
DATA
  6
CONTINUOUS
 62
     7
 10
137.5799251167175
 20
218.46333948472019
 30
0.0
 11
137.0706051167175
 21
219.3455594847203
 31
0.0
  0
LINE
  5
6A2
  8
DATA
  6
CONTINUOUS
 62
     7
 10
101.75520511671741
 20
296.3456194847202
 30
0.0
 11
104.84859511671741
 21
287.91407948472022
 31
0.0
  0
LINE
  5
6A3
  8
DATA
  6
CONTINUOUS
 62
     7
 10
89.937535116717413
 20
293.9433594847203
 30
0.0
 11
92.13275511671749
 21
290.79008948472023
 31
0.0
  0
LINE
  5
6A4
  8
DATA
  6
CONTINUOUS
 62
     7
 10
101.75520511671741
 20
296.3456194847202
 30
0.0
 11
100.05616511671739
 21
299.78535948472029
 31
0.0
  0
LINE
  5
6A5
  8
DATA
  6
CONTINUOUS
 62
     7
 10
86.322185116717506
 20
300.28533948472028
 30
0.0
 11
96.437345116717452
 21
306.12534948472029
 31
0.0
  0
LINE
  5
6A6
  8
DATA
  6
CONTINUOUS
 62
     7
 10
88.055575116717478
 20
297.24465948472022
 30
0.0
 11
98.172395116717425
 21
303.08560948472018
 31
0.0
  0
LINE
  5
6A7
  8
DATA
  6
CONTINUOUS
 62
     7
 10
85.900125116717504
 20
301.19637948472018
 30
0.0
 11
95.859405116717426
 21
306.94636948472032
 31
0.0
  0
LINE
  5
6A8
  8
DATA
  6
CONTINUOUS
 62
     7
 10
85.900125116717504
 20
301.19637948472018
 30
0.0
 11
82.703245116717426
 21
307.43354948472017
 31
0.0
  0
LINE
  5
6A9
  8
DATA
  6
CONTINUOUS
 62
     7
 10
95.859405116717426
 20
306.94636948472032
 30
0.0
 11
92.056315116717428
 21
312.83354948472021
 31
0.0
  0
POLYLINE
  5
6AA
  8
DATA
  6
CONTINUOUS
 62
     7
 66
     1
 10
0.0
 20
0.0
 30
0.0
 70
     1
  0
VERTEX
  5
8BA
  8
DATA
  6
CONTINUOUS
 62
     7
 10
86.232905116717475
 20
303.69789948472032
 30
0.0
  0
VERTEX
  5
8BB
  8
DATA
  6
CONTINUOUS
 62
     7
 10
89.737585116717455
 20
305.72132948472029
 30
0.0
  0
VERTEX
  5
8BC
  8
DATA
  6
CONTINUOUS
 62
     7
 10
90.237585116717483
 20
304.85528948472017
 30
0.0
  0
VERTEX
  5
8BD
  8
DATA
  6
CONTINUOUS
 62
     7
 10
86.732905116717475
 20
302.83185948472038
 30
0.0
  0
SEQEND
  5
8BE
  8
DATA
  6
CONTINUOUS
 62
     7
  0
LINE
  5
6B0
  8
DATA
  6
CONTINUOUS
 62
     7
 10
86.582905116717484
 20
303.0916594847202
 30
0.0
 11
86.839125116717469
 21
304.04790948472032
 31
0.0
  0
LINE
  5
6B1
  8
DATA
  6
CONTINUOUS
 62
     7
 10
87.858735116717412
 20
303.4818794847202
 30
0.0
 11
86.492715116717491
 21
303.8478994847203
 31
0.0
  0
LINE
  5
6B2
  8
DATA
  6
CONTINUOUS
 62
     7
 10
88.724785116717484
 20
303.9818794847202
 30
0.0
 11
87.358735116717412
 21
304.3478994847203
 31
0.0
  0
LINE
  5
6B3
  8
DATA
  6
CONTINUOUS
 62
     7
 10
89.590805116717434
 20
304.4818794847202
 30
0.0
 11
88.224765116717435
 21
304.8478994847203
 31
0.0
  0
LINE
  5
6B4
  8
DATA
  6
CONTINUOUS
 62
     7
 10
90.110995116717547
 20
305.0745294847203
 30
0.0
 11
89.090805116717434
 21
305.34789948472019
 31
0.0
  0
LINE
  5
6B5
  8
DATA
  6
CONTINUOUS
 62
     7
 10
87.339125116717454
 20
303.18188948472022
 30
0.0
 11
87.705155116717492
 21
304.54790948472032
 31
0.0
  0
LINE
  5
6B6
  8
DATA
  6
CONTINUOUS
 62
     7
 10
88.205155116717478
 20
303.68188948472022
 30
0.0
 11
88.571175116717427
 21
305.04790948472032
 31
0.0
  0
LINE
  5
6B7
  8
DATA
  6
CONTINUOUS
 62
     7
 10
89.180995116717455
 20
304.59166948472028
 30
0.0
 11
89.437195116717504
 21
305.54790948472032
 31
0.0
  0
LINE
  5
6B8
  8
DATA
  6
CONTINUOUS
 62
     7
 10
89.937195116717476
 20
304.68188948472022
 30
0.0
 11
90.064165116717504
 21
305.15567948472022
 31
0.0
  0
LINE
  5
6B9
  8
DATA
  6
CONTINUOUS
 62
     7
 10
91.796435116717475
 20
305.75530948472033
 30
0.0
 11
91.296435116717504
 21
306.62131948472029
 31
0.0
  0
LINE
  5
6BA
  8
DATA
  6
CONTINUOUS
 62
     7
 10
95.316105116717495
 20
307.78738948472022
 30
0.0
 11
91.796435116717475
 21
305.75530948472033
 31
0.0
  0
LINE
  5
6BB
  8
DATA
  6
CONTINUOUS
 62
     7
 10
91.296435116717504
 20
306.62131948472029
 30
0.0
 11
94.77280511671745
 21
308.62840948472041
 31
0.0
  0
LINE
  5
6BC
  8
DATA
  6
CONTINUOUS
 62
     7
 10
91.646435116717512
 20
306.01509948472022
 30
0.0
 11
91.902635116717434
 21
306.97132948472017
 31
0.0
  0
LINE
  5
6BD
  8
DATA
  6
CONTINUOUS
 62
     7
 10
92.92226511671744
 20
306.40529948472027
 30
0.0
 11
91.556225116717414
 21
306.77131948472021
 31
0.0
  0
LINE
  5
6BE
  8
DATA
  6
CONTINUOUS
 62
     7
 10
93.788265116717412
 20
306.90529948472027
 30
0.0
 11
92.422265116717426
 21
307.27131948472021
 31
0.0
  0
LINE
  5
6BF
  8
DATA
  6
CONTINUOUS
 62
     7
 10
94.654305116717396
 20
307.40529948472027
 30
0.0
 11
93.288265116717398
 21
307.77131948472021
 31
0.0
  0
LINE
  5
6C0
  8
DATA
  6
CONTINUOUS
 62
     7
 10
95.174535116717493
 20
307.99794948472021
 30
0.0
 11
94.154305116717424
 21
308.27131948472021
 31
0.0
  0
LINE
  5
6C1
  8
DATA
  6
CONTINUOUS
 62
     7
 10
92.402655116717483
 20
306.10530948472041
 30
0.0
 11
92.768655116717497
 21
307.47132948472029
 31
0.0
  0
LINE
  5
6C2
  8
DATA
  6
CONTINUOUS
 62
     7
 10
93.268685116717506
 20
306.60530948472041
 30
0.0
 11
93.634685116717492
 21
307.97132948472029
 31
0.0
  0
LINE
  5
6C3
  8
DATA
  6
CONTINUOUS
 62
     7
 10
94.244515116717494
 20
307.51509948472022
 30
0.0
 11
94.500725116717476
 21
308.47132948472017
 31
0.0
  0
LINE
  5
6C4
  8
DATA
  6
CONTINUOUS
 62
     7
 10
95.000735116717479
 20
307.60530948472041
 30
0.0
 11
95.127665116717495
 21
308.0790994847203
 31
0.0
  0
LINE
  5
6C5
  8
DATA
  6
CONTINUOUS
 62
     7
 10
86.56981511671745
 20
299.85096948472022
 30
0.0
 11
96.685235116717436
 21
305.69110948472019
 31
0.0
  0
LINE
  5
6C6
  8
DATA
  6
CONTINUOUS
 62
     7
 10
96.566105116717495
 20
305.62231948472021
 30
0.0
 11
98.066105116717509
 21
303.02422948472019
 31
0.0
  0
LINE
  5
6C7
  8
DATA
  6
CONTINUOUS
 62
     7
 10
86.693425116717449
 20
299.9223094847203
 30
0.0
 11
88.193425116717449
 21
297.32423948472041
 31
0.0
  0
LINE
  5
6C8
  8
DATA
  6
CONTINUOUS
 62
     7
 10
86.322185116717506
 20
300.28533948472028
 30
0.0
 11
85.900125116717504
 21
301.19637948472018
 31
0.0
  0
LINE
  5
6C9
  8
DATA
  6
CONTINUOUS
 62
     7
 10
95.859405116717426
 20
306.94636948472032
 30
0.0
 11
96.437345116717452
 21
306.12534948472029
 31
0.0
  0
LINE
  5
6CA
  8
DATA
  6
CONTINUOUS
 62
     7
 10
96.437345116717452
 20
306.12534948472029
 30
0.0
 11
100.05616511671739
 21
299.78535948472029
 31
0.0
  0
LINE
  5
6CB
  8
DATA
  6
CONTINUOUS
 62
     7
 10
89.937535116717413
 20
293.9433594847203
 30
0.0
 11
86.322185116717506
 21
300.28533948472028
 31
0.0
  0
LINE
  5
6CC
  8
DATA
  6
CONTINUOUS
 62
     7
 10
137.54182511671729
 20
217.2003894847202
 30
0.0
 11
142.3561051167174
 21
220.9617394847202
 31
0.0
  0
LINE
  5
6CD
  8
DATA
  6
CONTINUOUS
 62
     7
 10
137.05114511671741
 20
218.05023948472021
 30
0.0
 11
141.86543511671741
 21
221.8115794847202
 31
0.0
  0
LINE
  5
6CE
  8
DATA
  6
STYLE_02
 62
     7
 10
137.05114511671741
 20
218.05023948472021
 30
0.0
 11
137.54182511671729
 21
217.2003894847202
 31
0.0
  0
LINE
  5
6CF
  8
DATA
  6
CONTINUOUS
 62
     7
 10
141.86543511671741
 20
221.8115794847202
 30
0.0
 11
142.3561051167174
 21
220.9617394847202
 31
0.0
  0
LINE
  5
6D0
  8
DATA
  6
CONTINUOUS
 62
     7
 10
142.2404251167174
 20
219.59119948472031
 30
0.0
 11
141.7311151167174
 21
220.4733294847203
 31
0.0
  0
LINE
  5
6D1
  8
DATA
  6
CONTINUOUS
 62
     7
 10
138.33552511671741
 20
217.1546194847202
 30
0.0
 11
138.0706051167175
 21
217.61349948472031
 31
0.0
  0
INSERT
  5
6D2
  8
DATA
 62
     7
  2
*U0
 10
100.0
 20
140.0
 30
0.0
  0
LINE
  5
6D3
  8
DATA
  6
CONTINUOUS
 62
     7
 10
141.34756511671739
 20
218.8936194847202
 30
0.0
 11
142.86543511671741
 21
220.07952948472021
 31
0.0
  0
LINE
  5
6D4
  8
DATA
  6
CONTINUOUS
 62
     7
 10
142.86543511671741
 20
220.07952948472021
 30
0.0
 11
142.99947511671741
 21
219.84737948472031
 31
0.0
  0
ARC
  5
6D5
  8
DATA
  6
CONTINUOUS
 62
     7
 10
-63.095994654783929
 20
-89.779405932580744
 30
0.0
 40
2.2299696136271439
 50
286.1691879278722
 51
103.8306622335799
  0
ARC
  5
6D6
  8
DATA
  6
CONTINUOUS
 62
     7
 10
-61.861544654783998
 20
-94.207175932580796
 30
0.0
 40
2.3668913983746251
 50
105.0216395808347
 51
282.77490972565442
  0
ARC
  5
6D7
  8
DATA
  6
CONTINUOUS
 62
     7
 10
-143.0617187856775
 20
-89.805934562472174
 30
0.0
 40
2.2299696136271119
 50
286.16918792786942
 51
103.8306622335799
  0
ARC
  5
6D8
  8
DATA
  6
CONTINUOUS
 62
     7
 10
-141.82726878567789
 20
-94.233704562472212
 30
0.0
 40
2.3668913983745399
 50
105.0216395808324
 51
282.7749097256571
  0
ENDSEC
  0
EOF
