  0
SECTION
  2
HEADER
  9
$ACADVER
  1
AC1009
  9
$INSBASE
 10
0.0
 20
0.0
 30
0.0
  9
$EXTMIN
 10
-260.021970979895
 20
-398.91419333393958
 30
-0.0015258207003583
  9
$EXTMAX
 10
460.0219743326561
 20
670.62804802803294
 30
0.0000000349246037
  9
$LIMMIN
 10
0.0
 20
0.0
  9
$LIMMAX
 10
0.0
 20
0.0
  9
$ORTHOMODE
 70
     0
  9
$REGENMODE
 70
     1
  9
$FILLMODE
 70
     1
  9
$QTEXTMODE
 70
     0
  9
$MIRRTEXT
 70
     1
  9
$DRAGMODE
 70
     2
  9
$LTSCALE
 40
20.32
  9
$OSMODE
 70
   167
  9
$ATTMODE
 70
     1
  9
$TEXTSIZE
 40
0.0
  9
$TRACEWID
 40
1.0
  9
$TEXTSTYLE
  7
STANDARD
  9
$CLAYER
  8
0
  9
$CELTYPE
  6
CONTINUOUS
  9
$CECOLOR
 62
   256
  9
$DIMSCALE
 40
1.0
  9
$DIMASZ
 40
0.18
  9
$DIMEXO
 40
0.0625
  9
$DIMDLI
 40
0.38
  9
$DIMRND
 40
0.0
  9
$DIMDLE
 40
0.0
  9
$DIMEXE
 40
0.18
  9
$DIMTP
 40
0.0
  9
$DIMTM
 40
0.0
  9
$DIMTXT
 40
0.18
  9
$DIMCEN
 40
0.09
  9
$DIMTSZ
 40
0.0
  9
$DIMTOL
 70
     0
  9
$DIMLIM
 70
     0
  9
$DIMTIH
 70
     1
  9
$DIMTOH
 70
     1
  9
$DIMSE1
 70
     0
  9
$DIMSE2
 70
     0
  9
$DIMTAD
 70
     0
  9
$DIMZIN
 70
     0
  9
$DIMBLK
  1

  9
$DIMASO
 70
     1
  9
$DIMSHO
 70
     1
  9
$DIMPOST
  1

  9
$DIMAPOST
  1

  9
$DIMALT
 70
     0
  9
$DIMALTD
 70
     2
  9
$DIMALTF
 40
25.399999999999999
  9
$DIMLFAC
 40
1.0
  9
$DIMTOFL
 70
     0
  9
$DIMTVP
 40
0.0
  9
$DIMTIX
 70
     0
  9
$DIMSOXD
 70
     0
  9
$DIMSAH
 70
     0
  9
$DIMBLK1
  1

  9
$DIMBLK2
  1

  9
$DIMSTYLE
  2
STANDARD
  9
$DIMCLRD
 70
     0
  9
$DIMCLRE
 70
     0
  9
$DIMCLRT
 70
     0
  9
$DIMTFAC
 40
1.0
  9
$DIMGAP
 40
0.09
  9
$LUNITS
 70
     2
  9
$LUPREC
 70
     4
  9
$SKETCHINC
 40
0.1
  9
$FILLETRAD
 40
0.0
  9
$AUNITS
 70
     0
  9
$AUPREC
 70
     0
  9
$MENU
  1
acad
  9
$ELEVATION
 40
0.0
  9
$PELEVATION
 40
0.0
  9
$THICKNESS
 40
0.0
  9
$LIMCHECK
 70
     0
  9
$BLIPMODE
 70
     0
  9
$CHAMFERA
 40
0.0
  9
$CHAMFERB
 40
0.0
  9
$SKPOLY
 70
     0
  9
$TDCREATE
 40
2452647.6656365739
  9
$TDUPDATE
 40
2452647.6659817132
  9
$TDINDWG
 40
0.0002480324
  9
$TDUSRTIMER
 40
0.000247338
  9
$USRTIMER
 70
     1
  9
$ANGBASE
 50
0.0
  9
$ANGDIR
 70
     0
  9
$PDMODE
 70
     1
  9
$PDSIZE
 40
-2.0
  9
$PLINEWID
 40
0.0
  9
$COORDS
 70
     0
  9
$SPLFRAME
 70
     0
  9
$SPLINETYPE
 70
     6
  9
$SPLINESEGS
 70
     8
  9
$ATTDIA
 70
     0
  9
$ATTREQ
 70
     1
  9
$HANDLING
 70
     1
  9
$HANDSEED
  5
3DF
  9
$SURFTAB1
 70
     6
  9
$SURFTAB2
 70
     6
  9
$SURFTYPE
 70
     6
  9
$SURFU
 70
     6
  9
$SURFV
 70
     6
  9
$UCSNAME
  2

  9
$UCSORG
 10
0.0
 20
0.0
 30
0.0
  9
$UCSXDIR
 10
1.0
 20
0.0
 30
0.0
  9
$UCSYDIR
 10
0.0
 20
1.0
 30
0.0
  9
$PUCSNAME
  2

  9
$PUCSORG
 10
0.0
 20
0.0
 30
0.0
  9
$PUCSXDIR
 10
1.0
 20
0.0
 30
0.0
  9
$PUCSYDIR
 10
0.0
 20
1.0
 30
0.0
  9
$USERI1
 70
     0
  9
$USERI2
 70
     0
  9
$USERI3
 70
     0
  9
$USERI4
 70
     0
  9
$USERI5
 70
     0
  9
$USERR1
 40
0.0
  9
$USERR2
 40
0.0
  9
$USERR3
 40
0.0
  9
$USERR4
 40
0.0
  9
$USERR5
 40
0.0
  9
$WORLDVIEW
 70
     1
  9
$SHADEDGE
 70
     3
  9
$SHADEDIF
 70
    70
  9
$TILEMODE
 70
     1
  9
$MAXACTVP
 70
    16
  9
$PLIMCHECK
 70
     0
  9
$PEXTMIN
 10
1.0000000000000000E+020
 20
1.0000000000000000E+020
 30
1.0000000000000000E+020
  9
$PEXTMAX
 10
-1.0000000000000000E+020
 20
-1.0000000000000000E+020
 30
-1.0000000000000000E+020
  9
$PLIMMIN
 10
0.0
 20
0.0
  9
$PLIMMAX
 10
12.0
 20
9.0
  9
$UNITMODE
 70
     0
  9
$VISRETAIN
 70
     0
  9
$PLINEGEN
 70
     1
  9
$PSLTSCALE
 70
     0
  0
ENDSEC
  0
SECTION
  2
TABLES
  0
TABLE
  2
VPORT
 70
     2
  0
VPORT
  2
*ACTIVE
 70
     0
 10
0.0
 20
0.0
 11
1.0
 21
1.0
 12
100.00000167638041
 22
135.85692734704659
 13
0.0
 23
0.0
 14
1.0
 24
1.0
 15
0.0
 25
0.0
 16
0.0
 26
0.0
 36
1.0
 17
0.0
 27
0.0
 37
0.0
 40
1081.0426955701651
 41
1.703770197486534
 42
50.0
 43
0.0
 44
0.0
 50
0.0
 51
0.0
 71
     0
 72
   100
 73
     1
 74
     1
 75
     0
 76
     0
 77
     0
 78
     0
  0
ENDTAB
  0
TABLE
  2
LTYPE
 70
    11
  0
LTYPE
  2
CONTINUOUS
 70
     0
  3
Solid line
 72
    65
 73
     0
 40
0.0
  0
LTYPE
  2
STYLE_01
 70
     0
  3

 72
    65
 73
     2
 40
0.4166412353515625
 49
0.208282470703125
 49
-0.2083587646484375
  0
LTYPE
  2
STYLE_02
 70
     0
  3

 72
    65
 73
     2
 40
0.694427490234375
 49
0.4860687255859375
 49
-0.2083587646484375
  0
LTYPE
  2
STYLE_03
 70
     0
  3

 72
    65
 73
     2
 40
1.25
 49
1.0416412353515621
 49
-0.2083587646484375
  0
LTYPE
  2
STYLE_04
 70
     0
  3

 72
    65
 73
     2
 40
1.5277099609375
 49
1.319427490234375
 49
-0.208282470703125
  0
LTYPE
  2
STYLE_05
 70
     0
  3

 72
    65
 73
     2
 40
0.208282470703125
 49
0.069427490234375
 49
-0.13885498046875
  0
LTYPE
  2
STYLE_06
 70
     0
  3

 72
    65
 73
     4
 40
1.0416412353515621
 49
0.625
 49
-0.208282470703125
 49
0.069427490234375
 49
-0.1389312744140625
  0
LTYPE
  2
STYLE_07
 70
     0
  3

 72
    65
 73
     6
 40
1.875
 49
0.625
 49
-0.208282470703125
 49
0.625
 49
-0.2083587646484375
 49
0.069427490234375
 49
-0.1389312744140625
  0
LTYPE
  2
STYLE_08
 70
     0
  3

 72
    65
 73
     6
 40
1.25
 49
0.625
 49
-0.208282470703125
 49
0.069427490234375
 49
-0.1389312744140625
 49
0.069427490234375
 49
-0.1389312744140625
  0
LTYPE
  2
STYLE_09
 70
     0
  3

 72
    65
 73
     4
 40
5.0
 49
3.75
 49
-0.2777862548828125
 49
0.694427490234375
 49
-0.2777862548828125
  0
LTYPE
  2
STYLE_10
 70
     0
  3

 72
    65
 73
     6
 40
5.9375
 49
3.75
 49
-0.2777862548828125
 49
0.694427490234375
 49
-0.2777862548828125
 49
0.625
 49
-0.3125
  0
ENDTAB
  0
TABLE
  2
LAYER
 70
     5
  0
LAYER
  2
0
 70
     0
 62
     7
  6
CONTINUOUS
  0
LAYER
  2
HIBINO-BASE
 70
     0
 62
     7
  6
CONTINUOUS
  0
LAYER
  2
SPEC
 70
     0
 62
     7
  6
CONTINUOUS
  0
LAYER
  2
DIMNSIONS
 70
     0
 62
     7
  6
CONTINUOUS
  0
LAYER
  2
DATA
 70
     0
 62
     7
  6
CONTINUOUS
  0
ENDTAB
  0
TABLE
  2
STYLE
 70
     2
  0
STYLE
  2
STANDARD
 70
     0
 40
0.0
 41
1.0
 50
0.0
 71
     0
 42
0.0
  3
txt
  4
BIGFONT.SHX
  0
ENDTAB
  0
TABLE
  2
VIEW
 70
     0
  0
ENDTAB
  0
TABLE
  2
UCS
 70
     0
  0
ENDTAB
  0
TABLE
  2
APPID
 70
     1
  0
APPID
  2
ACAD
 70
     0
  0
ENDTAB
  0
TABLE
  2
DIMSTYLE
 70
     1
  0
DIMSTYLE
  2
STANDARD
 70
     0
  3

  4

  5

  6

  7

 40
1.0
 41
0.18
 42
0.0625
 43
0.38
 44
0.18
 45
0.0
 46
0.0
 47
0.0
 48
0.0
140
0.18
141
0.09
142
0.0
143
25.399999999999999
144
1.0
145
0.0
146
1.0
147
0.09
 71
     0
 72
     0
 73
     1
 74
     1
 75
     0
 76
     0
 77
     0
 78
     0
170
     0
171
     2
172
     0
173
     0
174
     0
175
     0
176
     0
177
     0
178
     0
  0
ENDTAB
  0
ENDSEC
  0
SECTION
  2
BLOCKS
  0
BLOCK
  8
0
  2
$MODEL_SPACE
 70
     0
 10
0.0
 20
0.0
 30
0.0
  3
$MODEL_SPACE
  1

  0
ENDBLK
  5
3AA
  8
0
  0
BLOCK
 67
     1
  8
0
  2
$PAPER_SPACE
 70
     0
 10
0.0
 20
0.0
 30
0.0
  3
$PAPER_SPACE
  1

  0
ENDBLK
  5
3A6
 67
     1
  8
0
  0
ENDSEC
  0
SECTION
  2
ENTITIES
  0
LINE
  5
2C
  8
HIBINO-BASE
  6
CONTINUOUS
 62
     7
 10
-259.99999999999989
 20
670.59544499999981
 30
0.0
 11
460.0
 21
670.59544499999981
 31
0.0
  0
LINE
  5
2D
  8
HIBINO-BASE
  6
CONTINUOUS
 62
     7
 10
460.0
 20
-369.40455500000002
 30
0.0
 11
-259.99999999999989
 21
-369.40455500000002
 31
0.0
  0
LINE
  5
2E
  8
HIBINO-BASE
  6
CONTINUOUS
 62
     7
 10
-259.99999999999989
 20
-369.40455500000002
 30
0.0
 11
-259.99999999999989
 21
670.59544499999981
 31
0.0
  0
TEXT
  5
2F
  8
HIBINO-BASE
 62
     7
 10
-231.2639999999999
 20
-393.91649099999989
 30
0.0
 40
14.970335999999991
  1
Hibino Corporation
 41
0.85
 11
-231.2639999999999
 21
-378.94615499999992
 31
0.0
 73
     3
  0
LINE
  5
30
  8
HIBINO-BASE
  6
CONTINUOUS
 62
     7
 10
460.0
 20
670.59544499999981
 30
0.0
 11
460.0
 21
-369.40455500000002
 31
0.0
  0
LINE
  5
31
  8
HIBINO-BASE
  6
CONTINUOUS
 62
     7
 10
100.0
 20
-279.40455500000002
 30
0.0
 11
460.0
 21
-279.40455500000002
 31
0.0
  0
LINE
  5
32
  8
HIBINO-BASE
  6
CONTINUOUS
 62
     7
 10
100.0
 20
-369.40455500000002
 30
0.0
 11
100.0
 21
-279.40455500000002
 31
0.0
  0
TEXT
  5
33
  8
HIBINO-BASE
 62
     7
 10
103.59999999999989
 20
-289.64317899999998
 30
0.0
 40
7.4851840000000003
  1
NOTE
 41
0.85
 11
103.59999999999989
 21
-282.15799500000003
 31
0.0
 73
     3
  0
LINE
  5
34
  8
HIBINO-BASE
  6
CONTINUOUS
 62
     7
 10
240.0
 20
-369.40455500000002
 30
0.0
 11
240.0
 21
-279.40455500000002
 31
0.0
  0
TEXT
  5
35
  8
HIBINO-BASE
 62
     7
 10
243.59999999999991
 20
-289.64317899999998
 30
0.0
 40
7.4851840000000003
  1
TITLE
 41
0.85
 11
243.59999999999991
 21
-282.15799500000003
 31
0.0
 73
     3
  0
TEXT
  5
36
  8
HIBINO-BASE
 62
     7
 10
300.27355999999992
 20
-393.91649099999989
 30
0.0
 40
14.970335999999991
  1
ヒビノ株式会社
 41
0.85
 11
300.27355999999992
 21
-378.94615499999992
 31
0.0
 73
     3
  0
LINE
  5
37
  8
HIBINO-BASE
  6
CONTINUOUS
 62
     7
 10
100.0
 20
-329.40455500000002
 30
0.0
 11
460.0
 21
-329.40455500000002
 31
0.0
  0
TEXT
  5
38
  8
HIBINO-BASE
 62
     7
 10
293.60000000000002
 20
-339.41789899999992
 30
0.0
 40
7.4851840000000003
  1
DRAWN
 41
0.85
 11
293.60000000000002
 21
-331.93271499999992
 31
0.0
 73
     3
  0
TEXT
  5
39
  8
HIBINO-BASE
 62
     7
 10
193.59999999999991
 20
-339.41789899999992
 30
0.0
 40
7.4851840000000003
  1
DATE
 41
0.85
 11
193.59999999999991
 21
-331.93271499999992
 31
0.0
 73
     3
  0
TEXT
  5
3A
  8
HIBINO-BASE
 62
     7
 10
104.40000000000001
 20
-339.37437899999998
 30
0.0
 40
6.773343999999998
  1
図面サイズ
 41
0.85
 11
104.40000000000001
 21
-332.60103500000002
 31
0.0
 73
     3
  0
TEXT
  5
3B
  8
HIBINO-BASE
 62
     7
 10
153.59999999999991
 20
-339.41789899999992
 30
0.0
 40
7.4851840000000003
  1
SCALE
 41
0.85
 11
153.59999999999991
 21
-331.93271499999992
 31
0.0
 73
     3
  0
TEXT
  5
3C
  8
HIBINO-BASE
 62
     7
 10
243.59999999999991
 20
-339.41789899999992
 30
0.0
 40
7.4851840000000003
  1
DESIGN
 41
0.85
 11
243.59999999999991
 21
-331.93271499999992
 31
0.0
 73
     3
  0
TEXT
  5
3D
  8
HIBINO-BASE
 62
     7
 10
393.60000000000002
 20
-339.41789899999992
 30
0.0
 40
7.4851840000000003
  1
DRAWING NO.
 41
0.85
 11
393.60000000000002
 21
-331.93271499999992
 31
0.0
 73
     3
  0
TEXT
  5
3E
  8
HIBINO-BASE
 62
     7
 10
343.60000000000002
 20
-339.41789899999992
 30
0.0
 40
7.4851840000000003
  1
CHECK
 41
0.85
 11
343.60000000000002
 21
-331.93271499999992
 31
0.0
 73
     3
  0
LINE
  5
3F
  8
HIBINO-BASE
  6
CONTINUOUS
 62
     7
 10
157.49999999999989
 20
-364.40455500000002
 30
0.0
 11
172.5
 21
-349.40455500000002
 31
0.0
  0
TEXT
  5
40
  8
HIBINO-BASE
 62
     7
 10
154.99999999999989
 20
-355.59009900000001
 30
0.0
 40
9.0311039999999991
  1
1
 41
0.85
 11
154.99999999999989
 21
-346.55899499999998
 31
0.0
 73
     3
  0
LINE
  5
41
  8
HIBINO-BASE
  6
CONTINUOUS
 62
     7
 10
149.99999999999989
 20
-369.40455500000002
 30
0.0
 11
149.99999999999989
 21
-329.40455500000002
 31
0.0
  0
LINE
  5
42
  8
HIBINO-BASE
  6
CONTINUOUS
 62
     7
 10
190.0
 20
-369.40455500000002
 30
0.0
 11
190.0
 21
-329.40455500000002
 31
0.0
  0
LINE
  5
43
  8
HIBINO-BASE
  6
CONTINUOUS
 62
     7
 10
289.99999999999989
 20
-329.40455500000002
 30
0.0
 11
289.99999999999989
 21
-369.40455500000002
 31
0.0
  0
LINE
  5
44
  8
HIBINO-BASE
  6
CONTINUOUS
 62
     7
 10
390.0
 20
-329.40455500000002
 30
0.0
 11
390.0
 21
-369.40455500000002
 31
0.0
  0
LINE
  5
45
  8
HIBINO-BASE
  6
CONTINUOUS
 62
     7
 10
339.99999999999989
 20
-369.40455500000002
 30
0.0
 11
339.99999999999989
 21
-329.40455500000002
 31
0.0
  0
TEXT
  5
46
  8
HIBINO-BASE
 62
     7
 10
115.64355999999989
 20
-358.39473099999992
 30
0.0
 40
13.546656
  1
A4
 41
0.85
 11
115.64355999999989
 21
-344.84807499999988
 31
0.0
 73
     3
  0
TEXT
  5
47
  8
HIBINO-BASE
 62
     7
 10
193.42616000000001
 20
-358.15381899999988
 30
0.0
 40
7.4851840000000003
  1
'03.01.
 41
0.85
 11
193.42616000000001
 21
-350.66863499999988
 31
0.0
 73
     3
  0
TEXT
  5
48
  8
HIBINO-BASE
 62
     7
 10
170.0
 20
-363.09009900000001
 30
0.0
 40
9.0311039999999991
  1
4
 41
0.85
 11
170.0
 21
-354.05899499999992
 31
0.0
 73
     3
  0
TEXT
  5
49
  8
HIBINO-BASE
 62
     7
 10
296.02324004413839
 20
-358.15381899999988
 30
0.0
 40
7.4851840000000003
  1
N.Sasaki
 41
0.85
 11
296.02324004413839
 21
-350.66863499999988
 31
0.0
 73
     3
  0
LINE
  5
4A
  8
SPEC
  6
CONTINUOUS
 62
     7
 10
-229.99999999999989
 20
630.5954449999997
 30
0.0
 11
360.0
 21
630.5954449999997
 31
0.0
  0
LINE
  5
4B
  8
SPEC
  6
CONTINUOUS
 62
     7
 10
-229.99999999999989
 20
615.59544499999981
 30
0.0
 11
360.0
 21
615.59544499999981
 31
0.0
  0
LINE
  5
4C
  8
SPEC
  6
CONTINUOUS
 62
     7
 10
-229.99999999999989
 20
570.59544499999981
 30
0.0
 11
360.0
 21
570.59544499999981
 31
0.0
  0
LINE
  5
4D
  8
SPEC
  6
CONTINUOUS
 62
     7
 10
-229.99999999999989
 20
540.59544499999993
 30
0.0
 11
360.0
 21
540.59544499999993
 31
0.0
  0
LINE
  5
4E
  8
SPEC
  6
CONTINUOUS
 62
     7
 10
-229.99999999999989
 20
510.59544499999993
 30
0.0
 11
360.0
 21
510.59544499999993
 31
0.0
  0
LINE
  5
4F
  8
SPEC
  6
CONTINUOUS
 62
     7
 10
-229.99999999999989
 20
525.59544499999993
 30
0.0
 11
360.0
 21
525.59544499999993
 31
0.0
  0
LINE
  5
50
  8
SPEC
  6
CONTINUOUS
 62
     7
 10
-229.99999999999989
 20
495.59544499999993
 30
0.0
 11
360.0
 21
495.59544499999993
 31
0.0
  0
LINE
  5
51
  8
SPEC
  6
CONTINUOUS
 62
     7
 10
-229.99999999999989
 20
480.59544499999993
 30
0.0
 11
360.0
 21
480.59544499999993
 31
0.0
  0
LINE
  5
52
  8
SPEC
  6
CONTINUOUS
 62
     7
 10
-229.99999999999989
 20
600.59544499999981
 30
0.0
 11
360.0
 21
600.59544499999981
 31
0.0
  0
LINE
  5
53
  8
SPEC
  6
CONTINUOUS
 62
     7
 10
-229.99999999999989
 20
450.59544499999993
 30
0.0
 11
360.0
 21
450.59544499999993
 31
0.0
  0
LINE
  5
54
  8
SPEC
  6
CONTINUOUS
 62
     7
 10
-229.99999999999989
 20
420.59544499999998
 30
0.0
 11
360.0
 21
420.59544499999998
 31
0.0
  0
LINE
  5
55
  8
SPEC
  6
CONTINUOUS
 62
     7
 10
-229.99999999999989
 20
630.5954449999997
 30
0.0
 11
-229.99999999999989
 21
420.59544499999998
 31
0.0
  0
TEXT
  5
56
  8
SPEC
 62
     7
 10
-224.99999999999989
 20
636.93052499999999
 30
0.0
 40
10.16
  1
仕様
 41
0.85
 11
-224.99999999999989
 21
647.09052499999984
 31
0.0
 73
     3
  0
LINE
  5
57
  8
SPEC
  6
CONTINUOUS
 62
     7
 10
-62.500000000000021
 20
630.5954449999997
 30
0.0
 11
-62.500000000000021
 21
420.59544499999998
 31
0.0
  0
LINE
  5
58
  8
SPEC
  6
CONTINUOUS
 62
     7
 10
360.0
 20
630.5954449999997
 30
0.0
 11
360.0
 21
420.59544499999998
 31
0.0
  0
TEXT
  5
59
  8
SPEC
 62
     7
 10
-226.40000000000001
 20
529.33944499999996
 30
0.0
 40
7.9008000000000003
  1
出力インピーダンス
 41
0.85
 11
-226.40000000000001
 21
537.24024499999996
 31
0.0
 73
     3
  0
TEXT
  5
5A
  8
SPEC
 62
     7
 10
-226.40000000000001
 20
619.33944499999996
 30
0.0
 40
7.9008000000000003
  1
形式
 41
0.85
 11
-226.40000000000001
 21
627.24024499999985
 31
0.0
 73
     3
  0
TEXT
  5
5B
  8
SPEC
 62
     7
 10
-226.40000000000001
 20
604.33944499999996
 30
0.0
 40
7.9008000000000003
  1
周波数特性
 41
0.85
 11
-226.40000000000001
 21
612.24024499999996
 31
0.0
 73
     3
  0
TEXT
  5
5C
  8
SPEC
 62
     7
 10
-226.40000000000001
 20
589.33944499999996
 30
0.0
 40
7.9008000000000003
  1
指向特性
 41
0.85
 11
-226.40000000000001
 21
597.24024499999985
 31
0.0
 73
     3
  0
TEXT
  5
5D
  8
SPEC
 62
     7
 10
-58.90000000000002
 20
604.33944499999996
 30
0.0
 40
7.9008000000000003
  1
50～17,000Hz
 41
0.85
 11
-58.90000000000002
 21
612.24024499999996
 31
0.0
 73
     3
  0
TEXT
  5
5E
  8
SPEC
 62
     7
 10
-58.90000000000002
 20
529.33944499999996
 30
0.0
 40
7.9008000000000003
  1
150Ω(180Ω実効)
 41
0.85
 11
-58.90000000000002
 21
537.24024499999996
 31
0.0
 73
     3
  0
TEXT
  5
5F
  8
SPEC
 62
     7
 10
-58.90000000000002
 20
546.33519999999987
 30
0.0
 40
7.9008000000000003
  1
MX418S/S:-33.5dB(21.1mV）
 41
0.85
 11
-58.90000000000002
 21
554.23599999999999
 31
0.0
 73
     3
  0
TEXT
  5
60
  8
SPEC
 62
     7
 10
-58.90000000000002
 20
559.33519999999999
 30
0.0
 40
7.9008000000000003
  1
MX418S/C:-35.0dB(17.8mV）
 41
0.85
 11
-58.90000000000002
 21
567.23599999999999
 31
0.0
 73
     3
  0
TEXT
  5
61
  8
SPEC
 62
     7
 10
-58.90000000000002
 20
576.33519999999999
 30
0.0
 40
7.9008000000000003
  1
MX418S/S:スーパー・カーディオイド
 41
0.85
 11
-58.90000000000002
 21
584.23599999999999
 31
0.0
 73
     3
  0
TEXT
  5
62
  8
SPEC
 62
     7
 10
-58.90000000000002
 20
589.33944499999996
 30
0.0
 40
7.9008000000000003
  1
MX418S/C:単一指向性
 41
0.85
 11
-58.90000000000002
 21
597.24024499999985
 31
0.0
 73
     3
  0
TEXT
  5
63
  8
SPEC
 62
     7
 10
-226.40000000000001
 20
499.33944499999978
 30
0.0
 40
7.9008000000000003
  1
出力コネクター
 41
0.85
 11
-226.40000000000001
 21
507.24024499999979
 31
0.0
 73
     3
  0
TEXT
  5
64
  8
SPEC
 62
     7
 10
-226.40000000000001
 20
514.33944499999996
 30
0.0
 40
7.9008000000000003
  1
外装色
 41
0.85
 11
-226.40000000000001
 21
522.24024499999985
 31
0.0
 73
     3
  0
TEXT
  5
65
  8
SPEC
 62
     7
 10
-58.90000000000002
 20
499.33944499999978
 30
0.0
 40
7.9008000000000003
  1
XLR3ピン　オス型
 41
0.85
 11
-58.90000000000002
 21
507.24024499999979
 31
0.0
 73
     3
  0
TEXT
  5
66
  8
SPEC
 62
     7
 10
-58.90000000000002
 20
514.33944499999996
 30
0.0
 40
7.9008000000000003
  1
黒
 41
0.85
 11
-58.90000000000002
 21
522.24024499999985
 31
0.0
 73
     3
  0
TEXT
  5
67
  8
SPEC
 62
     7
 10
-226.40000000000001
 20
484.33944499999978
 30
0.0
 40
7.9008000000000003
  1
電源
 41
0.85
 11
-226.40000000000001
 21
492.24024499999979
 31
0.0
 73
     3
  0
TEXT
  5
68
  8
SPEC
 62
     7
 10
-58.90000000000002
 20
484.33944499999978
 30
0.0
 40
7.9008000000000003
  1
ファンタム DC11～52V,2mA
 41
0.85
 11
-58.90000000000002
 21
492.24024499999979
 31
0.0
 73
     3
  0
TEXT
  5
69
  8
SPEC
 62
     7
 10
-226.40000000000001
 20
469.33944499999978
 30
0.0
 40
7.9008000000000003
  1
寸法
 41
0.85
 11
-226.40000000000001
 21
477.24024499999979
 31
0.0
 73
     3
  0
TEXT
  5
6A
  8
SPEC
 62
     7
 10
-226.40000000000001
 20
454.33944499999978
 30
0.0
 40
7.9008000000000003
  1
重量
 41
0.85
 11
-226.40000000000001
 21
462.24024499999979
 31
0.0
 73
     3
  0
TEXT
  5
6B
  8
SPEC
 62
     7
 10
-58.90000000000002
 20
469.33944499999978
 30
0.0
 40
7.9008000000000003
  1
φ21×607mm(突起部含まず）
 41
0.85
 11
-58.90000000000002
 21
477.24024499999979
 31
0.0
 73
     3
  0
TEXT
  5
6C
  8
SPEC
 62
     7
 10
-58.90000000000002
 20
454.33944499999978
 30
0.0
 40
7.9008000000000003
  1
約210g(付属品を除く)
 41
0.85
 11
-58.90000000000002
 21
462.24024499999979
 31
0.0
 73
     3
  0
TEXT
  5
6D
  8
SPEC
 62
     7
 10
-226.40000000000001
 20
426.83944499999978
 30
0.0
 40
7.9008000000000003
  1
付属品 
 41
0.85
 11
-226.40000000000001
 21
434.74024499999979
 31
0.0
 73
     3
  0
TEXT
  5
6E
  8
SPEC
 62
     7
 10
-58.90000000000002
 20
619.33944499999996
 30
0.0
 40
7.9008000000000003
  1
エレクトレット・コンデンサー型(ミュートスイッチ・LED付　ロック可能） 
 41
0.85
 11
-58.90000000000002
 21
627.24024499999985
 31
0.0
 73
     3
  0
LINE
  5
6F
  8
SPEC
  6
CONTINUOUS
 62
     7
 10
-229.99999999999989
 20
465.59544499999993
 30
0.0
 11
360.0
 21
465.59544499999993
 31
0.0
  0
TEXT
  5
70
  8
SPEC
 62
     7
 10
-226.40000000000001
 20
546.33555400000012
 30
0.0
 40
7.9022160000000001
  1
＊ 1 Pascal=94dB SPL
 41
0.85
 11
-226.40000000000001
 21
554.23777000000007
 31
0.0
 73
     3
  0
TEXT
  5
71
  8
SPEC
 62
     7
 10
-226.40000000000001
 20
559.33979899999997
 30
0.0
 40
7.9022160000000001
  1
感度(at 1kHz, ref. 1V/Pascal *)
 41
0.85
 11
-226.40000000000001
 21
567.24201500000004
 31
0.0
 73
     3
  0
TEXT
  5
72
  8
SPEC
 62
     7
 10
-58.899999999999991
 20
439.33519999999999
 30
0.0
 40
7.9008000000000003
  1
フォーム・ウインドスクリーン(黒）　1個、ショックマウント　1個
 41
0.85
 11
-58.899999999999991
 21
447.23599999999999
 31
0.0
 73
     3
  0
TEXT
  5
73
  8
SPEC
 62
     7
 10
-58.899999999999991
 20
426.33519999999999
 30
0.0
 40
7.9008000000000003
  1
フランジ・マウント　1個、取扱説明書　1部
 41
0.85
 11
-58.899999999999991
 21
434.23599999999999
 31
0.0
 73
     3
  0
TEXT
  5
74
  8
DIMNSIONS
 62
     7
 10
19.999999999999979
 20
-319.56459499999988
 30
0.0
 40
10.16
  1
(単位：mm)
 41
0.85
 11
19.999999999999979
 21
-309.40459499999992
 31
0.0
 73
     3
  0
LINE
  5
75
  8
DIMNSIONS
  6
CONTINUOUS
 62
     7
 10
241.34969000000001
 20
149.99995499999989
 30
0.0
 11
274.64967000000001
 21
149.99995499999989
 31
0.0
  0
LINE
  5
76
  8
DIMNSIONS
  6
CONTINUOUS
 62
     7
 10
223.99968000000001
 20
164.3999849999999
 30
0.0
 11
274.64967000000001
 21
164.3999849999999
 31
0.0
  0
LINE
  5
77
  8
DIMNSIONS
  6
CONTINUOUS
 62
     7
 10
266.64967000000001
 20
164.3999849999999
 30
0.0
 11
266.64967000000001
 21
149.99995499999989
 31
0.0
  0
LINE
  5
79
  8
DIMNSIONS
 62
     7
 10
266.64967000000001
 20
149.99995499999989
 30
0.0
 11
270.05262474387519
 21
137.2999549999999
 31
0.0
  0
LINE
  5
7A
  8
DIMNSIONS
 62
     7
 10
266.64967000000001
 20
149.99995499999989
 30
0.0
 11
263.24671525612467
 21
137.2999549999999
 31
0.0
  0
LINE
  5
78
  8
DIMNSIONS
  6
CONTINUOUS
 62
     7
 10
266.64967000000001
 20
149.99995499999989
 30
0.0
 11
266.64967000000001
 21
129.99995499999989
 31
0.0
  0
LINE
  5
7C
  8
DIMNSIONS
 62
     7
 10
266.64967000000001
 20
164.3999849999999
 30
0.0
 11
263.24671525612467
 21
177.09998499999989
 31
0.0
  0
LINE
  5
7D
  8
DIMNSIONS
 62
     7
 10
266.64967000000001
 20
164.3999849999999
 30
0.0
 11
270.05262474387519
 21
177.09998499999989
 31
0.0
  0
LINE
  5
7B
  8
DIMNSIONS
  6
CONTINUOUS
 62
     7
 10
266.64967000000001
 20
164.3999849999999
 30
0.0
 11
266.64967000000001
 21
201.61106499999991
 31
0.0
  0
TEXT
  5
7E
  8
DIMNSIONS
 62
     7
 10
261.82746200000003
 20
187.49997499999989
 30
0.0
 40
11.288872
  1
14
 50
90.0
 41
0.85
 11
250.53858999999991
 21
187.49997499999989
 31
0.0
 73
     3
  0
LINE
  5
7F
  8
DIMNSIONS
  6
CONTINUOUS
 62
     7
 10
225.49968000000001
 20
-124.200005
 30
0.0
 11
274.64967999999999
 21
-124.200005
 31
0.0
  0
LINE
  5
80
  8
DIMNSIONS
  6
CONTINUOUS
 62
     7
 10
227.49968000000001
 20
-175.00000499999999
 30
0.0
 11
274.64967999999999
 21
-175.00000499999999
 31
0.0
  0
LINE
  5
82
  8
DIMNSIONS
 62
     7
 10
266.64967999999999
 20
-124.200005
 30
0.0
 11
270.05263474387522
 21
-136.90000499999999
 31
0.0
  0
LINE
  5
83
  8
DIMNSIONS
 62
     7
 10
266.64967999999999
 20
-124.200005
 30
0.0
 11
263.24672525612482
 21
-136.90000499999999
 31
0.0
  0
LINE
  5
84
  8
DIMNSIONS
 62
     7
 10
266.64967999999999
 20
-175.00000499999999
 30
0.0
 11
263.24672525612482
 21
-162.300005
 31
0.0
  0
LINE
  5
85
  8
DIMNSIONS
 62
     7
 10
266.64967999999999
 20
-175.00000499999999
 30
0.0
 11
270.05263474387522
 21
-162.300005
 31
0.0
  0
LINE
  5
81
  8
DIMNSIONS
  6
CONTINUOUS
 62
     7
 10
266.64967999999999
 20
-124.200005
 30
0.0
 11
266.64967999999999
 21
-175.00000499999999
 31
0.0
  0
TEXT
  5
86
  8
DIMNSIONS
 62
     7
 10
261.827472
 20
-156.65554999999989
 30
0.0
 40
11.288872
  1
51
 50
90.0
 41
0.85
 11
250.5386
 21
-156.65554999999989
 31
0.0
 73
     3
  0
LINE
  5
87
  8
DIMNSIONS
  6
CONTINUOUS
 62
     7
 10
180.4996899999999
 20
-118.200005
 30
0.0
 11
180.4996899999999
 21
-92.000065000000035
 31
0.0
  0
LINE
  5
88
  8
DIMNSIONS
  6
CONTINUOUS
 62
     7
 10
219.49968000000001
 20
-118.200005
 30
0.0
 11
219.49968000000001
 21
-92.000065000000035
 31
0.0
  0
LINE
  5
8A
  8
DIMNSIONS
 62
     7
 10
180.4996899999999
 20
-100.00006500000001
 30
0.0
 11
193.19969
 21
-96.597110256124779
 31
0.0
  0
LINE
  5
8B
  8
DIMNSIONS
 62
     7
 10
180.4996899999999
 20
-100.00006500000001
 30
0.0
 11
193.19969
 21
-103.40301974387521
 31
0.0
  0
LINE
  5
8C
  8
DIMNSIONS
 62
     7
 10
219.49968000000001
 20
-100.00006500000001
 30
0.0
 11
206.79967999999991
 21
-103.40301974387521
 31
0.0
  0
LINE
  5
8D
  8
DIMNSIONS
 62
     7
 10
219.49968000000001
 20
-100.00006500000001
 30
0.0
 11
206.79967999999991
 21
-96.597110256124779
 31
0.0
  0
LINE
  5
89
  8
DIMNSIONS
  6
CONTINUOUS
 62
     7
 10
180.4996899999999
 20
-100.00006500000001
 30
0.0
 11
219.49968000000001
 21
-100.00006500000001
 31
0.0
  0
TEXT
  5
8E
  8
DIMNSIONS
 62
     7
 10
192.94414
 20
-95.177857000000017
 30
0.0
 40
11.288872
  1
39
 41
0.85
 11
192.94414
 21
-83.888985000000034
 31
0.0
 73
     3
  0
LINE
  5
8F
  8
DIMNSIONS
  6
CONTINUOUS
 62
     7
 10
233.34969000000001
 20
232.99997499999989
 30
0.0
 11
233.34969000000001
 21
282.99996499999992
 31
0.0
  0
LINE
  5
90
  8
DIMNSIONS
  6
CONTINUOUS
 62
     7
 10
166.6496699999999
 20
232.99997499999989
 30
0.0
 11
166.6496699999999
 21
282.99996499999992
 31
0.0
  0
LINE
  5
92
  8
DIMNSIONS
 62
     7
 10
233.34969000000001
 20
274.99996499999992
 30
0.0
 11
220.64968999999991
 21
271.59701025612469
 31
0.0
  0
LINE
  5
93
  8
DIMNSIONS
 62
     7
 10
233.34969000000001
 20
274.99996499999992
 30
0.0
 11
220.64968999999991
 21
278.40291974387509
 31
0.0
  0
LINE
  5
94
  8
DIMNSIONS
 62
     7
 10
166.6496699999999
 20
274.99996499999992
 30
0.0
 11
179.34967
 21
278.40291974387509
 31
0.0
  0
LINE
  5
95
  8
DIMNSIONS
 62
     7
 10
166.6496699999999
 20
274.99996499999992
 30
0.0
 11
179.34967
 21
271.59701025612469
 31
0.0
  0
LINE
  5
91
  8
DIMNSIONS
  6
CONTINUOUS
 62
     7
 10
233.34969000000001
 20
274.99996499999992
 30
0.0
 11
166.6496699999999
 21
274.99996499999992
 31
0.0
  0
TEXT
  5
96
  8
DIMNSIONS
 62
     7
 10
192.9441349999999
 20
279.82217299999979
 30
0.0
 40
11.288872
  1
67
 41
0.85
 11
192.9441349999999
 21
291.11104499999988
 31
0.0
 73
     3
  0
LINE
  5
97
  8
DIMNSIONS
  6
CONTINUOUS
 62
     7
 10
178.4096799999999
 20
-176.700005
 30
0.0
 11
178.4096799999999
 21
-207.99998500000001
 31
0.0
  0
LINE
  5
98
  8
DIMNSIONS
  6
CONTINUOUS
 62
     7
 10
221.58967999999999
 20
-176.700005
 30
0.0
 11
221.58967999999999
 21
-207.99998500000001
 31
0.0
  0
LINE
  5
99
  8
DIMNSIONS
  6
CONTINUOUS
 62
     7
 10
178.4096799999999
 20
-199.99998500000001
 30
0.0
 11
152.5386199999999
 21
-199.99998500000001
 31
0.0
  0
LINE
  5
9B
  8
DIMNSIONS
 62
     7
 10
178.4096799999999
 20
-199.99998500000001
 30
0.0
 11
191.10967999999991
 21
-196.5970302561247
 31
0.0
  0
LINE
  5
9C
  8
DIMNSIONS
 62
     7
 10
178.4096799999999
 20
-199.99998500000001
 30
0.0
 11
191.10967999999991
 21
-203.40293974387521
 31
0.0
  0
LINE
  5
9D
  8
DIMNSIONS
 62
     7
 10
221.58967999999999
 20
-199.99998500000001
 30
0.0
 11
208.88968
 21
-203.40293974387521
 31
0.0
  0
LINE
  5
9E
  8
DIMNSIONS
 62
     7
 10
221.58967999999999
 20
-199.99998500000001
 30
0.0
 11
208.88968
 21
-196.5970302561247
 31
0.0
  0
LINE
  5
9A
  8
DIMNSIONS
  6
CONTINUOUS
 62
     7
 10
178.4096799999999
 20
-199.99998500000001
 30
0.0
 11
221.58967999999999
 21
-199.99998500000001
 31
0.0
  0
TEXT
  5
9F
  8
DIMNSIONS
 62
     7
 10
152.5386199999999
 20
-195.17777699999991
 30
0.0
 40
11.288872
  1
43
 41
0.85
 11
152.5386199999999
 21
-183.88890499999991
 31
0.0
 73
     3
  0
LINE
  5
A0
  8
DIMNSIONS
  6
CONTINUOUS
 62
     7
 10
233.34969000000001
 20
-16.99999500000003
 30
0.0
 11
233.34969000000001
 21
32.999994999999963
 31
0.0
  0
LINE
  5
A1
  8
DIMNSIONS
  6
CONTINUOUS
 62
     7
 10
166.6496699999999
 20
-16.99999500000003
 30
0.0
 11
166.6496699999999
 21
32.999994999999963
 31
0.0
  0
LINE
  5
A3
  8
DIMNSIONS
 62
     7
 10
233.34969000000001
 20
24.999994999999959
 30
0.0
 11
220.64968999999991
 21
21.597040256124689
 31
0.0
  0
LINE
  5
A4
  8
DIMNSIONS
 62
     7
 10
233.34969000000001
 20
24.999994999999959
 30
0.0
 11
220.64968999999991
 21
28.402949743875212
 31
0.0
  0
LINE
  5
A5
  8
DIMNSIONS
 62
     7
 10
166.6496699999999
 20
24.999994999999959
 30
0.0
 11
179.34967
 21
28.402949743875212
 31
0.0
  0
LINE
  5
A6
  8
DIMNSIONS
 62
     7
 10
166.6496699999999
 20
24.999994999999959
 30
0.0
 11
179.34967
 21
21.597040256124689
 31
0.0
  0
LINE
  5
A2
  8
DIMNSIONS
  6
CONTINUOUS
 62
     7
 10
233.34969000000001
 20
24.999994999999959
 30
0.0
 11
166.6496699999999
 21
24.999994999999959
 31
0.0
  0
TEXT
  5
A7
  8
DIMNSIONS
 62
     7
 10
192.9441349999999
 20
29.822202999999959
 30
0.0
 40
11.288872
  1
67
 41
0.85
 11
192.9441349999999
 21
41.111074999999957
 31
0.0
 73
     3
  0
LINE
  5
A8
  8
DIMNSIONS
  6
CONTINUOUS
 62
     7
 10
-94.196155000000005
 20
350.2719699999999
 30
0.0
 11
-94.196155000000005
 21
379.69202000000001
 31
0.0
  0
LINE
  5
A9
  8
DIMNSIONS
  6
CONTINUOUS
 62
     7
 10
-105.88016500000001
 20
350.2719699999999
 30
0.0
 11
-105.88016500000001
 21
379.69202000000001
 31
0.0
  0
LINE
  5
AA
  8
DIMNSIONS
  6
CONTINUOUS
 62
     7
 10
-105.88016500000001
 20
371.69202000000001
 30
0.0
 11
-94.196155000000005
 21
371.69202000000001
 31
0.0
  0
LINE
  5
AC
  8
DIMNSIONS
 62
     7
 10
-94.196155000000005
 20
371.69202000000001
 30
0.0
 11
-81.496155000000016
 21
375.09497474387518
 31
0.0
  0
LINE
  5
AD
  8
DIMNSIONS
 62
     7
 10
-94.196155000000005
 20
371.69202000000001
 30
0.0
 11
-81.496155000000016
 21
368.28906525612479
 31
0.0
  0
LINE
  5
AB
  8
DIMNSIONS
  6
CONTINUOUS
 62
     7
 10
-94.196155000000005
 20
371.69202000000001
 30
0.0
 11
-70.997084999999984
 21
371.69202000000001
 31
0.0
  0
LINE
  5
AF
  8
DIMNSIONS
 62
     7
 10
-105.88016500000001
 20
371.69202000000001
 30
0.0
 11
-118.58016499999989
 21
368.28906525612479
 31
0.0
  0
LINE
  5
B0
  8
DIMNSIONS
 62
     7
 10
-105.88016500000001
 20
371.69202000000001
 30
0.0
 11
-118.58016499999989
 21
375.09497474387518
 31
0.0
  0
LINE
  5
AE
  8
DIMNSIONS
  6
CONTINUOUS
 62
     7
 10
-105.88016500000001
 20
371.69202000000001
 30
0.0
 11
-125.88016500000001
 21
371.69202000000001
 31
0.0
  0
TEXT
  5
B1
  8
DIMNSIONS
 62
     7
 10
-85.108174999999974
 20
376.51422799999989
 30
0.0
 40
11.288872
  1
12
 41
0.85
 11
-85.108174999999974
 21
387.80309999999997
 31
0.0
 73
     3
  0
LINE
  5
B2
  8
DIMNSIONS
  6
CONTINUOUS
 62
     7
 10
-110.02997499999999
 20
-243.5
 30
0.0
 11
-110.02997499999999
 21
-283.0
 31
0.0
  0
LINE
  5
B3
  8
DIMNSIONS
  6
CONTINUOUS
 62
     7
 10
-89.969985000000008
 20
-243.5
 30
0.0
 11
-89.969985000000008
 21
-283.0
 31
0.0
  0
LINE
  5
B4
  8
DIMNSIONS
  6
CONTINUOUS
 62
     7
 10
-89.969985000000008
 20
-275.0
 30
0.0
 11
-110.02997499999999
 21
-275.0
 31
0.0
  0
LINE
  5
B6
  8
DIMNSIONS
 62
     7
 10
-110.02997499999999
 20
-275.0
 30
0.0
 11
-122.729975
 21
-278.40295474387523
 31
0.0
  0
LINE
  5
B7
  8
DIMNSIONS
 62
     7
 10
-110.02997499999999
 20
-275.0
 30
0.0
 11
-122.729975
 21
-271.59704525612472
 31
0.0
  0
LINE
  5
B5
  8
DIMNSIONS
  6
CONTINUOUS
 62
     7
 10
-110.02997499999999
 20
-275.0
 30
0.0
 11
-136.64104499999999
 21
-275.0
 31
0.0
  0
LINE
  5
B9
  8
DIMNSIONS
 62
     7
 10
-89.969985000000008
 20
-275.0
 30
0.0
 11
-77.269985000000034
 21
-271.59704525612472
 31
0.0
  0
LINE
  5
BA
  8
DIMNSIONS
 62
     7
 10
-89.969985000000008
 20
-275.0
 30
0.0
 11
-77.269985000000034
 21
-278.40295474387523
 31
0.0
  0
LINE
  5
B8
  8
DIMNSIONS
  6
CONTINUOUS
 62
     7
 10
-89.969985000000008
 20
-275.0
 30
0.0
 11
-69.969985000000023
 21
-275.0
 31
0.0
  0
TEXT
  5
BB
  8
DIMNSIONS
 62
     7
 10
-136.64104499999999
 20
-270.17779200000001
 30
0.0
 40
11.288872
  1
20
 41
0.85
 11
-136.64104499999999
 21
-258.88891999999998
 31
0.0
 73
     3
  0
LINE
  5
BC
  8
DIMNSIONS
  6
CONTINUOUS
 62
     7
 10
-89.469985000000023
 20
-186.49997999999991
 30
0.0
 11
-89.469985000000023
 21
-307.99995000000001
 31
0.0
  0
LINE
  5
BD
  8
DIMNSIONS
  6
CONTINUOUS
 62
     7
 10
-110.52997499999999
 20
-186.49997999999991
 30
0.0
 11
-110.52997499999999
 21
-307.99995000000001
 31
0.0
  0
LINE
  5
BE
  8
DIMNSIONS
  6
CONTINUOUS
 62
     7
 10
-110.52997499999999
 20
-299.99995000000001
 30
0.0
 11
-89.469985000000023
 21
-299.99995000000001
 31
0.0
  0
LINE
  5
C0
  8
DIMNSIONS
 62
     7
 10
-89.469985000000023
 20
-299.99995000000001
 30
0.0
 11
-76.769985000000034
 21
-296.59699525612461
 31
0.0
  0
LINE
  5
C1
  8
DIMNSIONS
 62
     7
 10
-89.469985000000023
 20
-299.99995000000001
 30
0.0
 11
-76.769985000000034
 21
-303.40290474387518
 31
0.0
  0
LINE
  5
BF
  8
DIMNSIONS
  6
CONTINUOUS
 62
     7
 10
-89.469985000000023
 20
-299.99995000000001
 30
0.0
 11
-69.469985000000023
 21
-299.99995000000001
 31
0.0
  0
LINE
  5
C3
  8
DIMNSIONS
 62
     7
 10
-110.52997499999999
 20
-299.99995000000001
 30
0.0
 11
-123.2299749999999
 21
-303.40290474387518
 31
0.0
  0
LINE
  5
C4
  8
DIMNSIONS
 62
     7
 10
-110.52997499999999
 20
-299.99995000000001
 30
0.0
 11
-123.2299749999999
 21
-296.59699525612461
 31
0.0
  0
LINE
  5
C2
  8
DIMNSIONS
  6
CONTINUOUS
 62
     7
 10
-110.52997499999999
 20
-299.99995000000001
 30
0.0
 11
-136.64104499999999
 21
-299.99995000000001
 31
0.0
  0
TEXT
  5
C5
  8
DIMNSIONS
 62
     7
 10
-136.64104499999999
 20
-295.17774199999991
 30
0.0
 40
11.288872
  1
21
 41
0.85
 11
-136.64104499999999
 21
-283.88886999999988
 31
0.0
 73
     3
  0
LINE
  5
C6
  8
DIMNSIONS
  6
CONTINUOUS
 62
     7
 10
-110.8098449999999
 20
-321.99999000000003
 30
0.0
 11
-155.52984499999991
 21
-321.99999000000003
 31
0.0
  0
LINE
  5
C7
  8
DIMNSIONS
  6
CONTINUOUS
 62
     7
 10
-108.0626849999999
 20
-324.99999000000008
 30
0.0
 11
-155.52984499999991
 21
-324.99999000000008
 31
0.0
  0
LINE
  5
C8
  8
DIMNSIONS
  6
CONTINUOUS
 62
     7
 10
-147.52984499999991
 20
-324.99999000000008
 30
0.0
 11
-147.52984499999991
 21
-321.99999000000003
 31
0.0
  0
LINE
  5
CA
  8
DIMNSIONS
 62
     7
 10
-147.52984499999991
 20
-321.99999000000003
 30
0.0
 11
-150.93279974387519
 21
-309.29999000000009
 31
0.0
  0
LINE
  5
CB
  8
DIMNSIONS
 62
     7
 10
-147.52984499999991
 20
-321.99999000000003
 30
0.0
 11
-144.12689025612471
 21
-309.29999000000009
 31
0.0
  0
LINE
  5
C9
  8
DIMNSIONS
  6
CONTINUOUS
 62
     7
 10
-147.52984499999991
 20
-321.99999000000003
 30
0.0
 11
-147.52984499999991
 21
-301.99999000000008
 31
0.0
  0
LINE
  5
CD
  8
DIMNSIONS
 62
     7
 10
-147.52984499999991
 20
-324.99999000000008
 30
0.0
 11
-144.12689025612471
 21
-337.69999000000001
 31
0.0
  0
LINE
  5
CE
  8
DIMNSIONS
 62
     7
 10
-147.52984499999991
 20
-324.99999000000008
 30
0.0
 11
-150.93279974387519
 21
-337.69999000000001
 31
0.0
  0
LINE
  5
CC
  8
DIMNSIONS
  6
CONTINUOUS
 62
     7
 10
-147.52984499999991
 20
-324.99999000000008
 30
0.0
 11
-147.52984499999991
 21
-344.55551500000001
 31
0.0
  0
TEXT
  5
CF
  8
DIMNSIONS
 62
     7
 10
-152.35205300000001
 20
-344.55551500000001
 30
0.0
 40
11.288872
  1
3
 50
90.0
 41
0.85
 11
-163.64092500000001
 21
-344.55551500000001
 31
0.0
 73
     3
  0
LINE
  5
D0
  8
DIMNSIONS
  6
CONTINUOUS
 62
     7
 10
-117.49997500000001
 20
-250.0
 30
0.0
 11
-145.5
 21
-250.0
 31
0.0
  0
LINE
  5
D1
  8
DIMNSIONS
  6
CONTINUOUS
 62
     7
 10
-113.362315
 20
-115.8879799999999
 30
0.0
 11
-145.5
 21
-115.8879799999999
 31
0.0
  0
LINE
  5
D3
  8
DIMNSIONS
 62
     7
 10
-137.5
 20
-250.0
 30
0.0
 11
-140.9029547438752
 21
-237.30000000000001
 31
0.0
  0
LINE
  5
D4
  8
DIMNSIONS
 62
     7
 10
-137.5
 20
-250.0
 30
0.0
 11
-134.09704525612469
 21
-237.30000000000001
 31
0.0
  0
LINE
  5
D5
  8
DIMNSIONS
 62
     7
 10
-137.5
 20
-115.8879799999999
 30
0.0
 11
-134.09704525612469
 21
-128.5879799999999
 31
0.0
  0
LINE
  5
D6
  8
DIMNSIONS
 62
     7
 10
-137.5
 20
-115.8879799999999
 30
0.0
 11
-140.9029547438752
 21
-128.5879799999999
 31
0.0
  0
LINE
  5
D2
  8
DIMNSIONS
  6
CONTINUOUS
 62
     7
 10
-137.5
 20
-250.0
 30
0.0
 11
-137.5
 21
-115.8879799999999
 31
0.0
  0
TEXT
  5
D7
  8
DIMNSIONS
 62
     7
 10
-142.32222222222211
 20
-193.5273233333333
 30
0.0
 40
11.28888888888889
  1
134
 50
90.0
 41
0.85
 11
-153.611111111111
 21
-193.5273233333333
 31
0.0
 73
     3
  0
LINE
  5
D8
  8
DIMNSIONS
  6
CONTINUOUS
 62
     7
 10
-113.362315
 20
-115.8879799999999
 30
0.0
 11
-145.5
 21
-115.8879799999999
 31
0.0
  0
LINE
  5
D9
  8
DIMNSIONS
  6
CONTINUOUS
 62
     7
 10
-113.40013500000001
 20
357.49900000000002
 30
0.0
 11
-145.5
 21
357.49900000000002
 31
0.0
  0
LINE
  5
DB
  8
DIMNSIONS
 62
     7
 10
-137.5
 20
-115.8879799999999
 30
0.0
 11
-140.9029547438752
 21
-103.1879799999999
 31
0.0
  0
LINE
  5
DC
  8
DIMNSIONS
 62
     7
 10
-137.5
 20
-115.8879799999999
 30
0.0
 11
-134.09704525612469
 21
-103.1879799999999
 31
0.0
  0
LINE
  5
DD
  8
DIMNSIONS
 62
     7
 10
-137.5
 20
357.49900000000002
 30
0.0
 11
-134.09704525612469
 21
344.79899999999998
 31
0.0
  0
LINE
  5
DE
  8
DIMNSIONS
 62
     7
 10
-137.5
 20
357.49900000000002
 30
0.0
 11
-140.9029547438752
 21
344.79899999999998
 31
0.0
  0
LINE
  5
DA
  8
DIMNSIONS
  6
CONTINUOUS
 62
     7
 10
-137.5
 20
-115.8879799999999
 30
0.0
 11
-137.5
 21
357.49900000000002
 31
0.0
  0
TEXT
  5
DF
  8
DIMNSIONS
 62
     7
 10
-142.32222222222211
 20
110.2221766666666
 30
0.0
 40
11.28888888888889
  1
473
 50
90.0
 41
0.85
 11
-153.611111111111
 21
110.2221766666666
 31
0.0
 73
     3
  0
LINE
  5
E0
  8
DIMNSIONS
  6
CONTINUOUS
 62
     7
 10
-117.49997500000001
 20
-250.0
 30
0.0
 11
-170.5
 21
-250.0
 31
0.0
  0
LINE
  5
E1
  8
DIMNSIONS
  6
CONTINUOUS
 62
     7
 10
-113.40013500000001
 20
357.49900000000002
 30
0.0
 11
-170.5
 21
357.49900000000002
 31
0.0
  0
LINE
  5
E3
  8
DIMNSIONS
 62
     7
 10
-162.5
 20
-250.0
 30
0.0
 11
-165.9029547438752
 21
-237.30000000000001
 31
0.0
  0
LINE
  5
E4
  8
DIMNSIONS
 62
     7
 10
-162.5
 20
-250.0
 30
0.0
 11
-159.09704525612469
 21
-237.30000000000001
 31
0.0
  0
LINE
  5
E5
  8
DIMNSIONS
 62
     7
 10
-162.5
 20
357.49900000000002
 30
0.0
 11
-159.09704525612469
 21
344.79899999999998
 31
0.0
  0
LINE
  5
E6
  8
DIMNSIONS
 62
     7
 10
-162.5
 20
357.49900000000002
 30
0.0
 11
-165.9029547438752
 21
344.79899999999998
 31
0.0
  0
LINE
  5
E2
  8
DIMNSIONS
  6
CONTINUOUS
 62
     7
 10
-162.5
 20
-250.0
 30
0.0
 11
-162.5
 21
357.49900000000002
 31
0.0
  0
TEXT
  5
E7
  8
DIMNSIONS
 62
     7
 10
-167.32222222222219
 20
43.166166666666662
 30
0.0
 40
11.28888888888889
  1
607
 50
90.0
 41
0.85
 11
-178.61111111111109
 21
43.166166666666662
 31
0.0
 73
     3
  0
TEXT
  5
E8
  8
DATA
 62
     7
 10
275.0
 20
-324.11899499999998
 30
0.0
 40
10.16
  1
MX418S/C & MX418S/S
 41
0.85
 11
275.0
 21
-313.95899500000002
 31
0.0
 73
     3
  0
TEXT
  5
E9
  8
DATA
 62
     7
 10
299.99999999999989
 20
-295.11899499999998
 30
0.0
 40
10.16
  1
SHURE
 41
0.85
 11
299.99999999999989
 21
-284.95899500000002
 31
0.0
 73
     3
  0
TEXT
  5
EA
  8
DATA
 62
     7
 10
289.99999999999989
 20
-309.2808149999999
 30
0.0
 40
6.7733333333333317
  1
グ－スネック・マイクロフォン
 41
0.85
 11
289.99999999999989
 21
-302.50748166666659
 31
0.0
 73
     3
  0
LINE
  5
EB
  8
DATA
  6
CONTINUOUS
 62
     7
 10
182.2496899999999
 20
159.99995499999989
 30
0.0
 11
217.74968000000001
 21
159.99995499999989
 31
0.0
  0
LINE
  5
EC
  8
DATA
  6
CONTINUOUS
 62
     7
 10
233.34969000000001
 20
-134.200005
 30
0.0
 11
166.6496699999999
 21
-134.200005
 31
0.0
  0
LINE
  5
ED
  8
DATA
  6
CONTINUOUS
 62
     7
 10
167.49970999999999
 20
-129.200005
 30
0.0
 11
232.49970999999999
 21
-129.200005
 31
0.0
  0
LINE
  5
EE
  8
DATA
  6
CONTINUOUS
 62
     7
 10
182.49968999999999
 20
-124.200005
 30
0.0
 11
217.49968000000001
 21
-124.200005
 31
0.0
  0
LINE
  5
EF
  8
DATA
  6
CONTINUOUS
 62
     7
 10
167.99970999999999
 20
154.49996499999989
 30
0.0
 11
231.99970999999999
 21
154.49996499999989
 31
0.0
  0
LINE
  5
F0
  8
DATA
  6
CONTINUOUS
 62
     7
 10
233.34969000000001
 20
149.99995499999989
 30
0.0
 11
166.6496699999999
 21
149.99995499999989
 31
0.0
  0
LINE
  5
F1
  8
DATA
  6
CONTINUOUS
 62
     7
 10
215.99968000000001
 20
164.3999849999999
 30
0.0
 11
183.9996899999999
 21
164.3999849999999
 31
0.0
  0
LINE
  5
F2
  8
DATA
  6
CONTINUOUS
 62
     7
 10
221.58967999999999
 20
-134.200005
 30
0.0
 11
221.58967999999999
 21
-168.700005
 31
0.0
  0
LINE
  5
F3
  8
DATA
  6
CONTINUOUS
 62
     7
 10
178.4096799999999
 20
-134.200005
 30
0.0
 11
178.4096799999999
 21
-168.700005
 31
0.0
  0
LINE
  5
F4
  8
DATA
  6
CONTINUOUS
 62
     7
 10
178.40969999999999
 20
-168.700005
 30
0.0
 11
221.58967999999999
 21
-168.700005
 31
0.0
  0
LINE
  5
F5
  8
DATA
  6
CONTINUOUS
 62
     7
 10
219.49968000000001
 20
-168.700005
 30
0.0
 11
219.49968000000001
 21
-175.00000499999999
 31
0.0
  0
LINE
  5
F6
  8
DATA
  6
CONTINUOUS
 62
     7
 10
219.49968000000001
 20
-175.00000499999999
 30
0.0
 11
180.4996899999999
 21
-175.00000499999999
 31
0.0
  0
LINE
  5
F7
  8
DATA
  6
CONTINUOUS
 62
     7
 10
180.4996899999999
 20
-175.00000499999999
 30
0.0
 11
180.4996899999999
 21
-168.700005
 31
0.0
  0
CIRCLE
  5
F8
  8
DATA
  6
CONTINUOUS
 62
     7
 10
199.99968000000001
 20
224.99997499999989
 30
0.0
 40
33.350009999999997
  0
CIRCLE
  5
F9
  8
DATA
  6
CONTINUOUS
 62
     7
 10
199.99968000000001
 20
224.99997499999989
 30
0.0
 40
17.749989999999961
  0
CIRCLE
  5
FA
  8
DATA
  6
CONTINUOUS
 62
     7
 10
199.99968000000001
 20
224.99997499999989
 30
0.0
 40
15.99998999999996
  0
CIRCLE
  5
FB
  8
DATA
  6
CONTINUOUS
 62
     7
 10
199.99968000000001
 20
224.99997499999989
 30
0.0
 40
9.9999899999999684
  0
TEXT
  5
FC
  8
DATA
 62
     7
 10
173.24856800000001
 20
231.2005849999999
 30
0.0
 40
3.9511120000000002
  1
SHURE
 50
270.0
 41
0.85
 11
177.19968
 21
231.2005849999999
 31
0.0
 73
     3
  0
CIRCLE
  5
FD
  8
DATA
  6
CONTINUOUS
 62
     7
 10
225.34970000000001
 20
224.99997499999989
 30
0.0
 40
2.0000299999999802
  0
CIRCLE
  5
FE
  8
DATA
  6
CONTINUOUS
 62
     7
 10
225.34970000000001
 20
224.99997499999989
 30
0.0
 40
4.2499899999999684
  0
CIRCLE
  5
FF
  8
DATA
  6
CONTINUOUS
 62
     7
 10
187.32470000000001
 20
246.95367499999989
 30
0.0
 40
1.999989999999968
  0
CIRCLE
  5
100
  8
DATA
  6
CONTINUOUS
 62
     7
 10
187.32470000000001
 20
203.04616499999989
 30
0.0
 40
2.0
  0
CIRCLE
  5
101
  8
DATA
  6
CONTINUOUS
 62
     7
 10
187.32470000000001
 20
246.95367499999989
 30
0.0
 40
4.2499899999999684
  0
CIRCLE
  5
102
  8
DATA
  6
CONTINUOUS
 62
     7
 10
187.32470000000001
 20
203.04616499999989
 30
0.0
 40
4.25
  0
POLYLINE
  5
103
  8
DATA
  6
CONTINUOUS
 62
     7
 66
     1
 10
0.0
 20
0.0
 30
0.0
 70
   129
  0
VERTEX
  5
3C4
  8
DATA
  6
CONTINUOUS
 62
     7
 10
176.7997
 20
235.099985
 30
0.0
 42
-0.4142135623730951
  0
VERTEX
  5
3C5
  8
DATA
  6
CONTINUOUS
 62
     7
 10
177.29968
 20
234.6000049999999
 30
0.0
  0
VERTEX
  5
3C6
  8
DATA
  6
CONTINUOUS
 62
     7
 10
177.29968
 20
214.5999349999999
 30
0.0
 42
-0.4142135623730951
  0
VERTEX
  5
3C7
  8
DATA
  6
CONTINUOUS
 62
     7
 10
176.7997
 20
214.09995499999999
 30
0.0
  0
VERTEX
  5
3C8
  8
DATA
  6
CONTINUOUS
 62
     7
 10
172.79965000000001
 20
214.09995499999999
 30
0.0
 42
-0.4142135623730951
  0
VERTEX
  5
3C9
  8
DATA
  6
CONTINUOUS
 62
     7
 10
172.29966999999991
 20
214.5999349999999
 30
0.0
  0
VERTEX
  5
3CA
  8
DATA
  6
CONTINUOUS
 62
     7
 10
172.29966999999991
 20
234.6000049999999
 30
0.0
 42
-0.4142135623730951
  0
VERTEX
  5
3CB
  8
DATA
  6
CONTINUOUS
 62
     7
 10
172.79965000000001
 20
235.099985
 30
0.0
  0
SEQEND
  5
3CC
  8
DATA
  6
CONTINUOUS
 62
     7
  0
LINE
  5
10D
  8
DATA
  6
CONTINUOUS
 62
     7
 10
180.4996899999999
 20
-126.200005
 30
0.0
 11
180.4996899999999
 21
-129.200005
 31
0.0
  0
LINE
  5
10E
  8
DATA
  6
CONTINUOUS
 62
     7
 10
219.49968000000001
 20
-126.200005
 30
0.0
 11
219.49968000000001
 21
-129.200005
 31
0.0
  0
CIRCLE
  5
10F
  8
DATA
  6
CONTINUOUS
 62
     7
 10
199.99968000000001
 20
224.99997499999989
 30
0.0
 40
32.000010000000032
  0
LINE
  5
110
  8
DATA
  6
CONTINUOUS
 62
     7
 10
166.6496699999999
 20
149.99995499999989
 30
0.0
 11
167.99970999999999
 21
154.49996499999989
 31
0.0
  0
LINE
  5
111
  8
DATA
  6
CONTINUOUS
 62
     7
 10
231.99970999999999
 20
154.49996499999989
 30
0.0
 11
233.34969000000001
 21
149.99995499999989
 31
0.0
  0
LINE
  5
112
  8
DATA
  6
CONTINUOUS
 62
     7
 10
167.99970999999999
 20
154.49996499999989
 30
0.0
 11
182.2496899999999
 21
159.99995499999989
 31
0.0
  0
LINE
  5
113
  8
DATA
  6
CONTINUOUS
 62
     7
 10
217.74968000000001
 20
159.99995499999989
 30
0.0
 11
231.99970999999999
 21
154.49996499999989
 31
0.0
  0
LINE
  5
114
  8
DATA
  6
CONTINUOUS
 62
     7
 10
182.2496899999999
 20
159.99995499999989
 30
0.0
 11
183.9996899999999
 21
164.3999849999999
 31
0.0
  0
LINE
  5
115
  8
DATA
  6
CONTINUOUS
 62
     7
 10
215.99968000000001
 20
164.3999849999999
 30
0.0
 11
217.74968000000001
 21
159.99995499999989
 31
0.0
  0
CIRCLE
  5
116
  8
DATA
  6
CONTINUOUS
 62
     7
 10
199.99968000000001
 20
-24.99999500000003
 30
0.0
 40
33.350009999999997
  0
CIRCLE
  5
117
  8
DATA
  6
CONTINUOUS
 62
     7
 10
199.99968000000001
 20
-24.99999500000003
 30
0.0
 40
19.5
  0
ARC
  5
118
  8
DATA
  6
CONTINUOUS
 62
     7
 10
199.99968000000001
 20
-24.99999500000003
 30
0.0
 40
10.65002527685265
 50
64.038324663664767
 51
115.9616517848943
  0
ARC
  5
119
  8
DATA
  6
CONTINUOUS
 62
     7
 10
199.99968000000001
 20
-24.99999500000003
 30
0.0
 40
10.65001871144363
 50
124.0381339617454
 51
175.96159046866671
  0
ARC
  5
11A
  8
DATA
  6
CONTINUOUS
 62
     7
 10
199.99968000000001
 20
-24.99999500000003
 30
0.0
 40
10.64998132071594
 50
184.0382636904325
 51
235.96152149850059
  0
ARC
  5
11B
  8
DATA
  6
CONTINUOUS
 62
     7
 10
199.99968000000001
 20
-24.99999500000003
 30
0.0
 40
10.650002917412721
 50
244.03832593048591
 51
295.9617943607081
  0
ARC
  5
11C
  8
DATA
  6
CONTINUOUS
 62
     7
 10
199.99968000000001
 20
-24.99999500000003
 30
0.0
 40
10.65001893053716
 50
304.03832793234818
 51
355.96185500600171
  0
ARC
  5
11D
  8
DATA
  6
CONTINUOUS
 62
     7
 10
199.99968000000001
 20
-24.99999500000003
 30
0.0
 40
10.65001124623347
 50
4.038252324469509
 51
55.962104590151739
  0
TEXT
  5
11E
  8
DATA
 62
     7
 10
173.24856800000001
 20
-18.799405000000029
 30
0.0
 40
3.9511120000000002
  1
SHURE
 50
270.0
 41
0.85
 11
177.19968
 21
-18.799405000000029
 31
0.0
 73
     3
  0
CIRCLE
  5
11F
  8
DATA
  6
CONTINUOUS
 62
     7
 10
225.34970000000001
 20
-24.99999500000003
 30
0.0
 40
2.0
  0
CIRCLE
  5
120
  8
DATA
  6
CONTINUOUS
 62
     7
 10
225.34970000000001
 20
-24.99999500000003
 30
0.0
 40
4.25
  0
CIRCLE
  5
121
  8
DATA
  6
CONTINUOUS
 62
     7
 10
187.32470000000001
 20
-3.0462950000000428
 30
0.0
 40
2.0
  0
CIRCLE
  5
122
  8
DATA
  6
CONTINUOUS
 62
     7
 10
187.32470000000001
 20
-46.953785000000032
 30
0.0
 40
2.0
  0
CIRCLE
  5
123
  8
DATA
  6
CONTINUOUS
 62
     7
 10
187.32470000000001
 20
-3.0462950000000428
 30
0.0
 40
4.25
  0
CIRCLE
  5
124
  8
DATA
  6
CONTINUOUS
 62
     7
 10
187.32470000000001
 20
-46.953785000000032
 30
0.0
 40
4.25
  0
POLYLINE
  5
125
  8
DATA
  6
CONTINUOUS
 62
     7
 66
     1
 10
0.0
 20
0.0
 30
0.0
 70
   129
  0
VERTEX
  5
3CD
  8
DATA
  6
CONTINUOUS
 62
     7
 10
176.7997
 20
-14.89998500000004
 30
0.0
 42
-0.4142135623730951
  0
VERTEX
  5
3CE
  8
DATA
  6
CONTINUOUS
 62
     7
 10
177.29968
 20
-15.39996500000003
 30
0.0
  0
VERTEX
  5
3CF
  8
DATA
  6
CONTINUOUS
 62
     7
 10
177.29968
 20
-35.39999500000004
 30
0.0
 42
-0.4142135623730951
  0
VERTEX
  5
3D0
  8
DATA
  6
CONTINUOUS
 62
     7
 10
176.7997
 20
-35.89997500000004
 30
0.0
  0
VERTEX
  5
3D1
  8
DATA
  6
CONTINUOUS
 62
     7
 10
172.79965000000001
 20
-35.89997500000004
 30
0.0
 42
-0.4142135623730951
  0
VERTEX
  5
3D2
  8
DATA
  6
CONTINUOUS
 62
     7
 10
172.29966999999991
 20
-35.39999500000004
 30
0.0
  0
VERTEX
  5
3D3
  8
DATA
  6
CONTINUOUS
 62
     7
 10
172.29966999999991
 20
-15.39996500000003
 30
0.0
 42
-0.4142135623730951
  0
VERTEX
  5
3D4
  8
DATA
  6
CONTINUOUS
 62
     7
 10
172.79965000000001
 20
-14.89998500000004
 30
0.0
  0
SEQEND
  5
3D5
  8
DATA
  6
CONTINUOUS
 62
     7
  0
CIRCLE
  5
12F
  8
DATA
  6
CONTINUOUS
 62
     7
 10
199.99968000000001
 20
-24.99999500000003
 30
0.0
 40
32.5
  0
LINE
  5
130
  8
DATA
  6
CONTINUOUS
 62
     7
 10
166.6496699999999
 20
-134.200005
 30
0.0
 11
167.49970999999999
 21
-129.200005
 31
0.0
  0
LINE
  5
131
  8
DATA
  6
CONTINUOUS
 62
     7
 10
233.34969000000001
 20
-134.200005
 30
0.0
 11
232.49970999999999
 21
-129.200005
 31
0.0
  0
ARC
  5
132
  8
DATA
  6
CONTINUOUS
 62
     7
 10
217.49968000000001
 20
-126.200005
 30
0.0
 40
2.0
 50
0.0
 51
90.0
  0
ARC
  5
133
  8
DATA
  6
CONTINUOUS
 62
     7
 10
182.49968999999999
 20
-126.200005
 30
0.0
 40
2.0
 50
90.0
 51
180.0
  0
ARC
  5
134
  8
DATA
  6
CONTINUOUS
 62
     7
 10
199.99968000000001
 20
-24.99999500000003
 30
0.0
 40
9.6499913696334598
 50
115.5424476621903
 51
124.4575017608696
  0
ARC
  5
135
  8
DATA
  6
CONTINUOUS
 62
     7
 10
199.99968000000001
 20
-24.99999500000003
 30
0.0
 40
9.6499992257046383
 50
175.54246450691781
 51
184.4575354930821
  0
ARC
  5
136
  8
DATA
  6
CONTINUOUS
 62
     7
 10
199.99968000000001
 20
-24.99999500000003
 30
0.0
 40
9.6499812637382796
 50
235.54234850208019
 51
244.45726125074469
  0
ARC
  5
137
  8
DATA
  6
CONTINUOUS
 62
     7
 10
199.99968000000001
 20
-24.99999500000003
 30
0.0
 40
9.6499776361243423
 50
295.54255243506361
 51
304.45755358481489
  0
ARC
  5
138
  8
DATA
  6
CONTINUOUS
 62
     7
 10
199.99968000000001
 20
-24.99999500000003
 30
0.0
 40
9.6500291349612457
 50
355.54247835052439
 51
4.458118205069467
  0
ARC
  5
139
  8
DATA
  6
CONTINUOUS
 62
     7
 10
199.99968000000001
 20
-24.99999500000003
 30
0.0
 40
9.6499864387314265
 50
55.542513602215529
 51
64.457817823730707
  0
LINE
  5
13A
  8
DATA
  6
CONTINUOUS
 62
     7
 10
194.03838999999999
 20
-16.174695000000039
 30
0.0
 11
194.53975
 21
-17.043135000000031
 31
0.0
  0
LINE
  5
13B
  8
DATA
  6
CONTINUOUS
 62
     7
 10
204.16057000000001
 20
-33.706835000000041
 30
0.0
 11
204.66193999999999
 21
-34.575275000000033
 31
0.0
  0
LINE
  5
13C
  8
DATA
  6
CONTINUOUS
 62
     7
 10
195.33743000000001
 20
-15.424695000000041
 30
0.0
 11
195.83879999999999
 21
-16.293135000000031
 31
0.0
  0
LINE
  5
13D
  8
DATA
  6
CONTINUOUS
 62
     7
 10
205.45958999999999
 20
-32.956835000000041
 30
0.0
 11
205.96100000000001
 21
-33.825275000000033
 31
0.0
  0
LINE
  5
13E
  8
DATA
  6
CONTINUOUS
 62
     7
 10
189.37613999999999
 20
-25.749995000000041
 30
0.0
 11
190.37886999999989
 21
-25.749995000000041
 31
0.0
  0
LINE
  5
13F
  8
DATA
  6
CONTINUOUS
 62
     7
 10
209.62052
 20
-25.749995000000041
 30
0.0
 11
210.6232499999999
 21
-25.749995000000041
 31
0.0
  0
LINE
  5
140
  8
DATA
  6
CONTINUOUS
 62
     7
 10
189.37613999999999
 20
-24.24999500000003
 30
0.0
 11
190.37886999999989
 21
-24.24999500000003
 31
0.0
  0
LINE
  5
141
  8
DATA
  6
CONTINUOUS
 62
     7
 10
209.62052
 20
-24.24999500000003
 30
0.0
 11
210.6232499999999
 21
-24.24999500000003
 31
0.0
  0
LINE
  5
142
  8
DATA
  6
CONTINUOUS
 62
     7
 10
194.03838999999999
 20
-33.825275000000033
 30
0.0
 11
194.53975
 21
-32.956835000000041
 31
0.0
  0
LINE
  5
143
  8
DATA
  6
CONTINUOUS
 62
     7
 10
204.16057000000001
 20
-16.293135000000031
 30
0.0
 11
204.66193999999999
 21
-15.424695000000041
 31
0.0
  0
LINE
  5
144
  8
DATA
  6
CONTINUOUS
 62
     7
 10
195.33743000000001
 20
-34.575275000000033
 30
0.0
 11
195.83879999999999
 21
-33.706835000000041
 31
0.0
  0
LINE
  5
145
  8
DATA
  6
CONTINUOUS
 62
     7
 10
205.45958999999999
 20
-17.043135000000031
 30
0.0
 11
205.96100000000001
 21
-16.174695000000039
 31
0.0
  0
CIRCLE
  5
146
  8
DATA
  6
CONTINUOUS
 62
     7
 10
199.99968000000001
 20
-24.99999500000003
 30
0.0
 40
12.75
  0
LINE
  5
147
  8
DATA
  6
CONTINUOUS
 62
     7
 10
178.4096799999999
 20
-168.700005
 30
0.0
 11
221.58967999999999
 21
-168.700005
 31
0.0
  0
TEXT
  5
148
  8
DATA
 62
     7
 10
140.64972999999989
 20
108.26674299999991
 30
0.0
 40
11.288872
  1
フランジ・マウント
 41
0.85
 11
140.64972999999989
 21
119.5556149999999
 31
0.0
 73
     3
  0
LINE
  5
149
  8
DATA
  6
CONTINUOUS
 62
     7
 10
135.39972999999989
 20
99.999994999999956
 30
0.0
 11
272.89971000000003
 21
99.999994999999956
 31
0.0
  0
TEXT
  5
14A
  8
DATA
 62
     7
 10
154.68508
 20
-229.23980099999989
 30
0.0
 40
11.30613599999999
  1
ショクマウント
 41
0.85
 11
154.68508
 21
-217.93366499999991
 31
0.0
 73
     3
  0
LINE
  5
14B
  8
DATA
  6
CONTINUOUS
 62
     7
 10
147.89971
 20
-237.49999500000001
 30
0.0
 11
260.3997
 21
-237.49999500000001
 31
0.0
  0
LINE
  5
14C
  8
DATA
  6
CONTINUOUS
 62
     7
 10
-102.7365749999999
 20
407.75457999999998
 30
0.0
 11
-99.453374999999994
 21
411.03789
 31
0.0
  0
LINE
  5
14D
  8
DATA
  6
CONTINUOUS
 62
     7
 10
-102.21662499999989
 20
406.02453000000003
 30
0.0
 11
-97.723234999999974
 21
410.51801
 31
0.0
  0
LINE
  5
14E
  8
DATA
  6
CONTINUOUS
 62
     7
 10
-101.05105499999991
 20
404.93930999999992
 30
0.0
 11
-96.629784999999956
 21
409.33740999999998
 31
0.0
  0
LINE
  5
14F
  8
DATA
  6
CONTINUOUS
 62
     7
 10
-99.161914999999965
 20
404.55435999999997
 30
0.0
 11
-96.252984999999995
 21
407.46332000000001
 31
0.0
  0
LINE
  5
150
  8
DATA
  6
CONTINUOUS
 62
     7
 10
-99.130204999999961
 20
404.55768
 30
0.0
 11
-102.7170949999999
 21
408.1447
 31
0.0
  0
LINE
  5
151
  8
DATA
  6
CONTINUOUS
 62
     7
 10
-97.521334999999965
 20
405.19968999999992
 30
0.0
 11
-102.0650549999999
 21
409.76664
 31
0.0
  0
LINE
  5
152
  8
DATA
  6
CONTINUOUS
 62
     7
 10
-96.52393499999998
 20
406.45227
 30
0.0
 11
-100.8065449999999
 21
410.75799999999992
 31
0.0
  0
LINE
  5
153
  8
DATA
  6
CONTINUOUS
 62
     7
 10
-96.32102500000002
 20
408.52339000000001
 30
0.0
 11
-98.751444999999975
 21
410.95380999999992
 31
0.0
  0
CIRCLE
  5
154
  8
DATA
  6
CONTINUOUS
 62
     7
 10
-99.486744999999956
 20
407.78807
 30
0.0
 40
5.3500199999999722
  0
CIRCLE
  5
155
  8
DATA
  6
CONTINUOUS
 62
     7
 10
-99.486744999999956
 20
407.78807
 30
0.0
 40
3.25
  0
CIRCLE
  5
156
  8
DATA
  6
CONTINUOUS
 62
     7
 10
-99.486744999999956
 20
407.78807
 30
0.0
 40
5.8420199999999332
  0
ARC
  5
157
  8
DATA
  6
CONTINUOUS
 62
     7
 10
-93.373774999999966
 20
-331.16390999999987
 30
0.0
 40
1.0061927470420811
 50
296.92895917158882
 51
129.64947423960979
  0
ARC
  5
158
  8
DATA
  6
CONTINUOUS
 62
     7
 10
-100.0170449999999
 20
-335.5269100000001
 30
0.0
 40
7.9000001682848069
 50
40.567373941831683
 51
26.023285883117229
  0
CIRCLE
  5
159
  8
DATA
  6
CONTINUOUS
 62
     7
 10
-96.017044999999982
 20
-335.5269100000001
 30
0.0
 40
1.1999999999999309
  0
CIRCLE
  5
15A
  8
DATA
  6
CONTINUOUS
 62
     7
 10
-100.0170449999999
 20
-339.5269100000001
 30
0.0
 40
1.1999999999999309
  0
CIRCLE
  5
15B
  8
DATA
  6
CONTINUOUS
 62
     7
 10
-104.01703500000001
 20
-335.5269100000001
 30
0.0
 40
1.1999999999999309
  0
CIRCLE
  5
15C
  8
DATA
  6
CONTINUOUS
 62
     7
 10
-100.0626849999999
 20
-335.52999999999992
 30
0.0
 40
9.5
  0
CIRCLE
  5
15D
  8
DATA
  6
CONTINUOUS
 62
     7
 10
-100.0626849999999
 20
-335.52999999999992
 30
0.0
 40
10.530010000000059
  0
LINE
  5
15E
  8
DATA
  6
CONTINUOUS
 62
     7
 10
-97.309844999999981
 20
-321.99999000000003
 30
0.0
 11
-102.8098449999999
 21
-321.99999000000003
 31
0.0
  0
LINE
  5
15F
  8
DATA
  6
CONTINUOUS
 62
     7
 10
-102.8098449999999
 20
-323.49999000000003
 30
0.0
 11
-102.8098449999999
 21
-321.99999000000003
 31
0.0
  0
LINE
  5
160
  8
DATA
  6
CONTINUOUS
 62
     7
 10
-97.309844999999981
 20
-323.49999000000003
 30
0.0
 11
-102.8098449999999
 21
-323.49999000000003
 31
0.0
  0
LINE
  5
161
  8
DATA
  6
CONTINUOUS
 62
     7
 10
-97.309844999999981
 20
-323.49999000000003
 30
0.0
 11
-97.309844999999981
 21
-321.99999000000003
 31
0.0
  0
LINE
  5
162
  8
DATA
  6
CONTINUOUS
 62
     7
 10
-101.5598449999999
 20
-323.49999000000003
 30
0.0
 11
-101.5598449999999
 21
-325.10779000000002
 31
0.0
  0
LINE
  5
163
  8
DATA
  6
CONTINUOUS
 62
     7
 10
-98.559844999999981
 20
-323.49999000000003
 30
0.0
 11
-98.559844999999981
 21
-325.10779000000002
 31
0.0
  0
LINE
  5
164
  8
DATA
  6
CONTINUOUS
 62
     7
 10
-89.969985000000008
 20
-127.9963799999999
 30
0.0
 11
-89.970035000000024
 21
-177.99998999999991
 31
0.0
  0
LINE
  5
165
  8
DATA
  6
CONTINUOUS
 62
     7
 10
-110.02997499999999
 20
-127.9963799999999
 30
0.0
 11
-110.02997499999999
 21
-177.99997999999991
 31
0.0
  0
LINE
  5
166
  8
DATA
  6
CONTINUOUS
 62
     7
 10
-94.637685000000019
 20
-115.8879799999999
 30
0.0
 11
-105.3623149999999
 21
-115.8879799999999
 31
0.0
  0
ARC
  5
167
  8
DATA
  6
CONTINUOUS
 62
     7
 10
-105.3623149999999
 20
-116.8879799999999
 30
0.0
 40
1.0
 50
90.0
 51
146.971808896113
  0
ARC
  5
168
  8
DATA
  6
CONTINUOUS
 62
     7
 10
-80.178715000000025
 20
-131.34949
 30
0.0
 40
30.038996771423651
 50
150.02849209270281
 51
173.5909685400172
  0
ARC
  5
169
  8
DATA
  6
CONTINUOUS
 62
     7
 10
-94.637685000000019
 20
-116.8879799999999
 30
0.0
 40
0.9999970312456012
 50
33.02819110388787
 51
90.0
  0
ARC
  5
16A
  8
DATA
  6
CONTINUOUS
 62
     7
 10
-119.821265
 20
-131.34949
 30
0.0
 40
30.038982559910369
 50
6.409014634504266
 51
29.97150091284302
  0
LINE
  5
16B
  8
DATA
  6
CONTINUOUS
 62
     7
 10
-109.49997500000001
 20
-250.0
 30
0.0
 11
-109.49997500000001
 21
-236.0
 31
0.0
  0
LINE
  5
16C
  8
DATA
  6
CONTINUOUS
 62
     7
 10
-90.499985000000024
 20
-250.0
 30
0.0
 11
-90.499985000000024
 21
-236.0
 31
0.0
  0
LINE
  5
16D
  8
DATA
  6
CONTINUOUS
 62
     7
 10
-90.499985000000024
 20
-236.0
 30
0.0
 11
-109.49997500000001
 21
-236.0
 31
0.0
  0
LINE
  5
16E
  8
DATA
  6
CONTINUOUS
 62
     7
 10
-110.02997499999999
 20
-235.49999999999989
 30
0.0
 11
-89.969985000000008
 21
-235.49999999999989
 31
0.0
  0
LINE
  5
16F
  8
DATA
  6
CONTINUOUS
 62
     7
 10
-89.969985000000008
 20
-235.49999999999989
 30
0.0
 11
-89.969985000000008
 21
-178.99997999999991
 31
0.0
  0
LINE
  5
170
  8
DATA
  6
CONTINUOUS
 62
     7
 10
-110.02997499999999
 20
-235.49999999999989
 30
0.0
 11
-110.02997499999999
 21
-178.99997999999991
 31
0.0
  0
LINE
  5
171
  8
DATA
  6
CONTINUOUS
 62
     7
 10
-90.499985000000024
 20
-250.0
 30
0.0
 11
-109.49997500000001
 21
-250.0
 31
0.0
  0
CIRCLE
  5
172
  8
DATA
  6
CONTINUOUS
 62
     7
 10
-99.999985000000024
 20
-233.0
 30
0.0
 40
1.75
  0
LINE
  5
173
  8
DATA
  6
CONTINUOUS
 62
     7
 10
-98.512425000000036
 20
-233.9217899999999
 30
0.0
 11
-100.921905
 21
-231.51249999999999
 31
0.0
  0
LINE
  5
174
  8
DATA
  6
CONTINUOUS
 62
     7
 10
-101.48753499999999
 20
-232.07821999999999
 30
0.0
 11
-99.078155000000024
 21
-234.4875099999999
 31
0.0
  0
LINE
  5
175
  8
DATA
  6
CONTINUOUS
 62
     7
 10
-109.49997500000001
 20
-236.0
 30
0.0
 11
-110.02997499999999
 21
-235.49999999999989
 31
0.0
  0
LINE
  5
176
  8
DATA
  6
CONTINUOUS
 62
     7
 10
-90.499985000000024
 20
-236.0
 30
0.0
 11
-89.969985000000008
 21
-235.49999999999989
 31
0.0
  0
TEXT
  5
177
  8
DATA
 62
     7
 10
-104.93890500000001
 20
-175.01599999999999
 30
0.0
 40
2.2577759999999989
  1
MX 418S
 41
0.85
  0
TEXT
  5
178
  8
DATA
 62
     7
 10
-106.17359500000001
 20
-170.4816219999999
 30
0.0
 40
3.9511120000000002
  1
SHURE
 41
0.85
 11
-106.17359500000001
 21
-166.53050999999991
 31
0.0
 73
     3
  0
LINE
  5
179
  8
DATA
  6
CONTINUOUS
 62
     7
 10
-89.969985000000008
 20
-140.99997999999999
 30
0.0
 11
-110.02997499999999
 21
-140.99997999999999
 31
0.0
  0
ARC
  5
17A
  8
DATA
  6
CONTINUOUS
 62
     7
 10
-99.999985000000024
 20
-147.62497999999991
 30
0.0
 40
1.625
 50
22.61986494804043
 51
157.3801350519596
  0
LINE
  5
17B
  8
DATA
  6
CONTINUOUS
 62
     7
 10
-101.499985
 20
-146.99997999999991
 30
0.0
 11
-102.74997500000001
 21
-158.99997999999999
 31
0.0
  0
LINE
  5
17C
  8
DATA
  6
CONTINUOUS
 62
     7
 10
-97.249985000000024
 20
-158.99997999999999
 30
0.0
 11
-98.499985000000024
 21
-146.99997999999991
 31
0.0
  0
ARC
  5
17D
  8
DATA
  6
CONTINUOUS
 62
     7
 10
-99.999985000000024
 20
-159.23957999999999
 30
0.0
 40
2.7604081509986842
 50
175.02053150870179
 51
4.9794504751778836
  0
LINE
  5
17E
  8
DATA
  6
CONTINUOUS
 62
     7
 10
-89.969985000000008
 20
-177.99997999999991
 30
0.0
 11
-110.02997499999999
 21
-177.99997999999991
 31
0.0
  0
LINE
  5
17F
  8
DATA
  6
CONTINUOUS
 62
     7
 10
-110.02997499999999
 20
-178.99997999999991
 30
0.0
 11
-89.969985000000008
 21
-178.99997999999991
 31
0.0
  0
ARC
  5
180
  8
DATA
  6
CONTINUOUS
 62
     7
 10
-110.02997499999999
 20
-178.49997999999999
 30
0.0
 40
0.5
 50
90.0
 51
270.0
  0
ARC
  5
181
  8
DATA
  6
CONTINUOUS
 62
     7
 10
-89.969985000000008
 20
-178.49997999999999
 30
0.0
 40
0.5
 50
270.0
 51
90.005729692523744
  0
LINE
  5
182
  8
DATA
  6
CONTINUOUS
 62
     7
 10
-89.969994999999983
 20
-141.1999999999999
 30
0.0
 11
-110.02997499999999
 21
-141.1999999999999
 31
0.0
  0
CIRCLE
  5
183
  8
DATA
  6
CONTINUOUS
 62
     7
 10
-99.999985000000024
 20
-142.49997999999991
 30
0.0
 40
1.5
  0
LINE
  5
184
  8
DATA
  6
CONTINUOUS
 62
     7
 10
-105.40013500000001
 20
357.49900000000002
 30
0.0
 11
-94.600165000000004
 21
357.49900000000002
 31
0.0
  0
LINE
  5
185
  8
DATA
  6
CONTINUOUS
 62
     7
 10
-103.65013500000001
 20
319.50078000000002
 30
0.0
 11
-96.350165000000004
 21
319.50078000000002
 31
0.0
  0
LINE
  5
186
  8
DATA
  6
CONTINUOUS
 62
     7
 10
-96.350165000000004
 20
319.50078000000002
 30
0.0
 11
-96.350165000000004
 21
325.3116
 31
0.0
  0
LINE
  5
187
  8
DATA
  6
CONTINUOUS
 62
     7
 10
-103.65013500000001
 20
319.50078000000002
 30
0.0
 11
-103.65013500000001
 21
325.24418000000009
 31
0.0
  0
LINE
  5
188
  8
DATA
  6
CONTINUOUS
 62
     7
 10
-96.262934999999985
 20
327.39899000000008
 30
0.0
 11
-103.743165
 21
327.39899000000008
 31
0.0
  0
LINE
  5
189
  8
DATA
  6
CONTINUOUS
 62
     7
 10
-105.555665
 20
338.37060000000002
 30
0.0
 11
-104.01886500000001
 21
329.52199999999999
 31
0.0
  0
ARC
  5
18A
  8
DATA
  6
CONTINUOUS
 62
     7
 10
-71.350174999999979
 20
325.3116
 30
0.0
 40
25.000067098671959
 50
170.4541997783862
 51
180.0
  0
ARC
  5
18B
  8
DATA
  6
CONTINUOUS
 62
     7
 10
-128.650125
 20
325.24418000000009
 30
0.0
 40
24.999989999999961
 50
0.0
 51
9.8522043273403046
  0
LINE
  5
18C
  8
DATA
  6
CONTINUOUS
 62
     7
 10
-96.800174999999982
 20
327.39899000000008
 30
0.0
 11
-96.800174999999982
 21
319.50078000000002
 31
0.0
  0
LINE
  5
18D
  8
DATA
  6
CONTINUOUS
 62
     7
 10
-103.200175
 20
327.39899000000008
 30
0.0
 11
-103.200175
 21
319.50078000000002
 31
0.0
  0
LINE
  5
18E
  8
DATA
  6
CONTINUOUS
 62
     7
 10
-96.350165000000004
 20
327.39899000000008
 30
0.0
 11
-96.263554999999997
 21
327.39174000000008
 31
0.0
  0
LINE
  5
18F
  8
DATA
  6
CONTINUOUS
 62
     7
 10
-103.65013500000001
 20
327.39899000000008
 30
0.0
 11
-103.742525
 21
327.39102000000003
 31
0.0
  0
LINE
  5
190
  8
DATA
  6
CONTINUOUS
 62
     7
 10
-103.02513500000001
 20
-113.6419699999999
 30
0.0
 11
-96.975165000000004
 21
-112.7916899999999
 31
0.0
  0
LINE
  5
191
  8
DATA
  6
CONTINUOUS
 62
     7
 10
-103.02513500000001
 20
-112.5824599999999
 30
0.0
 11
-96.975165000000004
 21
-111.7322299999998
 31
0.0
  0
LINE
  5
192
  8
DATA
  6
CONTINUOUS
 62
     7
 10
-97.760625000000005
 20
-111.8426199999999
 30
0.0
 11
-97.760625000000005
 21
-110.9020999999999
 31
0.0
  0
LINE
  5
193
  8
DATA
  6
CONTINUOUS
 62
     7
 10
-102.36064500000001
 20
-112.4891199999999
 30
0.0
 11
-102.36064500000001
 21
-111.5485799999998
 31
0.0
  0
LINE
  5
194
  8
DATA
  6
CONTINUOUS
 62
     7
 10
-96.975165000000004
 20
-111.7322299999998
 30
0.0
 11
-96.975165000000004
 21
-112.7916899999999
 31
0.0
  0
LINE
  5
195
  8
DATA
  6
CONTINUOUS
 62
     7
 10
-103.02513500000001
 20
-112.5824599999999
 30
0.0
 11
-103.02513500000001
 21
-113.6419699999999
 31
0.0
  0
LINE
  5
196
  8
DATA
  6
CONTINUOUS
 62
     7
 10
-103.02513500000001
 20
-111.6419699999999
 30
0.0
 11
-96.975165000000004
 21
-110.7916899999999
 31
0.0
  0
LINE
  5
197
  8
DATA
  6
CONTINUOUS
 62
     7
 10
-103.02513500000001
 20
-110.5824799999999
 30
0.0
 11
-96.975165000000004
 21
-109.7322299999998
 31
0.0
  0
LINE
  5
198
  8
DATA
  6
CONTINUOUS
 62
     7
 10
-96.975165000000004
 20
-109.7322299999998
 30
0.0
 11
-96.975165000000004
 21
-110.7916899999999
 31
0.0
  0
LINE
  5
199
  8
DATA
  6
CONTINUOUS
 62
     7
 10
-103.02513500000001
 20
-110.5824799999999
 30
0.0
 11
-103.02513500000001
 21
-111.6419699999999
 31
0.0
  0
LINE
  5
19A
  8
DATA
  6
CONTINUOUS
 62
     7
 10
-103.02513500000001
 20
-115.6419199999999
 30
0.0
 11
-96.975165000000004
 21
-114.7916899999999
 31
0.0
  0
LINE
  5
19B
  8
DATA
  6
CONTINUOUS
 62
     7
 10
-103.02513500000001
 20
-114.5824599999999
 30
0.0
 11
-96.975165000000004
 21
-113.7322299999999
 31
0.0
  0
LINE
  5
19C
  8
DATA
  6
CONTINUOUS
 62
     7
 10
-97.760625000000005
 20
-113.8426199999999
 30
0.0
 11
-97.760625000000005
 21
-112.9020999999999
 31
0.0
  0
LINE
  5
19D
  8
DATA
  6
CONTINUOUS
 62
     7
 10
-102.36064500000001
 20
-114.4891199999999
 30
0.0
 11
-102.36064500000001
 21
-113.5485799999998
 31
0.0
  0
LINE
  5
19E
  8
DATA
  6
CONTINUOUS
 62
     7
 10
-96.975165000000004
 20
-113.7322299999999
 30
0.0
 11
-96.975165000000004
 21
-114.7916899999999
 31
0.0
  0
LINE
  5
19F
  8
DATA
  6
CONTINUOUS
 62
     7
 10
-103.02513500000001
 20
-114.5824599999999
 30
0.0
 11
-103.02513500000001
 21
-115.6419199999999
 31
0.0
  0
LINE
  5
1A0
  8
DATA
  6
CONTINUOUS
 62
     7
 10
-97.760625000000005
 20
-109.8426199999999
 30
0.0
 11
-97.760625000000005
 21
-108.9020999999999
 31
0.0
  0
LINE
  5
1A1
  8
DATA
  6
CONTINUOUS
 62
     7
 10
-102.36064500000001
 20
-110.4891199999999
 30
0.0
 11
-102.36064500000001
 21
-109.5485799999998
 31
0.0
  0
LINE
  5
1A2
  8
DATA
  6
CONTINUOUS
 62
     7
 10
-103.02513500000001
 20
-109.6419699999999
 30
0.0
 11
-96.975165000000004
 21
-108.7916899999999
 31
0.0
  0
LINE
  5
1A3
  8
DATA
  6
CONTINUOUS
 62
     7
 10
-103.02513500000001
 20
-108.5824799999999
 30
0.0
 11
-96.975165000000004
 21
-107.7322299999998
 31
0.0
  0
LINE
  5
1A4
  8
DATA
  6
CONTINUOUS
 62
     7
 10
-96.975165000000004
 20
-107.7322299999998
 30
0.0
 11
-96.975165000000004
 21
-108.7916899999999
 31
0.0
  0
LINE
  5
1A5
  8
DATA
  6
CONTINUOUS
 62
     7
 10
-103.02513500000001
 20
-108.5824799999999
 30
0.0
 11
-103.02513500000001
 21
-109.6419699999999
 31
0.0
  0
LINE
  5
1A6
  8
DATA
  6
CONTINUOUS
 62
     7
 10
-97.760625000000005
 20
-107.8426199999999
 30
0.0
 11
-97.760625000000005
 21
-106.9020999999999
 31
0.0
  0
LINE
  5
1A7
  8
DATA
  6
CONTINUOUS
 62
     7
 10
-102.36064500000001
 20
-108.4891199999999
 30
0.0
 11
-102.36064500000001
 21
-107.5485799999998
 31
0.0
  0
LINE
  5
1A8
  8
DATA
  6
CONTINUOUS
 62
     7
 10
-103.02513500000001
 20
-107.6419699999999
 30
0.0
 11
-96.975165000000004
 21
-106.7916899999999
 31
0.0
  0
LINE
  5
1A9
  8
DATA
  6
CONTINUOUS
 62
     7
 10
-103.02513500000001
 20
-106.5824799999999
 30
0.0
 11
-96.975165000000004
 21
-105.7322299999998
 31
0.0
  0
LINE
  5
1AA
  8
DATA
  6
CONTINUOUS
 62
     7
 10
-96.975165000000004
 20
-105.7322299999998
 30
0.0
 11
-96.975165000000004
 21
-106.7916899999999
 31
0.0
  0
LINE
  5
1AB
  8
DATA
  6
CONTINUOUS
 62
     7
 10
-103.02513500000001
 20
-106.5824799999999
 30
0.0
 11
-103.02513500000001
 21
-107.6419699999999
 31
0.0
  0
LINE
  5
1AC
  8
DATA
  6
CONTINUOUS
 62
     7
 10
-97.760625000000005
 20
-105.8426199999999
 30
0.0
 11
-97.760625000000005
 21
-104.9020999999999
 31
0.0
  0
LINE
  5
1AD
  8
DATA
  6
CONTINUOUS
 62
     7
 10
-102.36064500000001
 20
-106.4891199999999
 30
0.0
 11
-102.36064500000001
 21
-105.5485799999999
 31
0.0
  0
LINE
  5
1AE
  8
DATA
  6
CONTINUOUS
 62
     7
 10
-103.02513500000001
 20
-105.6419699999999
 30
0.0
 11
-96.975165000000004
 21
-104.7916899999999
 31
0.0
  0
LINE
  5
1AF
  8
DATA
  6
CONTINUOUS
 62
     7
 10
-103.02513500000001
 20
-104.5824999999999
 30
0.0
 11
-96.975165000000004
 21
-103.7322299999999
 31
0.0
  0
LINE
  5
1B0
  8
DATA
  6
CONTINUOUS
 62
     7
 10
-96.975165000000004
 20
-103.7322299999999
 30
0.0
 11
-96.975165000000004
 21
-104.7916899999999
 31
0.0
  0
LINE
  5
1B1
  8
DATA
  6
CONTINUOUS
 62
     7
 10
-103.02513500000001
 20
-104.5824999999999
 30
0.0
 11
-103.02513500000001
 21
-105.6419699999999
 31
0.0
  0
LINE
  5
1B2
  8
DATA
  6
CONTINUOUS
 62
     7
 10
-97.760625000000005
 20
-103.8426199999999
 30
0.0
 11
-97.760625000000005
 21
-102.9020999999999
 31
0.0
  0
LINE
  5
1B3
  8
DATA
  6
CONTINUOUS
 62
     7
 10
-102.36064500000001
 20
-104.4891199999999
 30
0.0
 11
-102.36064500000001
 21
-103.5485899999999
 31
0.0
  0
LINE
  5
1B4
  8
DATA
  6
CONTINUOUS
 62
     7
 10
-103.02513500000001
 20
-103.6419799999999
 30
0.0
 11
-96.975165000000004
 21
-102.7916899999999
 31
0.0
  0
LINE
  5
1B5
  8
DATA
  6
CONTINUOUS
 62
     7
 10
-103.02513500000001
 20
-102.5824999999999
 30
0.0
 11
-96.975165000000004
 21
-101.7322299999999
 31
0.0
  0
LINE
  5
1B6
  8
DATA
  6
CONTINUOUS
 62
     7
 10
-96.975165000000004
 20
-101.7322299999999
 30
0.0
 11
-96.975165000000004
 21
-102.7916899999999
 31
0.0
  0
LINE
  5
1B7
  8
DATA
  6
CONTINUOUS
 62
     7
 10
-103.02513500000001
 20
-102.5824999999999
 30
0.0
 11
-103.02513500000001
 21
-103.6419799999999
 31
0.0
  0
LINE
  5
1B8
  8
DATA
  6
CONTINUOUS
 62
     7
 10
-97.760625000000005
 20
-101.8426199999999
 30
0.0
 11
-97.760625000000005
 21
-100.9020999999999
 31
0.0
  0
LINE
  5
1B9
  8
DATA
  6
CONTINUOUS
 62
     7
 10
-102.36064500000001
 20
-102.4891199999999
 30
0.0
 11
-102.36064500000001
 21
-101.5485899999999
 31
0.0
  0
LINE
  5
1BA
  8
DATA
  6
CONTINUOUS
 62
     7
 10
-103.02513500000001
 20
-101.6419799999999
 30
0.0
 11
-96.975165000000004
 21
-100.7916899999999
 31
0.0
  0
LINE
  5
1BB
  8
DATA
  6
CONTINUOUS
 62
     7
 10
-103.02513500000001
 20
-100.5824999999999
 30
0.0
 11
-96.975165000000004
 21
-99.732229999999902
 31
0.0
  0
LINE
  5
1BC
  8
DATA
  6
CONTINUOUS
 62
     7
 10
-96.975165000000004
 20
-99.732229999999902
 30
0.0
 11
-96.975165000000004
 21
-100.7916899999999
 31
0.0
  0
LINE
  5
1BD
  8
DATA
  6
CONTINUOUS
 62
     7
 10
-103.02513500000001
 20
-100.5824999999999
 30
0.0
 11
-103.02513500000001
 21
-101.6419799999999
 31
0.0
  0
LINE
  5
1BE
  8
DATA
  6
CONTINUOUS
 62
     7
 10
-97.760625000000005
 20
-99.842619999999854
 30
0.0
 11
-97.760625000000005
 21
-98.902099999999905
 31
0.0
  0
LINE
  5
1BF
  8
DATA
  6
CONTINUOUS
 62
     7
 10
-102.36064500000001
 20
-100.4891199999998
 30
0.0
 11
-102.36064500000001
 21
-99.548589999999905
 31
0.0
  0
LINE
  5
1C0
  8
DATA
  6
CONTINUOUS
 62
     7
 10
-103.02513500000001
 20
-99.641979999999919
 30
0.0
 11
-96.975165000000004
 21
-98.791689999999903
 31
0.0
  0
LINE
  5
1C1
  8
DATA
  6
CONTINUOUS
 62
     7
 10
-103.02513500000001
 20
-98.582499999999925
 30
0.0
 11
-96.975165000000004
 21
-97.732229999999902
 31
0.0
  0
LINE
  5
1C2
  8
DATA
  6
CONTINUOUS
 62
     7
 10
-96.975165000000004
 20
-97.732229999999902
 30
0.0
 11
-96.975165000000004
 21
-98.791689999999903
 31
0.0
  0
LINE
  5
1C3
  8
DATA
  6
CONTINUOUS
 62
     7
 10
-103.02513500000001
 20
-98.582499999999925
 30
0.0
 11
-103.02513500000001
 21
-99.641979999999919
 31
0.0
  0
LINE
  5
1C4
  8
DATA
  6
CONTINUOUS
 62
     7
 10
-97.760625000000005
 20
-97.842619999999869
 30
0.0
 11
-97.760625000000005
 21
-96.902099999999905
 31
0.0
  0
LINE
  5
1C5
  8
DATA
  6
CONTINUOUS
 62
     7
 10
-102.36064500000001
 20
-98.489119999999915
 30
0.0
 11
-102.36064500000001
 21
-97.548589999999919
 31
0.0
  0
LINE
  5
1C6
  8
DATA
  6
CONTINUOUS
 62
     7
 10
-103.02513500000001
 20
-97.641979999999933
 30
0.0
 11
-96.975165000000004
 21
-96.791689999999903
 31
0.0
  0
LINE
  5
1C7
  8
DATA
  6
CONTINUOUS
 62
     7
 10
-103.02513500000001
 20
-96.582499999999925
 30
0.0
 11
-96.975165000000004
 21
-95.732229999999888
 31
0.0
  0
LINE
  5
1C8
  8
DATA
  6
CONTINUOUS
 62
     7
 10
-96.975165000000004
 20
-95.732229999999888
 30
0.0
 11
-96.975165000000004
 21
-96.791689999999903
 31
0.0
  0
LINE
  5
1C9
  8
DATA
  6
CONTINUOUS
 62
     7
 10
-103.02513500000001
 20
-96.582499999999925
 30
0.0
 11
-103.02513500000001
 21
-97.641979999999933
 31
0.0
  0
LINE
  5
1CA
  8
DATA
  6
CONTINUOUS
 62
     7
 10
-97.760625000000005
 20
-95.842619999999854
 30
0.0
 11
-97.760625000000005
 21
-94.902099999999905
 31
0.0
  0
LINE
  5
1CB
  8
DATA
  6
CONTINUOUS
 62
     7
 10
-102.36064500000001
 20
-96.4891199999999
 30
0.0
 11
-102.36064500000001
 21
-95.548589999999905
 31
0.0
  0
LINE
  5
1CC
  8
DATA
  6
CONTINUOUS
 62
     7
 10
-103.02513500000001
 20
-95.641979999999919
 30
0.0
 11
-96.975165000000004
 21
-94.791689999999889
 31
0.0
  0
LINE
  5
1CD
  8
DATA
  6
CONTINUOUS
 62
     7
 10
-103.02513500000001
 20
-94.582499999999925
 30
0.0
 11
-96.975165000000004
 21
-93.732229999999902
 31
0.0
  0
LINE
  5
1CE
  8
DATA
  6
CONTINUOUS
 62
     7
 10
-96.975165000000004
 20
-93.732229999999902
 30
0.0
 11
-96.975165000000004
 21
-94.791689999999889
 31
0.0
  0
LINE
  5
1CF
  8
DATA
  6
CONTINUOUS
 62
     7
 10
-103.02513500000001
 20
-94.582499999999925
 30
0.0
 11
-103.02513500000001
 21
-95.641979999999919
 31
0.0
  0
LINE
  5
1D0
  8
DATA
  6
CONTINUOUS
 62
     7
 10
-97.760625000000005
 20
-93.842619999999869
 30
0.0
 11
-97.760625000000005
 21
-92.902099999999905
 31
0.0
  0
LINE
  5
1D1
  8
DATA
  6
CONTINUOUS
 62
     7
 10
-102.36064500000001
 20
-94.489119999999915
 30
0.0
 11
-102.36064500000001
 21
-93.548589999999919
 31
0.0
  0
LINE
  5
1D2
  8
DATA
  6
CONTINUOUS
 62
     7
 10
-103.02513500000001
 20
-93.641979999999919
 30
0.0
 11
-96.975165000000004
 21
-92.791689999999903
 31
0.0
  0
LINE
  5
1D3
  8
DATA
  6
CONTINUOUS
 62
     7
 10
-103.02513500000001
 20
-92.582499999999925
 30
0.0
 11
-96.975165000000004
 21
-91.732229999999916
 31
0.0
  0
LINE
  5
1D4
  8
DATA
  6
CONTINUOUS
 62
     7
 10
-96.975165000000004
 20
-91.732229999999916
 30
0.0
 11
-96.975165000000004
 21
-92.791689999999903
 31
0.0
  0
LINE
  5
1D5
  8
DATA
  6
CONTINUOUS
 62
     7
 10
-103.02513500000001
 20
-92.582499999999925
 30
0.0
 11
-103.02513500000001
 21
-93.641979999999919
 31
0.0
  0
LINE
  5
1D6
  8
DATA
  6
CONTINUOUS
 62
     7
 10
-97.760625000000005
 20
-91.842619999999869
 30
0.0
 11
-97.760625000000005
 21
-90.902099999999905
 31
0.0
  0
LINE
  5
1D7
  8
DATA
  6
CONTINUOUS
 62
     7
 10
-102.36064500000001
 20
-92.4891199999999
 30
0.0
 11
-102.36064500000001
 21
-91.548589999999919
 31
0.0
  0
LINE
  5
1D8
  8
DATA
  6
CONTINUOUS
 62
     7
 10
-103.02513500000001
 20
-91.641979999999904
 30
0.0
 11
-96.975165000000004
 21
-90.791689999999903
 31
0.0
  0
LINE
  5
1D9
  8
DATA
  6
CONTINUOUS
 62
     7
 10
-103.02513500000001
 20
-90.582499999999925
 30
0.0
 11
-96.975165000000004
 21
-89.732229999999902
 31
0.0
  0
LINE
  5
1DA
  8
DATA
  6
CONTINUOUS
 62
     7
 10
-96.975165000000004
 20
-89.732229999999902
 30
0.0
 11
-96.975165000000004
 21
-90.791689999999903
 31
0.0
  0
LINE
  5
1DB
  8
DATA
  6
CONTINUOUS
 62
     7
 10
-103.02513500000001
 20
-90.582499999999925
 30
0.0
 11
-103.02513500000001
 21
-91.641979999999904
 31
0.0
  0
LINE
  5
1DC
  8
DATA
  6
CONTINUOUS
 62
     7
 10
-97.760625000000005
 20
-89.842619999999883
 30
0.0
 11
-97.760625000000005
 21
-88.902099999999905
 31
0.0
  0
LINE
  5
1DD
  8
DATA
  6
CONTINUOUS
 62
     7
 10
-102.36064500000001
 20
-90.4891199999999
 30
0.0
 11
-102.36064500000001
 21
-89.548589999999948
 31
0.0
  0
LINE
  5
1DE
  8
DATA
  6
CONTINUOUS
 62
     7
 10
-103.02513500000001
 20
-89.641979999999947
 30
0.0
 11
-96.975165000000004
 21
-88.791689999999903
 31
0.0
  0
LINE
  5
1DF
  8
DATA
  6
CONTINUOUS
 62
     7
 10
-103.02513500000001
 20
-88.582499999999925
 30
0.0
 11
-96.975165000000004
 21
-87.732229999999902
 31
0.0
  0
LINE
  5
1E0
  8
DATA
  6
CONTINUOUS
 62
     7
 10
-96.975165000000004
 20
-87.732229999999902
 30
0.0
 11
-96.975165000000004
 21
-88.791689999999903
 31
0.0
  0
LINE
  5
1E1
  8
DATA
  6
CONTINUOUS
 62
     7
 10
-103.02513500000001
 20
-88.582499999999925
 30
0.0
 11
-103.02513500000001
 21
-89.641979999999947
 31
0.0
  0
LINE
  5
1E2
  8
DATA
  6
CONTINUOUS
 62
     7
 10
-97.760625000000005
 20
-87.842619999999883
 30
0.0
 11
-97.760625000000005
 21
-86.902099999999905
 31
0.0
  0
LINE
  5
1E3
  8
DATA
  6
CONTINUOUS
 62
     7
 10
-102.36064500000001
 20
-88.489119999999886
 30
0.0
 11
-102.36064500000001
 21
-87.548589999999933
 31
0.0
  0
LINE
  5
1E4
  8
DATA
  6
CONTINUOUS
 62
     7
 10
-103.02513500000001
 20
-87.641979999999947
 30
0.0
 11
-96.975165000000004
 21
-86.791699999999949
 31
0.0
  0
LINE
  5
1E5
  8
DATA
  6
CONTINUOUS
 62
     7
 10
-103.02513500000001
 20
-86.582499999999925
 30
0.0
 11
-96.975165000000004
 21
-85.732229999999888
 31
0.0
  0
LINE
  5
1E6
  8
DATA
  6
CONTINUOUS
 62
     7
 10
-96.975165000000004
 20
-85.732229999999888
 30
0.0
 11
-96.975165000000004
 21
-86.791699999999949
 31
0.0
  0
LINE
  5
1E7
  8
DATA
  6
CONTINUOUS
 62
     7
 10
-103.02513500000001
 20
-86.582499999999925
 30
0.0
 11
-103.02513500000001
 21
-87.641979999999947
 31
0.0
  0
LINE
  5
1E8
  8
DATA
  6
CONTINUOUS
 62
     7
 10
-97.760625000000005
 20
-85.842619999999897
 30
0.0
 11
-97.760625000000005
 21
-84.902099999999905
 31
0.0
  0
LINE
  5
1E9
  8
DATA
  6
CONTINUOUS
 62
     7
 10
-102.36064500000001
 20
-86.4891199999999
 30
0.0
 11
-102.36064500000001
 21
-85.548589999999933
 31
0.0
  0
LINE
  5
1EA
  8
DATA
  6
CONTINUOUS
 62
     7
 10
-103.02513500000001
 20
-85.641979999999933
 30
0.0
 11
-96.975165000000004
 21
-84.791699999999935
 31
0.0
  0
LINE
  5
1EB
  8
DATA
  6
CONTINUOUS
 62
     7
 10
-103.02513500000001
 20
-84.582499999999925
 30
0.0
 11
-96.975165000000004
 21
-83.732229999999902
 31
0.0
  0
LINE
  5
1EC
  8
DATA
  6
CONTINUOUS
 62
     7
 10
-96.975165000000004
 20
-83.732229999999902
 30
0.0
 11
-96.975165000000004
 21
-84.791699999999935
 31
0.0
  0
LINE
  5
1ED
  8
DATA
  6
CONTINUOUS
 62
     7
 10
-103.02513500000001
 20
-84.582499999999925
 30
0.0
 11
-103.02513500000001
 21
-85.641979999999933
 31
0.0
  0
LINE
  5
1EE
  8
DATA
  6
CONTINUOUS
 62
     7
 10
-97.760625000000005
 20
-83.842619999999897
 30
0.0
 11
-97.760625000000005
 21
-82.902099999999905
 31
0.0
  0
LINE
  5
1EF
  8
DATA
  6
CONTINUOUS
 62
     7
 10
-102.36064500000001
 20
-84.489119999999915
 30
0.0
 11
-102.36064500000001
 21
-83.548589999999933
 31
0.0
  0
LINE
  5
1F0
  8
DATA
  6
CONTINUOUS
 62
     7
 10
-103.02513500000001
 20
-83.641979999999919
 30
0.0
 11
-96.975165000000004
 21
-82.791699999999935
 31
0.0
  0
LINE
  5
1F1
  8
DATA
  6
CONTINUOUS
 62
     7
 10
-103.02513500000001
 20
-82.582499999999925
 30
0.0
 11
-96.975165000000004
 21
-81.732229999999916
 31
0.0
  0
LINE
  5
1F2
  8
DATA
  6
CONTINUOUS
 62
     7
 10
-96.975165000000004
 20
-81.732229999999916
 30
0.0
 11
-96.975165000000004
 21
-82.791699999999935
 31
0.0
  0
LINE
  5
1F3
  8
DATA
  6
CONTINUOUS
 62
     7
 10
-103.02513500000001
 20
-82.582499999999925
 30
0.0
 11
-103.02513500000001
 21
-83.641979999999919
 31
0.0
  0
LINE
  5
1F4
  8
DATA
  6
CONTINUOUS
 62
     7
 10
-97.760625000000005
 20
-81.842619999999883
 30
0.0
 11
-97.760625000000005
 21
-80.902099999999905
 31
0.0
  0
LINE
  5
1F5
  8
DATA
  6
CONTINUOUS
 62
     7
 10
-102.36064500000001
 20
-82.4891199999999
 30
0.0
 11
-102.36064500000001
 21
-81.548589999999919
 31
0.0
  0
LINE
  5
1F6
  8
DATA
  6
CONTINUOUS
 62
     7
 10
-103.02513500000001
 20
-81.641979999999933
 30
0.0
 11
-96.975165000000004
 21
-80.791699999999935
 31
0.0
  0
LINE
  5
1F7
  8
DATA
  6
CONTINUOUS
 62
     7
 10
-103.02513500000001
 20
-80.582499999999925
 30
0.0
 11
-96.975165000000004
 21
-79.732229999999902
 31
0.0
  0
LINE
  5
1F8
  8
DATA
  6
CONTINUOUS
 62
     7
 10
-96.975165000000004
 20
-79.732229999999902
 30
0.0
 11
-96.975165000000004
 21
-80.791699999999935
 31
0.0
  0
LINE
  5
1F9
  8
DATA
  6
CONTINUOUS
 62
     7
 10
-103.02513500000001
 20
-80.582499999999925
 30
0.0
 11
-103.02513500000001
 21
-81.641979999999933
 31
0.0
  0
LINE
  5
1FA
  8
DATA
  6
CONTINUOUS
 62
     7
 10
-97.760625000000005
 20
-79.842619999999897
 30
0.0
 11
-97.760625000000005
 21
-78.902099999999905
 31
0.0
  0
LINE
  5
1FB
  8
DATA
  6
CONTINUOUS
 62
     7
 10
-102.36064500000001
 20
-80.4891199999999
 30
0.0
 11
-102.36064500000001
 21
-79.548589999999905
 31
0.0
  0
LINE
  5
1FC
  8
DATA
  6
CONTINUOUS
 62
     7
 10
-103.02513500000001
 20
-79.641979999999904
 30
0.0
 11
-96.975165000000004
 21
-78.791699999999906
 31
0.0
  0
LINE
  5
1FD
  8
DATA
  6
CONTINUOUS
 62
     7
 10
-103.02513500000001
 20
-78.582499999999897
 30
0.0
 11
-96.975165000000004
 21
-77.732229999999902
 31
0.0
  0
LINE
  5
1FE
  8
DATA
  6
CONTINUOUS
 62
     7
 10
-96.975165000000004
 20
-77.732229999999902
 30
0.0
 11
-96.975165000000004
 21
-78.791699999999906
 31
0.0
  0
LINE
  5
1FF
  8
DATA
  6
CONTINUOUS
 62
     7
 10
-103.02513500000001
 20
-78.582499999999897
 30
0.0
 11
-103.02513500000001
 21
-79.641979999999904
 31
0.0
  0
LINE
  5
200
  8
DATA
  6
CONTINUOUS
 62
     7
 10
-97.760625000000005
 20
-77.842619999999897
 30
0.0
 11
-97.760625000000005
 21
-76.902099999999905
 31
0.0
  0
LINE
  5
201
  8
DATA
  6
CONTINUOUS
 62
     7
 10
-102.36064500000001
 20
-78.4891199999999
 30
0.0
 11
-102.36064500000001
 21
-77.548589999999905
 31
0.0
  0
LINE
  5
202
  8
DATA
  6
CONTINUOUS
 62
     7
 10
-103.02513500000001
 20
-77.641979999999904
 30
0.0
 11
-96.975165000000004
 21
-76.791699999999906
 31
0.0
  0
LINE
  5
203
  8
DATA
  6
CONTINUOUS
 62
     7
 10
-103.02513500000001
 20
-76.582499999999897
 30
0.0
 11
-96.975165000000004
 21
-75.732229999999902
 31
0.0
  0
LINE
  5
204
  8
DATA
  6
CONTINUOUS
 62
     7
 10
-96.975165000000004
 20
-75.732229999999902
 30
0.0
 11
-96.975165000000004
 21
-76.791699999999906
 31
0.0
  0
LINE
  5
205
  8
DATA
  6
CONTINUOUS
 62
     7
 10
-103.02513500000001
 20
-76.582499999999897
 30
0.0
 11
-103.02513500000001
 21
-77.641979999999904
 31
0.0
  0
LINE
  5
206
  8
DATA
  6
CONTINUOUS
 62
     7
 10
-97.760625000000005
 20
-75.842619999999897
 30
0.0
 11
-97.760625000000005
 21
-74.902099999999905
 31
0.0
  0
LINE
  5
207
  8
DATA
  6
CONTINUOUS
 62
     7
 10
-102.36064500000001
 20
-76.4891199999999
 30
0.0
 11
-102.36064500000001
 21
-75.548589999999905
 31
0.0
  0
LINE
  5
208
  8
DATA
  6
CONTINUOUS
 62
     7
 10
-103.02513500000001
 20
-75.641989999999907
 30
0.0
 11
-96.975165000000004
 21
-74.791699999999906
 31
0.0
  0
LINE
  5
209
  8
DATA
  6
CONTINUOUS
 62
     7
 10
-103.02513500000001
 20
-74.582499999999897
 30
0.0
 11
-96.975165000000004
 21
-73.732229999999902
 31
0.0
  0
LINE
  5
20A
  8
DATA
  6
CONTINUOUS
 62
     7
 10
-96.975165000000004
 20
-73.732229999999902
 30
0.0
 11
-96.975165000000004
 21
-74.791699999999906
 31
0.0
  0
LINE
  5
20B
  8
DATA
  6
CONTINUOUS
 62
     7
 10
-103.02513500000001
 20
-74.582499999999897
 30
0.0
 11
-103.02513500000001
 21
-75.641989999999907
 31
0.0
  0
LINE
  5
20C
  8
DATA
  6
CONTINUOUS
 62
     7
 10
-97.760625000000005
 20
-73.842619999999883
 30
0.0
 11
-97.760625000000005
 21
-72.902099999999905
 31
0.0
  0
LINE
  5
20D
  8
DATA
  6
CONTINUOUS
 62
     7
 10
-102.36064500000001
 20
-74.4891199999999
 30
0.0
 11
-102.36064500000001
 21
-73.548589999999905
 31
0.0
  0
LINE
  5
20E
  8
DATA
  6
CONTINUOUS
 62
     7
 10
-103.02513500000001
 20
-73.641989999999907
 30
0.0
 11
-96.975165000000004
 21
-72.791699999999906
 31
0.0
  0
LINE
  5
20F
  8
DATA
  6
CONTINUOUS
 62
     7
 10
-103.02513500000001
 20
-72.582499999999897
 30
0.0
 11
-96.975165000000004
 21
-71.732229999999902
 31
0.0
  0
LINE
  5
210
  8
DATA
  6
CONTINUOUS
 62
     7
 10
-96.975165000000004
 20
-71.732229999999902
 30
0.0
 11
-96.975165000000004
 21
-72.791699999999906
 31
0.0
  0
LINE
  5
211
  8
DATA
  6
CONTINUOUS
 62
     7
 10
-103.02513500000001
 20
-72.582499999999897
 30
0.0
 11
-103.02513500000001
 21
-73.641989999999907
 31
0.0
  0
LINE
  5
212
  8
DATA
  6
CONTINUOUS
 62
     7
 10
-97.760625000000005
 20
-71.842619999999911
 30
0.0
 11
-97.760625000000005
 21
-70.902099999999905
 31
0.0
  0
LINE
  5
213
  8
DATA
  6
CONTINUOUS
 62
     7
 10
-102.36064500000001
 20
-72.4891199999999
 30
0.0
 11
-102.36064500000001
 21
-71.548589999999905
 31
0.0
  0
LINE
  5
214
  8
DATA
  6
CONTINUOUS
 62
     7
 10
-103.02513500000001
 20
-71.641989999999907
 30
0.0
 11
-96.975165000000004
 21
-70.791699999999906
 31
0.0
  0
LINE
  5
215
  8
DATA
  6
CONTINUOUS
 62
     7
 10
-103.02513500000001
 20
-70.582499999999911
 30
0.0
 11
-96.975165000000004
 21
-69.732229999999902
 31
0.0
  0
LINE
  5
216
  8
DATA
  6
CONTINUOUS
 62
     7
 10
-96.975165000000004
 20
-69.732229999999902
 30
0.0
 11
-96.975165000000004
 21
-70.791699999999906
 31
0.0
  0
LINE
  5
217
  8
DATA
  6
CONTINUOUS
 62
     7
 10
-103.02513500000001
 20
-70.582499999999911
 30
0.0
 11
-103.02513500000001
 21
-71.641989999999907
 31
0.0
  0
LINE
  5
218
  8
DATA
  6
CONTINUOUS
 62
     7
 10
-97.760625000000005
 20
-69.842619999999897
 30
0.0
 11
-97.760625000000005
 21
-68.902109999999894
 31
0.0
  0
LINE
  5
219
  8
DATA
  6
CONTINUOUS
 62
     7
 10
-102.36064500000001
 20
-70.4891199999999
 30
0.0
 11
-102.36064500000001
 21
-69.548599999999908
 31
0.0
  0
LINE
  5
21A
  8
DATA
  6
CONTINUOUS
 62
     7
 10
-103.02513500000001
 20
-69.641989999999893
 30
0.0
 11
-96.975165000000004
 21
-68.791699999999906
 31
0.0
  0
LINE
  5
21B
  8
DATA
  6
CONTINUOUS
 62
     7
 10
-103.02513500000001
 20
-68.582499999999897
 30
0.0
 11
-96.975165000000004
 21
-67.732229999999902
 31
0.0
  0
LINE
  5
21C
  8
DATA
  6
CONTINUOUS
 62
     7
 10
-96.975165000000004
 20
-67.732229999999902
 30
0.0
 11
-96.975165000000004
 21
-68.791699999999906
 31
0.0
  0
LINE
  5
21D
  8
DATA
  6
CONTINUOUS
 62
     7
 10
-103.02513500000001
 20
-68.582499999999897
 30
0.0
 11
-103.02513500000001
 21
-69.641989999999893
 31
0.0
  0
LINE
  5
21E
  8
DATA
  6
CONTINUOUS
 62
     7
 10
-97.760625000000005
 20
-67.842619999999897
 30
0.0
 11
-97.760625000000005
 21
-66.902109999999894
 31
0.0
  0
LINE
  5
21F
  8
DATA
  6
CONTINUOUS
 62
     7
 10
-102.36064500000001
 20
-68.4891199999999
 30
0.0
 11
-102.36064500000001
 21
-67.548599999999894
 31
0.0
  0
LINE
  5
220
  8
DATA
  6
CONTINUOUS
 62
     7
 10
-103.02513500000001
 20
-67.641989999999893
 30
0.0
 11
-96.975165000000004
 21
-66.791699999999906
 31
0.0
  0
LINE
  5
221
  8
DATA
  6
CONTINUOUS
 62
     7
 10
-103.02513500000001
 20
-66.582499999999897
 30
0.0
 11
-96.975165000000004
 21
-65.732229999999902
 31
0.0
  0
LINE
  5
222
  8
DATA
  6
CONTINUOUS
 62
     7
 10
-96.975165000000004
 20
-65.732229999999902
 30
0.0
 11
-96.975165000000004
 21
-66.791699999999906
 31
0.0
  0
LINE
  5
223
  8
DATA
  6
CONTINUOUS
 62
     7
 10
-103.02513500000001
 20
-66.582499999999897
 30
0.0
 11
-103.02513500000001
 21
-67.641989999999893
 31
0.0
  0
LINE
  5
224
  8
DATA
  6
CONTINUOUS
 62
     7
 10
-97.760625000000005
 20
-65.842559999999906
 30
0.0
 11
-97.760625000000005
 21
-64.902109999999908
 31
0.0
  0
LINE
  5
225
  8
DATA
  6
CONTINUOUS
 62
     7
 10
-102.36064500000001
 20
-66.4891199999999
 30
0.0
 11
-102.36064500000001
 21
-65.548599999999894
 31
0.0
  0
LINE
  5
226
  8
DATA
  6
CONTINUOUS
 62
     7
 10
-103.02513500000001
 20
-65.641989999999907
 30
0.0
 11
-96.975165000000004
 21
-64.791699999999906
 31
0.0
  0
LINE
  5
227
  8
DATA
  6
CONTINUOUS
 62
     7
 10
-103.02513500000001
 20
-64.582439999999906
 30
0.0
 11
-96.975165000000004
 21
-63.732229999999888
 31
0.0
  0
LINE
  5
228
  8
DATA
  6
CONTINUOUS
 62
     7
 10
-96.975165000000004
 20
-63.732229999999888
 30
0.0
 11
-96.975165000000004
 21
-64.791699999999906
 31
0.0
  0
LINE
  5
229
  8
DATA
  6
CONTINUOUS
 62
     7
 10
-103.02513500000001
 20
-64.582439999999906
 30
0.0
 11
-103.02513500000001
 21
-65.641989999999907
 31
0.0
  0
LINE
  5
22A
  8
DATA
  6
CONTINUOUS
 62
     7
 10
-97.760625000000005
 20
-63.842559999999899
 30
0.0
 11
-97.760625000000005
 21
-62.902109999999908
 31
0.0
  0
LINE
  5
22B
  8
DATA
  6
CONTINUOUS
 62
     7
 10
-102.36064500000001
 20
-64.489049999999907
 30
0.0
 11
-102.36064500000001
 21
-63.548599999999908
 31
0.0
  0
LINE
  5
22C
  8
DATA
  6
CONTINUOUS
 62
     7
 10
-103.02513500000001
 20
-63.641989999999907
 30
0.0
 11
-96.975165000000004
 21
-62.791699999999899
 31
0.0
  0
LINE
  5
22D
  8
DATA
  6
CONTINUOUS
 62
     7
 10
-103.02513500000001
 20
-62.582439999999899
 30
0.0
 11
-96.975165000000004
 21
-61.732229999999888
 31
0.0
  0
LINE
  5
22E
  8
DATA
  6
CONTINUOUS
 62
     7
 10
-96.975165000000004
 20
-61.732229999999888
 30
0.0
 11
-96.975165000000004
 21
-62.791699999999899
 31
0.0
  0
LINE
  5
22F
  8
DATA
  6
CONTINUOUS
 62
     7
 10
-103.02513500000001
 20
-62.582439999999899
 30
0.0
 11
-103.02513500000001
 21
-63.641989999999907
 31
0.0
  0
LINE
  5
230
  8
DATA
  6
CONTINUOUS
 62
     7
 10
-97.760625000000005
 20
-61.842559999999899
 30
0.0
 11
-97.760625000000005
 21
-60.902109999999908
 31
0.0
  0
LINE
  5
231
  8
DATA
  6
CONTINUOUS
 62
     7
 10
-102.36064500000001
 20
-62.489049999999899
 30
0.0
 11
-102.36064500000001
 21
-61.548599999999908
 31
0.0
  0
LINE
  5
232
  8
DATA
  6
CONTINUOUS
 62
     7
 10
-103.02513500000001
 20
-61.641989999999907
 30
0.0
 11
-96.975165000000004
 21
-60.791699999999899
 31
0.0
  0
LINE
  5
233
  8
DATA
  6
CONTINUOUS
 62
     7
 10
-103.02513500000001
 20
-60.582439999999913
 30
0.0
 11
-96.975165000000004
 21
-59.732229999999902
 31
0.0
  0
LINE
  5
234
  8
DATA
  6
CONTINUOUS
 62
     7
 10
-96.975165000000004
 20
-59.732229999999902
 30
0.0
 11
-96.975165000000004
 21
-60.791699999999899
 31
0.0
  0
LINE
  5
235
  8
DATA
  6
CONTINUOUS
 62
     7
 10
-103.02513500000001
 20
-60.582439999999913
 30
0.0
 11
-103.02513500000001
 21
-61.641989999999907
 31
0.0
  0
LINE
  5
236
  8
DATA
  6
CONTINUOUS
 62
     7
 10
-97.760625000000005
 20
-59.842559999999906
 30
0.0
 11
-97.760625000000005
 21
-58.902109999999901
 31
0.0
  0
LINE
  5
237
  8
DATA
  6
CONTINUOUS
 62
     7
 10
-102.36064500000001
 20
-60.489049999999899
 30
0.0
 11
-102.36064500000001
 21
-59.548599999999908
 31
0.0
  0
LINE
  5
238
  8
DATA
  6
CONTINUOUS
 62
     7
 10
-103.02513500000001
 20
-59.6419899999999
 30
0.0
 11
-96.975165000000004
 21
-58.791699999999913
 31
0.0
  0
LINE
  5
239
  8
DATA
  6
CONTINUOUS
 62
     7
 10
-103.02513500000001
 20
-58.582439999999913
 30
0.0
 11
-96.975165000000004
 21
-57.732229999999902
 31
0.0
  0
LINE
  5
23A
  8
DATA
  6
CONTINUOUS
 62
     7
 10
-96.975165000000004
 20
-57.732229999999902
 30
0.0
 11
-96.975165000000004
 21
-58.791699999999913
 31
0.0
  0
LINE
  5
23B
  8
DATA
  6
CONTINUOUS
 62
     7
 10
-103.02513500000001
 20
-58.582439999999913
 30
0.0
 11
-103.02513500000001
 21
-59.6419899999999
 31
0.0
  0
LINE
  5
23C
  8
DATA
  6
CONTINUOUS
 62
     7
 10
-97.760625000000005
 20
-57.842559999999906
 30
0.0
 11
-97.760625000000005
 21
-56.902109999999901
 31
0.0
  0
LINE
  5
23D
  8
DATA
  6
CONTINUOUS
 62
     7
 10
-102.36064500000001
 20
-58.489049999999907
 30
0.0
 11
-102.36064500000001
 21
-57.548599999999901
 31
0.0
  0
LINE
  5
23E
  8
DATA
  6
CONTINUOUS
 62
     7
 10
-103.02513500000001
 20
-57.6419899999999
 30
0.0
 11
-96.975165000000004
 21
-56.791699999999913
 31
0.0
  0
LINE
  5
23F
  8
DATA
  6
CONTINUOUS
 62
     7
 10
-103.02513500000001
 20
-56.582449999999902
 30
0.0
 11
-96.975165000000004
 21
-55.732229999999888
 31
0.0
  0
LINE
  5
240
  8
DATA
  6
CONTINUOUS
 62
     7
 10
-96.975165000000004
 20
-55.732229999999888
 30
0.0
 11
-96.975165000000004
 21
-56.791699999999913
 31
0.0
  0
LINE
  5
241
  8
DATA
  6
CONTINUOUS
 62
     7
 10
-103.02513500000001
 20
-56.582449999999902
 30
0.0
 11
-103.02513500000001
 21
-57.6419899999999
 31
0.0
  0
LINE
  5
242
  8
DATA
  6
CONTINUOUS
 62
     7
 10
-97.760625000000005
 20
-55.842559999999906
 30
0.0
 11
-97.760625000000005
 21
-54.902109999999908
 31
0.0
  0
LINE
  5
243
  8
DATA
  6
CONTINUOUS
 62
     7
 10
-102.36064500000001
 20
-56.489049999999907
 30
0.0
 11
-102.36064500000001
 21
-55.548599999999901
 31
0.0
  0
LINE
  5
244
  8
DATA
  6
CONTINUOUS
 62
     7
 10
-103.02513500000001
 20
-55.641989999999907
 30
0.0
 11
-96.975165000000004
 21
-54.791699999999899
 31
0.0
  0
LINE
  5
245
  8
DATA
  6
CONTINUOUS
 62
     7
 10
-103.02513500000001
 20
-54.582449999999902
 30
0.0
 11
-96.975165000000004
 21
-53.732229999999888
 31
0.0
  0
LINE
  5
246
  8
DATA
  6
CONTINUOUS
 62
     7
 10
-96.975165000000004
 20
-53.732229999999888
 30
0.0
 11
-96.975165000000004
 21
-54.791699999999899
 31
0.0
  0
LINE
  5
247
  8
DATA
  6
CONTINUOUS
 62
     7
 10
-103.02513500000001
 20
-54.582449999999902
 30
0.0
 11
-103.02513500000001
 21
-55.641989999999907
 31
0.0
  0
LINE
  5
248
  8
DATA
  6
CONTINUOUS
 62
     7
 10
-97.760625000000005
 20
-53.842559999999899
 30
0.0
 11
-97.760625000000005
 21
-52.902109999999908
 31
0.0
  0
LINE
  5
249
  8
DATA
  6
CONTINUOUS
 62
     7
 10
-102.36064500000001
 20
-54.489049999999907
 30
0.0
 11
-102.36064500000001
 21
-53.548599999999908
 31
0.0
  0
LINE
  5
24A
  8
DATA
  6
CONTINUOUS
 62
     7
 10
-103.02513500000001
 20
-53.641989999999907
 30
0.0
 11
-96.975165000000004
 21
-52.791699999999899
 31
0.0
  0
LINE
  5
24B
  8
DATA
  6
CONTINUOUS
 62
     7
 10
-103.02513500000001
 20
-52.582449999999902
 30
0.0
 11
-96.975165000000004
 21
-51.732229999999888
 31
0.0
  0
LINE
  5
24C
  8
DATA
  6
CONTINUOUS
 62
     7
 10
-96.975165000000004
 20
-51.732229999999888
 30
0.0
 11
-96.975165000000004
 21
-52.791699999999899
 31
0.0
  0
LINE
  5
24D
  8
DATA
  6
CONTINUOUS
 62
     7
 10
-103.02513500000001
 20
-52.582449999999902
 30
0.0
 11
-103.02513500000001
 21
-53.641989999999907
 31
0.0
  0
LINE
  5
24E
  8
DATA
  6
CONTINUOUS
 62
     7
 10
-97.760625000000005
 20
-51.842559999999899
 30
0.0
 11
-97.760625000000005
 21
-50.902109999999908
 31
0.0
  0
LINE
  5
24F
  8
DATA
  6
CONTINUOUS
 62
     7
 10
-102.36064500000001
 20
-52.489049999999899
 30
0.0
 11
-102.36064500000001
 21
-51.548599999999908
 31
0.0
  0
LINE
  5
250
  8
DATA
  6
CONTINUOUS
 62
     7
 10
-103.02513500000001
 20
-51.641989999999907
 30
0.0
 11
-96.975165000000004
 21
-50.791709999999902
 31
0.0
  0
LINE
  5
251
  8
DATA
  6
CONTINUOUS
 62
     7
 10
-103.02513500000001
 20
-50.582449999999902
 30
0.0
 11
-96.975165000000004
 21
-49.732229999999902
 31
0.0
  0
LINE
  5
252
  8
DATA
  6
CONTINUOUS
 62
     7
 10
-96.975165000000004
 20
-49.732229999999902
 30
0.0
 11
-96.975165000000004
 21
-50.791709999999902
 31
0.0
  0
LINE
  5
253
  8
DATA
  6
CONTINUOUS
 62
     7
 10
-103.02513500000001
 20
-50.582449999999902
 30
0.0
 11
-103.02513500000001
 21
-51.641989999999907
 31
0.0
  0
LINE
  5
254
  8
DATA
  6
CONTINUOUS
 62
     7
 10
-97.760625000000005
 20
-49.842569999999903
 30
0.0
 11
-97.760625000000005
 21
-48.902109999999901
 31
0.0
  0
LINE
  5
255
  8
DATA
  6
CONTINUOUS
 62
     7
 10
-102.36064500000001
 20
-50.489059999999903
 30
0.0
 11
-102.36064500000001
 21
-49.548599999999908
 31
0.0
  0
LINE
  5
256
  8
DATA
  6
CONTINUOUS
 62
     7
 10
-103.02513500000001
 20
-49.6419899999999
 30
0.0
 11
-96.975165000000004
 21
-48.791709999999902
 31
0.0
  0
LINE
  5
257
  8
DATA
  6
CONTINUOUS
 62
     7
 10
-103.02513500000001
 20
-48.582449999999902
 30
0.0
 11
-96.975165000000004
 21
-47.732229999999902
 31
0.0
  0
LINE
  5
258
  8
DATA
  6
CONTINUOUS
 62
     7
 10
-96.975165000000004
 20
-47.732229999999902
 30
0.0
 11
-96.975165000000004
 21
-48.791709999999902
 31
0.0
  0
LINE
  5
259
  8
DATA
  6
CONTINUOUS
 62
     7
 10
-103.02513500000001
 20
-48.582449999999902
 30
0.0
 11
-103.02513500000001
 21
-49.6419899999999
 31
0.0
  0
LINE
  5
25A
  8
DATA
  6
CONTINUOUS
 62
     7
 10
-97.760625000000005
 20
-47.842569999999903
 30
0.0
 11
-97.760625000000005
 21
-46.902109999999901
 31
0.0
  0
LINE
  5
25B
  8
DATA
  6
CONTINUOUS
 62
     7
 10
-102.36064500000001
 20
-48.489059999999903
 30
0.0
 11
-102.36064500000001
 21
-47.548599999999901
 31
0.0
  0
LINE
  5
25C
  8
DATA
  6
CONTINUOUS
 62
     7
 10
-103.02513500000001
 20
-47.6419899999999
 30
0.0
 11
-96.975165000000004
 21
-46.791709999999902
 31
0.0
  0
LINE
  5
25D
  8
DATA
  6
CONTINUOUS
 62
     7
 10
-103.02513500000001
 20
-46.582449999999902
 30
0.0
 11
-96.975165000000004
 21
-45.732229999999888
 31
0.0
  0
LINE
  5
25E
  8
DATA
  6
CONTINUOUS
 62
     7
 10
-96.975165000000004
 20
-45.732229999999888
 30
0.0
 11
-96.975165000000004
 21
-46.791709999999902
 31
0.0
  0
LINE
  5
25F
  8
DATA
  6
CONTINUOUS
 62
     7
 10
-103.02513500000001
 20
-46.582449999999902
 30
0.0
 11
-103.02513500000001
 21
-47.6419899999999
 31
0.0
  0
LINE
  5
260
  8
DATA
  6
CONTINUOUS
 62
     7
 10
-97.760625000000005
 20
-45.842569999999903
 30
0.0
 11
-97.760625000000005
 21
-44.902109999999901
 31
0.0
  0
LINE
  5
261
  8
DATA
  6
CONTINUOUS
 62
     7
 10
-102.36064500000001
 20
-46.489059999999903
 30
0.0
 11
-102.36064500000001
 21
-45.548599999999901
 31
0.0
  0
LINE
  5
262
  8
DATA
  6
CONTINUOUS
 62
     7
 10
-103.02513500000001
 20
-45.6419899999999
 30
0.0
 11
-96.975165000000004
 21
-44.791709999999902
 31
0.0
  0
LINE
  5
263
  8
DATA
  6
CONTINUOUS
 62
     7
 10
-103.02513500000001
 20
-44.582449999999902
 30
0.0
 11
-96.975165000000004
 21
-43.732229999999902
 31
0.0
  0
LINE
  5
264
  8
DATA
  6
CONTINUOUS
 62
     7
 10
-96.975165000000004
 20
-43.732229999999902
 30
0.0
 11
-96.975165000000004
 21
-44.791709999999902
 31
0.0
  0
LINE
  5
265
  8
DATA
  6
CONTINUOUS
 62
     7
 10
-103.02513500000001
 20
-44.582449999999902
 30
0.0
 11
-103.02513500000001
 21
-45.6419899999999
 31
0.0
  0
LINE
  5
266
  8
DATA
  6
CONTINUOUS
 62
     7
 10
-97.760625000000005
 20
-43.842569999999903
 30
0.0
 11
-97.760625000000005
 21
-42.902109999999908
 31
0.0
  0
LINE
  5
267
  8
DATA
  6
CONTINUOUS
 62
     7
 10
-102.36064500000001
 20
-44.489059999999903
 30
0.0
 11
-102.36064500000001
 21
-43.548599999999901
 31
0.0
  0
LINE
  5
268
  8
DATA
  6
CONTINUOUS
 62
     7
 10
-103.02513500000001
 20
-43.641989999999907
 30
0.0
 11
-96.975165000000004
 21
-42.791709999999902
 31
0.0
  0
LINE
  5
269
  8
DATA
  6
CONTINUOUS
 62
     7
 10
-103.02513500000001
 20
-42.582449999999902
 30
0.0
 11
-96.975165000000004
 21
-41.732229999999902
 31
0.0
  0
LINE
  5
26A
  8
DATA
  6
CONTINUOUS
 62
     7
 10
-96.975165000000004
 20
-41.732229999999902
 30
0.0
 11
-96.975165000000004
 21
-42.791709999999902
 31
0.0
  0
LINE
  5
26B
  8
DATA
  6
CONTINUOUS
 62
     7
 10
-103.02513500000001
 20
-42.582449999999902
 30
0.0
 11
-103.02513500000001
 21
-43.641989999999907
 31
0.0
  0
LINE
  5
26C
  8
DATA
  6
CONTINUOUS
 62
     7
 10
-97.760625000000005
 20
-41.842569999999903
 30
0.0
 11
-97.760625000000005
 21
-40.902109999999908
 31
0.0
  0
LINE
  5
26D
  8
DATA
  6
CONTINUOUS
 62
     7
 10
-102.36064500000001
 20
-42.489059999999903
 30
0.0
 11
-102.36064500000001
 21
-41.548599999999908
 31
0.0
  0
LINE
  5
26E
  8
DATA
  6
CONTINUOUS
 62
     7
 10
-103.02513500000001
 20
-41.641989999999907
 30
0.0
 11
-96.975165000000004
 21
-40.791709999999902
 31
0.0
  0
LINE
  5
26F
  8
DATA
  6
CONTINUOUS
 62
     7
 10
-103.02513500000001
 20
-40.582449999999902
 30
0.0
 11
-98.887685000000005
 21
-40.000969999999903
 31
0.0
  0
LINE
  5
270
  8
DATA
  6
CONTINUOUS
 62
     7
 10
-96.975165000000004
 20
-40.000969999999903
 30
0.0
 11
-96.975165000000004
 21
-40.791709999999902
 31
0.0
  0
LINE
  5
271
  8
DATA
  6
CONTINUOUS
 62
     7
 10
-103.02513500000001
 20
-40.582449999999902
 30
0.0
 11
-103.02513500000001
 21
-41.641989999999907
 31
0.0
  0
LINE
  5
272
  8
DATA
  6
CONTINUOUS
 62
     7
 10
-102.36064500000001
 20
-40.489059999999903
 30
0.0
 11
-102.36064500000001
 21
-40.000969999999903
 31
0.0
  0
LINE
  5
273
  8
DATA
  6
CONTINUOUS
 62
     7
 10
-103.350165
 20
249.99901000000011
 30
0.0
 11
-96.650135000000006
 21
249.99901000000011
 31
0.0
  0
LINE
  5
274
  8
DATA
  6
CONTINUOUS
 62
     7
 10
-96.650135000000006
 20
249.99901000000011
 30
0.0
 11
-96.350165000000004
 21
242.99901
 31
0.0
  0
LINE
  5
275
  8
DATA
  6
CONTINUOUS
 62
     7
 10
-103.02513500000001
 20
315.93545
 30
0.0
 11
-96.975165000000004
 21
316.78573999999998
 31
0.0
  0
LINE
  5
276
  8
DATA
  6
CONTINUOUS
 62
     7
 10
-103.02513500000001
 20
316.91681
 30
0.0
 11
-96.975165000000004
 21
317.76708000000002
 31
0.0
  0
LINE
  5
277
  8
DATA
  6
CONTINUOUS
 62
     7
 10
-97.760625000000005
 20
315.6567
 30
0.0
 11
-97.760625000000005
 21
316.67529999999999
 31
0.0
  0
LINE
  5
278
  8
DATA
  6
CONTINUOUS
 62
     7
 10
-102.36064500000001
 20
315.01021000000009
 30
0.0
 11
-102.36064500000001
 21
316.02890000000002
 31
0.0
  0
LINE
  5
279
  8
DATA
  6
STYLE_02
 62
     7
 10
-103.02513500000001
 20
316.91681
 30
0.0
 11
-103.02513500000001
 21
315.93545
 31
0.0
  0
LINE
  5
27A
  8
DATA
  6
CONTINUOUS
 62
     7
 10
-96.975165000000004
 20
317.76708000000002
 30
0.0
 11
-96.975165000000004
 21
316.78573999999998
 31
0.0
  0
LINE
  5
27B
  8
DATA
  6
CONTINUOUS
 62
     7
 10
-103.02513500000001
 20
313.93545
 30
0.0
 11
-96.975165000000004
 21
314.78573999999998
 31
0.0
  0
LINE
  5
27C
  8
DATA
  6
CONTINUOUS
 62
     7
 10
-103.02513500000001
 20
314.91681999999997
 30
0.0
 11
-96.975165000000004
 21
315.76708000000002
 31
0.0
  0
LINE
  5
27D
  8
DATA
  6
STYLE_02
 62
     7
 10
-103.02513500000001
 20
314.91681999999997
 30
0.0
 11
-103.02513500000001
 21
313.93545
 31
0.0
  0
LINE
  5
27E
  8
DATA
  6
CONTINUOUS
 62
     7
 10
-96.975165000000004
 20
315.76708000000002
 30
0.0
 11
-96.975165000000004
 21
314.78573999999998
 31
0.0
  0
LINE
  5
27F
  8
DATA
  6
CONTINUOUS
 62
     7
 10
-103.02513500000001
 20
317.93545
 30
0.0
 11
-96.975165000000004
 21
318.78579000000008
 31
0.0
  0
LINE
  5
280
  8
DATA
  6
CONTINUOUS
 62
     7
 10
-103.02513500000001
 20
318.91681
 30
0.0
 11
-98.869865000000019
 21
319.50078000000002
 31
0.0
  0
LINE
  5
281
  8
DATA
  6
CONTINUOUS
 62
     7
 10
-97.760625000000005
 20
317.6567
 30
0.0
 11
-97.760625000000005
 21
318.67529999999999
 31
0.0
  0
LINE
  5
282
  8
DATA
  6
CONTINUOUS
 62
     7
 10
-102.36064500000001
 20
317.01021000000009
 30
0.0
 11
-102.36064500000001
 21
318.02890000000002
 31
0.0
  0
LINE
  5
283
  8
DATA
  6
STYLE_02
 62
     7
 10
-103.02513500000001
 20
318.91681
 30
0.0
 11
-103.02513500000001
 21
317.93545
 31
0.0
  0
LINE
  5
284
  8
DATA
  6
CONTINUOUS
 62
     7
 10
-96.975165000000004
 20
319.50078000000002
 30
0.0
 11
-96.975165000000004
 21
318.78579000000008
 31
0.0
  0
LINE
  5
285
  8
DATA
  6
CONTINUOUS
 62
     7
 10
-102.36064500000001
 20
319.01021000000009
 30
0.0
 11
-102.36064500000001
 21
319.50078000000002
 31
0.0
  0
LINE
  5
286
  8
DATA
  6
CONTINUOUS
 62
     7
 10
-97.760625000000005
 20
313.6567
 30
0.0
 11
-97.760625000000005
 21
314.67529999999999
 31
0.0
  0
LINE
  5
287
  8
DATA
  6
CONTINUOUS
 62
     7
 10
-102.36064500000001
 20
313.01021000000009
 30
0.0
 11
-102.36064500000001
 21
314.02890000000002
 31
0.0
  0
LINE
  5
288
  8
DATA
  6
CONTINUOUS
 62
     7
 10
-103.02513500000001
 20
311.93545
 30
0.0
 11
-96.975165000000004
 21
312.78573999999998
 31
0.0
  0
LINE
  5
289
  8
DATA
  6
CONTINUOUS
 62
     7
 10
-103.02513500000001
 20
312.91681999999997
 30
0.0
 11
-96.975165000000004
 21
313.76708000000002
 31
0.0
  0
LINE
  5
28A
  8
DATA
  6
STYLE_02
 62
     7
 10
-103.02513500000001
 20
312.91681999999997
 30
0.0
 11
-103.02513500000001
 21
311.93545
 31
0.0
  0
LINE
  5
28B
  8
DATA
  6
CONTINUOUS
 62
     7
 10
-96.975165000000004
 20
313.76708000000002
 30
0.0
 11
-96.975165000000004
 21
312.78573999999998
 31
0.0
  0
LINE
  5
28C
  8
DATA
  6
CONTINUOUS
 62
     7
 10
-97.760625000000005
 20
311.6567
 30
0.0
 11
-97.760625000000005
 21
312.67529999999999
 31
0.0
  0
LINE
  5
28D
  8
DATA
  6
CONTINUOUS
 62
     7
 10
-102.36064500000001
 20
311.01021000000009
 30
0.0
 11
-102.36064500000001
 21
312.02890000000002
 31
0.0
  0
LINE
  5
28E
  8
DATA
  6
CONTINUOUS
 62
     7
 10
-103.02513500000001
 20
309.93551000000002
 30
0.0
 11
-96.975165000000004
 21
310.78573999999998
 31
0.0
  0
LINE
  5
28F
  8
DATA
  6
CONTINUOUS
 62
     7
 10
-103.02513500000001
 20
310.91681999999997
 30
0.0
 11
-96.975165000000004
 21
311.76708000000002
 31
0.0
  0
LINE
  5
290
  8
DATA
  6
STYLE_02
 62
     7
 10
-103.02513500000001
 20
310.91681999999997
 30
0.0
 11
-103.02513500000001
 21
309.93551000000002
 31
0.0
  0
LINE
  5
291
  8
DATA
  6
CONTINUOUS
 62
     7
 10
-96.975165000000004
 20
311.76708000000002
 30
0.0
 11
-96.975165000000004
 21
310.78573999999998
 31
0.0
  0
LINE
  5
292
  8
DATA
  6
CONTINUOUS
 62
     7
 10
-97.760625000000005
 20
309.6567
 30
0.0
 11
-97.760625000000005
 21
310.67529999999999
 31
0.0
  0
LINE
  5
293
  8
DATA
  6
CONTINUOUS
 62
     7
 10
-102.36064500000001
 20
309.01021000000009
 30
0.0
 11
-102.36064500000001
 21
310.02890000000002
 31
0.0
  0
LINE
  5
294
  8
DATA
  6
CONTINUOUS
 62
     7
 10
-103.02513500000001
 20
307.93551000000002
 30
0.0
 11
-96.975165000000004
 21
308.78573999999998
 31
0.0
  0
LINE
  5
295
  8
DATA
  6
CONTINUOUS
 62
     7
 10
-103.02513500000001
 20
308.91681999999997
 30
0.0
 11
-96.975165000000004
 21
309.76708000000002
 31
0.0
  0
LINE
  5
296
  8
DATA
  6
STYLE_02
 62
     7
 10
-103.02513500000001
 20
308.91681999999997
 30
0.0
 11
-103.02513500000001
 21
307.93551000000002
 31
0.0
  0
LINE
  5
297
  8
DATA
  6
CONTINUOUS
 62
     7
 10
-96.975165000000004
 20
309.76708000000002
 30
0.0
 11
-96.975165000000004
 21
308.78573999999998
 31
0.0
  0
LINE
  5
298
  8
DATA
  6
CONTINUOUS
 62
     7
 10
-97.760625000000005
 20
307.6567
 30
0.0
 11
-97.760625000000005
 21
308.67529999999999
 31
0.0
  0
LINE
  5
299
  8
DATA
  6
CONTINUOUS
 62
     7
 10
-102.36064500000001
 20
307.01021000000009
 30
0.0
 11
-102.36064500000001
 21
308.02890000000002
 31
0.0
  0
LINE
  5
29A
  8
DATA
  6
CONTINUOUS
 62
     7
 10
-103.02513500000001
 20
305.93552
 30
0.0
 11
-96.975165000000004
 21
306.78573
 31
0.0
  0
LINE
  5
29B
  8
DATA
  6
CONTINUOUS
 62
     7
 10
-103.02513500000001
 20
306.91681999999997
 30
0.0
 11
-96.975165000000004
 21
307.76708000000002
 31
0.0
  0
LINE
  5
29C
  8
DATA
  6
STYLE_02
 62
     7
 10
-103.02513500000001
 20
306.91681999999997
 30
0.0
 11
-103.02513500000001
 21
305.93552
 31
0.0
  0
LINE
  5
29D
  8
DATA
  6
CONTINUOUS
 62
     7
 10
-96.975165000000004
 20
307.76708000000002
 30
0.0
 11
-96.975165000000004
 21
306.78573
 31
0.0
  0
LINE
  5
29E
  8
DATA
  6
CONTINUOUS
 62
     7
 10
-97.760625000000005
 20
305.6567
 30
0.0
 11
-97.760625000000005
 21
306.67531000000008
 31
0.0
  0
LINE
  5
29F
  8
DATA
  6
CONTINUOUS
 62
     7
 10
-102.36064500000001
 20
305.01021000000009
 30
0.0
 11
-102.36064500000001
 21
306.02891
 31
0.0
  0
LINE
  5
2A0
  8
DATA
  6
CONTINUOUS
 62
     7
 10
-103.02513500000001
 20
303.93552
 30
0.0
 11
-96.975165000000004
 21
304.78573
 31
0.0
  0
LINE
  5
2A1
  8
DATA
  6
CONTINUOUS
 62
     7
 10
-103.02513500000001
 20
304.91681999999997
 30
0.0
 11
-96.975165000000004
 21
305.76709
 31
0.0
  0
LINE
  5
2A2
  8
DATA
  6
STYLE_02
 62
     7
 10
-103.02513500000001
 20
304.91681999999997
 30
0.0
 11
-103.02513500000001
 21
303.93552
 31
0.0
  0
LINE
  5
2A3
  8
DATA
  6
CONTINUOUS
 62
     7
 10
-96.975165000000004
 20
305.76709
 30
0.0
 11
-96.975165000000004
 21
304.78573
 31
0.0
  0
LINE
  5
2A4
  8
DATA
  6
CONTINUOUS
 62
     7
 10
-97.760625000000005
 20
303.6567
 30
0.0
 11
-97.760625000000005
 21
304.67531000000002
 31
0.0
  0
LINE
  5
2A5
  8
DATA
  6
CONTINUOUS
 62
     7
 10
-102.36064500000001
 20
303.01021000000009
 30
0.0
 11
-102.36064500000001
 21
304.02891
 31
0.0
  0
LINE
  5
2A6
  8
DATA
  6
CONTINUOUS
 62
     7
 10
-103.02513500000001
 20
301.93552
 30
0.0
 11
-96.975165000000004
 21
302.78573
 31
0.0
  0
LINE
  5
2A7
  8
DATA
  6
CONTINUOUS
 62
     7
 10
-103.02513500000001
 20
302.91681999999997
 30
0.0
 11
-96.975165000000004
 21
303.76709
 31
0.0
  0
LINE
  5
2A8
  8
DATA
  6
STYLE_02
 62
     7
 10
-103.02513500000001
 20
302.91681999999997
 30
0.0
 11
-103.02513500000001
 21
301.93552
 31
0.0
  0
LINE
  5
2A9
  8
DATA
  6
CONTINUOUS
 62
     7
 10
-96.975165000000004
 20
303.76709
 30
0.0
 11
-96.975165000000004
 21
302.78573
 31
0.0
  0
LINE
  5
2AA
  8
DATA
  6
CONTINUOUS
 62
     7
 10
-97.760625000000005
 20
301.6567
 30
0.0
 11
-97.760625000000005
 21
302.67531000000002
 31
0.0
  0
LINE
  5
2AB
  8
DATA
  6
CONTINUOUS
 62
     7
 10
-102.36064500000001
 20
301.01021000000009
 30
0.0
 11
-102.36064500000001
 21
302.02891
 31
0.0
  0
LINE
  5
2AC
  8
DATA
  6
CONTINUOUS
 62
     7
 10
-103.02513500000001
 20
299.93552
 30
0.0
 11
-96.975165000000004
 21
300.78573
 31
0.0
  0
LINE
  5
2AD
  8
DATA
  6
CONTINUOUS
 62
     7
 10
-103.02513500000001
 20
300.91681999999997
 30
0.0
 11
-96.975165000000004
 21
301.76709
 31
0.0
  0
LINE
  5
2AE
  8
DATA
  6
STYLE_02
 62
     7
 10
-103.02513500000001
 20
300.91681999999997
 30
0.0
 11
-103.02513500000001
 21
299.93552
 31
0.0
  0
LINE
  5
2AF
  8
DATA
  6
CONTINUOUS
 62
     7
 10
-96.975165000000004
 20
301.76709
 30
0.0
 11
-96.975165000000004
 21
300.78573
 31
0.0
  0
LINE
  5
2B0
  8
DATA
  6
CONTINUOUS
 62
     7
 10
-97.760625000000005
 20
299.6567
 30
0.0
 11
-97.760625000000005
 21
300.67531000000002
 31
0.0
  0
LINE
  5
2B1
  8
DATA
  6
CONTINUOUS
 62
     7
 10
-102.36064500000001
 20
299.01021000000009
 30
0.0
 11
-102.36064500000001
 21
300.02891
 31
0.0
  0
LINE
  5
2B2
  8
DATA
  6
CONTINUOUS
 62
     7
 10
-103.02513500000001
 20
297.93552
 30
0.0
 11
-96.975165000000004
 21
298.78573
 31
0.0
  0
LINE
  5
2B3
  8
DATA
  6
CONTINUOUS
 62
     7
 10
-103.02513500000001
 20
298.91681999999997
 30
0.0
 11
-96.975165000000004
 21
299.76709
 31
0.0
  0
LINE
  5
2B4
  8
DATA
  6
STYLE_02
 62
     7
 10
-103.02513500000001
 20
298.91681999999997
 30
0.0
 11
-103.02513500000001
 21
297.93552
 31
0.0
  0
LINE
  5
2B5
  8
DATA
  6
CONTINUOUS
 62
     7
 10
-96.975165000000004
 20
299.76709
 30
0.0
 11
-96.975165000000004
 21
298.78573
 31
0.0
  0
LINE
  5
2B6
  8
DATA
  6
CONTINUOUS
 62
     7
 10
-97.760625000000005
 20
297.6567
 30
0.0
 11
-97.760625000000005
 21
298.67531000000008
 31
0.0
  0
LINE
  5
2B7
  8
DATA
  6
CONTINUOUS
 62
     7
 10
-102.36064500000001
 20
297.01020999999997
 30
0.0
 11
-102.36064500000001
 21
298.02891
 31
0.0
  0
LINE
  5
2B8
  8
DATA
  6
CONTINUOUS
 62
     7
 10
-103.02513500000001
 20
295.93552
 30
0.0
 11
-96.975165000000004
 21
296.78573
 31
0.0
  0
LINE
  5
2B9
  8
DATA
  6
CONTINUOUS
 62
     7
 10
-103.02513500000001
 20
296.91681999999997
 30
0.0
 11
-96.975165000000004
 21
297.76709
 31
0.0
  0
LINE
  5
2BA
  8
DATA
  6
STYLE_02
 62
     7
 10
-103.02513500000001
 20
296.91681999999997
 30
0.0
 11
-103.02513500000001
 21
295.93552
 31
0.0
  0
LINE
  5
2BB
  8
DATA
  6
CONTINUOUS
 62
     7
 10
-96.975165000000004
 20
297.76709
 30
0.0
 11
-96.975165000000004
 21
296.78573
 31
0.0
  0
LINE
  5
2BC
  8
DATA
  6
CONTINUOUS
 62
     7
 10
-97.760625000000005
 20
295.6567
 30
0.0
 11
-97.760625000000005
 21
296.67531000000002
 31
0.0
  0
LINE
  5
2BD
  8
DATA
  6
CONTINUOUS
 62
     7
 10
-102.36064500000001
 20
295.01020999999997
 30
0.0
 11
-102.36064500000001
 21
296.02891
 31
0.0
  0
LINE
  5
2BE
  8
DATA
  6
CONTINUOUS
 62
     7
 10
-103.02513500000001
 20
293.93552
 30
0.0
 11
-96.975165000000004
 21
294.78574000000009
 31
0.0
  0
LINE
  5
2BF
  8
DATA
  6
CONTINUOUS
 62
     7
 10
-103.02513500000001
 20
294.91681999999997
 30
0.0
 11
-96.975165000000004
 21
295.76709
 31
0.0
  0
LINE
  5
2C0
  8
DATA
  6
STYLE_02
 62
     7
 10
-103.02513500000001
 20
294.91681999999997
 30
0.0
 11
-103.02513500000001
 21
293.93552
 31
0.0
  0
LINE
  5
2C1
  8
DATA
  6
CONTINUOUS
 62
     7
 10
-96.975165000000004
 20
295.76709
 30
0.0
 11
-96.975165000000004
 21
294.78574000000009
 31
0.0
  0
LINE
  5
2C2
  8
DATA
  6
CONTINUOUS
 62
     7
 10
-97.760625000000005
 20
293.6567
 30
0.0
 11
-97.760625000000005
 21
294.67531000000002
 31
0.0
  0
LINE
  5
2C3
  8
DATA
  6
CONTINUOUS
 62
     7
 10
-102.36064500000001
 20
293.01020999999997
 30
0.0
 11
-102.36064500000001
 21
294.02891
 31
0.0
  0
LINE
  5
2C4
  8
DATA
  6
CONTINUOUS
 62
     7
 10
-103.02513500000001
 20
291.93552
 30
0.0
 11
-96.975165000000004
 21
292.78573999999998
 31
0.0
  0
LINE
  5
2C5
  8
DATA
  6
CONTINUOUS
 62
     7
 10
-103.02513500000001
 20
292.91681999999997
 30
0.0
 11
-96.975165000000004
 21
293.76709
 31
0.0
  0
LINE
  5
2C6
  8
DATA
  6
STYLE_02
 62
     7
 10
-103.02513500000001
 20
292.91681999999997
 30
0.0
 11
-103.02513500000001
 21
291.93552
 31
0.0
  0
LINE
  5
2C7
  8
DATA
  6
CONTINUOUS
 62
     7
 10
-96.975165000000004
 20
293.76709
 30
0.0
 11
-96.975165000000004
 21
292.78573999999998
 31
0.0
  0
LINE
  5
2C8
  8
DATA
  6
CONTINUOUS
 62
     7
 10
-97.760625000000005
 20
291.6567
 30
0.0
 11
-97.760625000000005
 21
292.67531000000002
 31
0.0
  0
LINE
  5
2C9
  8
DATA
  6
CONTINUOUS
 62
     7
 10
-102.36064500000001
 20
291.01021000000009
 30
0.0
 11
-102.36064500000001
 21
292.02891
 31
0.0
  0
LINE
  5
2CA
  8
DATA
  6
CONTINUOUS
 62
     7
 10
-103.02513500000001
 20
289.93552
 30
0.0
 11
-96.975165000000004
 21
290.78574000000009
 31
0.0
  0
LINE
  5
2CB
  8
DATA
  6
CONTINUOUS
 62
     7
 10
-103.02513500000001
 20
290.91681999999997
 30
0.0
 11
-96.975165000000004
 21
291.76709
 31
0.0
  0
LINE
  5
2CC
  8
DATA
  6
STYLE_02
 62
     7
 10
-103.02513500000001
 20
290.91681999999997
 30
0.0
 11
-103.02513500000001
 21
289.93552
 31
0.0
  0
LINE
  5
2CD
  8
DATA
  6
CONTINUOUS
 62
     7
 10
-96.975165000000004
 20
291.76709
 30
0.0
 11
-96.975165000000004
 21
290.78574000000009
 31
0.0
  0
LINE
  5
2CE
  8
DATA
  6
CONTINUOUS
 62
     7
 10
-97.760625000000005
 20
289.6567
 30
0.0
 11
-97.760625000000005
 21
290.67531000000002
 31
0.0
  0
LINE
  5
2CF
  8
DATA
  6
CONTINUOUS
 62
     7
 10
-102.36064500000001
 20
289.01020999999997
 30
0.0
 11
-102.36064500000001
 21
290.02891
 31
0.0
  0
LINE
  5
2D0
  8
DATA
  6
CONTINUOUS
 62
     7
 10
-103.02513500000001
 20
287.93552
 30
0.0
 11
-96.975165000000004
 21
288.78574000000009
 31
0.0
  0
LINE
  5
2D1
  8
DATA
  6
CONTINUOUS
 62
     7
 10
-103.02513500000001
 20
288.91681999999997
 30
0.0
 11
-96.975165000000004
 21
289.76709
 31
0.0
  0
LINE
  5
2D2
  8
DATA
  6
STYLE_02
 62
     7
 10
-103.02513500000001
 20
288.91681999999997
 30
0.0
 11
-103.02513500000001
 21
287.93552
 31
0.0
  0
LINE
  5
2D3
  8
DATA
  6
CONTINUOUS
 62
     7
 10
-96.975165000000004
 20
289.76709
 30
0.0
 11
-96.975165000000004
 21
288.78574000000009
 31
0.0
  0
LINE
  5
2D4
  8
DATA
  6
CONTINUOUS
 62
     7
 10
-97.760625000000005
 20
287.6567
 30
0.0
 11
-97.760625000000005
 21
288.67531000000002
 31
0.0
  0
LINE
  5
2D5
  8
DATA
  6
CONTINUOUS
 62
     7
 10
-102.36064500000001
 20
287.01020999999997
 30
0.0
 11
-102.36064500000001
 21
288.02891
 31
0.0
  0
LINE
  5
2D6
  8
DATA
  6
CONTINUOUS
 62
     7
 10
-103.02513500000001
 20
285.93552
 30
0.0
 11
-96.975165000000004
 21
286.78574000000009
 31
0.0
  0
LINE
  5
2D7
  8
DATA
  6
CONTINUOUS
 62
     7
 10
-103.02513500000001
 20
286.91681999999997
 30
0.0
 11
-96.975165000000004
 21
287.76710000000003
 31
0.0
  0
LINE
  5
2D8
  8
DATA
  6
STYLE_02
 62
     7
 10
-103.02513500000001
 20
286.91681999999997
 30
0.0
 11
-103.02513500000001
 21
285.93552
 31
0.0
  0
LINE
  5
2D9
  8
DATA
  6
CONTINUOUS
 62
     7
 10
-96.975165000000004
 20
287.76710000000003
 30
0.0
 11
-96.975165000000004
 21
286.78574000000009
 31
0.0
  0
LINE
  5
2DA
  8
DATA
  6
CONTINUOUS
 62
     7
 10
-97.760625000000005
 20
285.65669000000003
 30
0.0
 11
-97.760625000000005
 21
286.67531000000002
 31
0.0
  0
LINE
  5
2DB
  8
DATA
  6
CONTINUOUS
 62
     7
 10
-102.36064500000001
 20
285.0102
 30
0.0
 11
-102.36064500000001
 21
286.02891
 31
0.0
  0
LINE
  5
2DC
  8
DATA
  6
CONTINUOUS
 62
     7
 10
-103.02513500000001
 20
283.93545
 30
0.0
 11
-96.975165000000004
 21
284.78573999999998
 31
0.0
  0
LINE
  5
2DD
  8
DATA
  6
CONTINUOUS
 62
     7
 10
-103.02513500000001
 20
284.91681999999997
 30
0.0
 11
-96.975165000000004
 21
285.76710000000003
 31
0.0
  0
LINE
  5
2DE
  8
DATA
  6
STYLE_02
 62
     7
 10
-103.02513500000001
 20
284.91681999999997
 30
0.0
 11
-103.02513500000001
 21
283.93545
 31
0.0
  0
LINE
  5
2DF
  8
DATA
  6
CONTINUOUS
 62
     7
 10
-96.975165000000004
 20
285.76710000000003
 30
0.0
 11
-96.975165000000004
 21
284.78573999999998
 31
0.0
  0
LINE
  5
2E0
  8
DATA
  6
CONTINUOUS
 62
     7
 10
-97.760625000000005
 20
283.65669000000003
 30
0.0
 11
-97.760625000000005
 21
284.67524000000009
 31
0.0
  0
LINE
  5
2E1
  8
DATA
  6
CONTINUOUS
 62
     7
 10
-102.36064500000001
 20
283.0102
 30
0.0
 11
-102.36064500000001
 21
284.02884
 31
0.0
  0
LINE
  5
2E2
  8
DATA
  6
CONTINUOUS
 62
     7
 10
-103.02513500000001
 20
281.93545
 30
0.0
 11
-96.975165000000004
 21
282.78573999999998
 31
0.0
  0
LINE
  5
2E3
  8
DATA
  6
CONTINUOUS
 62
     7
 10
-103.02513500000001
 20
282.91682000000009
 30
0.0
 11
-96.975165000000004
 21
283.76710000000003
 31
0.0
  0
LINE
  5
2E4
  8
DATA
  6
STYLE_02
 62
     7
 10
-103.02513500000001
 20
282.91682000000009
 30
0.0
 11
-103.02513500000001
 21
281.93545
 31
0.0
  0
LINE
  5
2E5
  8
DATA
  6
CONTINUOUS
 62
     7
 10
-96.975165000000004
 20
283.76710000000003
 30
0.0
 11
-96.975165000000004
 21
282.78573999999998
 31
0.0
  0
LINE
  5
2E6
  8
DATA
  6
CONTINUOUS
 62
     7
 10
-97.760625000000005
 20
281.65669000000008
 30
0.0
 11
-97.760625000000005
 21
282.67524000000009
 31
0.0
  0
LINE
  5
2E7
  8
DATA
  6
CONTINUOUS
 62
     7
 10
-102.36064500000001
 20
281.0102
 30
0.0
 11
-102.36064500000001
 21
282.02884
 31
0.0
  0
LINE
  5
2E8
  8
DATA
  6
CONTINUOUS
 62
     7
 10
-103.02513500000001
 20
279.93545
 30
0.0
 11
-96.975165000000004
 21
280.78574000000009
 31
0.0
  0
LINE
  5
2E9
  8
DATA
  6
CONTINUOUS
 62
     7
 10
-103.02513500000001
 20
280.91682000000009
 30
0.0
 11
-96.975165000000004
 21
281.76710000000003
 31
0.0
  0
LINE
  5
2EA
  8
DATA
  6
STYLE_02
 62
     7
 10
-103.02513500000001
 20
280.91682000000009
 30
0.0
 11
-103.02513500000001
 21
279.93545
 31
0.0
  0
LINE
  5
2EB
  8
DATA
  6
CONTINUOUS
 62
     7
 10
-96.975165000000004
 20
281.76710000000003
 30
0.0
 11
-96.975165000000004
 21
280.78574000000009
 31
0.0
  0
LINE
  5
2EC
  8
DATA
  6
CONTINUOUS
 62
     7
 10
-97.760625000000005
 20
279.65669000000008
 30
0.0
 11
-97.760625000000005
 21
280.67523999999997
 31
0.0
  0
LINE
  5
2ED
  8
DATA
  6
CONTINUOUS
 62
     7
 10
-102.36064500000001
 20
279.0102
 30
0.0
 11
-102.36064500000001
 21
280.02884
 31
0.0
  0
LINE
  5
2EE
  8
DATA
  6
CONTINUOUS
 62
     7
 10
-103.02513500000001
 20
277.93552
 30
0.0
 11
-96.975165000000004
 21
278.7857600000001
 31
0.0
  0
LINE
  5
2EF
  8
DATA
  6
CONTINUOUS
 62
     7
 10
-103.02513500000001
 20
278.91680000000002
 30
0.0
 11
-96.975165000000004
 21
279.76710000000003
 31
0.0
  0
LINE
  5
2F0
  8
DATA
  6
STYLE_02
 62
     7
 10
-103.02513500000001
 20
278.91680000000002
 30
0.0
 11
-103.02513500000001
 21
277.93552
 31
0.0
  0
LINE
  5
2F1
  8
DATA
  6
CONTINUOUS
 62
     7
 10
-96.975165000000004
 20
279.76710000000003
 30
0.0
 11
-96.975165000000004
 21
278.7857600000001
 31
0.0
  0
LINE
  5
2F2
  8
DATA
  6
CONTINUOUS
 62
     7
 10
-97.760625000000005
 20
277.65669000000008
 30
0.0
 11
-97.760625000000005
 21
278.67529999999999
 31
0.0
  0
LINE
  5
2F3
  8
DATA
  6
CONTINUOUS
 62
     7
 10
-102.36064500000001
 20
277.0102
 30
0.0
 11
-102.36064500000001
 21
278.02886000000001
 31
0.0
  0
LINE
  5
2F4
  8
DATA
  6
CONTINUOUS
 62
     7
 10
-103.02513500000001
 20
275.93552
 30
0.0
 11
-96.975165000000004
 21
276.7857600000001
 31
0.0
  0
LINE
  5
2F5
  8
DATA
  6
CONTINUOUS
 62
     7
 10
-103.02513500000001
 20
276.91680000000002
 30
0.0
 11
-96.975165000000004
 21
277.76709
 31
0.0
  0
LINE
  5
2F6
  8
DATA
  6
STYLE_02
 62
     7
 10
-103.02513500000001
 20
276.91680000000002
 30
0.0
 11
-103.02513500000001
 21
275.93552
 31
0.0
  0
LINE
  5
2F7
  8
DATA
  6
CONTINUOUS
 62
     7
 10
-96.975165000000004
 20
277.76709
 30
0.0
 11
-96.975165000000004
 21
276.7857600000001
 31
0.0
  0
LINE
  5
2F8
  8
DATA
  6
CONTINUOUS
 62
     7
 10
-97.760625000000005
 20
275.65669000000008
 30
0.0
 11
-97.760625000000005
 21
276.67529999999999
 31
0.0
  0
LINE
  5
2F9
  8
DATA
  6
CONTINUOUS
 62
     7
 10
-102.36064500000001
 20
275.0102
 30
0.0
 11
-102.36064500000001
 21
276.02890000000002
 31
0.0
  0
LINE
  5
2FA
  8
DATA
  6
CONTINUOUS
 62
     7
 10
-103.02513500000001
 20
273.93547000000001
 30
0.0
 11
-96.975165000000004
 21
274.78579999999999
 31
0.0
  0
LINE
  5
2FB
  8
DATA
  6
CONTINUOUS
 62
     7
 10
-103.02513500000001
 20
274.91680000000002
 30
0.0
 11
-96.975165000000004
 21
275.76709
 31
0.0
  0
LINE
  5
2FC
  8
DATA
  6
STYLE_02
 62
     7
 10
-103.02513500000001
 20
274.91680000000002
 30
0.0
 11
-103.02513500000001
 21
273.93547000000001
 31
0.0
  0
LINE
  5
2FD
  8
DATA
  6
CONTINUOUS
 62
     7
 10
-96.975165000000004
 20
275.76709
 30
0.0
 11
-96.975165000000004
 21
274.78579999999999
 31
0.0
  0
LINE
  5
2FE
  8
DATA
  6
CONTINUOUS
 62
     7
 10
-97.760625000000005
 20
273.65669000000008
 30
0.0
 11
-97.760625000000005
 21
274.67526000000009
 31
0.0
  0
LINE
  5
2FF
  8
DATA
  6
CONTINUOUS
 62
     7
 10
-102.36064500000001
 20
273.0102
 30
0.0
 11
-102.36064500000001
 21
274.0288700000001
 31
0.0
  0
LINE
  5
300
  8
DATA
  6
CONTINUOUS
 62
     7
 10
-103.02513500000001
 20
271.93547000000001
 30
0.0
 11
-96.975165000000004
 21
272.78579999999999
 31
0.0
  0
LINE
  5
301
  8
DATA
  6
CONTINUOUS
 62
     7
 10
-103.02513500000001
 20
272.91680000000002
 30
0.0
 11
-96.975165000000004
 21
273.76704000000001
 31
0.0
  0
LINE
  5
302
  8
DATA
  6
STYLE_02
 62
     7
 10
-103.02513500000001
 20
272.91680000000002
 30
0.0
 11
-103.02513500000001
 21
271.93547000000001
 31
0.0
  0
LINE
  5
303
  8
DATA
  6
CONTINUOUS
 62
     7
 10
-96.975165000000004
 20
273.76704000000001
 30
0.0
 11
-96.975165000000004
 21
272.78579999999999
 31
0.0
  0
LINE
  5
304
  8
DATA
  6
CONTINUOUS
 62
     7
 10
-97.760625000000005
 20
271.65669000000008
 30
0.0
 11
-97.760625000000005
 21
272.67526000000009
 31
0.0
  0
LINE
  5
305
  8
DATA
  6
CONTINUOUS
 62
     7
 10
-102.36064500000001
 20
271.0102
 30
0.0
 11
-102.36064500000001
 21
272.0288700000001
 31
0.0
  0
LINE
  5
306
  8
DATA
  6
CONTINUOUS
 62
     7
 10
-103.02513500000001
 20
269.93547000000001
 30
0.0
 11
-96.975165000000004
 21
270.78579999999999
 31
0.0
  0
LINE
  5
307
  8
DATA
  6
CONTINUOUS
 62
     7
 10
-103.02513500000001
 20
270.91681
 30
0.0
 11
-96.975165000000004
 21
271.76704000000001
 31
0.0
  0
LINE
  5
308
  8
DATA
  6
STYLE_02
 62
     7
 10
-103.02513500000001
 20
270.91681
 30
0.0
 11
-103.02513500000001
 21
269.93547000000001
 31
0.0
  0
LINE
  5
309
  8
DATA
  6
CONTINUOUS
 62
     7
 10
-96.975165000000004
 20
271.76704000000001
 30
0.0
 11
-96.975165000000004
 21
270.78579999999999
 31
0.0
  0
LINE
  5
30A
  8
DATA
  6
CONTINUOUS
 62
     7
 10
-97.760625000000005
 20
269.65669000000003
 30
0.0
 11
-97.760625000000005
 21
270.67526000000009
 31
0.0
  0
LINE
  5
30B
  8
DATA
  6
CONTINUOUS
 62
     7
 10
-102.36064500000001
 20
269.0102
 30
0.0
 11
-102.36064500000001
 21
270.0288700000001
 31
0.0
  0
LINE
  5
30C
  8
DATA
  6
CONTINUOUS
 62
     7
 10
-103.02513500000001
 20
267.93547999999998
 30
0.0
 11
-96.975165000000004
 21
268.78579999999999
 31
0.0
  0
LINE
  5
30D
  8
DATA
  6
CONTINUOUS
 62
     7
 10
-103.02513500000001
 20
268.91681
 30
0.0
 11
-96.975165000000004
 21
269.76704000000001
 31
0.0
  0
LINE
  5
30E
  8
DATA
  6
STYLE_02
 62
     7
 10
-103.02513500000001
 20
268.91681
 30
0.0
 11
-103.02513500000001
 21
267.93547999999998
 31
0.0
  0
LINE
  5
30F
  8
DATA
  6
CONTINUOUS
 62
     7
 10
-96.975165000000004
 20
269.76704000000001
 30
0.0
 11
-96.975165000000004
 21
268.78579999999999
 31
0.0
  0
LINE
  5
310
  8
DATA
  6
CONTINUOUS
 62
     7
 10
-97.760625000000005
 20
267.65669000000003
 30
0.0
 11
-97.760625000000005
 21
268.67526000000009
 31
0.0
  0
LINE
  5
311
  8
DATA
  6
CONTINUOUS
 62
     7
 10
-102.36064500000001
 20
267.0102
 30
0.0
 11
-102.36064500000001
 21
268.0288700000001
 31
0.0
  0
LINE
  5
312
  8
DATA
  6
CONTINUOUS
 62
     7
 10
-103.02513500000001
 20
265.93547999999998
 30
0.0
 11
-96.975165000000004
 21
266.78579999999999
 31
0.0
  0
LINE
  5
313
  8
DATA
  6
CONTINUOUS
 62
     7
 10
-103.02513500000001
 20
266.91681
 30
0.0
 11
-96.975165000000004
 21
267.76709
 31
0.0
  0
LINE
  5
314
  8
DATA
  6
STYLE_02
 62
     7
 10
-103.02513500000001
 20
266.91681
 30
0.0
 11
-103.02513500000001
 21
265.93547999999998
 31
0.0
  0
LINE
  5
315
  8
DATA
  6
CONTINUOUS
 62
     7
 10
-96.975165000000004
 20
267.76709
 30
0.0
 11
-96.975165000000004
 21
266.78579999999999
 31
0.0
  0
LINE
  5
316
  8
DATA
  6
CONTINUOUS
 62
     7
 10
-97.760625000000005
 20
265.65669000000003
 30
0.0
 11
-97.760625000000005
 21
266.67526000000009
 31
0.0
  0
LINE
  5
317
  8
DATA
  6
CONTINUOUS
 62
     7
 10
-102.36064500000001
 20
265.0102
 30
0.0
 11
-102.36064500000001
 21
266.0288700000001
 31
0.0
  0
LINE
  5
318
  8
DATA
  6
CONTINUOUS
 62
     7
 10
-103.02513500000001
 20
263.93543
 30
0.0
 11
-96.975165000000004
 21
264.78579999999999
 31
0.0
  0
LINE
  5
319
  8
DATA
  6
CONTINUOUS
 62
     7
 10
-103.02513500000001
 20
264.91681
 30
0.0
 11
-96.975165000000004
 21
265.76709
 31
0.0
  0
LINE
  5
31A
  8
DATA
  6
STYLE_02
 62
     7
 10
-103.02513500000001
 20
264.91681
 30
0.0
 11
-103.02513500000001
 21
263.93543
 31
0.0
  0
LINE
  5
31B
  8
DATA
  6
CONTINUOUS
 62
     7
 10
-96.975165000000004
 20
265.76709
 30
0.0
 11
-96.975165000000004
 21
264.78579999999999
 31
0.0
  0
LINE
  5
31C
  8
DATA
  6
CONTINUOUS
 62
     7
 10
-97.760625000000005
 20
263.65663999999998
 30
0.0
 11
-97.760625000000005
 21
264.67522000000002
 31
0.0
  0
LINE
  5
31D
  8
DATA
  6
CONTINUOUS
 62
     7
 10
-102.36064500000001
 20
263.01015000000001
 30
0.0
 11
-102.36064500000001
 21
264.02882
 31
0.0
  0
LINE
  5
31E
  8
DATA
  6
CONTINUOUS
 62
     7
 10
-103.02513500000001
 20
261.93543
 30
0.0
 11
-96.975165000000004
 21
262.78575999999998
 31
0.0
  0
LINE
  5
31F
  8
DATA
  6
CONTINUOUS
 62
     7
 10
-103.02513500000001
 20
262.91680000000002
 30
0.0
 11
-96.975165000000004
 21
263.76709
 31
0.0
  0
LINE
  5
320
  8
DATA
  6
STYLE_02
 62
     7
 10
-103.02513500000001
 20
262.91680000000002
 30
0.0
 11
-103.02513500000001
 21
261.93543
 31
0.0
  0
LINE
  5
321
  8
DATA
  6
CONTINUOUS
 62
     7
 10
-96.975165000000004
 20
263.76709
 30
0.0
 11
-96.975165000000004
 21
262.78575999999998
 31
0.0
  0
LINE
  5
322
  8
DATA
  6
CONTINUOUS
 62
     7
 10
-97.760625000000005
 20
261.65663999999998
 30
0.0
 11
-97.760625000000005
 21
262.67531000000008
 31
0.0
  0
LINE
  5
323
  8
DATA
  6
CONTINUOUS
 62
     7
 10
-102.36064500000001
 20
261.01015000000001
 30
0.0
 11
-102.36064500000001
 21
262.02882
 31
0.0
  0
LINE
  5
324
  8
DATA
  6
CONTINUOUS
 62
     7
 10
-103.02513500000001
 20
259.93543
 30
0.0
 11
-96.975165000000004
 21
260.78575999999998
 31
0.0
  0
LINE
  5
325
  8
DATA
  6
CONTINUOUS
 62
     7
 10
-103.02513500000001
 20
260.91680000000002
 30
0.0
 11
-96.975165000000004
 21
261.76709
 31
0.0
  0
LINE
  5
326
  8
DATA
  6
STYLE_02
 62
     7
 10
-103.02513500000001
 20
260.91680000000002
 30
0.0
 11
-103.02513500000001
 21
259.93543
 31
0.0
  0
LINE
  5
327
  8
DATA
  6
CONTINUOUS
 62
     7
 10
-96.975165000000004
 20
261.76709
 30
0.0
 11
-96.975165000000004
 21
260.78575999999998
 31
0.0
  0
LINE
  5
328
  8
DATA
  6
CONTINUOUS
 62
     7
 10
-97.760625000000005
 20
259.65669000000003
 30
0.0
 11
-97.760625000000005
 21
260.67531000000008
 31
0.0
  0
LINE
  5
329
  8
DATA
  6
CONTINUOUS
 62
     7
 10
-102.36064500000001
 20
259.0102
 30
0.0
 11
-102.36064500000001
 21
260.02891
 31
0.0
  0
LINE
  5
32A
  8
DATA
  6
CONTINUOUS
 62
     7
 10
-103.02513500000001
 20
257.93552
 30
0.0
 11
-96.975165000000004
 21
258.78575999999998
 31
0.0
  0
LINE
  5
32B
  8
DATA
  6
CONTINUOUS
 62
     7
 10
-103.02513500000001
 20
258.91680000000002
 30
0.0
 11
-96.975165000000004
 21
259.76709
 31
0.0
  0
LINE
  5
32C
  8
DATA
  6
STYLE_02
 62
     7
 10
-103.02513500000001
 20
258.91680000000002
 30
0.0
 11
-103.02513500000001
 21
257.93552
 31
0.0
  0
LINE
  5
32D
  8
DATA
  6
CONTINUOUS
 62
     7
 10
-96.975165000000004
 20
259.76709
 30
0.0
 11
-96.975165000000004
 21
258.78575999999998
 31
0.0
  0
LINE
  5
32E
  8
DATA
  6
CONTINUOUS
 62
     7
 10
-97.760625000000005
 20
257.65669000000003
 30
0.0
 11
-97.760625000000005
 21
258.67527000000001
 31
0.0
  0
LINE
  5
32F
  8
DATA
  6
CONTINUOUS
 62
     7
 10
-102.36064500000001
 20
257.0102
 30
0.0
 11
-102.36064500000001
 21
258.02886999999998
 31
0.0
  0
LINE
  5
330
  8
DATA
  6
CONTINUOUS
 62
     7
 10
-103.02513500000001
 20
255.93552000000011
 30
0.0
 11
-96.975165000000004
 21
256.78575999999998
 31
0.0
  0
LINE
  5
331
  8
DATA
  6
CONTINUOUS
 62
     7
 10
-103.02513500000001
 20
256.91681
 30
0.0
 11
-96.975165000000004
 21
257.76710000000003
 31
0.0
  0
LINE
  5
332
  8
DATA
  6
STYLE_02
 62
     7
 10
-103.02513500000001
 20
256.91681
 30
0.0
 11
-103.02513500000001
 21
255.93552000000011
 31
0.0
  0
LINE
  5
333
  8
DATA
  6
CONTINUOUS
 62
     7
 10
-96.975165000000004
 20
257.76710000000003
 30
0.0
 11
-96.975165000000004
 21
256.78575999999998
 31
0.0
  0
LINE
  5
334
  8
DATA
  6
CONTINUOUS
 62
     7
 10
-97.760625000000005
 20
255.65669
 30
0.0
 11
-97.760625000000005
 21
256.67527000000001
 31
0.0
  0
LINE
  5
335
  8
DATA
  6
CONTINUOUS
 62
     7
 10
-102.36064500000001
 20
255.0102
 30
0.0
 11
-102.36064500000001
 21
256.02886999999998
 31
0.0
  0
LINE
  5
336
  8
DATA
  6
CONTINUOUS
 62
     7
 10
-103.02513500000001
 20
253.93548000000001
 30
0.0
 11
-96.975165000000004
 21
254.78577000000001
 31
0.0
  0
LINE
  5
337
  8
DATA
  6
CONTINUOUS
 62
     7
 10
-103.02513500000001
 20
254.91681
 30
0.0
 11
-96.975165000000004
 21
255.7671
 31
0.0
  0
LINE
  5
338
  8
DATA
  6
STYLE_02
 62
     7
 10
-103.02513500000001
 20
254.91681
 30
0.0
 11
-103.02513500000001
 21
253.93548000000001
 31
0.0
  0
LINE
  5
339
  8
DATA
  6
CONTINUOUS
 62
     7
 10
-96.975165000000004
 20
255.7671
 30
0.0
 11
-96.975165000000004
 21
254.78577000000001
 31
0.0
  0
LINE
  5
33A
  8
DATA
  6
CONTINUOUS
 62
     7
 10
-97.760625000000005
 20
253.65669
 30
0.0
 11
-97.760625000000005
 21
254.67527000000001
 31
0.0
  0
LINE
  5
33B
  8
DATA
  6
CONTINUOUS
 62
     7
 10
-102.36064500000001
 20
253.0102
 30
0.0
 11
-102.36064500000001
 21
254.02887000000001
 31
0.0
  0
LINE
  5
33C
  8
DATA
  6
CONTINUOUS
 62
     7
 10
-103.02513500000001
 20
251.93548000000001
 30
0.0
 11
-96.975165000000004
 21
252.78577000000001
 31
0.0
  0
LINE
  5
33D
  8
DATA
  6
CONTINUOUS
 62
     7
 10
-103.02513500000001
 20
252.91681
 30
0.0
 11
-96.975165000000004
 21
253.7671
 31
0.0
  0
LINE
  5
33E
  8
DATA
  6
STYLE_02
 62
     7
 10
-103.02513500000001
 20
252.91681
 30
0.0
 11
-103.02513500000001
 21
251.93548000000001
 31
0.0
  0
LINE
  5
33F
  8
DATA
  6
CONTINUOUS
 62
     7
 10
-96.975165000000004
 20
253.7671
 30
0.0
 11
-96.975165000000004
 21
252.78577000000001
 31
0.0
  0
LINE
  5
340
  8
DATA
  6
CONTINUOUS
 62
     7
 10
-103.350165
 20
249.99901000000011
 30
0.0
 11
-103.65013500000001
 21
242.99901
 31
0.0
  0
LINE
  5
341
  8
DATA
  6
CONTINUOUS
 62
     7
 10
-94.444635000000034
 20
338.37060000000002
 30
0.0
 11
-95.981435000000005
 21
329.52199999999999
 31
0.0
  0
LINE
  5
342
  8
DATA
  6
CONTINUOUS
 62
     7
 10
-102.350165
 20
249.99901000000011
 30
0.0
 11
-102.350165
 21
242.99901
 31
0.0
  0
LINE
  5
343
  8
DATA
  6
CONTINUOUS
 62
     7
 10
-103.65013500000001
 20
242.99901
 30
0.0
 11
-102.350165
 21
242.99901
 31
0.0
  0
LINE
  5
344
  8
DATA
  6
CONTINUOUS
 62
     7
 10
-101.350165
 20
242.99901
 30
0.0
 11
-96.350165000000004
 21
242.99901
 31
0.0
  0
LINE
  5
345
  8
DATA
  6
CONTINUOUS
 62
     7
 10
-101.350165
 20
249.99901000000011
 30
0.0
 11
-101.350165
 21
242.99901
 31
0.0
  0
LINE
  5
346
  8
DATA
  6
CONTINUOUS
 62
     7
 10
-105.88016500000001
 20
342.19902000000002
 30
0.0
 11
-105.555665
 21
338.37060000000002
 31
0.0
  0
LINE
  5
347
  8
DATA
  6
CONTINUOUS
 62
     7
 10
-94.444635000000034
 20
338.37060000000002
 30
0.0
 11
-94.196155000000005
 21
342.19902000000002
 31
0.0
  0
LINE
  5
348
  8
DATA
  6
CONTINUOUS
 62
     7
 10
-105.840135
 20
349.49900000000002
 30
0.0
 11
-94.160165000000035
 21
349.49900000000002
 31
0.0
  0
LINE
  5
349
  8
DATA
  6
CONTINUOUS
 62
     7
 10
-105.859295
 20
345.99901
 30
0.0
 11
-94.177424999999985
 21
345.99901
 31
0.0
  0
LINE
  5
34A
  8
DATA
  6
CONTINUOUS
 62
     7
 10
-105.750145
 20
350.49900000000002
 30
0.0
 11
-94.250155000000021
 21
350.49900000000002
 31
0.0
  0
LINE
  5
34B
  8
DATA
  6
CONTINUOUS
 62
     7
 10
-105.750145
 20
350.49900000000002
 30
0.0
 11
-105.40013500000001
 21
357.49900000000002
 31
0.0
  0
LINE
  5
34C
  8
DATA
  6
CONTINUOUS
 62
     7
 10
-94.250155000000021
 20
350.49900000000002
 30
0.0
 11
-94.600165000000004
 21
357.49900000000002
 31
0.0
  0
POLYLINE
  5
34D
  8
DATA
  6
CONTINUOUS
 62
     7
 66
     1
 10
0.0
 20
0.0
 30
0.0
 70
     1
  0
VERTEX
  5
3D6
  8
DATA
  6
CONTINUOUS
 62
     7
 10
-104.211195
 20
352.49900000000002
 30
0.0
  0
VERTEX
  5
3D7
  8
DATA
  6
CONTINUOUS
 62
     7
 10
-100.164355
 20
352.49900000000002
 30
0.0
  0
VERTEX
  5
3D8
  8
DATA
  6
CONTINUOUS
 62
     7
 10
-100.164355
 20
351.49900000000002
 30
0.0
  0
VERTEX
  5
3D9
  8
DATA
  6
CONTINUOUS
 62
     7
 10
-104.211195
 20
351.49900000000002
 30
0.0
  0
SEQEND
  5
3DA
  8
DATA
  6
CONTINUOUS
 62
     7
  0
LINE
  5
353
  8
DATA
  6
CONTINUOUS
 62
     7
 10
-104.211195
 20
351.79897
 30
0.0
 11
-103.51116500000001
 21
352.49900000000002
 31
0.0
  0
LINE
  5
354
  8
DATA
  6
CONTINUOUS
 62
     7
 10
-102.911145
 20
351.49900000000002
 30
0.0
 11
-103.91119500000001
 21
352.49900000000002
 31
0.0
  0
LINE
  5
355
  8
DATA
  6
CONTINUOUS
 62
     7
 10
-101.911145
 20
351.49900000000002
 30
0.0
 11
-102.91119499999991
 21
352.49900000000002
 31
0.0
  0
LINE
  5
356
  8
DATA
  6
CONTINUOUS
 62
     7
 10
-100.911145
 20
351.49900000000002
 30
0.0
 11
-101.91119499999991
 21
352.49900000000002
 31
0.0
  0
LINE
  5
357
  8
DATA
  6
CONTINUOUS
 62
     7
 10
-100.164355
 20
351.75214
 30
0.0
 11
-100.91119499999991
 21
352.49900000000002
 31
0.0
  0
LINE
  5
358
  8
DATA
  6
CONTINUOUS
 62
     7
 10
-103.51116500000001
 20
351.49900000000002
 30
0.0
 11
-102.51116500000001
 21
352.49900000000002
 31
0.0
  0
LINE
  5
359
  8
DATA
  6
CONTINUOUS
 62
     7
 10
-102.51116500000001
 20
351.49900000000002
 30
0.0
 11
-101.51116500000001
 21
352.49900000000002
 31
0.0
  0
LINE
  5
35A
  8
DATA
  6
CONTINUOUS
 62
     7
 10
-101.2111949999999
 20
351.79897
 30
0.0
 11
-100.51116500000001
 21
352.49900000000002
 31
0.0
  0
LINE
  5
35B
  8
DATA
  6
CONTINUOUS
 62
     7
 10
-100.51116500000001
 20
351.49900000000002
 30
0.0
 11
-100.164355
 21
351.84586000000007
 31
0.0
  0
LINE
  5
35C
  8
DATA
  6
CONTINUOUS
 62
     7
 10
-98.364315000000005
 20
351.49900000000002
 30
0.0
 11
-98.364315000000005
 21
352.49900000000002
 31
0.0
  0
LINE
  5
35D
  8
DATA
  6
CONTINUOUS
 62
     7
 10
-94.300115000000019
 20
351.49900000000002
 30
0.0
 11
-98.364315000000005
 21
351.49900000000002
 31
0.0
  0
LINE
  5
35E
  8
DATA
  6
CONTINUOUS
 62
     7
 10
-98.364315000000005
 20
352.49900000000002
 30
0.0
 11
-94.350165000000004
 21
352.49900000000002
 31
0.0
  0
LINE
  5
35F
  8
DATA
  6
CONTINUOUS
 62
     7
 10
-98.364315000000005
 20
351.79897
 30
0.0
 11
-97.664355
 21
352.49900000000002
 31
0.0
  0
LINE
  5
360
  8
DATA
  6
CONTINUOUS
 62
     7
 10
-97.064355000000006
 20
351.49900000000002
 30
0.0
 11
-98.064355000000006
 21
352.49900000000002
 31
0.0
  0
LINE
  5
361
  8
DATA
  6
CONTINUOUS
 62
     7
 10
-96.064355000000006
 20
351.49900000000002
 30
0.0
 11
-97.064355000000006
 21
352.49900000000002
 31
0.0
  0
LINE
  5
362
  8
DATA
  6
CONTINUOUS
 62
     7
 10
-95.064355000000006
 20
351.49900000000002
 30
0.0
 11
-96.064355000000006
 21
352.49900000000002
 31
0.0
  0
LINE
  5
363
  8
DATA
  6
CONTINUOUS
 62
     7
 10
-94.317485000000005
 20
351.75214
 30
0.0
 11
-95.064355000000006
 21
352.49900000000002
 31
0.0
  0
LINE
  5
364
  8
DATA
  6
CONTINUOUS
 62
     7
 10
-97.664344999999983
 20
351.49900000000002
 30
0.0
 11
-96.664355
 21
352.49900000000002
 31
0.0
  0
LINE
  5
365
  8
DATA
  6
CONTINUOUS
 62
     7
 10
-96.664344999999983
 20
351.49900000000002
 30
0.0
 11
-95.664355
 21
352.49900000000002
 31
0.0
  0
LINE
  5
366
  8
DATA
  6
CONTINUOUS
 62
     7
 10
-95.364315000000005
 20
351.79897
 30
0.0
 11
-94.664355000000015
 21
352.49900000000002
 31
0.0
  0
LINE
  5
367
  8
DATA
  6
CONTINUOUS
 62
     7
 10
-94.664344999999983
 20
351.49900000000002
 30
0.0
 11
-94.317485000000005
 21
351.84586000000007
 31
0.0
  0
LINE
  5
368
  8
DATA
  6
CONTINUOUS
 62
     7
 10
-105.842905
 20
348.99901
 30
0.0
 11
-94.162625000000006
 21
348.99901
 31
0.0
  0
LINE
  5
369
  8
DATA
  6
CONTINUOUS
 62
     7
 10
-94.300174999999982
 20
348.99901
 30
0.0
 11
-94.300174999999982
 21
345.99901
 31
0.0
  0
LINE
  5
36A
  8
DATA
  6
CONTINUOUS
 62
     7
 10
-105.7001749999999
 20
348.99901
 30
0.0
 11
-105.7001749999999
 21
345.99901
 31
0.0
  0
LINE
  5
36B
  8
DATA
  6
CONTINUOUS
 62
     7
 10
-105.840135
 20
349.49900000000002
 30
0.0
 11
-105.750145
 21
350.49900000000002
 31
0.0
  0
LINE
  5
36C
  8
DATA
  6
CONTINUOUS
 62
     7
 10
-94.250155000000021
 20
350.49900000000002
 30
0.0
 11
-94.160165000000035
 21
349.49900000000002
 31
0.0
  0
LINE
  5
36D
  8
DATA
  6
CONTINUOUS
 62
     7
 10
-94.160165000000035
 20
349.49900000000002
 30
0.0
 11
-94.196155000000005
 21
342.19902000000002
 31
0.0
  0
LINE
  5
36E
  8
DATA
  6
CONTINUOUS
 62
     7
 10
-105.88016500000001
 20
342.19902000000002
 30
0.0
 11
-105.840135
 21
349.49900000000002
 31
0.0
  0
LINE
  5
36F
  8
DATA
  6
CONTINUOUS
 62
     7
 10
-104.5001349999999
 20
-40.000969999999903
 30
0.0
 11
-95.500135
 21
-40.000969999999903
 31
0.0
  0
LINE
  5
370
  8
DATA
  6
CONTINUOUS
 62
     7
 10
-95.500135
 20
-40.000969999999903
 30
0.0
 11
-95.500135
 21
-31.415899999999908
 31
0.0
  0
LINE
  5
371
  8
DATA
  6
CONTINUOUS
 62
     7
 10
-104.5001349999999
 20
-40.000969999999903
 30
0.0
 11
-104.5001349999999
 21
-31.413759999999911
 31
0.0
  0
LINE
  5
372
  8
DATA
  6
CONTINUOUS
 62
     7
 10
-96.350165000000004
 20
-18.00096999999991
 30
0.0
 11
-95.600165000000004
 21
-28.589619999999911
 31
0.0
  0
LINE
  5
373
  8
DATA
  6
CONTINUOUS
 62
     7
 10
-103.65013500000001
 20
-18.00096999999991
 30
0.0
 11
-104.40004500000001
 21
-28.586749999999899
 31
0.0
  0
TEXT
  5
374
  8
DATA
 62
     7
 10
-101.78898700000001
 20
0.1164100000000883
 30
0.0
 40
4.5155519999999987
  1
MX418
 50
270.0
 41
0.85
 11
-97.273435000000035
 21
0.1164100000000872
 31
0.0
 73
     3
  0
LINE
  5
375
  8
DATA
  6
CONTINUOUS
 62
     7
 10
-96.350165000000004
 20
242.99901
 30
0.0
 11
-96.350165000000004
 21
-18.00096999999991
 31
0.0
  0
LINE
  5
376
  8
DATA
  6
CONTINUOUS
 62
     7
 10
-103.65013500000001
 20
242.99901
 30
0.0
 11
-103.65013500000001
 21
-18.00096999999991
 31
0.0
  0
LINE
  5
377
  8
DATA
  6
CONTINUOUS
 62
     7
 10
-95.500135
 20
-31.415899999999908
 30
0.0
 11
-95.600165000000004
 21
-28.589619999999911
 31
0.0
  0
LINE
  5
378
  8
DATA
  6
CONTINUOUS
 62
     7
 10
-104.5001349999999
 20
-31.413759999999911
 30
0.0
 11
-104.40004500000001
 21
-28.586749999999899
 31
0.0
  0
LINE
  5
379
  8
DATA
  6
CONTINUOUS
 62
     7
 10
-103.5001349999999
 20
-40.000969999999903
 30
0.0
 11
-103.5001349999999
 21
-31.413759999999911
 31
0.0
  0
LINE
  5
37A
  8
DATA
  6
CONTINUOUS
 62
     7
 10
-102.5001349999999
 20
-40.000969999999903
 30
0.0
 11
-102.5001349999999
 21
-31.413759999999911
 31
0.0
  0
LINE
  5
37B
  8
DATA
  6
CONTINUOUS
 62
     7
 10
-103.5001349999999
 20
-31.413759999999911
 30
0.0
 11
-104.5001349999999
 21
-31.413759999999911
 31
0.0
  0
LINE
  5
37C
  8
DATA
  6
CONTINUOUS
 62
     7
 10
-102.5001349999999
 20
-31.413759999999911
 30
0.0
 11
-95.500135
 21
-31.415899999999908
 31
0.0
  0
LINE
  5
37D
  8
DATA
  6
CONTINUOUS
 62
     7
 10
-97.760625000000005
 20
-115.8426199999999
 30
0.0
 11
-97.760625000000005
 21
-114.9020999999999
 31
0.0
  0
LINE
  5
37E
  8
DATA
  6
CONTINUOUS
 62
     7
 10
-102.36064500000001
 20
-115.8879799999999
 30
0.0
 11
-102.36064500000001
 21
-115.5485799999999
 31
0.0
  0
LINE
  5
37F
  8
DATA
  6
CONTINUOUS
 62
     7
 10
-98.083339529952354
 20
-115.8879799999999
 30
0.0
 11
-96.975165000000004
 21
-115.7322299999999
 31
0.0
  0
LINE
  5
380
  8
DATA
  6
CONTINUOUS
 62
     7
 10
-96.975165000000004
 20
-115.7322299999999
 30
0.0
 11
-96.975165000000004
 21
-115.8879799999999
 31
0.0
  0
LINE
  5
381
  8
DATA
  6
CONTINUOUS
 62
     7
 10
-97.760625000000005
 20
251.65669
 30
0.0
 11
-97.760625000000005
 21
252.67527000000001
 31
0.0
  0
LINE
  5
382
  8
DATA
  6
CONTINUOUS
 62
     7
 10
-102.36064500000001
 20
251.0102
 30
0.0
 11
-102.36064500000001
 21
252.02887000000001
 31
0.0
  0
LINE
  5
383
  8
DATA
  6
CONTINUOUS
 62
     7
 10
-102.5731849999999
 20
249.99901000000011
 30
0.0
 11
-96.975165000000004
 21
250.78577000000001
 31
0.0
  0
LINE
  5
384
  8
DATA
  6
CONTINUOUS
 62
     7
 10
-103.02513500000001
 20
250.91681
 30
0.0
 11
-96.975165000000004
 21
251.7671
 31
0.0
  0
LINE
  5
385
  8
DATA
  6
STYLE_02
 62
     7
 10
-103.02513500000001
 20
250.91681
 30
0.0
 11
-103.02513500000001
 21
249.99901000000011
 31
0.0
  0
LINE
  5
386
  8
DATA
  6
CONTINUOUS
 62
     7
 10
-96.975165000000004
 20
251.7671
 30
0.0
 11
-96.975165000000004
 21
250.78577000000001
 31
0.0
  0
LINE
  5
387
  8
DATA
  6
CONTINUOUS
 62
     7
 10
-97.760625000000005
 20
249.99901000000011
 30
0.0
 11
-97.760625000000005
 21
250.67527000000001
 31
0.0
  0
TEXT
  5
388
  8
DATA
 62
     7
 10
-219.99999999999989
 20
-360.80666666666662
 30
0.0
 40
6.7733333333333317
  1
仕様および外観は予告なく変更されることがありますので、ご了承ください。
 41
0.85
 11
-219.99999999999989
 21
-354.0333333333333
 31
0.0
 73
     3
  0
ENDSEC
  0
EOF
