  0
SECTION
  2
HEADER
  9
$ACADVER
  1
AC1009
  9
$INSBASE
 10
0.0
 20
0.0
 30
0.0
  9
$EXTMIN
 10
-80.01097548933717
 20
-131.7119772163976
 30
-0.0015258207003583
  9
$EXTMAX
 10
280.0109771657178
 20
403.54812151310119
 30
0.0000000349246037
  9
$LIMMIN
 10
0.0
 20
0.0
  9
$LIMMAX
 10
0.0
 20
0.0
  9
$ORTHOMODE
 70
     0
  9
$REGENMODE
 70
     1
  9
$FILLMODE
 70
     1
  9
$QTEXTMODE
 70
     0
  9
$MIRRTEXT
 70
     1
  9
$DRAGMODE
 70
     2
  9
$LTSCALE
 40
10.16
  9
$OSMODE
 70
   231
  9
$ATTMODE
 70
     1
  9
$TEXTSIZE
 40
0.0
  9
$TRACEWID
 40
1.0
  9
$TEXTSTYLE
  7
STANDARD
  9
$CLAYER
  8
DATA
  9
$CELTYPE
  6
BYLAYER
  9
$CECOLOR
 62
   256
  9
$DIMSCALE
 40
1.0
  9
$DIMASZ
 40
0.18
  9
$DIMEXO
 40
0.0625
  9
$DIMDLI
 40
0.38
  9
$DIMRND
 40
0.0
  9
$DIMDLE
 40
0.0
  9
$DIMEXE
 40
0.18
  9
$DIMTP
 40
0.0
  9
$DIMTM
 40
0.0
  9
$DIMTXT
 40
0.18
  9
$DIMCEN
 40
0.09
  9
$DIMTSZ
 40
0.0
  9
$DIMTOL
 70
     0
  9
$DIMLIM
 70
     0
  9
$DIMTIH
 70
     1
  9
$DIMTOH
 70
     1
  9
$DIMSE1
 70
     0
  9
$DIMSE2
 70
     0
  9
$DIMTAD
 70
     0
  9
$DIMZIN
 70
     0
  9
$DIMBLK
  1

  9
$DIMASO
 70
     1
  9
$DIMSHO
 70
     1
  9
$DIMPOST
  1

  9
$DIMAPOST
  1

  9
$DIMALT
 70
     0
  9
$DIMALTD
 70
     2
  9
$DIMALTF
 40
25.399999999999999
  9
$DIMLFAC
 40
1.0
  9
$DIMTOFL
 70
     0
  9
$DIMTVP
 40
0.0
  9
$DIMTIX
 70
     0
  9
$DIMSOXD
 70
     0
  9
$DIMSAH
 70
     0
  9
$DIMBLK1
  1

  9
$DIMBLK2
  1

  9
$DIMSTYLE
  2
STANDARD
  9
$DIMCLRD
 70
     0
  9
$DIMCLRE
 70
     0
  9
$DIMCLRT
 70
     0
  9
$DIMTFAC
 40
1.0
  9
$DIMGAP
 40
0.09
  9
$LUNITS
 70
     2
  9
$LUPREC
 70
     4
  9
$SKETCHINC
 40
0.1
  9
$FILLETRAD
 40
0.0
  9
$AUNITS
 70
     0
  9
$AUPREC
 70
     0
  9
$MENU
  1
acad
  9
$ELEVATION
 40
0.0
  9
$PELEVATION
 40
0.0
  9
$THICKNESS
 40
0.0
  9
$LIMCHECK
 70
     0
  9
$BLIPMODE
 70
     0
  9
$CHAMFERA
 40
0.0
  9
$CHAMFERB
 40
0.0
  9
$SKPOLY
 70
     0
  9
$TDCREATE
 40
2453984.65974537
  9
$TDUPDATE
 40
2453984.6768334368
  9
$TDINDWG
 40
0.0002479398
  9
$TDUSRTIMER
 40
0.0002477546
  9
$USRTIMER
 70
     1
  9
$ANGBASE
 50
0.0
  9
$ANGDIR
 70
     0
  9
$PDMODE
 70
     1
  9
$PDSIZE
 40
-2.0
  9
$PLINEWID
 40
0.0
  9
$COORDS
 70
     1
  9
$SPLFRAME
 70
     0
  9
$SPLINETYPE
 70
     6
  9
$SPLINESEGS
 70
     8
  9
$ATTDIA
 70
     0
  9
$ATTREQ
 70
     1
  9
$HANDLING
 70
     1
  9
$HANDSEED
  5
DE9
  9
$SURFTAB1
 70
     6
  9
$SURFTAB2
 70
     6
  9
$SURFTYPE
 70
     6
  9
$SURFU
 70
     6
  9
$SURFV
 70
     6
  9
$UCSNAME
  2

  9
$UCSORG
 10
0.0
 20
0.0
 30
0.0
  9
$UCSXDIR
 10
1.0
 20
0.0
 30
0.0
  9
$UCSYDIR
 10
0.0
 20
1.0
 30
0.0
  9
$PUCSNAME
  2

  9
$PUCSORG
 10
0.0
 20
0.0
 30
0.0
  9
$PUCSXDIR
 10
1.0
 20
0.0
 30
0.0
  9
$PUCSYDIR
 10
0.0
 20
1.0
 30
0.0
  9
$USERI1
 70
     0
  9
$USERI2
 70
     0
  9
$USERI3
 70
     0
  9
$USERI4
 70
     0
  9
$USERI5
 70
     0
  9
$USERR1
 40
0.0
  9
$USERR2
 40
0.0
  9
$USERR3
 40
0.0
  9
$USERR4
 40
0.0
  9
$USERR5
 40
0.0
  9
$WORLDVIEW
 70
     1
  9
$SHADEDGE
 70
     3
  9
$SHADEDIF
 70
    70
  9
$TILEMODE
 70
     1
  9
$MAXACTVP
 70
    64
  9
$PLIMCHECK
 70
     0
  9
$PEXTMIN
 10
1.0000000000000000E+020
 20
1.0000000000000000E+020
 30
1.0000000000000000E+020
  9
$PEXTMAX
 10
-1.0000000000000000E+020
 20
-1.0000000000000000E+020
 30
-1.0000000000000000E+020
  9
$PLIMMIN
 10
0.0
 20
0.0
  9
$PLIMMAX
 10
12.0
 20
9.0
  9
$UNITMODE
 70
     0
  9
$VISRETAIN
 70
     0
  9
$PLINEGEN
 70
     1
  9
$PSLTSCALE
 70
     0
  0
ENDSEC
  0
SECTION
  2
TABLES
  0
TABLE
  2
VPORT
 70
     1
  0
VPORT
  2
*ACTIVE
 70
     0
 10
0.0
 20
0.0
 11
1.0
 21
1.0
 12
100.0000008381903
 22
135.9180721483518
 13
0.0
 23
0.0
 14
1.0
 24
1.0
 15
0.0
 25
0.0
 16
0.0
 26
0.0
 36
1.0
 17
0.0
 27
0.0
 37
0.0
 40
539.70209125007557
 41
1.6703601108033239
 42
50.0
 43
0.0
 44
0.0
 50
0.0
 51
0.0
 71
     0
 72
  2000
 73
     1
 74
     1
 75
     0
 76
     0
 77
     0
 78
     0
  0
ENDTAB
  0
TABLE
  2
LTYPE
 70
    11
  0
LTYPE
  2
CONTINUOUS
 70
     0
  3
Solid line
 72
    65
 73
     0
 40
0.0
  0
ENDTAB
  0
TABLE
  2
LAYER
 70
     6
  0
LAYER
  2
0
 70
     0
 62
     7
  6
CONTINUOUS
  0
LAYER
  2
DATA
 70
     0
 62
     7
  6
CONTINUOUS
  0
LAYER
  2
HIBINO-BASE
 70
     0
 62
     7
  6
CONTINUOUS
  0
LAYER
  2
PATTERN_FILL
 70
     0
 62
     7
  6
CONTINUOUS
  0
LAYER
  2
SPEC
 70
     0
 62
     7
  6
CONTINUOUS
  0
LAYER
  2
DIMNSIONS
 70
     0
 62
     7
  6
CONTINUOUS
  0
ENDTAB
  0
TABLE
  2
STYLE
 70
     2
  0
STYLE
  2
STANDARD
 70
     0
 40
0.0
 41
1.0
 50
0.0
 71
     0
 42
0.0
  3
txt
  4
BIGFONT.SHX
  0
ENDTAB
  0
TABLE
  2
VIEW
 70
     0
  0
ENDTAB
  0
TABLE
  2
UCS
 70
     0
  0
ENDTAB
  0
TABLE
  2
APPID
 70
     1
  0
APPID
  2
ACAD
 70
     0
  0
ENDTAB
  0
TABLE
  2
DIMSTYLE
 70
     1
  0
DIMSTYLE
  2
STANDARD
 70
     0
  3

  4

  5

  6

  7

 40
1.0
 41
0.18
 42
0.0625
 43
0.38
 44
0.18
 45
0.0
 46
0.0
 47
0.0
 48
0.0
140
0.18
141
0.09
142
0.0
143
25.399999999999999
144
1.0
145
0.0
146
1.0
147
0.09
 71
     0
 72
     0
 73
     1
 74
     1
 75
     0
 76
     0
 77
     0
 78
     0
170
     0
171
     2
172
     0
173
     0
174
     0
175
     0
176
     0
177
     0
178
     0
  0
ENDTAB
  0
ENDSEC
  0
SECTION
  2
BLOCKS
  0
BLOCK
  8
0
  2
$MODEL_SPACE
 70
     0
 10
0.0
 20
0.0
 30
0.0
  3
$MODEL_SPACE
  1

  0
ENDBLK
  5
79C
  8
0
  0
BLOCK
 67
     1
  8
0
  2
$PAPER_SPACE
 70
     0
 10
0.0
 20
0.0
 30
0.0
  3
$PAPER_SPACE
  1

  0
ENDBLK
  5
798
 67
     1
  8
0
  0
ENDSEC
  0
SECTION
  2
ENTITIES
  0
LINE
  5
2D
  8
HIBINO-BASE
 62
     7
 10
-79.999990000000025
 20
403.53181999999993
 30
0.0
 11
279.99999000000003
 21
403.53181999999993
 31
0.0
  0
LINE
  5
2E
  8
HIBINO-BASE
 62
     7
 10
279.99999000000003
 20
-116.46817
 30
0.0
 11
-79.999990000000025
 21
-116.46817
 31
0.0
  0
LINE
  5
2F
  8
HIBINO-BASE
 62
     7
 10
-79.999990000000054
 20
-116.46817
 30
0.0
 11
-79.999990000000054
 21
403.53181999999993
 31
0.0
  0
TEXT
  5
30
  8
HIBINO-BASE
 62
     7
 10
-65.631980000000013
 20
-129.2855084
 30
0.0
 40
7.2000729687499989
  1
Hibino Corporation
 41
0.8
 11
-65.631980000000013
 21
-122.08543543125
 31
0.0
 73
     3
  0
LINE
  5
31
  8
HIBINO-BASE
 62
     7
 10
279.99999000000003
 20
403.53181999999993
 30
0.0
 11
279.99999000000003
 21
-116.46817
 31
0.0
  0
LINE
  5
32
  8
HIBINO-BASE
 62
     7
 10
100.0
 20
-71.468179999999975
 30
0.0
 11
279.99999000000003
 21
-71.468179999999975
 31
0.0
  0
LINE
  5
33
  8
HIBINO-BASE
 62
     7
 10
100.0
 20
-116.46817
 30
0.0
 11
100.0
 21
-71.468179999999975
 31
0.0
  0
TEXT
  5
34
  8
HIBINO-BASE
 62
     7
 10
101.79998000000001
 20
-76.868186399999985
 30
0.0
 40
3.6000518750000001
  1
NOTE
 41
0.8
 11
101.79998000000001
 21
-73.268134524999965
 31
0.0
 73
     3
  0
LINE
  5
35
  8
HIBINO-BASE
 62
     7
 10
170.0
 20
-116.46817
 30
0.0
 11
170.0
 21
-71.468179999999975
 31
0.0
  0
TEXT
  5
36
  8
HIBINO-BASE
 62
     7
 10
171.7999999999999
 20
-76.868186399999985
 30
0.0
 40
3.6000518750000001
  1
TITLE
 41
0.8
 11
171.7999999999999
 21
-73.268134524999965
 31
0.0
 73
     3
  0
TEXT
  5
37
  8
HIBINO-BASE
 62
     7
 10
200.13676000000001
 20
-129.2855084
 30
0.0
 40
7.2000729687499989
  1
ヒビノ株式会社
 41
0.8
 11
200.13676000000001
 21
-122.08543543125
 31
0.0
 73
     3
  0
LINE
  5
38
  8
HIBINO-BASE
 62
     7
 10
100.0
 20
-96.468180000000004
 30
0.0
 11
279.99999000000003
 21
-96.468180000000004
 31
0.0
  0
TEXT
  5
39
  8
HIBINO-BASE
 62
     7
 10
196.80000000000001
 20
-101.75552639999999
 30
0.0
 40
3.6000518750000001
  1
DRAWN
 41
0.8
 11
196.80000000000001
 21
-98.155474525000002
 31
0.0
 73
     3
  0
TEXT
  5
3A
  8
HIBINO-BASE
 62
     7
 10
146.7999999999999
 20
-101.75552639999999
 30
0.0
 40
3.6000518750000001
  1
DATE
 41
0.8
 11
146.7999999999999
 21
-98.155474525000002
 31
0.0
 73
     3
  0
TEXT
  5
3B
  8
HIBINO-BASE
 62
     7
 10
102.19998
 20
-101.7070652
 30
0.0
 40
3.2576720312499998
  1
図面サイズ
 41
0.8
 11
102.19998
 21
-98.449393168750007
 31
0.0
 73
     3
  0
TEXT
  5
3C
  8
HIBINO-BASE
 62
     7
 10
126.79998000000001
 20
-101.75552639999999
 30
0.0
 40
3.6000518750000001
  1
SCALE
 41
0.8
 11
126.79998000000001
 21
-98.155474525000002
 31
0.0
 73
     3
  0
TEXT
  5
3D
  8
HIBINO-BASE
 62
     7
 10
171.7999999999999
 20
-101.75552639999999
 30
0.0
 40
3.6000518750000001
  1
DESIGN
 41
0.8
 11
171.7999999999999
 21
-98.155474525000002
 31
0.0
 73
     3
  0
TEXT
  5
3E
  8
HIBINO-BASE
 62
     7
 10
246.79997999999989
 20
-101.75552639999999
 30
0.0
 40
3.6000518750000001
  1
DRAWING NO.
 41
0.8
 11
246.79997999999989
 21
-98.155474525000002
 31
0.0
 73
     3
  0
TEXT
  5
3F
  8
HIBINO-BASE
 62
     7
 10
221.79999000000001
 20
-101.75552639999999
 30
0.0
 40
3.6000518750000001
  1
CHECK
 41
0.8
 11
221.79999000000001
 21
-98.155474525000002
 31
0.0
 73
     3
  0
LINE
  5
40
  8
HIBINO-BASE
 62
     7
 10
128.74997999999999
 20
-113.96818
 30
0.0
 11
136.25
 21
-106.46818
 31
0.0
  0
TEXT
  5
41
  8
HIBINO-BASE
 62
     7
 10
127.49997999999999
 20
-109.8995983999999
 30
0.0
 40
4.3435729687500002
  1
1
 41
0.8
 11
127.49997999999999
 21
-105.55602543124991
 31
0.0
 73
     3
  0
LINE
  5
42
  8
HIBINO-BASE
 62
     7
 10
124.99997999999999
 20
-116.46817
 30
0.0
 11
124.99997999999999
 21
-96.468180000000004
 31
0.0
  0
LINE
  5
43
  8
HIBINO-BASE
 62
     7
 10
144.99998999999991
 20
-116.46817
 30
0.0
 11
144.99998999999991
 21
-96.468180000000004
 31
0.0
  0
LINE
  5
44
  8
HIBINO-BASE
 62
     7
 10
194.99999
 20
-96.468180000000004
 30
0.0
 11
194.99999
 21
-116.46817
 31
0.0
  0
LINE
  5
45
  8
HIBINO-BASE
 62
     7
 10
245.0
 20
-96.468180000000004
 30
0.0
 11
245.0
 21
-116.46817
 31
0.0
  0
LINE
  5
46
  8
HIBINO-BASE
 62
     7
 10
219.99997999999999
 20
-116.46817
 30
0.0
 11
219.99997999999999
 21
-96.468180000000004
 31
0.0
  0
TEXT
  5
47
  8
HIBINO-BASE
 62
     7
 10
107.82178
 20
-111.4712389999999
 30
0.0
 40
6.5153517578124989
  1
A4
 41
0.8
 11
107.82178
 21
-104.9558872421874
 31
0.0
 73
     3
  0
TEXT
  5
48
  8
HIBINO-BASE
 62
     7
 10
146.71307999999999
 20
-111.1234863999999
 30
0.0
 40
3.6000518750000001
  1
'06.08.
 41
0.8
 11
146.71307999999999
 21
-107.5234345249999
 31
0.0
 73
     3
  0
TEXT
  5
49
  8
HIBINO-BASE
 62
     7
 10
135.0
 20
-113.6495983999999
 30
0.0
 40
4.3435729687500002
  1
2
 41
0.8
 11
135.0
 21
-109.30602543124991
 31
0.0
 73
     3
  0
ARC
  5
4A
  8
PATTERN_FILL
 62
     7
 10
-13.59305961342069
 20
80.108560234767211
 30
0.0
 40
30.000000000000121
 50
133.0878077677809
 51
226.91219223221901
  0
ARC
  5
4B
  8
PATTERN_FILL
 62
     7
 10
-11.09305961342071
 20
80.108560234767211
 30
0.0
 40
30.000000000000071
 50
124.1931098386615
 51
235.80689016133829
  0
ARC
  5
4C
  8
PATTERN_FILL
 62
     7
 10
-8.5930596134207633
 20
80.108560234767211
 30
0.0
 40
30.000000000000039
 50
120.83004478455329
 51
239.16995521544669
  0
ARC
  5
4D
  8
PATTERN_FILL
 62
     7
 10
-6.0930596134208326
 20
80.108560234767211
 30
0.0
 40
29.999999999999989
 50
119.7280055767813
 51
240.27199442321839
  0
ARC
  5
4E
  8
PATTERN_FILL
 62
     7
 10
-3.5930596134208912
 20
80.108560234767211
 30
0.0
 40
29.999999999999929
 50
123.2145630669373
 51
236.7854369330625
  0
ARC
  5
4F
  8
PATTERN_FILL
 62
     7
 10
-1.093059613420962
 20
80.108560234767211
 30
0.0
 40
29.99999999999989
 50
129.13200644821219
 51
230.86799355178749
  0
ARC
  5
50
  8
PATTERN_FILL
 62
     7
 10
1.40694038657898
 20
80.108560234767211
 30
0.0
 40
29.99999999999984
 50
135.59753319497321
 51
224.40246680502659
  0
ARC
  5
51
  8
PATTERN_FILL
 62
     7
 10
3.9069403865789671
 20
80.108560234767211
 30
0.0
 40
29.99999999999978
 50
142.9182372056373
 51
217.0817627943625
  0
ARC
  5
52
  8
PATTERN_FILL
 62
     7
 10
6.4069403865789241
 20
80.108560234767211
 30
0.0
 40
29.999999999999719
 50
151.77645908582909
 51
208.2235409141708
  0
LINE
  5
53
  8
PATTERN_FILL
 62
     7
 10
-20.02633628611035
 20
78.948202823387007
 30
0.0
 11
-45.948718438171397
 21
78.098288654466955
 31
0.0
  0
LINE
  5
54
  8
PATTERN_FILL
 62
     7
 10
-20.02633628611035
 20
76.448202823387007
 30
0.0
 11
-45.635046005018637
 21
75.608572996537561
 31
0.0
  0
LINE
  5
55
  8
PATTERN_FILL
 62
     7
 10
-20.02633628611035
 20
73.948202823387007
 30
0.0
 11
-45.07415700701808
 21
73.1269627997507
 31
0.0
  0
LINE
  5
56
  8
PATTERN_FILL
 62
     7
 10
-20.02633628611035
 20
71.448202823387007
 30
0.0
 11
-44.251602732140292
 21
70.653931792369647
 31
0.0
  0
LINE
  5
57
  8
PATTERN_FILL
 62
     7
 10
-20.02633628611035
 20
68.948202823387007
 30
0.0
 11
-43.142710467903569
 21
68.190288915787235
 31
0.0
  0
LINE
  5
58
  8
PATTERN_FILL
 62
     7
 10
-20.02633628611035
 20
66.448202823387007
 30
0.0
 11
-41.707776486005407
 21
65.737335931587182
 31
0.0
  0
LINE
  5
59
  8
PATTERN_FILL
 62
     7
 10
-20.02633628611035
 20
83.768917646147443
 30
0.0
 11
-45.635046005019113
 21
84.608547472996946
 31
0.0
  0
LINE
  5
5A
  8
PATTERN_FILL
 62
     7
 10
-20.02633628611035
 20
86.268917646147443
 30
0.0
 11
-45.074157007016836
 21
87.090157669783736
 31
0.0
  0
LINE
  5
5B
  8
PATTERN_FILL
 62
     7
 10
-20.02633628611035
 20
88.768917646147443
 30
0.0
 11
-44.251602732138643
 21
89.56318867716476
 31
0.0
  0
LINE
  5
5C
  8
PATTERN_FILL
 62
     7
 10
-20.02633628611035
 20
91.268917646147443
 30
0.0
 11
-43.142710467903051
 21
92.026831553747186
 31
0.0
  0
LINE
  5
5D
  8
PATTERN_FILL
 62
     7
 10
-20.02633628611035
 20
93.768917646147443
 30
0.0
 11
-41.707776486013778
 21
94.479784537947566
 31
0.0
  0
LINE
  5
5E
  8
PATTERN_FILL
 62
     7
 10
-20.02633628611035
 20
96.268917646147443
 30
0.0
 11
-39.882206615842243
 21
96.919929788105847
 31
0.0
  0
LINE
  5
5F
  8
PATTERN_FILL
 62
     7
 10
-20.02633628611035
 20
98.768917646147443
 30
0.0
 11
-37.554130843115573
 21
99.343599434901705
 31
0.0
  0
LINE
  5
60
  8
PATTERN_FILL
 62
     7
 10
-20.02633628611035
 20
81.268917646147443
 30
0.0
 11
-45.94871843817009
 21
82.118831815067423
 31
0.0
  0
ARC
  5
61
  8
PATTERN_FILL
 62
     7
 10
8.9069403865788939
 20
80.108560234767211
 30
0.0
 40
29.999999999999691
 50
164.67507922589019
 51
195.32492077410959
  0
LINE
  5
62
  8
PATTERN_FILL
 62
     7
 10
-20.02633628611035
 20
63.948202823387007
 30
0.0
 11
-39.882206615838101
 21
63.297190681428731
 31
0.0
  0
LINE
  5
63
  8
PATTERN_FILL
 62
     7
 10
-20.02633628611035
 20
61.448202823387007
 30
0.0
 11
-37.554130843104382
 21
60.873521034633129
 31
0.0
  0
LINE
  5
64
  8
PATTERN_FILL
 62
     7
 10
-20.02633628611035
 20
58.948202823387057
 30
0.0
 11
-34.502969907669772
 21
58.473559098090028
 31
0.0
  0
LINE
  5
65
  8
PATTERN_FILL
 62
     7
 10
-20.02633628611035
 20
56.448202823387099
 30
0.0
 11
-30.156824787282709
 21
56.116055659414272
 31
0.0
  0
LINE
  5
66
  8
PATTERN_FILL
 62
     7
 10
-20.02633628611035
 20
101.2689176461474
 30
0.0
 11
-34.502969907669822
 21
101.7435613714445
 31
0.0
  0
LINE
  5
67
  8
PATTERN_FILL
 62
     7
 10
-20.02633628611035
 20
103.7689176461474
 30
0.0
 11
-30.156824787307151
 21
104.1010648101211
 31
0.0
  0
POLYLINE
  5
68
  8
PATTERN_FILL
 62
     7
 66
     1
 10
0.0
 20
0.0
 30
0.0
 70
   129
  0
VERTEX
  5
7BA
  8
PATTERN_FILL
 62
     7
 10
-16.026336612993589
 20
58.171786228909902
 30
0.0
  0
VERTEX
  5
7BB
  8
PATTERN_FILL
 62
     7
 10
-16.026336612993589
 20
58.171786228909902
 30
0.0
 42
25252283.546581611
  0
VERTEX
  5
7BC
  8
PATTERN_FILL
 62
     7
 10
-16.0263364413244
 20
58.171786389054219
 30
0.0
  0
VERTEX
  5
7BD
  8
PATTERN_FILL
 62
     7
 10
-16.026336286110219
 20
58.171786533848213
 30
0.0
  0
VERTEX
  5
7BE
  8
PATTERN_FILL
 62
     7
 10
-16.026336286110219
 20
58.171786533848213
 30
0.0
  0
VERTEX
  5
7BF
  8
PATTERN_FILL
 62
     7
 10
-16.02633661299361
 20
58.171786228909902
 30
0.0
  0
SEQEND
  5
7C0
  8
PATTERN_FILL
 62
     7
  0
LINE
  5
70
  8
PATTERN_FILL
 62
     7
 10
-16.0263362861103
 20
56.420724323888777
 30
0.0
 11
-7.7570983160541669
 21
56.03598864178764
 31
0.0
  0
ARC
  5
71
  8
PATTERN_FILL
 62
     7
 10
-41.490401366017423
 20
80.108560234767211
 30
0.0
 40
30.00000000000027
 50
328.08162475908568
 51
31.918375240914369
  0
ARC
  5
72
  8
PATTERN_FILL
 62
     7
 10
-38.990401366017373
 20
80.108560234767211
 30
0.0
 40
30.00000000000021
 50
319.94871978957877
 51
40.051280210421048
  0
ARC
  5
73
  8
PATTERN_FILL
 62
     7
 10
-36.490401366017302
 20
80.108560234767211
 30
0.0
 40
30.000000000000089
 50
313.01074497797129
 51
46.989255022028807
  0
ARC
  5
74
  8
PATTERN_FILL
 62
     7
 10
-33.990401366017252
 20
80.108560234767211
 30
0.0
 40
29.999999999999989
 50
306.78415742610241
 51
53.21584257389781
  0
ARC
  5
75
  8
PATTERN_FILL
 62
     7
 10
-31.490401366017199
 20
80.108560234767211
 30
0.0
 40
29.99999999999995
 50
301.02879778622469
 51
58.971202213775342
  0
ARC
  5
76
  8
PATTERN_FILL
 62
     7
 10
-28.990401366017199
 20
80.108560234767211
 30
0.0
 40
29.999999999999929
 50
302.86107278417307
 51
342.8369443038182
  0
ARC
  5
77
  8
PATTERN_FILL
 62
     7
 10
-26.490401366017181
 20
80.108560234767211
 30
0.0
 40
29.999999999999851
 50
29.29224498055078
 51
54.421399480646208
  0
LINE
  5
78
  8
PATTERN_FILL
 62
     7
 10
-16.0263362861103
 20
78.920724323888678
 30
0.0
 11
-0.326336286110589
 21
78.190264004466144
 31
0.0
  0
LINE
  5
79
  8
PATTERN_FILL
 62
     7
 10
-16.0263362861103
 20
76.420724323888678
 30
0.0
 11
-0.326336286110589
 21
75.690264004466144
 31
0.0
  0
LINE
  5
7A
  8
PATTERN_FILL
 62
     7
 10
-16.0263362861103
 20
73.920724323888678
 30
0.0
 11
-0.326336286110589
 21
73.190264004466144
 31
0.0
  0
LINE
  5
7B
  8
PATTERN_FILL
 62
     7
 10
-16.0263362861103
 20
71.420724323888678
 30
0.0
 11
-0.326336286110589
 21
70.690264004466144
 31
0.0
  0
LINE
  5
7C
  8
PATTERN_FILL
 62
     7
 10
-16.0263362861103
 20
68.920724323888678
 30
0.0
 11
-0.326336286110589
 21
68.190264004466144
 31
0.0
  0
LINE
  5
7D
  8
PATTERN_FILL
 62
     7
 10
-16.0263362861103
 20
81.296396145645758
 30
0.0
 11
-0.326336286110589
 21
82.026856465068292
 31
0.0
  0
LINE
  5
7E
  8
PATTERN_FILL
 62
     7
 10
-16.0263362861103
 20
83.796396145645787
 30
0.0
 11
-0.326336286110589
 21
84.526856465068306
 31
0.0
  0
LINE
  5
7F
  8
PATTERN_FILL
 62
     7
 10
-16.0263362861103
 20
86.296396145645787
 30
0.0
 11
-0.326336286110589
 21
87.02685646506832
 31
0.0
  0
LINE
  5
80
  8
PATTERN_FILL
 62
     7
 10
-16.0263362861103
 20
88.796396145645787
 30
0.0
 11
-0.326336286110589
 21
89.52685646506832
 31
0.0
  0
LINE
  5
81
  8
PATTERN_FILL
 62
     7
 10
-16.0263362861103
 20
91.296396145645787
 30
0.0
 11
-0.326336286110589
 21
92.02685646506832
 31
0.0
  0
LINE
  5
82
  8
PATTERN_FILL
 62
     7
 10
-16.0263362861103
 20
93.796396145645787
 30
0.0
 11
-0.326336286110589
 21
94.526856465068306
 31
0.0
  0
ARC
  5
83
  8
PATTERN_FILL
 62
     7
 10
-28.990401366017199
 20
80.108560234767211
 30
0.0
 40
29.999999999999851
 50
17.16305569618191
 51
57.13892721583457
  0
ARC
  5
84
  8
PATTERN_FILL
 62
     7
 10
-43.990401366017409
 20
80.108560234767211
 30
0.0
 40
30.000000000000249
 50
30.0637166196469
 51
30.063717473420532
  0
ARC
  5
85
  8
PATTERN_FILL
 62
     7
 10
-23.990401366017171
 20
80.108560234767211
 30
0.0
 40
29.99999999999984
 50
37.926287155840853
 51
50.997370035165481
  0
LINE
  5
86
  8
PATTERN_FILL
 62
     7
 10
-16.0263362861103
 20
96.296396145645772
 30
0.0
 11
-0.326336286110589
 21
97.026856465068306
 31
0.0
  0
LINE
  5
87
  8
PATTERN_FILL
 62
     7
 10
-16.0263362861103
 20
98.796396145645772
 30
0.0
 11
-0.326336286110589
 21
99.526856465068306
 31
0.0
  0
LINE
  5
88
  8
PATTERN_FILL
 62
     7
 10
-16.0263362861103
 20
101.2963961456458
 30
0.0
 11
-0.9508012729952781
 21
101.9978025227888
 31
0.0
  0
LINE
  5
89
  8
PATTERN_FILL
 62
     7
 10
-16.0263362861103
 20
103.7963961456457
 30
0.0
 11
-7.7570983160579772
 21
104.1811318277467
 31
0.0
  0
ARC
  5
8A
  8
PATTERN_FILL
 62
     7
 10
-43.990401366017409
 20
80.108560234767211
 30
0.0
 40
30.00000000000032
 50
338.77018598361701
 51
21.229814016382932
  0
ARC
  5
8B
  8
PATTERN_FILL
 62
     7
 10
-26.490401366017181
 20
80.108560234767211
 30
0.0
 40
29.99999999999995
 50
305.57860051938349
 51
330.70775501944922
  0
ARC
  5
8C
  8
PATTERN_FILL
 62
     7
 10
-23.990401366017171
 20
80.108560234767211
 30
0.0
 40
29.999999999999879
 50
309.0026299648386
 51
322.07371284415888
  0
LINE
  5
8D
  8
PATTERN_FILL
 62
     7
 10
-16.0263362861103
 20
66.420724323888678
 30
0.0
 11
-0.326336286110589
 21
65.690264004466158
 31
0.0
  0
LINE
  5
8E
  8
PATTERN_FILL
 62
     7
 10
-16.0263362861103
 20
63.920724323888678
 30
0.0
 11
-0.326336286110589
 21
63.190264004466151
 31
0.0
  0
LINE
  5
8F
  8
PATTERN_FILL
 62
     7
 10
-16.0263362861103
 20
61.420724323888678
 30
0.0
 11
-0.326336286110589
 21
60.690264004466172
 31
0.0
  0
LINE
  5
90
  8
PATTERN_FILL
 62
     7
 10
-16.0263362861103
 20
58.920724323888741
 30
0.0
 11
-0.9508012729935444
 21
58.219317946745612
 31
0.0
  0
LINE
  5
91
  8
PATTERN_FILL
 62
     7
 10
186.0
 20
105.20305999999999
 30
0.0
 11
186.0
 21
100.6458228220626
 31
0.0
  0
LINE
  5
92
  8
PATTERN_FILL
 62
     7
 10
190.0
 20
103.89967
 30
0.0
 11
190.0
 21
99.032866310674294
 31
0.0
  0
LINE
  5
93
  8
PATTERN_FILL
 62
     7
 10
194.0
 20
101.79895
 30
0.0
 11
194.0
 21
96.317168872080728
 31
0.0
  0
LINE
  5
94
  8
PATTERN_FILL
 62
     7
 10
174.0
 20
105.20305999999999
 30
0.0
 11
174.0
 21
100.6458228220626
 31
0.0
  0
LINE
  5
95
  8
PATTERN_FILL
 62
     7
 10
170.0
 20
103.89967
 30
0.0
 11
170.0
 21
99.032866310674294
 31
0.0
  0
LINE
  5
96
  8
PATTERN_FILL
 62
     7
 10
166.0
 20
101.79895
 30
0.0
 11
166.0
 21
96.317168872080728
 31
0.0
  0
LINE
  5
97
  8
PATTERN_FILL
 62
     7
 10
175.21603999999999
 20
105.46189
 30
0.0
 11
179.19307774376171
 21
101.4848522562383
 31
0.0
  0
LINE
  5
98
  8
PATTERN_FILL
 62
     7
 10
171.28708999999989
 20
104.39834999999999
 30
0.0
 11
174.8190207174766
 21
100.8664192825234
 31
0.0
  0
LINE
  5
99
  8
PATTERN_FILL
 62
     7
 10
167.33243999999999
 20
102.59927
 30
0.0
 11
170.59695510755961
 21
99.334754892440429
 31
0.0
  0
LINE
  5
9A
  8
PATTERN_FILL
 62
     7
 10
163.35579000000001
 20
99.853579999999994
 30
0.0
 11
166.48681524097731
 21
96.722554759022714
 31
0.0
  0
LINE
  5
9B
  8
PATTERN_FILL
 62
     7
 10
182.0
 20
105.83011
 30
0.0
 11
182.0
 21
101.40677462860759
 31
0.0
  0
LINE
  5
9C
  8
PATTERN_FILL
 62
     7
 10
178.0
 20
105.83011
 30
0.0
 11
178.0
 21
101.40677462860759
 31
0.0
  0
LINE
  5
9D
  8
PATTERN_FILL
 62
     7
 10
179.10794000000001
 20
105.89206
 30
0.0
 11
183.84696585006159
 21
101.15303414993841
 31
0.0
  0
LINE
  5
9E
  8
PATTERN_FILL
 62
     7
 10
197.98815999999999
 20
68.223918316587657
 30
0.0
 11
197.98815999999999
 21
61.355420000000002
 31
0.0
  0
LINE
  5
9F
  8
PATTERN_FILL
 62
     7
 10
182.93759
 20
105.74034
 30
0.0
 11
189.2873234124786
 21
99.390606587521347
 31
0.0
  0
LINE
  5
A0
  8
PATTERN_FILL
 62
     7
 10
198.62989999999999
 20
61.99663000000001
 30
0.0
 11
195.51283292279879
 21
65.113697077201195
 31
0.0
  0
LINE
  5
A1
  8
PATTERN_FILL
 62
     7
 10
178.00549000000001
 20
58.592713159769659
 30
0.0
 11
178.00549000000001
 21
54.16946999999999
 31
0.0
  0
LINE
  5
A2
  8
PATTERN_FILL
 62
     7
 10
174.00479000000001
 20
59.35278573134137
 30
0.0
 11
174.00479000000001
 21
54.795800000000021
 31
0.0
  0
LINE
  5
A3
  8
PATTERN_FILL
 62
     7
 10
170.00549000000001
 20
60.964250215452502
 30
0.0
 11
170.00549000000001
 21
56.098030000000001
 31
0.0
  0
LINE
  5
A4
  8
PATTERN_FILL
 62
     7
 10
182.00097
 20
58.593316019077122
 30
0.0
 11
182.00097
 21
54.169970000000013
 31
0.0
  0
LINE
  5
A5
  8
PATTERN_FILL
 62
     7
 10
186.00479000000001
 20
59.355569829711932
 30
0.0
 11
186.00479000000001
 21
54.79808000000002
 31
0.0
  0
LINE
  5
A6
  8
PATTERN_FILL
 62
     7
 10
189.99733000000001
 20
60.965731091762422
 30
0.0
 11
189.99733000000001
 21
56.099210000000021
 31
0.0
  0
LINE
  5
A7
  8
PATTERN_FILL
 62
     7
 10
193.99423999999991
 20
63.677890858642058
 30
0.0
 11
193.99423999999991
 21
58.5
 31
0.0
  0
LINE
  5
A8
  8
PATTERN_FILL
 62
     7
 10
194.64737
 20
58.630659999999999
 30
0.0
 11
191.46563901997749
 21
61.812390980022457
 31
0.0
  0
LINE
  5
A9
  8
PATTERN_FILL
 62
     7
 10
190.68476999999999
 20
56.398520000000019
 30
0.0
 11
187.30444452240721
 21
59.778845477592697
 31
0.0
  0
LINE
  5
AA
  8
PATTERN_FILL
 62
     7
 10
186.74943999999999
 20
54.987210000000012
 30
0.0
 11
183.02305707003649
 21
58.713592929963468
 31
0.0
  0
LINE
  5
AB
  8
PATTERN_FILL
 62
     7
 10
182.76494
 20
54.240549999999999
 30
0.0
 11
178.449509673248
 21
58.555980326752
 31
0.0
  0
LINE
  5
AC
  8
PATTERN_FILL
 62
     7
 10
178.97211999999999
 20
54.112979999999993
 30
0.0
 11
173.0692421762956
 21
59.647737325074637
 31
0.0
  0
LINE
  5
AD
  8
PATTERN_FILL
 62
     7
 10
166.00549000000001
 20
63.678122354952563
 30
0.0
 11
166.00549000000001
 21
58.197519999999997
 31
0.0
  0
LINE
  5
AE
  8
PATTERN_FILL
 62
     7
 10
162.00549000000001
 20
68.233623758357055
 30
0.0
 11
162.00549000000001
 21
61.361539999999991
 31
0.0
  0
LINE
  5
AF
  8
PATTERN_FILL
 62
     7
 10
175.19157000000001
 20
54.54271
 30
0.0
 11
166.32369354189251
 21
63.410586458107531
 31
0.0
  0
LINE
  5
B0
  8
PATTERN_FILL
 62
     7
 10
158.5083939469485
 20
79.399276053051523
 30
0.0
 11
154.3394799999999
 21
83.568190000000016
 31
0.0
  0
LINE
  5
B1
  8
PATTERN_FILL
 62
     7
 10
158.0
 20
93.681899999999999
 30
0.0
 11
158.0
 21
66.318100000000015
 31
0.0
  0
LINE
  5
B2
  8
PATTERN_FILL
 62
     7
 10
159.35207
 20
95.647929999999988
 30
0.0
 11
162.50416724553119
 21
92.495832754468793
 31
0.0
  0
LINE
  5
B3
  8
PATTERN_FILL
 62
     7
 10
155.27202
 20
87.727979999999988
 30
0.0
 11
158.89543733404449
 21
84.104562665955484
 31
0.0
  0
LINE
  5
B4
  8
PATTERN_FILL
 62
     7
 10
198.0
 20
98.500000000000014
 30
0.0
 11
198.0
 21
91.757976016304852
 31
0.0
  0
LINE
  5
B5
  8
PATTERN_FILL
 62
     7
 10
199.39060658752129
 20
89.287323412478628
 30
0.0
 11
205.74034
 21
82.937589999999986
 31
0.0
  0
LINE
  5
B6
  8
PATTERN_FILL
 62
     7
 10
163.4105864581077
 20
66.323693541892311
 30
0.0
 11
154.54271
 21
75.191570000000013
 31
0.0
  0
LINE
  5
B7
  8
PATTERN_FILL
 62
     7
 10
159.3763096778159
 20
73.924360322184029
 30
0.0
 11
154.10507000000001
 21
79.195600000000013
 31
0.0
  0
LINE
  5
B8
  8
PATTERN_FILL
 62
     7
 10
162.0
 20
98.633150000000001
 30
0.0
 11
162.0
 21
91.757976016304823
 31
0.0
  0
LINE
  5
B9
  8
PATTERN_FILL
 62
     7
 10
157.33134999999999
 20
92.542990000000003
 30
0.0
 11
160.6021516047868
 21
89.272188395213178
 31
0.0
  0
LINE
  5
BA
  8
PATTERN_FILL
 62
     7
 10
186.6446
 20
105.04084
 30
0.0
 11
205.04084
 21
86.644599999999983
 31
0.0
  0
LINE
  5
BB
  8
PATTERN_FILL
 62
     7
 10
201.87501
 20
93.880859999999984
 30
0.0
 11
201.87501
 21
66.119140000000016
 31
0.0
  0
LINE
  5
BC
  8
PATTERN_FILL
 62
     7
 10
201.19086409966539
 20
83.632805900334589
 30
0.0
 11
205.88565
 21
78.93801999999998
 31
0.0
  0
LINE
  5
BD
  8
PATTERN_FILL
 62
     7
 10
204.72798
 20
72.272019999999998
 30
0.0
 11
201.1045626659554
 21
75.895437334044544
 31
0.0
  0
LINE
  5
BE
  8
PATTERN_FILL
 62
     7
 10
202.54169999999999
 20
67.230259999999987
 30
0.0
 11
199.28223643838021
 21
70.489723561619783
 31
0.0
  0
LINE
  5
BF
  8
PATTERN_FILL
 62
     7
 10
170.00549000000001
 20
57.084730000000008
 30
0.0
 11
155.49316999999999
 21
71.597050000000024
 31
0.0
  0
LINE
  5
C0
  8
SPEC
 62
     7
 10
-64.999990000000011
 20
383.53181999999998
 30
0.0
 11
230.0
 21
383.53181999999998
 31
0.0
  0
LINE
  5
C1
  8
SPEC
 62
     7
 10
-64.999990000000011
 20
383.53181999999998
 30
0.0
 11
-64.999990000000011
 21
323.53181999999998
 31
0.0
  0
LINE
  5
C2
  8
SPEC
 62
     7
 10
0.000009999999989
 20
383.53181999999998
 30
0.0
 11
0.000009999999989
 21
323.53181999999998
 31
0.0
  0
LINE
  5
C3
  8
SPEC
 62
     7
 10
230.0
 20
383.53181999999998
 30
0.0
 11
230.0
 21
323.53181999999998
 31
0.0
  0
TEXT
  5
C4
  8
SPEC
 62
     7
 10
-63.227930711706612
 20
362.9997027665334
 30
0.0
 40
3.8006293402777769
  1
指向特性
 41
0.8
 11
-63.227930711706612
 21
366.8003321068112
 31
0.0
 73
     3
  0
TEXT
  5
C5
  8
SPEC
 62
     7
 10
1.6006506089505299
 20
363.04490261284838
 30
0.0
 40
3.8006293402777769
  1
カーディオイド
 41
0.8
 11
1.6006506089505299
 21
366.84553195312623
 31
0.0
 73
     3
  0
LINE
  5
C6
  8
SPEC
 62
     7
 10
-64.999990000000011
 20
376.03181999999998
 30
0.0
 11
230.0
 21
376.03181999999998
 31
0.0
  0
TEXT
  5
C7
  8
SPEC
 62
     7
 10
-63.0069974120794
 20
377.90661149762877
 30
0.0
 40
3.8006293402777769
  1
形式
 41
0.8
 11
-63.0069974120794
 21
381.70724083790662
 31
0.0
 73
     3
  0
TEXT
  5
C8
  8
SPEC
 62
     7
 10
1.446382397477691
 20
377.98429325984512
 30
0.0
 40
3.8006293402777769
  1
ダイナミック型 
 41
0.8
 11
1.446382397477691
 21
381.78492260012291
 31
0.0
 73
     3
  0
LINE
  5
C9
  8
SPEC
 62
     7
 10
-64.999990000000011
 20
368.53181999999998
 30
0.0
 11
230.0
 21
368.53181999999998
 31
0.0
  0
TEXT
  5
CA
  8
SPEC
 62
     7
 10
-63.249519244442538
 20
370.5137634840026
 30
0.0
 40
3.8006293402777769
  1
周波数特性
 41
0.8
 11
-63.249519244442538
 21
374.31439282428039
 31
0.0
 73
     3
  0
TEXT
  5
CB
  8
SPEC
 62
     7
 10
2.6052586465087582
 20
370.48781233261838
 30
0.0
 40
3.8006293402777769
  1
60Hz～15kHz
 41
0.8
 11
2.6052586465087582
 21
374.28844167289623
 31
0.0
 73
     3
  0
LINE
  5
CC
  8
SPEC
 62
     7
 10
-64.999990000000011
 20
353.53181999999998
 30
0.0
 11
230.0
 21
353.53181999999998
 31
0.0
  0
TEXT
  5
CD
  8
SPEC
 62
     7
 10
-63.200541235711754
 20
355.49295483576628
 30
0.0
 40
3.8006293402777769
  1
出力レベル(@1kHz)
 41
0.8
 11
-63.200541235711754
 21
359.29358417604408
 31
0.0
 73
     3
  0
TEXT
  5
CE
  8
SPEC
 62
     7
 10
2.3592226368634921
 20
355.49183043493741
 30
0.0
 40
3.8006293402777769
  1
-53dB re 1V/Pa *1Pa=94dB
 41
0.8
 11
2.3592226368634921
 21
359.29245977521521
 31
0.0
 73
     3
  0
LINE
  5
CF
  8
SPEC
 62
     7
 10
-64.999990000000011
 20
346.03181999999998
 30
0.0
 11
230.0
 21
346.03181999999998
 31
0.0
  0
TEXT
  5
D0
  8
SPEC
 62
     7
 10
-63.221854372263529
 20
340.47347787247912
 30
0.0
 40
3.8006293402777769
  1
出力コネクター
 41
0.8
 11
-63.221854372263529
 21
344.27410721275692
 31
0.0
 73
     3
  0
TEXT
  5
D1
  8
SPEC
 62
     7
 10
2.6870159171157
 20
340.52491660114993
 30
0.0
 40
3.8006293402777769
  1
XLR3ピン　オス
 41
0.8
 11
2.6870159171157009
 21
344.32554594142772
 31
0.0
 73
     3
  0
LINE
  5
D2
  8
SPEC
 62
     7
 10
-64.999990000000011
 20
338.53181999999998
 30
0.0
 11
230.0
 21
338.53181999999998
 31
0.0
  0
TEXT
  5
D3
  8
SPEC
 62
     7
 10
-63.24575893931258
 20
332.91208132052111
 30
0.0
 40
3.8006293402777769
  1
寸法
 41
0.8
 11
-63.24575893931258
 21
336.7127106607989
 31
0.0
 73
     3
  0
TEXT
  5
D4
  8
SPEC
 62
     7
 10
1.5526770270576971
 20
332.76147570955601
 30
0.0
 40
3.8006293402777769
  1
φ54×全長166mm
 41
0.8
 11
1.5526770270576971
 21
336.5621050498338
 31
0.0
 73
     3
  0
LINE
  5
D5
  8
SPEC
 62
     7
 10
-64.999990000000011
 20
323.53181999999998
 30
0.0
 11
230.0
 21
323.53181999999998
 31
0.0
  0
TEXT
  5
D6
  8
SPEC
 62
     7
 10
-63.309351861317701
 20
348.1070546365699
 30
0.0
 40
3.8006293402777769
  1
インピーダンス
 41
0.8
 11
-63.309351861317701
 21
351.90768397684769
 31
0.0
 73
     3
  0
TEXT
  5
D7
  8
SPEC
 62
     7
 10
2.6946407592868971
 20
347.9960932016117
 30
0.0
 40
3.8006293402777769
  1
300Ω
 41
0.8
 11
2.6946407592868971
 21
351.79672254188949
 31
0.0
 73
     3
  0
TEXT
  5
D8
  8
SPEC
 62
     7
 10
-62.499990000000011
 20
386.31833999999998
 30
0.0
 40
4.8865234375000002
  1
仕様
 41
0.8
 11
-62.499990000000011
 21
391.20486343750002
 31
0.0
 73
     3
  0
TEXT
  5
D9
  8
SPEC
 62
     7
 10
-63.245101167159319
 20
325.36698430008261
 30
0.0
 40
3.8006293402777769
  1
質量
 41
0.8
 11
-63.245101167159319
 21
329.1676136403604
 31
0.0
 73
     3
  0
TEXT
  5
DA
  8
SPEC
 62
     7
 10
2.6988466112626091
 20
325.24110412555638
 30
0.0
 40
3.8006293402777769
  1
321g
 41
0.8
 11
2.6988466112626091
 21
329.04173346583423
 31
0.0
 73
     3
  0
LINE
  5
DB
  8
SPEC
 62
     7
 10
-64.999990000000011
 20
361.03181999999998
 30
0.0
 11
230.0
 21
361.03181999999998
 31
0.0
  0
LINE
  5
DC
  8
SPEC
 62
     7
 10
-64.999990000000011
 20
330.68182000000002
 30
0.0
 11
230.0
 21
330.68182000000002
 31
0.0
  0
TEXT
  5
DD
  8
DIMNSIONS
 62
     7
 10
60.0
 20
-91.929190000000006
 30
0.0
 40
4.8865234375000002
  1
(単位：mm)
 41
0.8
 11
60.0
 21
-87.042666562500003
 31
0.0
 73
     3
  0
LINE
  5
DE
  8
DIMNSIONS
 62
     7
 10
183.99999998509881
 20
107.0
 30
0.0
 11
263.9999999850989
 21
107.0
 31
0.0
  0
LINE
  5
DF
  8
DIMNSIONS
 62
     7
 10
183.99999998509881
 20
53.0
 30
0.0
 11
263.9999999850989
 21
53.0
 31
0.0
  0
LINE
  5
E0
  8
DIMNSIONS
 62
     7
 10
260.0
 20
107.0
 30
0.0
 11
260.0
 21
53.0
 31
0.0
  0
LINE
  5
E1
  8
DIMNSIONS
 62
     7
 10
260.0
 20
107.0
 30
0.0
 11
261.70147737193759
 21
100.65000000000001
 31
0.0
  0
LINE
  5
E2
  8
DIMNSIONS
 62
     7
 10
260.0
 20
107.0
 30
0.0
 11
258.29852262806241
 21
100.65000000000001
 31
0.0
  0
LINE
  5
E3
  8
DIMNSIONS
 62
     7
 10
260.0
 20
53.0
 30
0.0
 11
258.29852262806241
 21
59.350000000000001
 31
0.0
  0
LINE
  5
E4
  8
DIMNSIONS
 62
     7
 10
260.0
 20
53.0
 30
0.0
 11
261.70147737193759
 21
59.350000000000001
 31
0.0
  0
TEXT
  5
E5
  8
DIMNSIONS
 62
     7
 10
257.01222222222219
 20
76.472222222222229
 30
0.0
 40
5.4294704861111107
  1
54
 50
90.0
 41
0.8
 11
251.58275173611111
 21
76.472222222222229
 31
0.0
 73
     3
  0
LINE
  5
E6
  8
DIMNSIONS
 62
     7
 10
120.0
 20
94.766439750331656
 30
0.0
 11
120.0
 21
153.99999998509881
 31
0.0
  0
LINE
  5
E7
  8
DIMNSIONS
 62
     7
 10
-46.026324299806241
 20
84.083560219866044
 30
0.0
 11
-46.026324299806241
 21
153.99999998509881
 31
0.0
  0
LINE
  5
E8
  8
DIMNSIONS
 62
     7
 10
120.0
 20
150.0
 30
0.0
 11
-46.026324299806241
 21
150.0
 31
0.0
  0
LINE
  5
E9
  8
DIMNSIONS
 62
     7
 10
120.0
 20
150.0
 30
0.0
 11
113.65000000000001
 21
148.2985226280623
 31
0.0
  0
LINE
  5
EA
  8
DIMNSIONS
 62
     7
 10
120.0
 20
150.0
 30
0.0
 11
113.65000000000001
 21
151.70147737193761
 31
0.0
  0
LINE
  5
EB
  8
DIMNSIONS
 62
     7
 10
-46.026324299806241
 20
150.0
 30
0.0
 11
-39.67632429980624
 21
151.70147737193761
 31
0.0
  0
LINE
  5
EC
  8
DIMNSIONS
 62
     7
 10
-46.026324299806241
 20
150.0
 30
0.0
 11
-39.67632429980624
 21
148.2985226280623
 31
0.0
  0
TEXT
  5
ED
  8
DIMNSIONS
 62
     7
 10
31.695171183430212
 20
152.9877777703272
 30
0.0
 40
5.4294704861111107
  1
166
 41
0.8
 11
31.695171183430212
 21
158.41724825643831
 31
0.0
 73
     3
  0
LINE
  5
EE
  8
DIMNSIONS
 62
     7
 10
-0.3263362861106316
 20
105.7585602198661
 30
0.0
 11
-0.3263362861106316
 21
133.99999998509881
 31
0.0
  0
LINE
  5
EF
  8
DIMNSIONS
 62
     7
 10
120.0
 20
94.766439750331656
 30
0.0
 11
120.0
 21
133.99999998509881
 31
0.0
  0
LINE
  5
F0
  8
DIMNSIONS
 62
     7
 10
-0.3263362861106316
 20
130.0
 30
0.0
 11
120.0
 21
130.0
 31
0.0
  0
LINE
  5
F1
  8
DIMNSIONS
 62
     7
 10
-0.3263362861106316
 20
130.0
 30
0.0
 11
6.0236637138893618
 21
131.70147737193761
 31
0.0
  0
LINE
  5
F2
  8
DIMNSIONS
 62
     7
 10
-0.3263362861106316
 20
130.0
 30
0.0
 11
6.0236637138893618
 21
128.2985226280623
 31
0.0
  0
LINE
  5
F3
  8
DIMNSIONS
 62
     7
 10
120.0
 20
130.0
 30
0.0
 11
113.65000000000001
 21
128.2985226280623
 31
0.0
  0
LINE
  5
F4
  8
DIMNSIONS
 62
     7
 10
120.0
 20
130.0
 30
0.0
 11
113.65000000000001
 21
131.70147737193761
 31
0.0
  0
TEXT
  5
F5
  8
DIMNSIONS
 62
     7
 10
54.54516519027802
 20
132.9877777703272
 30
0.0
 40
5.4294704861111107
  1
120
 41
0.8
 11
54.54516519027802
 21
138.41724825643831
 31
0.0
 73
     3
  0
LINE
  5
F6
  8
DIMNSIONS
 62
     7
 10
-46.026324299806241
 20
84.083560219866044
 30
0.0
 11
-46.026324299806241
 21
133.99999998509881
 31
0.0
  0
LINE
  5
F7
  8
DIMNSIONS
 62
     7
 10
-0.326336286110589
 20
105.7585602198661
 30
0.0
 11
-0.326336286110589
 21
133.99999998509881
 31
0.0
  0
LINE
  5
F8
  8
DIMNSIONS
 62
     7
 10
-46.026324299806241
 20
130.0
 30
0.0
 11
-0.326336286110589
 21
130.0
 31
0.0
  0
LINE
  5
F9
  8
DIMNSIONS
 62
     7
 10
-46.026324299806241
 20
130.0
 30
0.0
 11
-39.67632429980624
 21
131.70147737193761
 31
0.0
  0
LINE
  5
FA
  8
DIMNSIONS
 62
     7
 10
-46.026324299806241
 20
130.0
 30
0.0
 11
-39.67632429980624
 21
128.2985226280623
 31
0.0
  0
LINE
  5
FB
  8
DIMNSIONS
 62
     7
 10
-0.326336286110589
 20
130.0
 30
0.0
 11
-6.6763362861105833
 21
128.2985226280623
 31
0.0
  0
LINE
  5
FC
  8
DIMNSIONS
 62
     7
 10
-0.326336286110589
 20
130.0
 30
0.0
 11
-6.6763362861105833
 21
131.70147737193761
 31
0.0
  0
TEXT
  5
FD
  8
DIMNSIONS
 62
     7
 10
-26.704108070736179
 20
132.9877777703272
 30
0.0
 40
5.4294704861111107
  1
46
 41
0.8
 11
-26.704108070736179
 21
138.41724825643831
 31
0.0
 73
     3
  0
LINE
  5
FE
  8
DIMNSIONS
 62
     7
 10
183.99999998509881
 20
69.0
 30
0.0
 11
223.99999998509881
 21
69.0
 31
0.0
  0
LINE
  5
FF
  8
DIMNSIONS
 62
     7
 10
183.99999998509881
 20
91.0
 30
0.0
 11
223.99999998509881
 21
91.0
 31
0.0
  0
LINE
  5
100
  8
DIMNSIONS
 62
     7
 10
220.0
 20
69.0
 30
0.0
 11
220.0
 21
91.0
 31
0.0
  0
LINE
  5
101
  8
DIMNSIONS
 62
     7
 10
220.0
 20
69.0
 30
0.0
 11
218.29852262806239
 21
75.34999999999998
 31
0.0
  0
LINE
  5
102
  8
DIMNSIONS
 62
     7
 10
220.0
 20
69.0
 30
0.0
 11
221.70147737193761
 21
75.34999999999998
 31
0.0
  0
LINE
  5
103
  8
DIMNSIONS
 62
     7
 10
220.0
 20
91.0
 30
0.0
 11
221.70147737193761
 21
84.650000000000006
 31
0.0
  0
LINE
  5
104
  8
DIMNSIONS
 62
     7
 10
220.0
 20
91.0
 30
0.0
 11
218.29852262806239
 21
84.650000000000006
 31
0.0
  0
TEXT
  5
105
  8
DIMNSIONS
 62
     7
 10
217.0122222296728
 20
76.472222222222229
 30
0.0
 40
5.4294704861111107
  1
22
 50
90.0
 41
0.8
 11
211.58275174356169
 21
76.472222222222229
 31
0.0
 73
     3
  0
LINE
  5
106
  8
DIMNSIONS
 62
     7
 10
183.99999998509881
 20
58.5
 30
0.0
 11
243.99999998509881
 21
58.5
 31
0.0
  0
LINE
  5
107
  8
DIMNSIONS
 62
     7
 10
183.99999998509881
 20
101.5
 30
0.0
 11
243.99999998509881
 21
101.5
 31
0.0
  0
LINE
  5
108
  8
DIMNSIONS
 62
     7
 10
240.0
 20
58.5
 30
0.0
 11
240.0
 21
101.5
 31
0.0
  0
LINE
  5
109
  8
DIMNSIONS
 62
     7
 10
240.0
 20
58.5
 30
0.0
 11
238.29852262806239
 21
64.849999999999994
 31
0.0
  0
LINE
  5
10A
  8
DIMNSIONS
 62
     7
 10
240.0
 20
58.5
 30
0.0
 11
241.7014773719377
 21
64.849999999999994
 31
0.0
  0
LINE
  5
10B
  8
DIMNSIONS
 62
     7
 10
240.0
 20
101.5
 30
0.0
 11
241.7014773719377
 21
95.150000000000006
 31
0.0
  0
LINE
  5
10C
  8
DIMNSIONS
 62
     7
 10
240.0
 20
101.5
 30
0.0
 11
238.29852262806239
 21
95.150000000000006
 31
0.0
  0
TEXT
  5
10D
  8
DIMNSIONS
 62
     7
 10
237.0122222296728
 20
76.472222222222229
 30
0.0
 40
5.4294704861111107
  1
43
 50
90.0
 41
0.8
 11
231.58275174356169
 21
76.472222222222229
 31
0.0
 73
     3
  0
TEXT
  5
10E
  8
DATA
 62
     7
 10
189.75533983634591
 20
-94.271671723339637
 30
0.0
 40
4.8865234375000002
  1
PG58
 41
0.8
 11
189.75533983634591
 21
-89.385148285839634
 31
0.0
 73
     3
  0
TEXT
  5
10F
  8
DATA
 62
     7
 10
194.80561988790041
 20
-78.790334532096708
 30
0.0
 40
4.8865234375000002
  1
SHURE
 41
0.8
 11
194.80561988790041
 21
-73.903811094596705
 31
0.0
 73
     3
  0
TEXT
  5
110
  8
DATA
 62
     7
 10
188.3442567289554
 20
-86.167321337683887
 30
0.0
 40
3.8006293402777769
  1
ダイナミック型マイクロホン
 41
0.8
 11
188.3442567289554
 21
-82.366691997406093
 31
0.0
 73
     3
  0
ARC
  5
111
  8
DATA
 62
     7
 10
6.7236807003692434
 20
-447.42397806421297
 30
0.0
 40
537.70469467432906
 50
60.196960435815221
 51
60.196961289588849
  0
LINE
  5
112
  8
DATA
 62
     7
 10
14.773663713889301
 20
61.583560234767198
 30
0.0
 11
14.773663713889301
 21
98.633560234767245
 31
0.0
  0
POLYLINE
  5
113
  8
DATA
 62
     7
 66
     1
 10
0.0
 20
0.0
 30
0.0
 70
     1
  0
VERTEX
  5
7C1
  8
DATA
 62
     7
 10
-20.02633628611035
 20
106.9261328486015
 30
0.0
  0
VERTEX
  5
7C2
  8
DATA
 62
     7
 10
-16.0263362861103
 20
106.9261328486015
 30
0.0
  0
VERTEX
  5
7C3
  8
DATA
 62
     7
 10
-16.0263362861103
 20
52.926132848601711
 30
0.0
  0
VERTEX
  5
7C4
  8
DATA
 62
     7
 10
-20.02633628611035
 20
52.926132848601711
 30
0.0
  0
SEQEND
  5
7C5
  8
DATA
 62
     7
  0
ARC
  5
11A
  8
DATA
 62
     7
 10
-19.954907714681809
 20
80.108560234767211
 30
0.0
 40
26.07142857142858
 50
90.156974934770503
 51
269.84302506522931
  0
ARC
  5
11B
  8
DATA
 62
     7
 10
-25.86175115850131
 20
124.1759379913924
 30
0.0
 40
70.504121524291619
 50
278.01898823985988
 51
291.23434017553342
  0
LINE
  5
11C
  8
DATA
 62
     7
 10
5.2736637138893476
 20
60.108560234767239
 30
0.0
 11
-0.326336286110589
 21
58.458560234767283
 31
0.0
  0
LINE
  5
11D
  8
DATA
 62
     7
 10
-0.326336286110589
 20
58.458560234767283
 30
0.0
 11
-0.326336286110589
 21
101.7585602347672
 31
0.0
  0
LINE
  5
11E
  8
DATA
 62
     7
 10
5.2736637138893476
 20
100.1085602347672
 30
0.0
 11
5.2736637138893476
 21
60.108560234767239
 31
0.0
  0
TEXT
  5
11F
  8
DATA
 62
     7
 10
12.633254703552289
 20
73.603119490998694
 30
0.0
 40
4.8865234375000002
  1
PG58
 50
90.0
 41
0.8
 11
7.7467312660522918
 21
73.603119490998694
 31
0.0
 73
     3
  0
ARC
  5
120
  8
DATA
 62
     7
 10
-6.0930596134208326
 20
80.108560234767211
 30
0.0
 40
29.999999999999812
 50
242.292645199482
 51
242.3258488189287
  0
ARC
  5
121
  8
DATA
 62
     7
 10
6.4069403865789241
 20
80.108560234767211
 30
0.0
 40
30.00000000000011
 50
322.067761918553
 51
322.0677627723266
  0
ARC
  5
122
  8
DATA
 62
     7
 10
-33.990401366017252
 20
80.108560234767211
 30
0.0
 40
29.999999999999911
 50
297.70735480051798
 51
297.7405685284109
  0
ARC
  5
123
  8
DATA
 62
     7
 10
-28.990401366017199
 20
80.108560234767211
 30
0.0
 40
30.00000000000005
 50
68.563561484882015
 51
68.563562338655672
  0
ARC
  5
124
  8
DATA
 62
     7
 10
-25.86175115850131
 20
36.041182478142467
 30
0.0
 40
70.504121524291264
 50
68.765659824466539
 51
81.981011760140106
  0
LINE
  5
125
  8
DATA
 62
     7
 10
14.773663713889301
 20
61.583560234767198
 30
0.0
 11
5.2736637138893476
 21
60.108560234767239
 31
0.0
  0
LINE
  5
126
  8
DATA
 62
     7
 10
14.773663713889301
 20
98.633560234767245
 30
0.0
 11
5.2736637138893476
 21
100.1085602347672
 31
0.0
  0
LINE
  5
127
  8
DATA
 62
     7
 10
120.0
 20
90.766439765232775
 30
0.0
 11
58.76072149310307
 21
94.105835529921322
 31
0.0
  0
LINE
  5
128
  8
DATA
 62
     7
 10
120.0
 20
69.233560234767211
 30
0.0
 11
50.0
 21
65.583560234767205
 31
0.0
  0
LINE
  5
129
  8
DATA
 62
     7
 10
48.975885663571148
 20
65.583560234767205
 30
0.0
 11
50.000000000000021
 21
65.583560234767205
 31
0.0
  0
ARC
  5
12A
  8
DATA
 62
     7
 10
69.48651321435824
 20
414.23943158462248
 30
0.0
 40
320.3132247206824
 50
260.16505571077482
 51
268.08107361018608
  0
ARC
  5
12B
  8
DATA
 62
     7
 10
69.48651321435824
 20
-254.07231111508599
 30
0.0
 40
320.3132247206803
 50
93.671334393530174
 51
99.834944289225277
  0
LINE
  5
12C
  8
DATA
 62
     7
 10
120.0
 20
69.233560234767211
 30
0.0
 11
120.0
 21
90.766439765232775
 31
0.0
  0
POLYLINE
  5
12D
  8
DATA
 62
     7
 66
     1
 10
0.0
 20
0.0
 30
0.0
 70
   129
  0
VERTEX
  5
7C6
  8
DATA
 62
     7
 10
117.02500000000001
 20
81.699999999999989
 30
0.0
  0
VERTEX
  5
7C7
  8
DATA
 62
     7
 10
117.02500000000001
 20
81.699999999999989
 30
0.0
 42
-0.4142135623730951
  0
VERTEX
  5
7C8
  8
DATA
 62
     7
 10
117.825
 20
82.5
 30
0.0
  0
VERTEX
  5
7C9
  8
DATA
 62
     7
 10
118.175
 20
82.5
 30
0.0
  0
VERTEX
  5
7CA
  8
DATA
 62
     7
 10
118.175
 20
82.5
 30
0.0
 42
-0.4142135623730976
  0
VERTEX
  5
7CB
  8
DATA
 62
     7
 10
118.97499999999999
 20
81.699999999999989
 30
0.0
  0
VERTEX
  5
7CC
  8
DATA
 62
     7
 10
118.97499999999999
 20
78.299999999999983
 30
0.0
  0
VERTEX
  5
7CD
  8
DATA
 62
     7
 10
118.97499999999999
 20
78.299999999999983
 30
0.0
 42
-0.4142135623730951
  0
VERTEX
  5
7CE
  8
DATA
 62
     7
 10
118.175
 20
77.5
 30
0.0
  0
VERTEX
  5
7CF
  8
DATA
 62
     7
 10
117.825
 20
77.5
 30
0.0
  0
VERTEX
  5
7D0
  8
DATA
 62
     7
 10
117.825
 20
77.5
 30
0.0
 42
-0.4142135623730951
  0
VERTEX
  5
7D1
  8
DATA
 62
     7
 10
117.02500000000001
 20
78.299999999999983
 30
0.0
  0
SEQEND
  5
7D2
  8
DATA
 62
     7
  0
CIRCLE
  5
13B
  8
DATA
 62
     7
 10
103.5
 20
80.083560234767205
 30
0.0
 40
1.6499999999999979
  0
LINE
  5
13C
  8
DATA
 62
     7
 10
105.1378339354159
 20
79.883560234767202
 30
0.0
 11
101.862166064584
 21
79.883560234767202
 31
0.0
  0
LINE
  5
13D
  8
DATA
 62
     7
 10
101.862166064584
 20
80.283560234767194
 30
0.0
 11
105.1378339354159
 21
80.283560234767194
 31
0.0
  0
POLYLINE
  5
13E
  8
DATA
 62
     7
 66
     1
 10
0.0
 20
0.0
 30
0.0
 70
   129
  0
VERTEX
  5
7D3
  8
DATA
 62
     7
 10
36.825000000000003
 20
84.197180902743284
 30
0.0
  0
VERTEX
  5
7D4
  8
DATA
 62
     7
 10
36.922651734274162
 20
84.21691239082115
 30
0.0
  0
VERTEX
  5
7D5
  8
DATA
 62
     7
 10
37.020539226984063
 20
84.236333146803346
 30
0.0
  0
VERTEX
  5
7D6
  8
DATA
 62
     7
 10
37.1186624781297
 20
84.255443170689787
 30
0.0
  0
VERTEX
  5
7D7
  8
DATA
 62
     7
 10
37.217021487711101
 20
84.274242462480544
 30
0.0
  0
VERTEX
  5
7D8
  8
DATA
 62
     7
 10
37.31561625572823
 20
84.292731022175573
 30
0.0
  0
VERTEX
  5
7D9
  8
DATA
 62
     7
 10
37.414446782181102
 20
84.310908849774904
 30
0.0
  0
VERTEX
  5
7DA
  8
DATA
 62
     7
 10
37.513513067069702
 20
84.328775945278494
 30
0.0
  0
VERTEX
  5
7DB
  8
DATA
 62
     7
 10
37.612815110394052
 20
84.346332308686371
 30
0.0
  0
VERTEX
  5
7DC
  8
DATA
 62
     7
 10
37.712352912154152
 20
84.363577939998578
 30
0.0
  0
VERTEX
  5
7DD
  8
DATA
 62
     7
 10
37.812126472349981
 20
84.380512839215044
 30
0.0
  0
VERTEX
  5
7DE
  8
DATA
 62
     7
 10
37.912135790981552
 20
84.397137006335782
 30
0.0
  0
VERTEX
  5
7DF
  8
DATA
 62
     7
 10
38.012380868048858
 20
84.41345044136078
 30
0.0
  0
VERTEX
  5
7E0
  8
DATA
 62
     7
 10
38.112861703551921
 20
84.429453144290093
 30
0.0
  0
VERTEX
  5
7E1
  8
DATA
 62
     7
 10
38.21357829749072
 20
84.445145115123708
 30
0.0
  0
VERTEX
  5
7E2
  8
DATA
 62
     7
 10
38.314530649865247
 20
84.460526353861567
 30
0.0
  0
VERTEX
  5
7E3
  8
DATA
 62
     7
 10
38.415718760675531
 20
84.475596860503728
 30
0.0
  0
VERTEX
  5
7E4
  8
DATA
 62
     7
 10
38.51714262992153
 20
84.490356635050205
 30
0.0
  0
VERTEX
  5
7E5
  8
DATA
 62
     7
 10
38.618802257603299
 20
84.50480567750094
 30
0.0
  0
VERTEX
  5
7E6
  8
DATA
 62
     7
 10
38.720697643720797
 20
84.518943987855948
 30
0.0
  0
VERTEX
  5
7E7
  8
DATA
 62
     7
 10
38.822828788274037
 20
84.532771566115244
 30
0.0
  0
VERTEX
  5
7E8
  8
DATA
 62
     7
 10
38.925195691263013
 20
84.546288412278855
 30
0.0
  0
VERTEX
  5
7E9
  8
DATA
 62
     7
 10
39.027798352687732
 20
84.559494526346754
 30
0.0
  0
VERTEX
  5
7EA
  8
DATA
 62
     7
 10
39.1306367725482
 20
84.572389908318911
 30
0.0
  0
VERTEX
  5
7EB
  8
DATA
 62
     7
 10
39.233710950844397
 20
84.584974558195341
 30
0.0
  0
VERTEX
  5
7EC
  8
DATA
 62
     7
 10
39.337020887576351
 20
84.597248475976116
 30
0.0
  0
VERTEX
  5
7ED
  8
DATA
 62
     7
 10
39.44056658274404
 20
84.609211661661092
 30
0.0
  0
VERTEX
  5
7EE
  8
DATA
 62
     7
 10
39.544348036347451
 20
84.620864115250427
 30
0.0
  0
VERTEX
  5
7EF
  8
DATA
 62
     7
 10
39.648365248386632
 20
84.632205836744006
 30
0.0
  0
VERTEX
  5
7F0
  8
DATA
 62
     7
 10
39.752618218861528
 20
84.643236826141887
 30
0.0
  0
VERTEX
  5
7F1
  8
DATA
 62
     7
 10
39.857106947772181
 20
84.653957083444041
 30
0.0
  0
VERTEX
  5
7F2
  8
DATA
 62
     7
 10
39.961831435118569
 20
84.664366608650496
 30
0.0
  0
VERTEX
  5
7F3
  8
DATA
 62
     7
 10
40.066791680900693
 20
84.674465401761211
 30
0.0
  0
VERTEX
  5
7F4
  8
DATA
 62
     7
 10
40.171987685118573
 20
84.684253462776226
 30
0.0
  0
VERTEX
  5
7F5
  8
DATA
 62
     7
 10
40.277419447772182
 20
84.693730791695543
 30
0.0
  0
VERTEX
  5
7F6
  8
DATA
 62
     7
 10
40.383086968861527
 20
84.702897388519119
 30
0.0
  0
VERTEX
  5
7F7
  8
DATA
 62
     7
 10
40.488990248386628
 20
84.711753253246997
 30
0.0
  0
VERTEX
  5
7F8
  8
DATA
 62
     7
 10
40.595129286347436
 20
84.720298385879147
 30
0.0
  0
VERTEX
  5
7F9
  8
DATA
 62
     7
 10
40.70150408274403
 20
84.728532786415599
 30
0.0
  0
VERTEX
  5
7FA
  8
DATA
 62
     7
 10
40.808114637576352
 20
84.736456454856295
 30
0.0
  0
VERTEX
  5
7FB
  8
DATA
 62
     7
 10
40.914960950844403
 20
84.744069391201322
 30
0.0
  0
VERTEX
  5
7FC
  8
DATA
 62
     7
 10
41.022043022548203
 20
84.751371595450607
 30
0.0
  0
VERTEX
  5
7FD
  8
DATA
 62
     7
 10
41.129360852687732
 20
84.758363067604222
 30
0.0
  0
VERTEX
  5
7FE
  8
DATA
 62
     7
 10
41.236914441263011
 20
84.765043807662096
 30
0.0
  0
VERTEX
  5
7FF
  8
DATA
 62
     7
 10
41.344703788274032
 20
84.771413815624229
 30
0.0
  0
VERTEX
  5
800
  8
DATA
 62
     7
 10
41.452728893720789
 20
84.777473091490663
 30
0.0
  0
VERTEX
  5
801
  8
DATA
 62
     7
 10
41.560989757603288
 20
84.783221635261398
 30
0.0
  0
VERTEX
  5
802
  8
DATA
 62
     7
 10
41.669486379921523
 20
84.788659446936407
 30
0.0
  0
VERTEX
  5
803
  8
DATA
 62
     7
 10
41.778218760675529
 20
84.793786526515703
 30
0.0
  0
VERTEX
  5
804
  8
DATA
 62
     7
 10
41.887186899865242
 20
84.7986028739993
 30
0.0
  0
VERTEX
  5
805
  8
DATA
 62
     7
 10
41.996390797490712
 20
84.803108489387157
 30
0.0
  0
VERTEX
  5
806
  8
DATA
 62
     7
 10
42.105830453551917
 20
84.807303372679314
 30
0.0
  0
VERTEX
  5
807
  8
DATA
 62
     7
 10
42.215505868048872
 20
84.811187523875731
 30
0.0
  0
VERTEX
  5
808
  8
DATA
 62
     7
 10
42.325417040981549
 20
84.814760942976449
 30
0.0
  0
VERTEX
  5
809
  8
DATA
 62
     7
 10
42.435563972349982
 20
84.818023629981468
 30
0.0
  0
VERTEX
  5
80A
  8
DATA
 62
     7
 10
42.545946662154151
 20
84.820975584890746
 30
0.0
  0
VERTEX
  5
80B
  8
DATA
 62
     7
 10
42.656565110394048
 20
84.823616807704312
 30
0.0
  0
VERTEX
  5
80C
  8
DATA
 62
     7
 10
42.767419317069688
 20
84.825947298422165
 30
0.0
  0
VERTEX
  5
80D
  8
DATA
 62
     7
 10
42.878509282181099
 20
84.827967057044347
 30
0.0
  0
VERTEX
  5
80E
  8
DATA
 62
     7
 10
42.989835005728217
 20
84.829676083570774
 30
0.0
  0
VERTEX
  5
80F
  8
DATA
 62
     7
 10
43.101396487711099
 20
84.831074378001475
 30
0.0
  0
VERTEX
  5
810
  8
DATA
 62
     7
 10
43.21319372812971
 20
84.832161940336505
 30
0.0
  0
VERTEX
  5
811
  8
DATA
 62
     7
 10
43.32522672698407
 20
84.83293877057578
 30
0.0
  0
VERTEX
  5
812
  8
DATA
 62
     7
 10
43.437495484274159
 20
84.833404868719342
 30
0.0
  0
VERTEX
  5
813
  8
DATA
 62
     7
 10
43.54999999999999
 20
84.833560234767205
 30
0.0
  0
VERTEX
  5
814
  8
DATA
 62
     7
 10
43.662504515725843
 20
84.833404868719342
 30
0.0
  0
VERTEX
  5
815
  8
DATA
 62
     7
 10
43.77477327301591
 20
84.83293877057578
 30
0.0
  0
VERTEX
  5
816
  8
DATA
 62
     7
 10
43.886806271870292
 20
84.832161940336505
 30
0.0
  0
VERTEX
  5
817
  8
DATA
 62
     7
 10
43.998603512288888
 20
84.831074378001475
 30
0.0
  0
VERTEX
  5
818
  8
DATA
 62
     7
 10
44.11016499427177
 20
84.829676083570774
 30
0.0
  0
VERTEX
  5
819
  8
DATA
 62
     7
 10
44.221490717818902
 20
84.827967057044347
 30
0.0
  0
VERTEX
  5
81A
  8
DATA
 62
     7
 10
44.332580682930278
 20
84.825947298422165
 30
0.0
  0
VERTEX
  5
81B
  8
DATA
 62
     7
 10
44.443434889605932
 20
84.823616807704312
 30
0.0
  0
VERTEX
  5
81C
  8
DATA
 62
     7
 10
44.554053337845843
 20
84.820975584890746
 30
0.0
  0
VERTEX
  5
81D
  8
DATA
 62
     7
 10
44.664436027649998
 20
84.818023629981468
 30
0.0
  0
VERTEX
  5
81E
  8
DATA
 62
     7
 10
44.774582959018453
 20
84.814760942976449
 30
0.0
  0
VERTEX
  5
81F
  8
DATA
 62
     7
 10
44.884494131951122
 20
84.811187523875731
 30
0.0
  0
VERTEX
  5
820
  8
DATA
 62
     7
 10
44.99416954644807
 20
84.807303372679314
 30
0.0
  0
VERTEX
  5
821
  8
DATA
 62
     7
 10
45.103609202509283
 20
84.803108489387157
 30
0.0
  0
VERTEX
  5
822
  8
DATA
 62
     7
 10
45.212813100134753
 20
84.7986028739993
 30
0.0
  0
VERTEX
  5
823
  8
DATA
 62
     7
 10
45.321781239324459
 20
84.793786526515703
 30
0.0
  0
VERTEX
  5
824
  8
DATA
 62
     7
 10
45.430513620078457
 20
84.788659446936407
 30
0.0
  0
VERTEX
  5
825
  8
DATA
 62
     7
 10
45.539010242396699
 20
84.783221635261398
 30
0.0
  0
VERTEX
  5
826
  8
DATA
 62
     7
 10
45.647271106279213
 20
84.777473091490663
 30
0.0
  0
VERTEX
  5
827
  8
DATA
 62
     7
 10
45.755296211725963
 20
84.771413815624229
 30
0.0
  0
VERTEX
  5
828
  8
DATA
 62
     7
 10
45.863085558736969
 20
84.765043807662096
 30
0.0
  0
VERTEX
  5
829
  8
DATA
 62
     7
 10
45.970639147312262
 20
84.758363067604222
 30
0.0
  0
VERTEX
  5
82A
  8
DATA
 62
     7
 10
46.077956977451798
 20
84.751371595450607
 30
0.0
  0
VERTEX
  5
82B
  8
DATA
 62
     7
 10
46.185039049155591
 20
84.744069391201322
 30
0.0
  0
VERTEX
  5
82C
  8
DATA
 62
     7
 10
46.291885362423642
 20
84.736456454856295
 30
0.0
  0
VERTEX
  5
82D
  8
DATA
 62
     7
 10
46.398495917255957
 20
84.728532786415599
 30
0.0
  0
VERTEX
  5
82E
  8
DATA
 62
     7
 10
46.504870713652537
 20
84.720298385879147
 30
0.0
  0
VERTEX
  5
82F
  8
DATA
 62
     7
 10
46.611009751613359
 20
84.711753253246997
 30
0.0
  0
VERTEX
  5
830
  8
DATA
 62
     7
 10
46.716913031138461
 20
84.702897388519119
 30
0.0
  0
VERTEX
  5
831
  8
DATA
 62
     7
 10
46.822580552227812
 20
84.693730791695543
 30
0.0
  0
VERTEX
  5
832
  8
DATA
 62
     7
 10
46.928012314881421
 20
84.684253462776226
 30
0.0
  0
VERTEX
  5
833
  8
DATA
 62
     7
 10
47.033208319099288
 20
84.674465401761211
 30
0.0
  0
VERTEX
  5
834
  8
DATA
 62
     7
 10
47.138168564881433
 20
84.664366608650496
 30
0.0
  0
VERTEX
  5
835
  8
DATA
 62
     7
 10
47.242893052227807
 20
84.653957083444041
 30
0.0
  0
VERTEX
  5
836
  8
DATA
 62
     7
 10
47.347381781138459
 20
84.643236826141887
 30
0.0
  0
VERTEX
  5
837
  8
DATA
 62
     7
 10
47.451634751613362
 20
84.632205836744006
 30
0.0
  0
VERTEX
  5
838
  8
DATA
 62
     7
 10
47.555651963652529
 20
84.620864115250427
 30
0.0
  0
VERTEX
  5
839
  8
DATA
 62
     7
 10
47.659433417255961
 20
84.609211661661092
 30
0.0
  0
VERTEX
  5
83A
  8
DATA
 62
     7
 10
47.762979112423629
 20
84.597248475976116
 30
0.0
  0
VERTEX
  5
83B
  8
DATA
 62
     7
 10
47.86628904915559
 20
84.584974558195341
 30
0.0
  0
VERTEX
  5
83C
  8
DATA
 62
     7
 10
47.969363227451787
 20
84.572389908318911
 30
0.0
  0
VERTEX
  5
83D
  8
DATA
 62
     7
 10
48.072201647312262
 20
84.559494526346754
 30
0.0
  0
VERTEX
  5
83E
  8
DATA
 62
     7
 10
48.174804308736967
 20
84.546288412278855
 30
0.0
  0
VERTEX
  5
83F
  8
DATA
 62
     7
 10
48.277171211725957
 20
84.532771566115244
 30
0.0
  0
VERTEX
  5
840
  8
DATA
 62
     7
 10
48.379302356279197
 20
84.518943987855948
 30
0.0
  0
VERTEX
  5
841
  8
DATA
 62
     7
 10
48.481197742396709
 20
84.50480567750094
 30
0.0
  0
VERTEX
  5
842
  8
DATA
 62
     7
 10
48.582857370078457
 20
84.490356635050205
 30
0.0
  0
VERTEX
  5
843
  8
DATA
 62
     7
 10
48.684281239324463
 20
84.475596860503728
 30
0.0
  0
VERTEX
  5
844
  8
DATA
 62
     7
 10
48.78546935013474
 20
84.460526353861567
 30
0.0
  0
VERTEX
  5
845
  8
DATA
 62
     7
 10
48.886421702509281
 20
84.445145115123708
 30
0.0
  0
VERTEX
  5
846
  8
DATA
 62
     7
 10
48.98713829644808
 20
84.429453144290093
 30
0.0
  0
VERTEX
  5
847
  8
DATA
 62
     7
 10
49.087619131951129
 20
84.41345044136078
 30
0.0
  0
VERTEX
  5
848
  8
DATA
 62
     7
 10
49.187864209018443
 20
84.397137006335782
 30
0.0
  0
VERTEX
  5
849
  8
DATA
 62
     7
 10
49.287873527650021
 20
84.380512839215044
 30
0.0
  0
VERTEX
  5
84A
  8
DATA
 62
     7
 10
49.387647087845849
 20
84.363577939998578
 30
0.0
  0
VERTEX
  5
84B
  8
DATA
 62
     7
 10
49.487184889605942
 20
84.346332308686371
 30
0.0
  0
VERTEX
  5
84C
  8
DATA
 62
     7
 10
49.586486932930299
 20
84.328775945278494
 30
0.0
  0
VERTEX
  5
84D
  8
DATA
 62
     7
 10
49.685553217818899
 20
84.310908849774904
 30
0.0
  0
VERTEX
  5
84E
  8
DATA
 62
     7
 10
49.784383744271778
 20
84.292731022175573
 30
0.0
  0
VERTEX
  5
84F
  8
DATA
 62
     7
 10
49.882978512288886
 20
84.274242462480544
 30
0.0
  0
VERTEX
  5
850
  8
DATA
 62
     7
 10
49.981337521870287
 20
84.255443170689787
 30
0.0
  0
VERTEX
  5
851
  8
DATA
 62
     7
 10
50.079460773015931
 20
84.236333146803346
 30
0.0
  0
VERTEX
  5
852
  8
DATA
 62
     7
 10
50.17734826572584
 20
84.21691239082115
 30
0.0
  0
VERTEX
  5
853
  8
DATA
 62
     7
 10
50.274999999999991
 20
84.197180902743284
 30
0.0
  0
VERTEX
  5
854
  8
DATA
 62
     7
 10
50.372211803043911
 20
84.177180312776741
 30
0.0
  0
VERTEX
  5
855
  8
DATA
 62
     7
 10
50.468779502063072
 20
84.156952251128573
 30
0.0
  0
VERTEX
  5
856
  8
DATA
 62
     7
 10
50.564703097057482
 20
84.136496717798821
 30
0.0
  0
VERTEX
  5
857
  8
DATA
 62
     7
 10
50.659982588027113
 20
84.115813712787457
 30
0.0
  0
VERTEX
  5
858
  8
DATA
 62
     7
 10
50.754617974972007
 20
84.094903236094481
 30
0.0
  0
VERTEX
  5
859
  8
DATA
 62
     7
 10
50.84860925789215
 20
84.073765287719894
 30
0.0
  0
VERTEX
  5
85A
  8
DATA
 62
     7
 10
50.941956436787507
 20
84.052399867663709
 30
0.0
  0
VERTEX
  5
85B
  8
DATA
 62
     7
 10
51.034659511658127
 20
84.030806975925927
 30
0.0
  0
VERTEX
  5
85C
  8
DATA
 62
     7
 10
51.126718482504003
 20
84.008986612506533
 30
0.0
  0
VERTEX
  5
85D
  8
DATA
 62
     7
 10
51.218133349325093
 20
83.986938777405513
 30
0.0
  0
VERTEX
  5
85E
  8
DATA
 62
     7
 10
51.308904112121439
 20
83.964663470622895
 30
0.0
  0
VERTEX
  5
85F
  8
DATA
 62
     7
 10
51.399030770893027
 20
83.942160692158723
 30
0.0
  0
VERTEX
  5
860
  8
DATA
 62
     7
 10
51.48851332563985
 20
83.91943044201291
 30
0.0
  0
VERTEX
  5
861
  8
DATA
 62
     7
 10
51.57735177636193
 20
83.896472720185486
 30
0.0
  0
VERTEX
  5
862
  8
DATA
 62
     7
 10
51.665546123059251
 20
83.873287526676449
 30
0.0
  0
VERTEX
  5
863
  8
DATA
 62
     7
 10
51.753096365731821
 20
83.849874861485787
 30
0.0
  0
VERTEX
  5
864
  8
DATA
 62
     7
 10
51.840002504379619
 20
83.826234724613556
 30
0.0
  0
VERTEX
  5
865
  8
DATA
 62
     7
 10
51.926264539002673
 20
83.802367116059699
 30
0.0
  0
VERTEX
  5
866
  8
DATA
 62
     7
 10
52.011882469600963
 20
83.778272035824273
 30
0.0
  0
VERTEX
  5
867
  8
DATA
 62
     7
 10
52.096856296174501
 20
83.75394948390722
 30
0.0
  0
VERTEX
  5
868
  8
DATA
 62
     7
 10
52.181186018723281
 20
83.729399460308542
 30
0.0
  0
VERTEX
  5
869
  8
DATA
 62
     7
 10
52.264871637247303
 20
83.704621965028295
 30
0.0
  0
VERTEX
  5
86A
  8
DATA
 62
     7
 10
52.347913151746567
 20
83.679616998066422
 30
0.0
  0
VERTEX
  5
86B
  8
DATA
 62
     7
 10
52.430310562221067
 20
83.654384559422937
 30
0.0
  0
VERTEX
  5
86C
  8
DATA
 62
     7
 10
52.512063868670822
 20
83.628924649097868
 30
0.0
  0
VERTEX
  5
86D
  8
DATA
 62
     7
 10
52.593173071095819
 20
83.603237267091174
 30
0.0
  0
VERTEX
  5
86E
  8
DATA
 62
     7
 10
52.673638169496058
 20
83.577322413402854
 30
0.0
  0
VERTEX
  5
86F
  8
DATA
 62
     7
 10
52.753459163871518
 20
83.55118008803295
 30
0.0
  0
VERTEX
  5
870
  8
DATA
 62
     7
 10
52.832636054222249
 20
83.524810290981449
 30
0.0
  0
VERTEX
  5
871
  8
DATA
 62
     7
 10
52.911168840548207
 20
83.498213022248351
 30
0.0
  0
VERTEX
  5
872
  8
DATA
 62
     7
 10
52.989057522849428
 20
83.47138828183364
 30
0.0
  0
VERTEX
  5
873
  8
DATA
 62
     7
 10
53.066302101125871
 20
83.444336069737304
 30
0.0
  0
VERTEX
  5
874
  8
DATA
 62
     7
 10
53.142902575377569
 20
83.417056385959384
 30
0.0
  0
VERTEX
  5
875
  8
DATA
 62
     7
 10
53.218858945604488
 20
83.389549230499838
 30
0.0
  0
VERTEX
  5
876
  8
DATA
 62
     7
 10
53.294171211806692
 20
83.361814603358695
 30
0.0
  0
VERTEX
  5
877
  8
DATA
 62
     7
 10
53.368839373984109
 20
83.333852504535955
 30
0.0
  0
VERTEX
  5
878
  8
DATA
 62
     7
 10
53.442863432136782
 20
83.305662934031574
 30
0.0
  0
VERTEX
  5
879
  8
DATA
 62
     7
 10
53.516243386264676
 20
83.277245891845652
 30
0.0
  0
VERTEX
  5
87A
  8
DATA
 62
     7
 10
53.588979236367848
 20
83.24860137797809
 30
0.0
  0
VERTEX
  5
87B
  8
DATA
 62
     7
 10
53.66107098244624
 20
83.219729392428903
 30
0.0
  0
VERTEX
  5
87C
  8
DATA
 62
     7
 10
53.732518624499882
 20
83.190629935198146
 30
0.0
  0
VERTEX
  5
87D
  8
DATA
 62
     7
 10
53.803322162528751
 20
83.161303006285763
 30
0.0
  0
VERTEX
  5
87E
  8
DATA
 62
     7
 10
53.873481596532883
 20
83.131748605691783
 30
0.0
  0
VERTEX
  5
87F
  8
DATA
 62
     7
 10
53.942996926512258
 20
83.101966733416205
 30
0.0
  0
VERTEX
  5
880
  8
DATA
 62
     7
 10
54.011868152466882
 20
83.071957389458973
 30
0.0
  0
VERTEX
  5
881
  8
DATA
 62
     7
 10
54.080095274396733
 20
83.041720573820186
 30
0.0
  0
VERTEX
  5
882
  8
DATA
 62
     7
 10
54.147678292301819
 20
83.011256286499773
 30
0.0
  0
VERTEX
  5
883
  8
DATA
 62
     7
 10
54.214617206182183
 20
82.980564527497762
 30
0.0
  0
VERTEX
  5
884
  8
DATA
 62
     7
 10
54.280912016037753
 20
82.949645296814126
 30
0.0
  0
VERTEX
  5
885
  8
DATA
 62
     7
 10
54.34656272186858
 20
82.918498594448934
 30
0.0
  0
VERTEX
  5
886
  8
DATA
 62
     7
 10
54.411569323674662
 20
82.887124420402102
 30
0.0
  0
VERTEX
  5
887
  8
DATA
 62
     7
 10
54.475931821455958
 20
82.855522774673645
 30
0.0
  0
VERTEX
  5
888
  8
DATA
 62
     7
 10
54.539650215212518
 20
82.823693657263618
 30
0.0
  0
VERTEX
  5
889
  8
DATA
 62
     7
 10
54.60272450494432
 20
82.791637068171994
 30
0.0
  0
VERTEX
  5
88A
  8
DATA
 62
     7
 10
54.665154690651363
 20
82.759353007398744
 30
0.0
  0
VERTEX
  5
88B
  8
DATA
 62
     7
 10
54.726940772333663
 20
82.726841474943882
 30
0.0
  0
VERTEX
  5
88C
  8
DATA
 62
     7
 10
54.78808274999119
 20
82.694102470807394
 30
0.0
  0
VERTEX
  5
88D
  8
DATA
 62
     7
 10
54.84858062362396
 20
82.661135994989323
 30
0.0
  0
VERTEX
  5
88E
  8
DATA
 62
     7
 10
54.908434393231971
 20
82.627942047489654
 30
0.0
  0
VERTEX
  5
88F
  8
DATA
 62
     7
 10
54.967644058815239
 20
82.594520628308359
 30
0.0
  0
VERTEX
  5
890
  8
DATA
 62
     7
 10
55.02620962037372
 20
82.560871737445481
 30
0.0
  0
VERTEX
  5
891
  8
DATA
 62
     7
 10
55.084131077907472
 20
82.526995374900977
 30
0.0
  0
VERTEX
  5
892
  8
DATA
 62
     7
 10
55.141408431416473
 20
82.492891540674904
 30
0.0
  0
VERTEX
  5
893
  8
DATA
 62
     7
 10
55.198041680900708
 20
82.458560234767205
 30
0.0
  0
VERTEX
  5
894
  8
DATA
 62
     7
 10
55.253912947142318
 20
82.424073562811657
 30
0.0
  0
VERTEX
  5
895
  8
DATA
 62
     7
 10
55.308904350923413
 20
82.389503630441979
 30
0.0
  0
VERTEX
  5
896
  8
DATA
 62
     7
 10
55.363015892244022
 20
82.3548504376582
 30
0.0
  0
VERTEX
  5
897
  8
DATA
 62
     7
 10
55.416247571104137
 20
82.320113984460292
 30
0.0
  0
VERTEX
  5
898
  8
DATA
 62
     7
 10
55.468599387503751
 20
82.285294270848311
 30
0.0
  0
VERTEX
  5
899
  8
DATA
 62
     7
 10
55.520071341442858
 20
82.250391296822215
 30
0.0
  0
VERTEX
  5
89A
  8
DATA
 62
     7
 10
55.570663432921478
 20
82.215405062382004
 30
0.0
  0
VERTEX
  5
89B
  8
DATA
 62
     7
 10
55.620375661939612
 20
82.180335567527663
 30
0.0
  0
VERTEX
  5
89C
  8
DATA
 62
     7
 10
55.669208028497223
 20
82.145182812259236
 30
0.0
  0
VERTEX
  5
89D
  8
DATA
 62
     7
 10
55.717160532594349
 20
82.109946796576693
 30
0.0
  0
VERTEX
  5
89E
  8
DATA
 62
     7
 10
55.764233174230959
 20
82.074627520480036
 30
0.0
  0
VERTEX
  5
89F
  8
DATA
 62
     7
 10
55.810425953407098
 20
82.039224983969248
 30
0.0
  0
VERTEX
  5
8A0
  8
DATA
 62
     7
 10
55.855738870122728
 20
82.003739187044417
 30
0.0
  0
VERTEX
  5
8A1
  8
DATA
 62
     7
 10
55.900171924377858
 20
81.968170129705442
 30
0.0
  0
VERTEX
  5
8A2
  8
DATA
 62
     7
 10
55.943725116172502
 20
81.932517811952337
 30
0.0
  0
VERTEX
  5
8A3
  8
DATA
 62
     7
 10
55.986398445506637
 20
81.896782233785146
 30
0.0
  0
VERTEX
  5
8A4
  8
DATA
 62
     7
 10
56.028191912380287
 20
81.860963395203854
 30
0.0
  0
VERTEX
  5
8A5
  8
DATA
 62
     7
 10
56.069105516793442
 20
81.825061296208418
 30
0.0
  0
VERTEX
  5
8A6
  8
DATA
 62
     7
 10
56.10913925874609
 20
81.789075936798909
 30
0.0
  0
VERTEX
  5
8A7
  8
DATA
 62
     7
 10
56.14829313823823
 20
81.753007316975257
 30
0.0
  0
VERTEX
  5
8A8
  8
DATA
 62
     7
 10
56.186567155269891
 20
81.716855436737504
 30
0.0
  0
VERTEX
  5
8A9
  8
DATA
 62
     7
 10
56.22396130984103
 20
81.68062029608565
 30
0.0
  0
VERTEX
  5
8AA
  8
DATA
 62
     7
 10
56.260475601951683
 20
81.644301895019694
 30
0.0
  0
VERTEX
  5
8AB
  8
DATA
 62
     7
 10
56.296110031601842
 20
81.607900233539624
 30
0.0
  0
VERTEX
  5
8AC
  8
DATA
 62
     7
 10
56.330864598791507
 20
81.571415311645467
 30
0.0
  0
VERTEX
  5
8AD
  8
DATA
 62
     7
 10
56.364739303520658
 20
81.534847129337166
 30
0.0
  0
VERTEX
  5
8AE
  8
DATA
 62
     7
 10
56.397734145789308
 20
81.498195686614764
 30
0.0
  0
VERTEX
  5
8AF
  8
DATA
 62
     7
 10
56.429849125597499
 20
81.461460983478233
 30
0.0
  0
VERTEX
  5
8B0
  8
DATA
 62
     7
 10
56.461084242945141
 20
81.424643019927643
 30
0.0
  0
VERTEX
  5
8B1
  8
DATA
 62
     7
 10
56.491439497832317
 20
81.38774179596291
 30
0.0
  0
VERTEX
  5
8B2
  8
DATA
 62
     7
 10
56.520914890258993
 20
81.350757311584076
 30
0.0
  0
VERTEX
  5
8B3
  8
DATA
 62
     7
 10
56.549510420225182
 20
81.313689566791126
 30
0.0
  0
VERTEX
  5
8B4
  8
DATA
 62
     7
 10
56.57722608773085
 20
81.276538561584061
 30
0.0
  0
VERTEX
  5
8B5
  8
DATA
 62
     7
 10
56.604061892776031
 20
81.239304295962896
 30
0.0
  0
VERTEX
  5
8B6
  8
DATA
 62
     7
 10
56.630017835360711
 20
81.201986769927657
 30
0.0
  0
VERTEX
  5
8B7
  8
DATA
 62
     7
 10
56.65509391548489
 20
81.164585983478247
 30
0.0
  0
VERTEX
  5
8B8
  8
DATA
 62
     7
 10
56.679290133148612
 20
81.127101936614764
 30
0.0
  0
VERTEX
  5
8B9
  8
DATA
 62
     7
 10
56.702606488351783
 20
81.089534629337152
 30
0.0
  0
VERTEX
  5
8BA
  8
DATA
 62
     7
 10
56.725042981094482
 20
81.051884061645453
 30
0.0
  0
VERTEX
  5
8BB
  8
DATA
 62
     7
 10
56.746599611376659
 20
81.014150233539624
 30
0.0
  0
VERTEX
  5
8BC
  8
DATA
 62
     7
 10
56.767276379198371
 20
80.976333145019709
 30
0.0
  0
VERTEX
  5
8BD
  8
DATA
 62
     7
 10
56.787073284559561
 20
80.93843279608565
 30
0.0
  0
VERTEX
  5
8BE
  8
DATA
 62
     7
 10
56.805990327460258
 20
80.900449186737504
 30
0.0
  0
VERTEX
  5
8BF
  8
DATA
 62
     7
 10
56.82402750790046
 20
80.862382316975257
 30
0.0
  0
VERTEX
  5
8C0
  8
DATA
 62
     7
 10
56.841184825880148
 20
80.824232186798895
 30
0.0
  0
VERTEX
  5
8C1
  8
DATA
 62
     7
 10
56.857462281399371
 20
80.785998796208418
 30
0.0
  0
VERTEX
  5
8C2
  8
DATA
 62
     7
 10
56.872859874458072
 20
80.747682145203854
 30
0.0
  0
VERTEX
  5
8C3
  8
DATA
 62
     7
 10
56.88737760505628
 20
80.709282233785146
 30
0.0
  0
VERTEX
  5
8C4
  8
DATA
 62
     7
 10
56.901015473194001
 20
80.670799061952337
 30
0.0
  0
VERTEX
  5
8C5
  8
DATA
 62
     7
 10
56.913773478871221
 20
80.632232629705427
 30
0.0
  0
VERTEX
  5
8C6
  8
DATA
 62
     7
 10
56.92565162208794
 20
80.593582937044417
 30
0.0
  0
VERTEX
  5
8C7
  8
DATA
 62
     7
 10
56.936649902844181
 20
80.554849983969248
 30
0.0
  0
VERTEX
  5
8C8
  8
DATA
 62
     7
 10
56.946768321139892
 20
80.516033770480036
 30
0.0
  0
VERTEX
  5
8C9
  8
DATA
 62
     7
 10
56.95600687697511
 20
80.477134296576693
 30
0.0
  0
VERTEX
  5
8CA
  8
DATA
 62
     7
 10
56.964365570349848
 20
80.438151562259236
 30
0.0
  0
VERTEX
  5
8CB
  8
DATA
 62
     7
 10
56.971844401264057
 20
80.399085567527663
 30
0.0
  0
VERTEX
  5
8CC
  8
DATA
 62
     7
 10
56.978443369717809
 20
80.359936312382004
 30
0.0
  0
VERTEX
  5
8CD
  8
DATA
 62
     7
 10
56.984162475711031
 20
80.320703796822201
 30
0.0
  0
VERTEX
  5
8CE
  8
DATA
 62
     7
 10
56.989001719243781
 20
80.281388020848297
 30
0.0
  0
VERTEX
  5
8CF
  8
DATA
 62
     7
 10
56.992961100316009
 20
80.241988984460278
 30
0.0
  0
VERTEX
  5
8D0
  8
DATA
 62
     7
 10
56.996040618927758
 20
80.2025066876582
 30
0.0
  0
VERTEX
  5
8D1
  8
DATA
 62
     7
 10
56.998240275079013
 20
80.162941130441979
 30
0.0
  0
VERTEX
  5
8D2
  8
DATA
 62
     7
 10
56.999560068769753
 20
80.123292312811657
 30
0.0
  0
VERTEX
  5
8D3
  8
DATA
 62
     7
 10
57.0
 20
80.083560234767205
 30
0.0
  0
VERTEX
  5
8D4
  8
DATA
 62
     7
 10
56.999560068769753
 20
80.043828156722739
 30
0.0
  0
VERTEX
  5
8D5
  8
DATA
 62
     7
 10
56.998240275079013
 20
80.004179339092431
 30
0.0
  0
VERTEX
  5
8D6
  8
DATA
 62
     7
 10
56.996040618927758
 20
79.964613781876196
 30
0.0
  0
VERTEX
  5
8D7
  8
DATA
 62
     7
 10
56.992961100316009
 20
79.92513148507409
 30
0.0
  0
VERTEX
  5
8D8
  8
DATA
 62
     7
 10
56.989001719243781
 20
79.88573244868607
 30
0.0
  0
VERTEX
  5
8D9
  8
DATA
 62
     7
 10
56.984162475711031
 20
79.846416672712181
 30
0.0
  0
VERTEX
  5
8DA
  8
DATA
 62
     7
 10
56.978443369717809
 20
79.807184157152406
 30
0.0
  0
VERTEX
  5
8DB
  8
DATA
 62
     7
 10
56.971844401264057
 20
79.768034902006733
 30
0.0
  0
VERTEX
  5
8DC
  8
DATA
 62
     7
 10
56.964365570349848
 20
79.728968907275174
 30
0.0
  0
VERTEX
  5
8DD
  8
DATA
 62
     7
 10
56.95600687697511
 20
79.689986172957703
 30
0.0
  0
VERTEX
  5
8DE
  8
DATA
 62
     7
 10
56.946768321139892
 20
79.651086699054375
 30
0.0
  0
VERTEX
  5
8DF
  8
DATA
 62
     7
 10
56.936649902844181
 20
79.612270485565134
 30
0.0
  0
VERTEX
  5
8E0
  8
DATA
 62
     7
 10
56.92565162208794
 20
79.573537532490022
 30
0.0
  0
VERTEX
  5
8E1
  8
DATA
 62
     7
 10
56.913773478871221
 20
79.534887839828954
 30
0.0
  0
VERTEX
  5
8E2
  8
DATA
 62
     7
 10
56.901015473194001
 20
79.496321407582059
 30
0.0
  0
VERTEX
  5
8E3
  8
DATA
 62
     7
 10
56.88737760505628
 20
79.457838235749264
 30
0.0
  0
VERTEX
  5
8E4
  8
DATA
 62
     7
 10
56.872859874458072
 20
79.419438324330571
 30
0.0
  0
VERTEX
  5
8E5
  8
DATA
 62
     7
 10
56.857462281399371
 20
79.381121673325993
 30
0.0
  0
VERTEX
  5
8E6
  8
DATA
 62
     7
 10
56.841184825880148
 20
79.342888282735501
 30
0.0
  0
VERTEX
  5
8E7
  8
DATA
 62
     7
 10
56.82402750790046
 20
79.304738152559153
 30
0.0
  0
VERTEX
  5
8E8
  8
DATA
 62
     7
 10
56.805990327460258
 20
79.266671282796906
 30
0.0
  0
VERTEX
  5
8E9
  8
DATA
 62
     7
 10
56.787073284559561
 20
79.228687673448732
 30
0.0
  0
VERTEX
  5
8EA
  8
DATA
 62
     7
 10
56.767276379198371
 20
79.190787324514702
 30
0.0
  0
VERTEX
  5
8EB
  8
DATA
 62
     7
 10
56.746599611376659
 20
79.152970235994772
 30
0.0
  0
VERTEX
  5
8EC
  8
DATA
 62
     7
 10
56.725042981094482
 20
79.115236407888958
 30
0.0
  0
VERTEX
  5
8ED
  8
DATA
 62
     7
 10
56.702606488351783
 20
79.077585840197244
 30
0.0
  0
VERTEX
  5
8EE
  8
DATA
 62
     7
 10
56.679290133148612
 20
79.04001853291966
 30
0.0
  0
VERTEX
  5
8EF
  8
DATA
 62
     7
 10
56.65509391548489
 20
79.002534486056163
 30
0.0
  0
VERTEX
  5
8F0
  8
DATA
 62
     7
 10
56.630017835360711
 20
78.965133699606753
 30
0.0
  0
VERTEX
  5
8F1
  8
DATA
 62
     7
 10
56.604061892776031
 20
78.9278161735715
 30
0.0
  0
VERTEX
  5
8F2
  8
DATA
 62
     7
 10
56.57722608773085
 20
78.890581907950349
 30
0.0
  0
VERTEX
  5
8F3
  8
DATA
 62
     7
 10
56.549510420225182
 20
78.853430902743284
 30
0.0
  0
VERTEX
  5
8F4
  8
DATA
 62
     7
 10
56.520914890258993
 20
78.816363157950335
 30
0.0
  0
VERTEX
  5
8F5
  8
DATA
 62
     7
 10
56.491439497832317
 20
78.7793786735715
 30
0.0
  0
VERTEX
  5
8F6
  8
DATA
 62
     7
 10
56.461084242945141
 20
78.742477449606753
 30
0.0
  0
VERTEX
  5
8F7
  8
DATA
 62
     7
 10
56.429849125597499
 20
78.705659486056163
 30
0.0
  0
VERTEX
  5
8F8
  8
DATA
 62
     7
 10
56.397734145789308
 20
78.66892478291966
 30
0.0
  0
VERTEX
  5
8F9
  8
DATA
 62
     7
 10
56.364739303520658
 20
78.632273340197244
 30
0.0
  0
VERTEX
  5
8FA
  8
DATA
 62
     7
 10
56.330864598791507
 20
78.595705157888943
 30
0.0
  0
VERTEX
  5
8FB
  8
DATA
 62
     7
 10
56.296110031601842
 20
78.559220235994772
 30
0.0
  0
VERTEX
  5
8FC
  8
DATA
 62
     7
 10
56.260475601951683
 20
78.522818574514702
 30
0.0
  0
VERTEX
  5
8FD
  8
DATA
 62
     7
 10
56.22396130984103
 20
78.486500173448732
 30
0.0
  0
VERTEX
  5
8FE
  8
DATA
 62
     7
 10
56.186567155269891
 20
78.450265032796906
 30
0.0
  0
VERTEX
  5
8FF
  8
DATA
 62
     7
 10
56.14829313823823
 20
78.414113152559153
 30
0.0
  0
VERTEX
  5
900
  8
DATA
 62
     7
 10
56.10913925874609
 20
78.378044532735501
 30
0.0
  0
VERTEX
  5
901
  8
DATA
 62
     7
 10
56.069105516793442
 20
78.342059173325993
 30
0.0
  0
VERTEX
  5
902
  8
DATA
 62
     7
 10
56.028191912380287
 20
78.306157074330571
 30
0.0
  0
VERTEX
  5
903
  8
DATA
 62
     7
 10
55.986398445506637
 20
78.270338235749264
 30
0.0
  0
VERTEX
  5
904
  8
DATA
 62
     7
 10
55.943725116172502
 20
78.234602657582059
 30
0.0
  0
VERTEX
  5
905
  8
DATA
 62
     7
 10
55.900171924377858
 20
78.198950339828954
 30
0.0
  0
VERTEX
  5
906
  8
DATA
 62
     7
 10
55.855738870122728
 20
78.163381282490022
 30
0.0
  0
VERTEX
  5
907
  8
DATA
 62
     7
 10
55.810425953407098
 20
78.127895485565134
 30
0.0
  0
VERTEX
  5
908
  8
DATA
 62
     7
 10
55.764233174230959
 20
78.092492949054375
 30
0.0
  0
VERTEX
  5
909
  8
DATA
 62
     7
 10
55.717160532594349
 20
78.057173672957703
 30
0.0
  0
VERTEX
  5
90A
  8
DATA
 62
     7
 10
55.669208028497223
 20
78.021937657275174
 30
0.0
  0
VERTEX
  5
90B
  8
DATA
 62
     7
 10
55.620375661939612
 20
77.986784902006733
 30
0.0
  0
VERTEX
  5
90C
  8
DATA
 62
     7
 10
55.570663432921478
 20
77.951715407152406
 30
0.0
  0
VERTEX
  5
90D
  8
DATA
 62
     7
 10
55.520071341442858
 20
77.916729172712181
 30
0.0
  0
VERTEX
  5
90E
  8
DATA
 62
     7
 10
55.468599387503751
 20
77.88182619868607
 30
0.0
  0
VERTEX
  5
90F
  8
DATA
 62
     7
 10
55.416247571104137
 20
77.84700648507409
 30
0.0
  0
VERTEX
  5
910
  8
DATA
 62
     7
 10
55.363015892244022
 20
77.812270031876196
 30
0.0
  0
VERTEX
  5
911
  8
DATA
 62
     7
 10
55.308904350923413
 20
77.777616839092431
 30
0.0
  0
VERTEX
  5
912
  8
DATA
 62
     7
 10
55.253912947142318
 20
77.743046906722725
 30
0.0
  0
VERTEX
  5
913
  8
DATA
 62
     7
 10
55.198041680900708
 20
77.708560234767205
 30
0.0
  0
VERTEX
  5
914
  8
DATA
 62
     7
 10
55.141408431416473
 20
77.674228928859478
 30
0.0
  0
VERTEX
  5
915
  8
DATA
 62
     7
 10
55.084131077907472
 20
77.640125094633405
 30
0.0
  0
VERTEX
  5
916
  8
DATA
 62
     7
 10
55.02620962037372
 20
77.606248732088915
 30
0.0
  0
VERTEX
  5
917
  8
DATA
 62
     7
 10
54.967644058815239
 20
77.572599841226037
 30
0.0
  0
VERTEX
  5
918
  8
DATA
 62
     7
 10
54.908434393231971
 20
77.539178422044756
 30
0.0
  0
VERTEX
  5
919
  8
DATA
 62
     7
 10
54.84858062362396
 20
77.505984474545059
 30
0.0
  0
VERTEX
  5
91A
  8
DATA
 62
     7
 10
54.78808274999119
 20
77.473017998727016
 30
0.0
  0
VERTEX
  5
91B
  8
DATA
 62
     7
 10
54.726940772333663
 20
77.440278994590543
 30
0.0
  0
VERTEX
  5
91C
  8
DATA
 62
     7
 10
54.665154690651363
 20
77.407767462135681
 30
0.0
  0
VERTEX
  5
91D
  8
DATA
 62
     7
 10
54.60272450494432
 20
77.375483401362445
 30
0.0
  0
VERTEX
  5
91E
  8
DATA
 62
     7
 10
54.539650215212518
 20
77.343426812270778
 30
0.0
  0
VERTEX
  5
91F
  8
DATA
 62
     7
 10
54.475931821455958
 20
77.311597694860751
 30
0.0
  0
VERTEX
  5
920
  8
DATA
 62
     7
 10
54.411569323674662
 20
77.279996049132308
 30
0.0
  0
VERTEX
  5
921
  8
DATA
 62
     7
 10
54.34656272186858
 20
77.24862187508549
 30
0.0
  0
VERTEX
  5
922
  8
DATA
 62
     7
 10
54.280912016037753
 20
77.21747517272027
 30
0.0
  0
VERTEX
  5
923
  8
DATA
 62
     7
 10
54.214617206182183
 20
77.186555942036634
 30
0.0
  0
VERTEX
  5
924
  8
DATA
 62
     7
 10
54.147678292301819
 20
77.155864183034623
 30
0.0
  0
VERTEX
  5
925
  8
DATA
 62
     7
 10
54.080095274396733
 20
77.12539989571421
 30
0.0
  0
VERTEX
  5
926
  8
DATA
 62
     7
 10
54.011868152466882
 20
77.095163080075423
 30
0.0
  0
VERTEX
  5
927
  8
DATA
 62
     7
 10
53.942996926512258
 20
77.065153736118205
 30
0.0
  0
VERTEX
  5
928
  8
DATA
 62
     7
 10
53.873481596532883
 20
77.035371863842627
 30
0.0
  0
VERTEX
  5
929
  8
DATA
 62
     7
 10
53.803322162528751
 20
77.005817463248647
 30
0.0
  0
VERTEX
  5
92A
  8
DATA
 62
     7
 10
53.732518624499882
 20
76.976490534336264
 30
0.0
  0
VERTEX
  5
92B
  8
DATA
 62
     7
 10
53.66107098244624
 20
76.947391077105479
 30
0.0
  0
VERTEX
  5
92C
  8
DATA
 62
     7
 10
53.588979236367848
 20
76.918519091556306
 30
0.0
  0
VERTEX
  5
92D
  8
DATA
 62
     7
 10
53.516243386264676
 20
76.889874577688772
 30
0.0
  0
VERTEX
  5
92E
  8
DATA
 62
     7
 10
53.442863432136782
 20
76.861457535502822
 30
0.0
  0
VERTEX
  5
92F
  8
DATA
 62
     7
 10
53.368839373984109
 20
76.833267964998456
 30
0.0
  0
VERTEX
  5
930
  8
DATA
 62
     7
 10
53.294171211806692
 20
76.805305866175701
 30
0.0
  0
VERTEX
  5
931
  8
DATA
 62
     7
 10
53.218858945604488
 20
76.777571239034572
 30
0.0
  0
VERTEX
  5
932
  8
DATA
 62
     7
 10
53.142902575377569
 20
76.750064083575054
 30
0.0
  0
VERTEX
  5
933
  8
DATA
 62
     7
 10
53.066302101125871
 20
76.722784399797092
 30
0.0
  0
VERTEX
  5
934
  8
DATA
 62
     7
 10
52.989057522849428
 20
76.69573218770077
 30
0.0
  0
VERTEX
  5
935
  8
DATA
 62
     7
 10
52.911168840548207
 20
76.66890744728606
 30
0.0
  0
VERTEX
  5
936
  8
DATA
 62
     7
 10
52.832636054222249
 20
76.642310178552933
 30
0.0
  0
VERTEX
  5
937
  8
DATA
 62
     7
 10
52.753459163871518
 20
76.615940381501431
 30
0.0
  0
VERTEX
  5
938
  8
DATA
 62
     7
 10
52.673638169496058
 20
76.589798056131542
 30
0.0
  0
VERTEX
  5
939
  8
DATA
 62
     7
 10
52.593173071095819
 20
76.56388320244325
 30
0.0
  0
VERTEX
  5
93A
  8
DATA
 62
     7
 10
52.512063868670822
 20
76.538195820436542
 30
0.0
  0
VERTEX
  5
93B
  8
DATA
 62
     7
 10
52.430310562221067
 20
76.512735910111459
 30
0.0
  0
VERTEX
  5
93C
  8
DATA
 62
     7
 10
52.347913151746567
 20
76.487503471468003
 30
0.0
  0
VERTEX
  5
93D
  8
DATA
 62
     7
 10
52.264871637247303
 20
76.462498504506115
 30
0.0
  0
VERTEX
  5
93E
  8
DATA
 62
     7
 10
52.181186018723281
 20
76.437721009225854
 30
0.0
  0
VERTEX
  5
93F
  8
DATA
 62
     7
 10
52.096856296174501
 20
76.41317098562719
 30
0.0
  0
VERTEX
  5
940
  8
DATA
 62
     7
 10
52.011882469600963
 20
76.388848433710123
 30
0.0
  0
VERTEX
  5
941
  8
DATA
 62
     7
 10
51.926264539002673
 20
76.364753353474683
 30
0.0
  0
VERTEX
  5
942
  8
DATA
 62
     7
 10
51.840002504379619
 20
76.34088574492084
 30
0.0
  0
VERTEX
  5
943
  8
DATA
 62
     7
 10
51.753096365731821
 20
76.317245608048623
 30
0.0
  0
VERTEX
  5
944
  8
DATA
 62
     7
 10
51.665546123059251
 20
76.293832942857946
 30
0.0
  0
VERTEX
  5
945
  8
DATA
 62
     7
 10
51.57735177636193
 20
76.270647749348925
 30
0.0
  0
VERTEX
  5
946
  8
DATA
 62
     7
 10
51.48851332563985
 20
76.2476900275215
 30
0.0
  0
VERTEX
  5
947
  8
DATA
 62
     7
 10
51.399030770893027
 20
76.224959777375702
 30
0.0
  0
VERTEX
  5
948
  8
DATA
 62
     7
 10
51.308904112121439
 20
76.202456998911487
 30
0.0
  0
VERTEX
  5
949
  8
DATA
 62
     7
 10
51.218133349325093
 20
76.180181692128883
 30
0.0
  0
VERTEX
  5
94A
  8
DATA
 62
     7
 10
51.126718482504003
 20
76.158133857027877
 30
0.0
  0
VERTEX
  5
94B
  8
DATA
 62
     7
 10
51.034659511658127
 20
76.136313493608483
 30
0.0
  0
VERTEX
  5
94C
  8
DATA
 62
     7
 10
50.941956436787507
 20
76.114720601870687
 30
0.0
  0
VERTEX
  5
94D
  8
DATA
 62
     7
 10
50.84860925789215
 20
76.093355181814502
 30
0.0
  0
VERTEX
  5
94E
  8
DATA
 62
     7
 10
50.754617974972007
 20
76.072217233439943
 30
0.0
  0
VERTEX
  5
94F
  8
DATA
 62
     7
 10
50.659982588027113
 20
76.051306756746925
 30
0.0
  0
VERTEX
  5
950
  8
DATA
 62
     7
 10
50.564703097057482
 20
76.03062375173559
 30
0.0
  0
VERTEX
  5
951
  8
DATA
 62
     7
 10
50.468779502063072
 20
76.010168218405795
 30
0.0
  0
VERTEX
  5
952
  8
DATA
 62
     7
 10
50.372211803043911
 20
75.989940156757683
 30
0.0
  0
VERTEX
  5
953
  8
DATA
 62
     7
 10
50.274999999999991
 20
75.969939566791126
 30
0.0
  0
VERTEX
  5
954
  8
DATA
 62
     7
 10
50.17734826572584
 20
75.950208078713231
 30
0.0
  0
VERTEX
  5
955
  8
DATA
 62
     7
 10
50.079460773015931
 20
75.930787322731064
 30
0.0
  0
VERTEX
  5
956
  8
DATA
 62
     7
 10
49.981337521870287
 20
75.911677298844623
 30
0.0
  0
VERTEX
  5
957
  8
DATA
 62
     7
 10
49.882978512288886
 20
75.892878007053866
 30
0.0
  0
VERTEX
  5
958
  8
DATA
 62
     7
 10
49.784383744271778
 20
75.874389447358809
 30
0.0
  0
VERTEX
  5
959
  8
DATA
 62
     7
 10
49.685553217818899
 20
75.856211619759506
 30
0.0
  0
VERTEX
  5
95A
  8
DATA
 62
     7
 10
49.586486932930299
 20
75.838344524255902
 30
0.0
  0
VERTEX
  5
95B
  8
DATA
 62
     7
 10
49.487184889605942
 20
75.820788160848011
 30
0.0
  0
VERTEX
  5
95C
  8
DATA
 62
     7
 10
49.387647087845849
 20
75.803542529535861
 30
0.0
  0
VERTEX
  5
95D
  8
DATA
 62
     7
 10
49.287873527650021
 20
75.786607630319395
 30
0.0
  0
VERTEX
  5
95E
  8
DATA
 62
     7
 10
49.187864209018443
 20
75.769983463198656
 30
0.0
  0
VERTEX
  5
95F
  8
DATA
 62
     7
 10
49.087619131951129
 20
75.75367002817363
 30
0.0
  0
VERTEX
  5
960
  8
DATA
 62
     7
 10
48.98713829644808
 20
75.737667325244345
 30
0.0
  0
VERTEX
  5
961
  8
DATA
 62
     7
 10
48.886421702509281
 20
75.721975354410702
 30
0.0
  0
VERTEX
  5
962
  8
DATA
 62
     7
 10
48.78546935013474
 20
75.706594115672829
 30
0.0
  0
VERTEX
  5
963
  8
DATA
 62
     7
 10
48.684281239324463
 20
75.691523609030654
 30
0.0
  0
VERTEX
  5
964
  8
DATA
 62
     7
 10
48.582857370078457
 20
75.676763834484191
 30
0.0
  0
VERTEX
  5
965
  8
DATA
 62
     7
 10
48.481197742396709
 20
75.66231479203347
 30
0.0
  0
VERTEX
  5
966
  8
DATA
 62
     7
 10
48.379302356279197
 20
75.648176481678433
 30
0.0
  0
VERTEX
  5
967
  8
DATA
 62
     7
 10
48.277171211725957
 20
75.634348903419124
 30
0.0
  0
VERTEX
  5
968
  8
DATA
 62
     7
 10
48.174804308736967
 20
75.620832057255541
 30
0.0
  0
VERTEX
  5
969
  8
DATA
 62
     7
 10
48.072201647312262
 20
75.607625943187657
 30
0.0
  0
VERTEX
  5
96A
  8
DATA
 62
     7
 10
47.969363227451787
 20
75.594730561215499
 30
0.0
  0
VERTEX
  5
96B
  8
DATA
 62
     7
 10
47.86628904915559
 20
75.582145911339069
 30
0.0
  0
VERTEX
  5
96C
  8
DATA
 62
     7
 10
47.762979112423629
 20
75.569871993558294
 30
0.0
  0
VERTEX
  5
96D
  8
DATA
 62
     7
 10
47.659433417255961
 20
75.557908807873304
 30
0.0
  0
VERTEX
  5
96E
  8
DATA
 62
     7
 10
47.555651963652529
 20
75.546256354283983
 30
0.0
  0
VERTEX
  5
96F
  8
DATA
 62
     7
 10
47.451634751613362
 20
75.534914632790404
 30
0.0
  0
VERTEX
  5
970
  8
DATA
 62
     7
 10
47.347381781138459
 20
75.523883643392494
 30
0.0
  0
VERTEX
  5
971
  8
DATA
 62
     7
 10
47.242893052227807
 20
75.513163386090369
 30
0.0
  0
VERTEX
  5
972
  8
DATA
 62
     7
 10
47.138168564881433
 20
75.502753860883942
 30
0.0
  0
VERTEX
  5
973
  8
DATA
 62
     7
 10
47.033208319099288
 20
75.492655067773185
 30
0.0
  0
VERTEX
  5
974
  8
DATA
 62
     7
 10
46.928012314881421
 20
75.482867006758156
 30
0.0
  0
VERTEX
  5
975
  8
DATA
 62
     7
 10
46.822580552227812
 20
75.473389677838853
 30
0.0
  0
VERTEX
  5
976
  8
DATA
 62
     7
 10
46.716913031138461
 20
75.464223081015305
 30
0.0
  0
VERTEX
  5
977
  8
DATA
 62
     7
 10
46.611009751613359
 20
75.455367216287399
 30
0.0
  0
VERTEX
  5
978
  8
DATA
 62
     7
 10
46.504870713652537
 20
75.446822083655263
 30
0.0
  0
VERTEX
  5
979
  8
DATA
 62
     7
 10
46.398495917255957
 20
75.438587683118811
 30
0.0
  0
VERTEX
  5
97A
  8
DATA
 62
     7
 10
46.291885362423642
 20
75.430664014678072
 30
0.0
  0
VERTEX
  5
97B
  8
DATA
 62
     7
 10
46.185039049155591
 20
75.42305107833306
 30
0.0
  0
VERTEX
  5
97C
  8
DATA
 62
     7
 10
46.077956977451798
 20
75.415748874083761
 30
0.0
  0
VERTEX
  5
97D
  8
DATA
 62
     7
 10
45.970639147312262
 20
75.408757401930188
 30
0.0
  0
VERTEX
  5
97E
  8
DATA
 62
     7
 10
45.863085558736969
 20
75.402076661872343
 30
0.0
  0
VERTEX
  5
97F
  8
DATA
 62
     7
 10
45.755296211725963
 20
75.395706653910153
 30
0.0
  0
VERTEX
  5
980
  8
DATA
 62
     7
 10
45.647271106279213
 20
75.389647378043733
 30
0.0
  0
VERTEX
  5
981
  8
DATA
 62
     7
 10
45.539010242396699
 20
75.383898834272983
 30
0.0
  0
VERTEX
  5
982
  8
DATA
 62
     7
 10
45.430513620078457
 20
75.378461022598003
 30
0.0
  0
VERTEX
  5
983
  8
DATA
 62
     7
 10
45.321781239324459
 20
75.373333943018707
 30
0.0
  0
VERTEX
  5
984
  8
DATA
 62
     7
 10
45.212813100134753
 20
75.368517595535124
 30
0.0
  0
VERTEX
  5
985
  8
DATA
 62
     7
 10
45.103609202509283
 20
75.364011980147254
 30
0.0
  0
VERTEX
  5
986
  8
DATA
 62
     7
 10
44.99416954644807
 20
75.359817096855124
 30
0.0
  0
VERTEX
  5
987
  8
DATA
 62
     7
 10
44.884494131951122
 20
75.35593294565868
 30
0.0
  0
VERTEX
  5
988
  8
DATA
 62
     7
 10
44.774582959018453
 20
75.352359526557947
 30
0.0
  0
VERTEX
  5
989
  8
DATA
 62
     7
 10
44.664436027649998
 20
75.349096839552942
 30
0.0
  0
VERTEX
  5
98A
  8
DATA
 62
     7
 10
44.554053337845843
 20
75.346144884643664
 30
0.0
  0
VERTEX
  5
98B
  8
DATA
 62
     7
 10
44.443434889605932
 20
75.343503661830084
 30
0.0
  0
VERTEX
  5
98C
  8
DATA
 62
     7
 10
44.332580682930278
 20
75.341173171112203
 30
0.0
  0
VERTEX
  5
98D
  8
DATA
 62
     7
 10
44.221490717818902
 20
75.339153412490063
 30
0.0
  0
VERTEX
  5
98E
  8
DATA
 62
     7
 10
44.11016499427177
 20
75.337444385963622
 30
0.0
  0
VERTEX
  5
98F
  8
DATA
 62
     7
 10
43.998603512288888
 20
75.336046091532936
 30
0.0
  0
VERTEX
  5
990
  8
DATA
 62
     7
 10
43.886806271870292
 20
75.334958529197934
 30
0.0
  0
VERTEX
  5
991
  8
DATA
 62
     7
 10
43.77477327301591
 20
75.334181698958645
 30
0.0
  0
VERTEX
  5
992
  8
DATA
 62
     7
 10
43.662504515725843
 20
75.333715600815054
 30
0.0
  0
VERTEX
  5
993
  8
DATA
 62
     7
 10
43.54999999999999
 20
75.333560234767205
 30
0.0
  0
VERTEX
  5
994
  8
DATA
 62
     7
 10
43.437495484274159
 20
75.333715600815054
 30
0.0
  0
VERTEX
  5
995
  8
DATA
 62
     7
 10
43.32522672698407
 20
75.334181698958645
 30
0.0
  0
VERTEX
  5
996
  8
DATA
 62
     7
 10
43.21319372812971
 20
75.334958529197934
 30
0.0
  0
VERTEX
  5
997
  8
DATA
 62
     7
 10
43.101396487711099
 20
75.336046091532936
 30
0.0
  0
VERTEX
  5
998
  8
DATA
 62
     7
 10
42.989835005728217
 20
75.337444385963622
 30
0.0
  0
VERTEX
  5
999
  8
DATA
 62
     7
 10
42.878509282181099
 20
75.339153412490063
 30
0.0
  0
VERTEX
  5
99A
  8
DATA
 62
     7
 10
42.767419317069688
 20
75.341173171112203
 30
0.0
  0
VERTEX
  5
99B
  8
DATA
 62
     7
 10
42.656565110394048
 20
75.343503661830084
 30
0.0
  0
VERTEX
  5
99C
  8
DATA
 62
     7
 10
42.545946662154151
 20
75.346144884643664
 30
0.0
  0
VERTEX
  5
99D
  8
DATA
 62
     7
 10
42.435563972349982
 20
75.349096839552942
 30
0.0
  0
VERTEX
  5
99E
  8
DATA
 62
     7
 10
42.325417040981549
 20
75.352359526557947
 30
0.0
  0
VERTEX
  5
99F
  8
DATA
 62
     7
 10
42.215505868048872
 20
75.35593294565868
 30
0.0
  0
VERTEX
  5
9A0
  8
DATA
 62
     7
 10
42.105830453551917
 20
75.359817096855124
 30
0.0
  0
VERTEX
  5
9A1
  8
DATA
 62
     7
 10
41.996390797490712
 20
75.364011980147254
 30
0.0
  0
VERTEX
  5
9A2
  8
DATA
 62
     7
 10
41.887186899865242
 20
75.368517595535124
 30
0.0
  0
VERTEX
  5
9A3
  8
DATA
 62
     7
 10
41.778218760675529
 20
75.373333943018707
 30
0.0
  0
VERTEX
  5
9A4
  8
DATA
 62
     7
 10
41.669486379921523
 20
75.378461022598003
 30
0.0
  0
VERTEX
  5
9A5
  8
DATA
 62
     7
 10
41.560989757603288
 20
75.383898834272983
 30
0.0
  0
VERTEX
  5
9A6
  8
DATA
 62
     7
 10
41.452728893720789
 20
75.389647378043733
 30
0.0
  0
VERTEX
  5
9A7
  8
DATA
 62
     7
 10
41.344703788274032
 20
75.395706653910153
 30
0.0
  0
VERTEX
  5
9A8
  8
DATA
 62
     7
 10
41.236914441263011
 20
75.402076661872343
 30
0.0
  0
VERTEX
  5
9A9
  8
DATA
 62
     7
 10
41.129360852687732
 20
75.408757401930188
 30
0.0
  0
VERTEX
  5
9AA
  8
DATA
 62
     7
 10
41.022043022548203
 20
75.415748874083761
 30
0.0
  0
VERTEX
  5
9AB
  8
DATA
 62
     7
 10
40.914960950844403
 20
75.42305107833306
 30
0.0
  0
VERTEX
  5
9AC
  8
DATA
 62
     7
 10
40.808114637576352
 20
75.430664014678072
 30
0.0
  0
VERTEX
  5
9AD
  8
DATA
 62
     7
 10
40.70150408274403
 20
75.438587683118811
 30
0.0
  0
VERTEX
  5
9AE
  8
DATA
 62
     7
 10
40.595129286347436
 20
75.446822083655263
 30
0.0
  0
VERTEX
  5
9AF
  8
DATA
 62
     7
 10
40.488990248386628
 20
75.455367216287399
 30
0.0
  0
VERTEX
  5
9B0
  8
DATA
 62
     7
 10
40.383086968861527
 20
75.464223081015305
 30
0.0
  0
VERTEX
  5
9B1
  8
DATA
 62
     7
 10
40.277419447772182
 20
75.473389677838853
 30
0.0
  0
VERTEX
  5
9B2
  8
DATA
 62
     7
 10
40.171987685118573
 20
75.482867006758156
 30
0.0
  0
VERTEX
  5
9B3
  8
DATA
 62
     7
 10
40.066791680900693
 20
75.492655067773185
 30
0.0
  0
VERTEX
  5
9B4
  8
DATA
 62
     7
 10
39.961831435118569
 20
75.502753860883942
 30
0.0
  0
VERTEX
  5
9B5
  8
DATA
 62
     7
 10
39.857106947772181
 20
75.513163386090369
 30
0.0
  0
VERTEX
  5
9B6
  8
DATA
 62
     7
 10
39.752618218861528
 20
75.523883643392494
 30
0.0
  0
VERTEX
  5
9B7
  8
DATA
 62
     7
 10
39.648365248386632
 20
75.534914632790404
 30
0.0
  0
VERTEX
  5
9B8
  8
DATA
 62
     7
 10
39.544348036347451
 20
75.546256354283983
 30
0.0
  0
VERTEX
  5
9B9
  8
DATA
 62
     7
 10
39.44056658274404
 20
75.557908807873304
 30
0.0
  0
VERTEX
  5
9BA
  8
DATA
 62
     7
 10
39.337020887576351
 20
75.569871993558294
 30
0.0
  0
VERTEX
  5
9BB
  8
DATA
 62
     7
 10
39.233710950844397
 20
75.582145911339069
 30
0.0
  0
VERTEX
  5
9BC
  8
DATA
 62
     7
 10
39.1306367725482
 20
75.594730561215499
 30
0.0
  0
VERTEX
  5
9BD
  8
DATA
 62
     7
 10
39.027798352687732
 20
75.607625943187657
 30
0.0
  0
VERTEX
  5
9BE
  8
DATA
 62
     7
 10
38.925195691263013
 20
75.620832057255541
 30
0.0
  0
VERTEX
  5
9BF
  8
DATA
 62
     7
 10
38.822828788274037
 20
75.634348903419124
 30
0.0
  0
VERTEX
  5
9C0
  8
DATA
 62
     7
 10
38.720697643720797
 20
75.648176481678433
 30
0.0
  0
VERTEX
  5
9C1
  8
DATA
 62
     7
 10
38.618802257603299
 20
75.66231479203347
 30
0.0
  0
VERTEX
  5
9C2
  8
DATA
 62
     7
 10
38.51714262992153
 20
75.676763834484191
 30
0.0
  0
VERTEX
  5
9C3
  8
DATA
 62
     7
 10
38.415718760675531
 20
75.691523609030654
 30
0.0
  0
VERTEX
  5
9C4
  8
DATA
 62
     7
 10
38.314530649865247
 20
75.706594115672829
 30
0.0
  0
VERTEX
  5
9C5
  8
DATA
 62
     7
 10
38.21357829749072
 20
75.721975354410702
 30
0.0
  0
VERTEX
  5
9C6
  8
DATA
 62
     7
 10
38.112861703551921
 20
75.737667325244345
 30
0.0
  0
VERTEX
  5
9C7
  8
DATA
 62
     7
 10
38.012380868048858
 20
75.75367002817363
 30
0.0
  0
VERTEX
  5
9C8
  8
DATA
 62
     7
 10
37.912135790981552
 20
75.769983463198656
 30
0.0
  0
VERTEX
  5
9C9
  8
DATA
 62
     7
 10
37.812126472349981
 20
75.786607630319395
 30
0.0
  0
VERTEX
  5
9CA
  8
DATA
 62
     7
 10
37.712352912154152
 20
75.803542529535861
 30
0.0
  0
VERTEX
  5
9CB
  8
DATA
 62
     7
 10
37.612815110394052
 20
75.820788160848011
 30
0.0
  0
VERTEX
  5
9CC
  8
DATA
 62
     7
 10
37.513513067069702
 20
75.838344524255902
 30
0.0
  0
VERTEX
  5
9CD
  8
DATA
 62
     7
 10
37.414446782181102
 20
75.856211619759506
 30
0.0
  0
VERTEX
  5
9CE
  8
DATA
 62
     7
 10
37.31561625572823
 20
75.874389447358809
 30
0.0
  0
VERTEX
  5
9CF
  8
DATA
 62
     7
 10
37.217021487711101
 20
75.892878007053866
 30
0.0
  0
VERTEX
  5
9D0
  8
DATA
 62
     7
 10
37.1186624781297
 20
75.911677298844623
 30
0.0
  0
VERTEX
  5
9D1
  8
DATA
 62
     7
 10
37.020539226984063
 20
75.930787322731064
 30
0.0
  0
VERTEX
  5
9D2
  8
DATA
 62
     7
 10
36.922651734274162
 20
75.950208078713231
 30
0.0
  0
VERTEX
  5
9D3
  8
DATA
 62
     7
 10
36.825000000000003
 20
75.969939566791126
 30
0.0
  0
VERTEX
  5
9D4
  8
DATA
 62
     7
 10
36.727788196956077
 20
75.989940156757683
 30
0.0
  0
VERTEX
  5
9D5
  8
DATA
 62
     7
 10
36.631220497936923
 20
76.010168218405795
 30
0.0
  0
VERTEX
  5
9D6
  8
DATA
 62
     7
 10
36.535296902942527
 20
76.03062375173559
 30
0.0
  0
VERTEX
  5
9D7
  8
DATA
 62
     7
 10
36.440017411972882
 20
76.051306756746925
 30
0.0
  0
VERTEX
  5
9D8
  8
DATA
 62
     7
 10
36.345382025027988
 20
76.072217233439943
 30
0.0
  0
VERTEX
  5
9D9
  8
DATA
 62
     7
 10
36.251390742107851
 20
76.093355181814502
 30
0.0
  0
VERTEX
  5
9DA
  8
DATA
 62
     7
 10
36.158043563212487
 20
76.114720601870687
 30
0.0
  0
VERTEX
  5
9DB
  8
DATA
 62
     7
 10
36.065340488341867
 20
76.136313493608483
 30
0.0
  0
VERTEX
  5
9DC
  8
DATA
 62
     7
 10
35.973281517496012
 20
76.158133857027877
 30
0.0
  0
VERTEX
  5
9DD
  8
DATA
 62
     7
 10
35.881866650674887
 20
76.180181692128883
 30
0.0
  0
VERTEX
  5
9DE
  8
DATA
 62
     7
 10
35.791095887878562
 20
76.202456998911487
 30
0.0
  0
VERTEX
  5
9DF
  8
DATA
 62
     7
 10
35.700969229106967
 20
76.224959777375702
 30
0.0
  0
VERTEX
  5
9E0
  8
DATA
 62
     7
 10
35.61148667436013
 20
76.2476900275215
 30
0.0
  0
VERTEX
  5
9E1
  8
DATA
 62
     7
 10
35.522648223638051
 20
76.270647749348925
 30
0.0
  0
VERTEX
  5
9E2
  8
DATA
 62
     7
 10
35.434453876940729
 20
76.293832942857946
 30
0.0
  0
VERTEX
  5
9E3
  8
DATA
 62
     7
 10
35.346903634268173
 20
76.317245608048623
 30
0.0
  0
VERTEX
  5
9E4
  8
DATA
 62
     7
 10
35.259997495620368
 20
76.34088574492084
 30
0.0
  0
VERTEX
  5
9E5
  8
DATA
 62
     7
 10
35.173735460997321
 20
76.364753353474683
 30
0.0
  0
VERTEX
  5
9E6
  8
DATA
 62
     7
 10
35.088117530399032
 20
76.388848433710123
 30
0.0
  0
VERTEX
  5
9E7
  8
DATA
 62
     7
 10
35.003143703825501
 20
76.41317098562719
 30
0.0
  0
VERTEX
  5
9E8
  8
DATA
 62
     7
 10
34.91881398127672
 20
76.437721009225854
 30
0.0
  0
VERTEX
  5
9E9
  8
DATA
 62
     7
 10
34.835128362752698
 20
76.462498504506115
 30
0.0
  0
VERTEX
  5
9EA
  8
DATA
 62
     7
 10
34.752086848253441
 20
76.487503471468003
 30
0.0
  0
VERTEX
  5
9EB
  8
DATA
 62
     7
 10
34.669689437778928
 20
76.512735910111459
 30
0.0
  0
VERTEX
  5
9EC
  8
DATA
 62
     7
 10
34.587936131329172
 20
76.538195820436542
 30
0.0
  0
VERTEX
  5
9ED
  8
DATA
 62
     7
 10
34.506826928904168
 20
76.56388320244325
 30
0.0
  0
VERTEX
  5
9EE
  8
DATA
 62
     7
 10
34.426361830503943
 20
76.589798056131542
 30
0.0
  0
VERTEX
  5
9EF
  8
DATA
 62
     7
 10
34.346540836128447
 20
76.615940381501431
 30
0.0
  0
VERTEX
  5
9F0
  8
DATA
 62
     7
 10
34.267363945777731
 20
76.642310178552933
 30
0.0
  0
VERTEX
  5
9F1
  8
DATA
 62
     7
 10
34.18883115945178
 20
76.66890744728606
 30
0.0
  0
VERTEX
  5
9F2
  8
DATA
 62
     7
 10
34.110942477150559
 20
76.69573218770077
 30
0.0
  0
VERTEX
  5
9F3
  8
DATA
 62
     7
 10
34.033697898874109
 20
76.722784399797092
 30
0.0
  0
VERTEX
  5
9F4
  8
DATA
 62
     7
 10
33.957097424622411
 20
76.750064083575054
 30
0.0
  0
VERTEX
  5
9F5
  8
DATA
 62
     7
 10
33.881141054395478
 20
76.777571239034572
 30
0.0
  0
VERTEX
  5
9F6
  8
DATA
 62
     7
 10
33.80582878819331
 20
76.805305866175701
 30
0.0
  0
VERTEX
  5
9F7
  8
DATA
 62
     7
 10
33.731160626015878
 20
76.833267964998456
 30
0.0
  0
VERTEX
  5
9F8
  8
DATA
 62
     7
 10
33.657136567863212
 20
76.861457535502822
 30
0.0
  0
VERTEX
  5
9F9
  8
DATA
 62
     7
 10
33.583756613735311
 20
76.889874577688772
 30
0.0
  0
VERTEX
  5
9FA
  8
DATA
 62
     7
 10
33.511020763632153
 20
76.918519091556306
 30
0.0
  0
VERTEX
  5
9FB
  8
DATA
 62
     7
 10
33.438929017553747
 20
76.947391077105479
 30
0.0
  0
VERTEX
  5
9FC
  8
DATA
 62
     7
 10
33.367481375500098
 20
76.976490534336264
 30
0.0
  0
VERTEX
  5
9FD
  8
DATA
 62
     7
 10
33.296677837471229
 20
77.005817463248647
 30
0.0
  0
VERTEX
  5
9FE
  8
DATA
 62
     7
 10
33.22651840346709
 20
77.035371863842627
 30
0.0
  0
VERTEX
  5
9FF
  8
DATA
 62
     7
 10
33.157003073487729
 20
77.065153736118205
 30
0.0
  0
VERTEX
  5
A00
  8
DATA
 62
     7
 10
33.08813184753312
 20
77.095163080075423
 30
0.0
  0
VERTEX
  5
A01
  8
DATA
 62
     7
 10
33.019904725603247
 20
77.12539989571421
 30
0.0
  0
VERTEX
  5
A02
  8
DATA
 62
     7
 10
32.952321707698147
 20
77.155864183034623
 30
0.0
  0
VERTEX
  5
A03
  8
DATA
 62
     7
 10
32.885382793817811
 20
77.186555942036634
 30
0.0
  0
VERTEX
  5
A04
  8
DATA
 62
     7
 10
32.819087983962227
 20
77.21747517272027
 30
0.0
  0
VERTEX
  5
A05
  8
DATA
 62
     7
 10
32.7534372781314
 20
77.24862187508549
 30
0.0
  0
VERTEX
  5
A06
  8
DATA
 62
     7
 10
32.688430676325332
 20
77.279996049132308
 30
0.0
  0
VERTEX
  5
A07
  8
DATA
 62
     7
 10
32.624068178544029
 20
77.311597694860751
 30
0.0
  0
VERTEX
  5
A08
  8
DATA
 62
     7
 10
32.560349784787469
 20
77.343426812270778
 30
0.0
  0
VERTEX
  5
A09
  8
DATA
 62
     7
 10
32.497275495055661
 20
77.375483401362445
 30
0.0
  0
VERTEX
  5
A0A
  8
DATA
 62
     7
 10
32.43484530934861
 20
77.407767462135681
 30
0.0
  0
VERTEX
  5
A0B
  8
DATA
 62
     7
 10
32.373059227666332
 20
77.440278994590543
 30
0.0
  0
VERTEX
  5
A0C
  8
DATA
 62
     7
 10
32.311917250008811
 20
77.473017998727016
 30
0.0
  0
VERTEX
  5
A0D
  8
DATA
 62
     7
 10
32.251419376376042
 20
77.505984474545059
 30
0.0
  0
VERTEX
  5
A0E
  8
DATA
 62
     7
 10
32.191565606768009
 20
77.539178422044756
 30
0.0
  0
VERTEX
  5
A0F
  8
DATA
 62
     7
 10
32.132355941184763
 20
77.572599841226037
 30
0.0
  0
VERTEX
  5
A10
  8
DATA
 62
     7
 10
32.07379037962626
 20
77.606248732088915
 30
0.0
  0
VERTEX
  5
A11
  8
DATA
 62
     7
 10
32.015868922092523
 20
77.640125094633405
 30
0.0
  0
VERTEX
  5
A12
  8
DATA
 62
     7
 10
31.958591568583518
 20
77.674228928859478
 30
0.0
  0
VERTEX
  5
A13
  8
DATA
 62
     7
 10
31.90195831909929
 20
77.708560234767205
 30
0.0
  0
VERTEX
  5
A14
  8
DATA
 62
     7
 10
31.846087052857701
 20
77.743046906722725
 30
0.0
  0
VERTEX
  5
A15
  8
DATA
 62
     7
 10
31.791095649076581
 20
77.777616839092431
 30
0.0
  0
VERTEX
  5
A16
  8
DATA
 62
     7
 10
31.736984107755969
 20
77.812270031876196
 30
0.0
  0
VERTEX
  5
A17
  8
DATA
 62
     7
 10
31.683752428895851
 20
77.84700648507409
 30
0.0
  0
VERTEX
  5
A18
  8
DATA
 62
     7
 10
31.63140061249625
 20
77.88182619868607
 30
0.0
  0
VERTEX
  5
A19
  8
DATA
 62
     7
 10
31.579928658557119
 20
77.916729172712181
 30
0.0
  0
VERTEX
  5
A1A
  8
DATA
 62
     7
 10
31.529336567078509
 20
77.951715407152406
 30
0.0
  0
VERTEX
  5
A1B
  8
DATA
 62
     7
 10
31.47962433806039
 20
77.986784902006733
 30
0.0
  0
VERTEX
  5
A1C
  8
DATA
 62
     7
 10
31.430791971502771
 20
78.021937657275174
 30
0.0
  0
VERTEX
  5
A1D
  8
DATA
 62
     7
 10
31.382839467405638
 20
78.057173672957703
 30
0.0
  0
VERTEX
  5
A1E
  8
DATA
 62
     7
 10
31.33576682576901
 20
78.092492949054375
 30
0.0
  0
VERTEX
  5
A1F
  8
DATA
 62
     7
 10
31.289574046592879
 20
78.127895485565134
 30
0.0
  0
VERTEX
  5
A20
  8
DATA
 62
     7
 10
31.244261129877248
 20
78.163381282490022
 30
0.0
  0
VERTEX
  5
A21
  8
DATA
 62
     7
 10
31.199828075622111
 20
78.198950339828954
 30
0.0
  0
VERTEX
  5
A22
  8
DATA
 62
     7
 10
31.156274883827479
 20
78.234602657582059
 30
0.0
  0
VERTEX
  5
A23
  8
DATA
 62
     7
 10
31.11360155449335
 20
78.270338235749264
 30
0.0
  0
VERTEX
  5
A24
  8
DATA
 62
     7
 10
31.071808087619701
 20
78.306157074330571
 30
0.0
  0
VERTEX
  5
A25
  8
DATA
 62
     7
 10
31.030894483206549
 20
78.342059173325993
 30
0.0
  0
VERTEX
  5
A26
  8
DATA
 62
     7
 10
30.990860741253911
 20
78.378044532735501
 30
0.0
  0
VERTEX
  5
A27
  8
DATA
 62
     7
 10
30.951706861761771
 20
78.414113152559153
 30
0.0
  0
VERTEX
  5
A28
  8
DATA
 62
     7
 10
30.91343284473011
 20
78.450265032796906
 30
0.0
  0
VERTEX
  5
A29
  8
DATA
 62
     7
 10
30.87603869015895
 20
78.486500173448732
 30
0.0
  0
VERTEX
  5
A2A
  8
DATA
 62
     7
 10
30.839524398048301
 20
78.522818574514702
 30
0.0
  0
VERTEX
  5
A2B
  8
DATA
 62
     7
 10
30.80388996839816
 20
78.559220235994772
 30
0.0
  0
VERTEX
  5
A2C
  8
DATA
 62
     7
 10
30.769135401208501
 20
78.595705157888943
 30
0.0
  0
VERTEX
  5
A2D
  8
DATA
 62
     7
 10
30.735260696479351
 20
78.632273340197244
 30
0.0
  0
VERTEX
  5
A2E
  8
DATA
 62
     7
 10
30.70226585421068
 20
78.66892478291966
 30
0.0
  0
VERTEX
  5
A2F
  8
DATA
 62
     7
 10
30.670150874402509
 20
78.705659486056163
 30
0.0
  0
VERTEX
  5
A30
  8
DATA
 62
     7
 10
30.63891575705485
 20
78.742477449606753
 30
0.0
  0
VERTEX
  5
A31
  8
DATA
 62
     7
 10
30.608560502167659
 20
78.7793786735715
 30
0.0
  0
VERTEX
  5
A32
  8
DATA
 62
     7
 10
30.579085109741001
 20
78.816363157950335
 30
0.0
  0
VERTEX
  5
A33
  8
DATA
 62
     7
 10
30.550489579774819
 20
78.853430902743284
 30
0.0
  0
VERTEX
  5
A34
  8
DATA
 62
     7
 10
30.522773912269141
 20
78.890581907950349
 30
0.0
  0
VERTEX
  5
A35
  8
DATA
 62
     7
 10
30.49593810722396
 20
78.9278161735715
 30
0.0
  0
VERTEX
  5
A36
  8
DATA
 62
     7
 10
30.46998216463928
 20
78.965133699606753
 30
0.0
  0
VERTEX
  5
A37
  8
DATA
 62
     7
 10
30.44490608451509
 20
79.002534486056163
 30
0.0
  0
VERTEX
  5
A38
  8
DATA
 62
     7
 10
30.420709866851411
 20
79.04001853291966
 30
0.0
  0
VERTEX
  5
A39
  8
DATA
 62
     7
 10
30.397393511648222
 20
79.077585840197244
 30
0.0
  0
VERTEX
  5
A3A
  8
DATA
 62
     7
 10
30.37495701890553
 20
79.115236407888958
 30
0.0
  0
VERTEX
  5
A3B
  8
DATA
 62
     7
 10
30.353400388623339
 20
79.152970235994772
 30
0.0
  0
VERTEX
  5
A3C
  8
DATA
 62
     7
 10
30.332723620801652
 20
79.190787324514702
 30
0.0
  0
VERTEX
  5
A3D
  8
DATA
 62
     7
 10
30.31292671544044
 20
79.228687673448732
 30
0.0
  0
VERTEX
  5
A3E
  8
DATA
 62
     7
 10
30.294009672539751
 20
79.266671282796906
 30
0.0
  0
VERTEX
  5
A3F
  8
DATA
 62
     7
 10
30.275972492099541
 20
79.304738152559153
 30
0.0
  0
VERTEX
  5
A40
  8
DATA
 62
     7
 10
30.258815174119832
 20
79.342888282735501
 30
0.0
  0
VERTEX
  5
A41
  8
DATA
 62
     7
 10
30.242537718600609
 20
79.381121673325993
 30
0.0
  0
VERTEX
  5
A42
  8
DATA
 62
     7
 10
30.227140125541911
 20
79.419438324330571
 30
0.0
  0
VERTEX
  5
A43
  8
DATA
 62
     7
 10
30.21262239494369
 20
79.457838235749264
 30
0.0
  0
VERTEX
  5
A44
  8
DATA
 62
     7
 10
30.19898452680599
 20
79.496321407582059
 30
0.0
  0
VERTEX
  5
A45
  8
DATA
 62
     7
 10
30.18622652112877
 20
79.534887839828954
 30
0.0
  0
VERTEX
  5
A46
  8
DATA
 62
     7
 10
30.17434837791205
 20
79.573537532490022
 30
0.0
  0
VERTEX
  5
A47
  8
DATA
 62
     7
 10
30.163350097155831
 20
79.612270485565134
 30
0.0
  0
VERTEX
  5
A48
  8
DATA
 62
     7
 10
30.153231678860092
 20
79.651086699054375
 30
0.0
  0
VERTEX
  5
A49
  8
DATA
 62
     7
 10
30.14399312302487
 20
79.689986172957703
 30
0.0
  0
VERTEX
  5
A4A
  8
DATA
 62
     7
 10
30.13563442965015
 20
79.728968907275174
 30
0.0
  0
VERTEX
  5
A4B
  8
DATA
 62
     7
 10
30.12815559873593
 20
79.768034902006733
 30
0.0
  0
VERTEX
  5
A4C
  8
DATA
 62
     7
 10
30.121556630282178
 20
79.807184157152406
 30
0.0
  0
VERTEX
  5
A4D
  8
DATA
 62
     7
 10
30.115837524288949
 20
79.846416672712181
 30
0.0
  0
VERTEX
  5
A4E
  8
DATA
 62
     7
 10
30.11099828075622
 20
79.88573244868607
 30
0.0
  0
VERTEX
  5
A4F
  8
DATA
 62
     7
 10
30.107038899683989
 20
79.92513148507409
 30
0.0
  0
VERTEX
  5
A50
  8
DATA
 62
     7
 10
30.103959381072251
 20
79.964613781876196
 30
0.0
  0
VERTEX
  5
A51
  8
DATA
 62
     7
 10
30.101759724920999
 20
80.004179339092431
 30
0.0
  0
VERTEX
  5
A52
  8
DATA
 62
     7
 10
30.100439931230241
 20
80.043828156722739
 30
0.0
  0
VERTEX
  5
A53
  8
DATA
 62
     7
 10
30.100000000000001
 20
80.083560234767205
 30
0.0
  0
VERTEX
  5
A54
  8
DATA
 62
     7
 10
30.100439931230241
 20
80.123292312811657
 30
0.0
  0
VERTEX
  5
A55
  8
DATA
 62
     7
 10
30.101759724920999
 20
80.162941130441979
 30
0.0
  0
VERTEX
  5
A56
  8
DATA
 62
     7
 10
30.103959381072251
 20
80.2025066876582
 30
0.0
  0
VERTEX
  5
A57
  8
DATA
 62
     7
 10
30.107038899683989
 20
80.241988984460278
 30
0.0
  0
VERTEX
  5
A58
  8
DATA
 62
     7
 10
30.11099828075622
 20
80.281388020848297
 30
0.0
  0
VERTEX
  5
A59
  8
DATA
 62
     7
 10
30.115837524288949
 20
80.320703796822201
 30
0.0
  0
VERTEX
  5
A5A
  8
DATA
 62
     7
 10
30.121556630282178
 20
80.359936312382004
 30
0.0
  0
VERTEX
  5
A5B
  8
DATA
 62
     7
 10
30.12815559873593
 20
80.399085567527663
 30
0.0
  0
VERTEX
  5
A5C
  8
DATA
 62
     7
 10
30.13563442965015
 20
80.438151562259236
 30
0.0
  0
VERTEX
  5
A5D
  8
DATA
 62
     7
 10
30.14399312302487
 20
80.477134296576693
 30
0.0
  0
VERTEX
  5
A5E
  8
DATA
 62
     7
 10
30.153231678860092
 20
80.516033770480036
 30
0.0
  0
VERTEX
  5
A5F
  8
DATA
 62
     7
 10
30.163350097155831
 20
80.554849983969248
 30
0.0
  0
VERTEX
  5
A60
  8
DATA
 62
     7
 10
30.17434837791205
 20
80.593582937044417
 30
0.0
  0
VERTEX
  5
A61
  8
DATA
 62
     7
 10
30.18622652112877
 20
80.632232629705427
 30
0.0
  0
VERTEX
  5
A62
  8
DATA
 62
     7
 10
30.19898452680599
 20
80.670799061952337
 30
0.0
  0
VERTEX
  5
A63
  8
DATA
 62
     7
 10
30.21262239494369
 20
80.709282233785146
 30
0.0
  0
VERTEX
  5
A64
  8
DATA
 62
     7
 10
30.227140125541911
 20
80.747682145203854
 30
0.0
  0
VERTEX
  5
A65
  8
DATA
 62
     7
 10
30.242537718600609
 20
80.785998796208418
 30
0.0
  0
VERTEX
  5
A66
  8
DATA
 62
     7
 10
30.258815174119832
 20
80.824232186798895
 30
0.0
  0
VERTEX
  5
A67
  8
DATA
 62
     7
 10
30.275972492099541
 20
80.862382316975257
 30
0.0
  0
VERTEX
  5
A68
  8
DATA
 62
     7
 10
30.294009672539751
 20
80.900449186737504
 30
0.0
  0
VERTEX
  5
A69
  8
DATA
 62
     7
 10
30.31292671544044
 20
80.93843279608565
 30
0.0
  0
VERTEX
  5
A6A
  8
DATA
 62
     7
 10
30.332723620801652
 20
80.976333145019709
 30
0.0
  0
VERTEX
  5
A6B
  8
DATA
 62
     7
 10
30.353400388623339
 20
81.014150233539624
 30
0.0
  0
VERTEX
  5
A6C
  8
DATA
 62
     7
 10
30.37495701890553
 20
81.051884061645453
 30
0.0
  0
VERTEX
  5
A6D
  8
DATA
 62
     7
 10
30.397393511648222
 20
81.089534629337152
 30
0.0
  0
VERTEX
  5
A6E
  8
DATA
 62
     7
 10
30.420709866851411
 20
81.127101936614764
 30
0.0
  0
VERTEX
  5
A6F
  8
DATA
 62
     7
 10
30.44490608451509
 20
81.164585983478247
 30
0.0
  0
VERTEX
  5
A70
  8
DATA
 62
     7
 10
30.46998216463928
 20
81.201986769927657
 30
0.0
  0
VERTEX
  5
A71
  8
DATA
 62
     7
 10
30.49593810722396
 20
81.239304295962896
 30
0.0
  0
VERTEX
  5
A72
  8
DATA
 62
     7
 10
30.522773912269141
 20
81.276538561584061
 30
0.0
  0
VERTEX
  5
A73
  8
DATA
 62
     7
 10
30.550489579774819
 20
81.313689566791126
 30
0.0
  0
VERTEX
  5
A74
  8
DATA
 62
     7
 10
30.579085109741001
 20
81.350757311584076
 30
0.0
  0
VERTEX
  5
A75
  8
DATA
 62
     7
 10
30.608560502167659
 20
81.38774179596291
 30
0.0
  0
VERTEX
  5
A76
  8
DATA
 62
     7
 10
30.63891575705485
 20
81.424643019927643
 30
0.0
  0
VERTEX
  5
A77
  8
DATA
 62
     7
 10
30.670150874402509
 20
81.461460983478233
 30
0.0
  0
VERTEX
  5
A78
  8
DATA
 62
     7
 10
30.70226585421068
 20
81.498195686614764
 30
0.0
  0
VERTEX
  5
A79
  8
DATA
 62
     7
 10
30.735260696479351
 20
81.534847129337166
 30
0.0
  0
VERTEX
  5
A7A
  8
DATA
 62
     7
 10
30.769135401208501
 20
81.571415311645467
 30
0.0
  0
VERTEX
  5
A7B
  8
DATA
 62
     7
 10
30.80388996839816
 20
81.607900233539624
 30
0.0
  0
VERTEX
  5
A7C
  8
DATA
 62
     7
 10
30.839524398048301
 20
81.644301895019694
 30
0.0
  0
VERTEX
  5
A7D
  8
DATA
 62
     7
 10
30.87603869015895
 20
81.68062029608565
 30
0.0
  0
VERTEX
  5
A7E
  8
DATA
 62
     7
 10
30.91343284473011
 20
81.716855436737504
 30
0.0
  0
VERTEX
  5
A7F
  8
DATA
 62
     7
 10
30.951706861761771
 20
81.753007316975257
 30
0.0
  0
VERTEX
  5
A80
  8
DATA
 62
     7
 10
30.990860741253911
 20
81.789075936798909
 30
0.0
  0
VERTEX
  5
A81
  8
DATA
 62
     7
 10
31.030894483206549
 20
81.825061296208418
 30
0.0
  0
VERTEX
  5
A82
  8
DATA
 62
     7
 10
31.071808087619701
 20
81.860963395203854
 30
0.0
  0
VERTEX
  5
A83
  8
DATA
 62
     7
 10
31.11360155449335
 20
81.896782233785146
 30
0.0
  0
VERTEX
  5
A84
  8
DATA
 62
     7
 10
31.156274883827479
 20
81.932517811952337
 30
0.0
  0
VERTEX
  5
A85
  8
DATA
 62
     7
 10
31.199828075622111
 20
81.968170129705442
 30
0.0
  0
VERTEX
  5
A86
  8
DATA
 62
     7
 10
31.244261129877248
 20
82.003739187044417
 30
0.0
  0
VERTEX
  5
A87
  8
DATA
 62
     7
 10
31.289574046592879
 20
82.039224983969248
 30
0.0
  0
VERTEX
  5
A88
  8
DATA
 62
     7
 10
31.33576682576901
 20
82.074627520480036
 30
0.0
  0
VERTEX
  5
A89
  8
DATA
 62
     7
 10
31.382839467405638
 20
82.109946796576693
 30
0.0
  0
VERTEX
  5
A8A
  8
DATA
 62
     7
 10
31.430791971502771
 20
82.145182812259236
 30
0.0
  0
VERTEX
  5
A8B
  8
DATA
 62
     7
 10
31.47962433806039
 20
82.180335567527663
 30
0.0
  0
VERTEX
  5
A8C
  8
DATA
 62
     7
 10
31.529336567078509
 20
82.215405062382004
 30
0.0
  0
VERTEX
  5
A8D
  8
DATA
 62
     7
 10
31.579928658557119
 20
82.250391296822215
 30
0.0
  0
VERTEX
  5
A8E
  8
DATA
 62
     7
 10
31.63140061249625
 20
82.285294270848311
 30
0.0
  0
VERTEX
  5
A8F
  8
DATA
 62
     7
 10
31.683752428895851
 20
82.320113984460292
 30
0.0
  0
VERTEX
  5
A90
  8
DATA
 62
     7
 10
31.736984107755969
 20
82.3548504376582
 30
0.0
  0
VERTEX
  5
A91
  8
DATA
 62
     7
 10
31.791095649076581
 20
82.389503630441979
 30
0.0
  0
VERTEX
  5
A92
  8
DATA
 62
     7
 10
31.846087052857701
 20
82.424073562811657
 30
0.0
  0
VERTEX
  5
A93
  8
DATA
 62
     7
 10
31.90195831909929
 20
82.458560234767205
 30
0.0
  0
VERTEX
  5
A94
  8
DATA
 62
     7
 10
31.958591568583518
 20
82.492891540674904
 30
0.0
  0
VERTEX
  5
A95
  8
DATA
 62
     7
 10
32.015868922092523
 20
82.526995374900977
 30
0.0
  0
VERTEX
  5
A96
  8
DATA
 62
     7
 10
32.07379037962626
 20
82.560871737445481
 30
0.0
  0
VERTEX
  5
A97
  8
DATA
 62
     7
 10
32.132355941184763
 20
82.594520628308359
 30
0.0
  0
VERTEX
  5
A98
  8
DATA
 62
     7
 10
32.191565606768009
 20
82.627942047489654
 30
0.0
  0
VERTEX
  5
A99
  8
DATA
 62
     7
 10
32.251419376376042
 20
82.661135994989323
 30
0.0
  0
VERTEX
  5
A9A
  8
DATA
 62
     7
 10
32.311917250008811
 20
82.694102470807394
 30
0.0
  0
VERTEX
  5
A9B
  8
DATA
 62
     7
 10
32.373059227666332
 20
82.726841474943882
 30
0.0
  0
VERTEX
  5
A9C
  8
DATA
 62
     7
 10
32.43484530934861
 20
82.759353007398744
 30
0.0
  0
VERTEX
  5
A9D
  8
DATA
 62
     7
 10
32.497275495055661
 20
82.791637068171994
 30
0.0
  0
VERTEX
  5
A9E
  8
DATA
 62
     7
 10
32.560349784787469
 20
82.823693657263618
 30
0.0
  0
VERTEX
  5
A9F
  8
DATA
 62
     7
 10
32.624068178544029
 20
82.855522774673645
 30
0.0
  0
VERTEX
  5
AA0
  8
DATA
 62
     7
 10
32.688430676325332
 20
82.887124420402102
 30
0.0
  0
VERTEX
  5
AA1
  8
DATA
 62
     7
 10
32.7534372781314
 20
82.918498594448934
 30
0.0
  0
VERTEX
  5
AA2
  8
DATA
 62
     7
 10
32.819087983962227
 20
82.949645296814126
 30
0.0
  0
VERTEX
  5
AA3
  8
DATA
 62
     7
 10
32.885382793817811
 20
82.980564527497762
 30
0.0
  0
VERTEX
  5
AA4
  8
DATA
 62
     7
 10
32.952321707698147
 20
83.011256286499773
 30
0.0
  0
VERTEX
  5
AA5
  8
DATA
 62
     7
 10
33.019904725603247
 20
83.041720573820186
 30
0.0
  0
VERTEX
  5
AA6
  8
DATA
 62
     7
 10
33.08813184753312
 20
83.071957389458973
 30
0.0
  0
VERTEX
  5
AA7
  8
DATA
 62
     7
 10
33.157003073487729
 20
83.101966733416205
 30
0.0
  0
VERTEX
  5
AA8
  8
DATA
 62
     7
 10
33.22651840346709
 20
83.131748605691783
 30
0.0
  0
VERTEX
  5
AA9
  8
DATA
 62
     7
 10
33.296677837471229
 20
83.161303006285763
 30
0.0
  0
VERTEX
  5
AAA
  8
DATA
 62
     7
 10
33.367481375500098
 20
83.190629935198146
 30
0.0
  0
VERTEX
  5
AAB
  8
DATA
 62
     7
 10
33.438929017553747
 20
83.219729392428903
 30
0.0
  0
VERTEX
  5
AAC
  8
DATA
 62
     7
 10
33.511020763632153
 20
83.24860137797809
 30
0.0
  0
VERTEX
  5
AAD
  8
DATA
 62
     7
 10
33.583756613735311
 20
83.277245891845652
 30
0.0
  0
VERTEX
  5
AAE
  8
DATA
 62
     7
 10
33.657136567863212
 20
83.305662934031574
 30
0.0
  0
VERTEX
  5
AAF
  8
DATA
 62
     7
 10
33.731160626015878
 20
83.333852504535955
 30
0.0
  0
VERTEX
  5
AB0
  8
DATA
 62
     7
 10
33.80582878819331
 20
83.361814603358695
 30
0.0
  0
VERTEX
  5
AB1
  8
DATA
 62
     7
 10
33.881141054395478
 20
83.389549230499838
 30
0.0
  0
VERTEX
  5
AB2
  8
DATA
 62
     7
 10
33.957097424622411
 20
83.417056385959384
 30
0.0
  0
VERTEX
  5
AB3
  8
DATA
 62
     7
 10
34.033697898874109
 20
83.444336069737304
 30
0.0
  0
VERTEX
  5
AB4
  8
DATA
 62
     7
 10
34.110942477150559
 20
83.47138828183364
 30
0.0
  0
VERTEX
  5
AB5
  8
DATA
 62
     7
 10
34.18883115945178
 20
83.498213022248351
 30
0.0
  0
VERTEX
  5
AB6
  8
DATA
 62
     7
 10
34.267363945777731
 20
83.524810290981449
 30
0.0
  0
VERTEX
  5
AB7
  8
DATA
 62
     7
 10
34.346540836128447
 20
83.55118008803295
 30
0.0
  0
VERTEX
  5
AB8
  8
DATA
 62
     7
 10
34.426361830503943
 20
83.577322413402854
 30
0.0
  0
VERTEX
  5
AB9
  8
DATA
 62
     7
 10
34.506826928904168
 20
83.603237267091174
 30
0.0
  0
VERTEX
  5
ABA
  8
DATA
 62
     7
 10
34.587936131329172
 20
83.628924649097868
 30
0.0
  0
VERTEX
  5
ABB
  8
DATA
 62
     7
 10
34.669689437778928
 20
83.654384559422937
 30
0.0
  0
VERTEX
  5
ABC
  8
DATA
 62
     7
 10
34.752086848253441
 20
83.679616998066422
 30
0.0
  0
VERTEX
  5
ABD
  8
DATA
 62
     7
 10
34.835128362752698
 20
83.704621965028295
 30
0.0
  0
VERTEX
  5
ABE
  8
DATA
 62
     7
 10
34.91881398127672
 20
83.729399460308542
 30
0.0
  0
VERTEX
  5
ABF
  8
DATA
 62
     7
 10
35.003143703825501
 20
83.75394948390722
 30
0.0
  0
VERTEX
  5
AC0
  8
DATA
 62
     7
 10
35.088117530399032
 20
83.778272035824273
 30
0.0
  0
VERTEX
  5
AC1
  8
DATA
 62
     7
 10
35.173735460997321
 20
83.802367116059699
 30
0.0
  0
VERTEX
  5
AC2
  8
DATA
 62
     7
 10
35.259997495620368
 20
83.826234724613556
 30
0.0
  0
VERTEX
  5
AC3
  8
DATA
 62
     7
 10
35.346903634268173
 20
83.849874861485787
 30
0.0
  0
VERTEX
  5
AC4
  8
DATA
 62
     7
 10
35.434453876940729
 20
83.873287526676449
 30
0.0
  0
VERTEX
  5
AC5
  8
DATA
 62
     7
 10
35.522648223638051
 20
83.896472720185486
 30
0.0
  0
VERTEX
  5
AC6
  8
DATA
 62
     7
 10
35.61148667436013
 20
83.91943044201291
 30
0.0
  0
VERTEX
  5
AC7
  8
DATA
 62
     7
 10
35.700969229106967
 20
83.942160692158723
 30
0.0
  0
VERTEX
  5
AC8
  8
DATA
 62
     7
 10
35.791095887878562
 20
83.964663470622895
 30
0.0
  0
VERTEX
  5
AC9
  8
DATA
 62
     7
 10
35.881866650674887
 20
83.986938777405513
 30
0.0
  0
VERTEX
  5
ACA
  8
DATA
 62
     7
 10
35.973281517496012
 20
84.008986612506533
 30
0.0
  0
VERTEX
  5
ACB
  8
DATA
 62
     7
 10
36.065340488341867
 20
84.030806975925927
 30
0.0
  0
VERTEX
  5
ACC
  8
DATA
 62
     7
 10
36.158043563212487
 20
84.052399867663709
 30
0.0
  0
VERTEX
  5
ACD
  8
DATA
 62
     7
 10
36.251390742107851
 20
84.073765287719894
 30
0.0
  0
VERTEX
  5
ACE
  8
DATA
 62
     7
 10
36.345382025027988
 20
84.094903236094481
 30
0.0
  0
VERTEX
  5
ACF
  8
DATA
 62
     7
 10
36.440017411972882
 20
84.115813712787457
 30
0.0
  0
VERTEX
  5
AD0
  8
DATA
 62
     7
 10
36.535296902942527
 20
84.136496717798821
 30
0.0
  0
VERTEX
  5
AD1
  8
DATA
 62
     7
 10
36.631220497936923
 20
84.156952251128573
 30
0.0
  0
VERTEX
  5
AD2
  8
DATA
 62
     7
 10
36.727788196956077
 20
84.177180312776741
 30
0.0
  0
VERTEX
  5
AD3
  8
DATA
 62
     7
 10
36.825000000000003
 20
84.197180902743284
 30
0.0
  0
VERTEX
  5
AD4
  8
DATA
 62
     7
 10
36.825000000000003
 20
84.197180902743284
 30
0.0
  0
SEQEND
  5
AD5
  8
DATA
 62
     7
  0
POLYLINE
  5
442
  8
DATA
 62
     7
 66
     1
 10
0.0
 20
0.0
 30
0.0
 70
   129
  0
VERTEX
  5
AD6
  8
DATA
 62
     7
 10
36.261043033865597
 20
83.785818835945648
 30
0.0
  0
VERTEX
  5
AD7
  8
DATA
 62
     7
 10
36.344537081758013
 20
83.803577175215793
 30
0.0
  0
VERTEX
  5
AD8
  8
DATA
 62
     7
 10
36.428232707495113
 20
83.821055855599738
 30
0.0
  0
VERTEX
  5
AD9
  8
DATA
 62
     7
 10
36.512129911076883
 20
83.838254877097555
 30
0.0
  0
VERTEX
  5
ADA
  8
DATA
 62
     7
 10
36.596228692503352
 20
83.855174239709214
 30
0.0
  0
VERTEX
  5
ADB
  8
DATA
 62
     7
 10
36.680529051774514
 20
83.871813943434731
 30
0.0
  0
VERTEX
  5
ADC
  8
DATA
 62
     7
 10
36.765030988890338
 20
83.888173988274133
 30
0.0
  0
VERTEX
  5
ADD
  8
DATA
 62
     7
 10
36.849734503850847
 20
83.904254374227406
 30
0.0
  0
VERTEX
  5
ADE
  8
DATA
 62
     7
 10
36.934639596656069
 20
83.920055101294494
 30
0.0
  0
VERTEX
  5
ADF
  8
DATA
 62
     7
 10
37.019746267305962
 20
83.935576169475425
 30
0.0
  0
VERTEX
  5
AE0
  8
DATA
 62
     7
 10
37.105054515800532
 20
83.950817578770241
 30
0.0
  0
VERTEX
  5
AE1
  8
DATA
 62
     7
 10
37.190564342139787
 20
83.965779329178915
 30
0.0
  0
VERTEX
  5
AE2
  8
DATA
 62
     7
 10
37.276275746323748
 20
83.980461420701417
 30
0.0
  0
VERTEX
  5
AE3
  8
DATA
 62
     7
 10
37.362188728352372
 20
83.994863853337819
 30
0.0
  0
VERTEX
  5
AE4
  8
DATA
 62
     7
 10
37.448303288225688
 20
84.008986627088035
 30
0.0
  0
VERTEX
  5
AE5
  8
DATA
 62
     7
 10
37.534619425943703
 20
84.022829741952123
 30
0.0
  0
VERTEX
  5
AE6
  8
DATA
 62
     7
 10
37.621137141506402
 20
84.036393197930096
 30
0.0
  0
VERTEX
  5
AE7
  8
DATA
 62
     7
 10
37.707856434913779
 20
84.049676995021926
 30
0.0
  0
VERTEX
  5
AE8
  8
DATA
 62
     7
 10
37.794777306165827
 20
84.062681133227557
 30
0.0
  0
VERTEX
  5
AE9
  8
DATA
 62
     7
 10
37.88189975526258
 20
84.075405612547044
 30
0.0
  0
VERTEX
  5
AEA
  8
DATA
 62
     7
 10
37.969223782204011
 20
84.087850432980446
 30
0.0
  0
VERTEX
  5
AEB
  8
DATA
 62
     7
 10
38.056749386990127
 20
84.100015594527704
 30
0.0
  0
VERTEX
  5
AEC
  8
DATA
 62
     7
 10
38.144476569620927
 20
84.111901097188777
 30
0.0
  0
VERTEX
  5
AED
  8
DATA
 62
     7
 10
38.23240533009642
 20
84.123506940963736
 30
0.0
  0
VERTEX
  5
AEE
  8
DATA
 62
     7
 10
38.320535668416603
 20
84.134833125852538
 30
0.0
  0
VERTEX
  5
AEF
  8
DATA
 62
     7
 10
38.408867584581451
 20
84.145879651855225
 30
0.0
  0
VERTEX
  5
AF0
  8
DATA
 62
     7
 10
38.497401078590997
 20
84.156646518971698
 30
0.0
  0
VERTEX
  5
AF1
  8
DATA
 62
     7
 10
38.586136150445228
 20
84.167133727202113
 30
0.0
  0
VERTEX
  5
AF2
  8
DATA
 62
     7
 10
38.67507280014415
 20
84.177341276546343
 30
0.0
  0
VERTEX
  5
AF3
  8
DATA
 62
     7
 10
38.764211027687729
 20
84.187269167004416
 30
0.0
  0
VERTEX
  5
AF4
  8
DATA
 62
     7
 10
38.853550833076021
 20
84.19691739857636
 30
0.0
  0
VERTEX
  5
AF5
  8
DATA
 62
     7
 10
38.943092216308997
 20
84.206285971262147
 30
0.0
  0
VERTEX
  5
AF6
  8
DATA
 62
     7
 10
39.032835177386659
 20
84.21537488506182
 30
0.0
  0
VERTEX
  5
AF7
  8
DATA
 62
     7
 10
39.122779716308997
 20
84.224184139975335
 30
0.0
  0
VERTEX
  5
AF8
  8
DATA
 62
     7
 10
39.212925833076021
 20
84.232713736002722
 30
0.0
  0
VERTEX
  5
AF9
  8
DATA
 62
     7
 10
39.303273527687743
 20
84.240963673143938
 30
0.0
  0
VERTEX
  5
AFA
  8
DATA
 62
     7
 10
39.39382280014415
 20
84.248933951399025
 30
0.0
  0
VERTEX
  5
AFB
  8
DATA
 62
     7
 10
39.484573650445228
 20
84.256624570767954
 30
0.0
  0
VERTEX
  5
AFC
  8
DATA
 62
     7
 10
39.575526078590997
 20
84.264035531250755
 30
0.0
  0
VERTEX
  5
AFD
  8
DATA
 62
     7
 10
39.666680084581451
 20
84.271166832847399
 30
0.0
  0
VERTEX
  5
AFE
  8
DATA
 62
     7
 10
39.758035668416611
 20
84.278018475557914
 30
0.0
  0
VERTEX
  5
AFF
  8
DATA
 62
     7
 10
39.84959283009642
 20
84.284590459382315
 30
0.0
  0
VERTEX
  5
B00
  8
DATA
 62
     7
 10
39.941351569620927
 20
84.290882784320516
 30
0.0
  0
VERTEX
  5
B01
  8
DATA
 62
     7
 10
40.033311886990127
 20
84.296895450372617
 30
0.0
  0
VERTEX
  5
B02
  8
DATA
 62
     7
 10
40.125473782204011
 20
84.302628457538546
 30
0.0
  0
VERTEX
  5
B03
  8
DATA
 62
     7
 10
40.217837255262573
 20
84.308081805818347
 30
0.0
  0
VERTEX
  5
B04
  8
DATA
 62
     7
 10
40.31040230616582
 20
84.313255495211976
 30
0.0
  0
VERTEX
  5
B05
  8
DATA
 62
     7
 10
40.403168934913772
 20
84.318149525719477
 30
0.0
  0
VERTEX
  5
B06
  8
DATA
 62
     7
 10
40.496137141506402
 20
84.322763897340863
 30
0.0
  0
VERTEX
  5
B07
  8
DATA
 62
     7
 10
40.589306925943688
 20
84.327098610076092
 30
0.0
  0
VERTEX
  5
B08
  8
DATA
 62
     7
 10
40.682678288225688
 20
84.33115366392515
 30
0.0
  0
VERTEX
  5
B09
  8
DATA
 62
     7
 10
40.776251228352372
 20
84.334929058888093
 30
0.0
  0
VERTEX
  5
B0A
  8
DATA
 62
     7
 10
40.870025746323741
 20
84.338424794964894
 30
0.0
  0
VERTEX
  5
B0B
  8
DATA
 62
     7
 10
40.964001842139787
 20
84.341640872155537
 30
0.0
  0
VERTEX
  5
B0C
  8
DATA
 62
     7
 10
41.058179515800532
 20
84.344577290460037
 30
0.0
  0
VERTEX
  5
B0D
  8
DATA
 62
     7
 10
41.152558767305962
 20
84.347234049878423
 30
0.0
  0
VERTEX
  5
B0E
  8
DATA
 62
     7
 10
41.247139596656069
 20
84.349611150410624
 30
0.0
  0
VERTEX
  5
B0F
  8
DATA
 62
     7
 10
41.341922003850847
 20
84.351708592056667
 30
0.0
  0
VERTEX
  5
B10
  8
DATA
 62
     7
 10
41.436905988890331
 20
84.353526374816624
 30
0.0
  0
VERTEX
  5
B11
  8
DATA
 62
     7
 10
41.532091551774499
 20
84.35506449869041
 30
0.0
  0
VERTEX
  5
B12
  8
DATA
 62
     7
 10
41.62747869250336
 20
84.356322963678039
 30
0.0
  0
VERTEX
  5
B13
  8
DATA
 62
     7
 10
41.72306741107689
 20
84.357301769779554
 30
0.0
  0
VERTEX
  5
B14
  8
DATA
 62
     7
 10
41.818857707495098
 20
84.358000916994911
 30
0.0
  0
VERTEX
  5
B15
  8
DATA
 62
     7
 10
41.914849581758013
 20
84.358420405324125
 30
0.0
  0
VERTEX
  5
B16
  8
DATA
 62
     7
 10
42.011043033865612
 20
84.358560234767182
 30
0.0
  0
VERTEX
  5
B17
  8
DATA
 62
     7
 10
42.107236485973203
 20
84.358420405324125
 30
0.0
  0
VERTEX
  5
B18
  8
DATA
 62
     7
 10
42.20322836023611
 20
84.358000916994911
 30
0.0
  0
VERTEX
  5
B19
  8
DATA
 62
     7
 10
42.299018656654319
 20
84.357301769779554
 30
0.0
  0
VERTEX
  5
B1A
  8
DATA
 62
     7
 10
42.394607375227849
 20
84.356322963678039
 30
0.0
  0
VERTEX
  5
B1B
  8
DATA
 62
     7
 10
42.48999451595671
 20
84.35506449869041
 30
0.0
  0
VERTEX
  5
B1C
  8
DATA
 62
     7
 10
42.585180078840892
 20
84.353526374816624
 30
0.0
  0
VERTEX
  5
B1D
  8
DATA
 62
     7
 10
42.680164063880369
 20
84.351708592056667
 30
0.0
  0
VERTEX
  5
B1E
  8
DATA
 62
     7
 10
42.774946471075147
 20
84.349611150410624
 30
0.0
  0
VERTEX
  5
B1F
  8
DATA
 62
     7
 10
42.869527300425283
 20
84.347234049878423
 30
0.0
  0
VERTEX
  5
B20
  8
DATA
 62
     7
 10
42.963906551930677
 20
84.344577290460037
 30
0.0
  0
VERTEX
  5
B21
  8
DATA
 62
     7
 10
43.058084225591429
 20
84.341640872155537
 30
0.0
  0
VERTEX
  5
B22
  8
DATA
 62
     7
 10
43.152060321407482
 20
84.338424794964894
 30
0.0
  0
VERTEX
  5
B23
  8
DATA
 62
     7
 10
43.245834839378837
 20
84.334929058888093
 30
0.0
  0
VERTEX
  5
B24
  8
DATA
 62
     7
 10
43.339407779505521
 20
84.33115366392515
 30
0.0
  0
VERTEX
  5
B25
  8
DATA
 62
     7
 10
43.432779141787513
 20
84.327098610076092
 30
0.0
  0
VERTEX
  5
B26
  8
DATA
 62
     7
 10
43.525948926224828
 20
84.322763897340863
 30
0.0
  0
VERTEX
  5
B27
  8
DATA
 62
     7
 10
43.618917132817451
 20
84.318149525719477
 30
0.0
  0
VERTEX
  5
B28
  8
DATA
 62
     7
 10
43.711683761565389
 20
84.313255495211976
 30
0.0
  0
VERTEX
  5
B29
  8
DATA
 62
     7
 10
43.80424881246865
 20
84.308081805818347
 30
0.0
  0
VERTEX
  5
B2A
  8
DATA
 62
     7
 10
43.896612285527212
 20
84.302628457538546
 30
0.0
  0
VERTEX
  5
B2B
  8
DATA
 62
     7
 10
43.988774180741089
 20
84.296895450372617
 30
0.0
  0
VERTEX
  5
B2C
  8
DATA
 62
     7
 10
44.080734498110282
 20
84.290882784320516
 30
0.0
  0
VERTEX
  5
B2D
  8
DATA
 62
     7
 10
44.172493237634789
 20
84.284590459382315
 30
0.0
  0
VERTEX
  5
B2E
  8
DATA
 62
     7
 10
44.264050399314627
 20
84.278018475557914
 30
0.0
  0
VERTEX
  5
B2F
  8
DATA
 62
     7
 10
44.35540598314978
 20
84.271166832847399
 30
0.0
  0
VERTEX
  5
B30
  8
DATA
 62
     7
 10
44.446559989140219
 20
84.264035531250755
 30
0.0
  0
VERTEX
  5
B31
  8
DATA
 62
     7
 10
44.537512417285988
 20
84.256624570767954
 30
0.0
  0
VERTEX
  5
B32
  8
DATA
 62
     7
 10
44.628263267587073
 20
84.248933951399025
 30
0.0
  0
VERTEX
  5
B33
  8
DATA
 62
     7
 10
44.71881254004348
 20
84.240963673143938
 30
0.0
  0
VERTEX
  5
B34
  8
DATA
 62
     7
 10
44.809160234655202
 20
84.232713736002722
 30
0.0
  0
VERTEX
  5
B35
  8
DATA
 62
     7
 10
44.899306351422219
 20
84.224184139975335
 30
0.0
  0
VERTEX
  5
B36
  8
DATA
 62
     7
 10
44.989250890344557
 20
84.21537488506182
 30
0.0
  0
VERTEX
  5
B37
  8
DATA
 62
     7
 10
45.078993851422233
 20
84.206285971262147
 30
0.0
  0
VERTEX
  5
B38
  8
DATA
 62
     7
 10
45.168535234655202
 20
84.19691739857636
 30
0.0
  0
VERTEX
  5
B39
  8
DATA
 62
     7
 10
45.25787504004348
 20
84.187269167004416
 30
0.0
  0
VERTEX
  5
B3A
  8
DATA
 62
     7
 10
45.34701326758708
 20
84.177341276546343
 30
0.0
  0
VERTEX
  5
B3B
  8
DATA
 62
     7
 10
45.435949917285988
 20
84.167133727202113
 30
0.0
  0
VERTEX
  5
B3C
  8
DATA
 62
     7
 10
45.524684989140233
 20
84.156646518971698
 30
0.0
  0
VERTEX
  5
B3D
  8
DATA
 62
     7
 10
45.613218483149772
 20
84.145879651855225
 30
0.0
  0
VERTEX
  5
B3E
  8
DATA
 62
     7
 10
45.701550399314627
 20
84.134833125852538
 30
0.0
  0
VERTEX
  5
B3F
  8
DATA
 62
     7
 10
45.789680737634789
 20
84.123506940963736
 30
0.0
  0
VERTEX
  5
B40
  8
DATA
 62
     7
 10
45.877609498110282
 20
84.111901097188777
 30
0.0
  0
VERTEX
  5
B41
  8
DATA
 62
     7
 10
45.965336680741082
 20
84.100015594527704
 30
0.0
  0
VERTEX
  5
B42
  8
DATA
 62
     7
 10
46.052862285527212
 20
84.087850432980446
 30
0.0
  0
VERTEX
  5
B43
  8
DATA
 62
     7
 10
46.14018631246865
 20
84.075405612547044
 30
0.0
  0
VERTEX
  5
B44
  8
DATA
 62
     7
 10
46.227308761565389
 20
84.062681133227557
 30
0.0
  0
VERTEX
  5
B45
  8
DATA
 62
     7
 10
46.314229632817451
 20
84.049676995021926
 30
0.0
  0
VERTEX
  5
B46
  8
DATA
 62
     7
 10
46.400948926224821
 20
84.036393197930096
 30
0.0
  0
VERTEX
  5
B47
  8
DATA
 62
     7
 10
46.48746664178752
 20
84.022829741952123
 30
0.0
  0
VERTEX
  5
B48
  8
DATA
 62
     7
 10
46.573782779505507
 20
84.008986627088035
 30
0.0
  0
VERTEX
  5
B49
  8
DATA
 62
     7
 10
46.659897339378851
 20
83.994863853337819
 30
0.0
  0
VERTEX
  5
B4A
  8
DATA
 62
     7
 10
46.745810321407482
 20
83.980461420701417
 30
0.0
  0
VERTEX
  5
B4B
  8
DATA
 62
     7
 10
46.831521725591422
 20
83.965779329178915
 30
0.0
  0
VERTEX
  5
B4C
  8
DATA
 62
     7
 10
46.917031551930677
 20
83.950817578770241
 30
0.0
  0
VERTEX
  5
B4D
  8
DATA
 62
     7
 10
47.002339800425268
 20
83.935576169475425
 30
0.0
  0
VERTEX
  5
B4E
  8
DATA
 62
     7
 10
47.08744647107514
 20
83.920055101294494
 30
0.0
  0
VERTEX
  5
B4F
  8
DATA
 62
     7
 10
47.172351563880369
 20
83.904254374227406
 30
0.0
  0
VERTEX
  5
B50
  8
DATA
 62
     7
 10
47.257055078840892
 20
83.888173988274133
 30
0.0
  0
VERTEX
  5
B51
  8
DATA
 62
     7
 10
47.34155701595671
 20
83.871813943434731
 30
0.0
  0
VERTEX
  5
B52
  8
DATA
 62
     7
 10
47.425857375227856
 20
83.855174239709214
 30
0.0
  0
VERTEX
  5
B53
  8
DATA
 62
     7
 10
47.50995615665434
 20
83.838254877097555
 30
0.0
  0
VERTEX
  5
B54
  8
DATA
 62
     7
 10
47.59385336023611
 20
83.821055855599738
 30
0.0
  0
VERTEX
  5
B55
  8
DATA
 62
     7
 10
47.67754898597321
 20
83.803577175215793
 30
0.0
  0
VERTEX
  5
B56
  8
DATA
 62
     7
 10
47.761043033865612
 20
83.785818835945648
 30
0.0
  0
VERTEX
  5
B57
  8
DATA
 62
     7
 10
47.844160932378998
 20
83.767818304975776
 30
0.0
  0
VERTEX
  5
B58
  8
DATA
 62
     7
 10
47.926728109979017
 20
83.749613049492453
 30
0.0
  0
VERTEX
  5
B59
  8
DATA
 62
     7
 10
48.008744566665669
 20
83.731203069495663
 30
0.0
  0
VERTEX
  5
B5A
  8
DATA
 62
     7
 10
48.09021030243899
 20
83.712588364985422
 30
0.0
  0
VERTEX
  5
B5B
  8
DATA
 62
     7
 10
48.17112531729893
 20
83.693768935961728
 30
0.0
  0
VERTEX
  5
B5C
  8
DATA
 62
     7
 10
48.251489611245518
 20
83.674744782424625
 30
0.0
  0
VERTEX
  5
B5D
  8
DATA
 62
     7
 10
48.331303184278731
 20
83.65551590437407
 30
0.0
  0
VERTEX
  5
B5E
  8
DATA
 62
     7
 10
48.410566036398592
 20
83.636082301810049
 30
0.0
  0
VERTEX
  5
B5F
  8
DATA
 62
     7
 10
48.489278167605093
 20
83.616443974732604
 30
0.0
  0
VERTEX
  5
B60
  8
DATA
 62
     7
 10
48.567439577898227
 20
83.596600923141693
 30
0.0
  0
VERTEX
  5
B61
  8
DATA
 62
     7
 10
48.645050267278002
 20
83.576553147037359
 30
0.0
  0
VERTEX
  5
B62
  8
DATA
 62
     7
 10
48.722110235744417
 20
83.556300646419544
 30
0.0
  0
VERTEX
  5
B63
  8
DATA
 62
     7
 10
48.798619483297472
 20
83.535843421288348
 30
0.0
  0
VERTEX
  5
B64
  8
DATA
 62
     7
 10
48.874578009937167
 20
83.515181471643658
 30
0.0
  0
VERTEX
  5
B65
  8
DATA
 62
     7
 10
48.949985815663503
 20
83.494314797485544
 30
0.0
  0
VERTEX
  5
B66
  8
DATA
 62
     7
 10
49.024842900476457
 20
83.473243398813935
 30
0.0
  0
VERTEX
  5
B67
  8
DATA
 62
     7
 10
49.099149264376081
 20
83.451967275628945
 30
0.0
  0
VERTEX
  5
B68
  8
DATA
 62
     7
 10
49.172904907362309
 20
83.430486427930447
 30
0.0
  0
VERTEX
  5
B69
  8
DATA
 62
     7
 10
49.246109829435213
 20
83.408800855718567
 30
0.0
  0
VERTEX
  5
B6A
  8
DATA
 62
     7
 10
49.318764030594743
 20
83.386910558993236
 30
0.0
  0
VERTEX
  5
B6B
  8
DATA
 62
     7
 10
49.390867510840899
 20
83.364815537754424
 30
0.0
  0
VERTEX
  5
B6C
  8
DATA
 62
     7
 10
49.46242027017373
 20
83.342515792002175
 30
0.0
  0
VERTEX
  5
B6D
  8
DATA
 62
     7
 10
49.53342230859316
 20
83.320011321736487
 30
0.0
  0
VERTEX
  5
B6E
  8
DATA
 62
     7
 10
49.603873626099251
 20
83.297302126957362
 30
0.0
  0
VERTEX
  5
B6F
  8
DATA
 62
     7
 10
49.673774222691968
 20
83.274388207664785
 30
0.0
  0
VERTEX
  5
B70
  8
DATA
 62
     7
 10
49.743124098371318
 20
83.251269563858784
 30
0.0
  0
VERTEX
  5
B71
  8
DATA
 62
     7
 10
49.811923253137323
 20
83.227946195539289
 30
0.0
  0
VERTEX
  5
B72
  8
DATA
 62
     7
 10
49.880171686989968
 20
83.204418102706398
 30
0.0
  0
VERTEX
  5
B73
  8
DATA
 62
     7
 10
49.947869399929239
 20
83.180685285360013
 30
0.0
  0
VERTEX
  5
B74
  8
DATA
 62
     7
 10
50.015016391955179
 20
83.156747743500205
 30
0.0
  0
VERTEX
  5
B75
  8
DATA
 62
     7
 10
50.081612663067723
 20
83.132605477126987
 30
0.0
  0
VERTEX
  5
B76
  8
DATA
 62
     7
 10
50.147658213266929
 20
83.108258486240302
 30
0.0
  0
VERTEX
  5
B77
  8
DATA
 62
     7
 10
50.213153042552747
 20
83.083706770840152
 30
0.0
  0
VERTEX
  5
B78
  8
DATA
 62
     7
 10
50.278097150925227
 20
83.058950330926578
 30
0.0
  0
VERTEX
  5
B79
  8
DATA
 62
     7
 10
50.34249053838434
 20
83.033989166499552
 30
0.0
  0
VERTEX
  5
B7A
  8
DATA
 62
     7
 10
50.406333204930107
 20
83.008823277559046
 30
0.0
  0
VERTEX
  5
B7B
  8
DATA
 62
     7
 10
50.469625150562493
 20
82.983452664105172
 30
0.0
  0
VERTEX
  5
B7C
  8
DATA
 62
     7
 10
50.532366375281534
 20
82.957877326137805
 30
0.0
  0
VERTEX
  5
B7D
  8
DATA
 62
     7
 10
50.5945568790872
 20
82.932097263656999
 30
0.0
  0
VERTEX
  5
B7E
  8
DATA
 62
     7
 10
50.6561966619795
 20
82.906112476662756
 30
0.0
  0
VERTEX
  5
B7F
  8
DATA
 62
     7
 10
50.717285723958447
 20
82.87992296515506
 30
0.0
  0
VERTEX
  5
B80
  8
DATA
 62
     7
 10
50.777824065024042
 20
82.853528729133899
 30
0.0
  0
VERTEX
  5
B81
  8
DATA
 62
     7
 10
50.837811685176248
 20
82.826929768599314
 30
0.0
  0
VERTEX
  5
B82
  8
DATA
 62
     7
 10
50.897248584415117
 20
82.800126083551291
 30
0.0
  0
VERTEX
  5
B83
  8
DATA
 62
     7
 10
50.956134762740632
 20
82.773117673989816
 30
0.0
  0
VERTEX
  5
B84
  8
DATA
 62
     7
 10
51.014470220152781
 20
82.745904539914903
 30
0.0
  0
VERTEX
  5
B85
  8
DATA
 62
     7
 10
51.072254956651562
 20
82.718486681326553
 30
0.0
  0
VERTEX
  5
B86
  8
DATA
 62
     7
 10
51.129488972236977
 20
82.690864098224722
 30
0.0
  0
VERTEX
  5
B87
  8
DATA
 62
     7
 10
51.18617226690904
 20
82.663036790609453
 30
0.0
  0
VERTEX
  5
B88
  8
DATA
 62
     7
 10
51.242304840667742
 20
82.635004758480761
 30
0.0
  0
VERTEX
  5
B89
  8
DATA
 62
     7
 10
51.297886693513078
 20
82.606768001838603
 30
0.0
  0
VERTEX
  5
B8A
  8
DATA
 62
     7
 10
51.352917825445061
 20
82.578326520683007
 30
0.0
  0
VERTEX
  5
B8B
  8
DATA
 62
     7
 10
51.407398236463671
 20
82.549680315013987
 30
0.0
  0
VERTEX
  5
B8C
  8
DATA
 62
     7
 10
51.461327926568927
 20
82.520829384831501
 30
0.0
  0
VERTEX
  5
B8D
  8
DATA
 62
     7
 10
51.514706895760831
 20
82.491773730135563
 30
0.0
  0
VERTEX
  5
B8E
  8
DATA
 62
     7
 10
51.567535144039361
 20
82.462513350926216
 30
0.0
  0
VERTEX
  5
B8F
  8
DATA
 62
     7
 10
51.619812671404539
 20
82.433048247203374
 30
0.0
  0
VERTEX
  5
B90
  8
DATA
 62
     7
 10
51.671539477856349
 20
82.403378418967122
 30
0.0
  0
VERTEX
  5
B91
  8
DATA
 62
     7
 10
51.722715563394807
 20
82.373503866217405
 30
0.0
  0
VERTEX
  5
B92
  8
DATA
 62
     7
 10
51.773340928019898
 20
82.343424588954264
 30
0.0
  0
VERTEX
  5
B93
  8
DATA
 62
     7
 10
51.82341557173163
 20
82.313140587177656
 30
0.0
  0
VERTEX
  5
B94
  8
DATA
 62
     7
 10
51.872939494530002
 20
82.282651860887626
 30
0.0
  0
VERTEX
  5
B95
  8
DATA
 62
     7
 10
51.921912696415013
 20
82.251958410084143
 30
0.0
  0
VERTEX
  5
B96
  8
DATA
 62
     7
 10
51.970335177386659
 20
82.221060234767194
 30
0.0
  0
VERTEX
  5
B97
  8
DATA
 62
     7
 10
52.018106148522598
 20
82.190022230007187
 30
0.0
  0
VERTEX
  5
B98
  8
DATA
 62
     7
 10
52.0651248209005
 20
82.158909290874504
 30
0.0
  0
VERTEX
  5
B99
  8
DATA
 62
     7
 10
52.111391194520351
 20
82.127721417369088
 30
0.0
  0
VERTEX
  5
B9A
  8
DATA
 62
     7
 10
52.15690526938215
 20
82.096458609490995
 30
0.0
  0
VERTEX
  5
B9B
  8
DATA
 62
     7
 10
52.20166704548592
 20
82.065120867240196
 30
0.0
  0
VERTEX
  5
B9C
  8
DATA
 62
     7
 10
52.245676522831623
 20
82.033708190616736
 30
0.0
  0
VERTEX
  5
B9D
  8
DATA
 62
     7
 10
52.288933701419289
 20
82.002220579620513
 30
0.0
  0
VERTEX
  5
B9E
  8
DATA
 62
     7
 10
52.331438581248932
 20
81.970658034251628
 30
0.0
  0
VERTEX
  5
B9F
  8
DATA
 62
     7
 10
52.373191162320502
 20
81.939020554510023
 30
0.0
  0
VERTEX
  5
BA0
  8
DATA
 62
     7
 10
52.414191444634028
 20
81.907308140395727
 30
0.0
  0
VERTEX
  5
BA1
  8
DATA
 62
     7
 10
52.454439428189488
 20
81.875520791908784
 30
0.0
  0
VERTEX
  5
BA2
  8
DATA
 62
     7
 10
52.493935112986918
 20
81.843658509049078
 30
0.0
  0
VERTEX
  5
BA3
  8
DATA
 62
     7
 10
52.532678499026311
 20
81.811721291816681
 30
0.0
  0
VERTEX
  5
BA4
  8
DATA
 62
     7
 10
52.570669586307652
 20
81.779709140211622
 30
0.0
  0
VERTEX
  5
BA5
  8
DATA
 62
     7
 10
52.607908374830963
 20
81.747622054233815
 30
0.0
  0
VERTEX
  5
BA6
  8
DATA
 62
     7
 10
52.644394864596208
 20
81.715460033883346
 30
0.0
  0
VERTEX
  5
BA7
  8
DATA
 62
     7
 10
52.680129055603402
 20
81.683223079160186
 30
0.0
  0
VERTEX
  5
BA8
  8
DATA
 62
     7
 10
52.715110947852573
 20
81.650911190064292
 30
0.0
  0
VERTEX
  5
BA9
  8
DATA
 62
     7
 10
52.74934054134367
 20
81.618524366595693
 30
0.0
  0
VERTEX
  5
BAA
  8
DATA
 62
     7
 10
52.782817836076717
 20
81.586062608754418
 30
0.0
  0
VERTEX
  5
BAB
  8
DATA
 62
     7
 10
52.815542832051747
 20
81.553525916540494
 30
0.0
  0
VERTEX
  5
BAC
  8
DATA
 62
     7
 10
52.847515529268719
 20
81.520914289953794
 30
0.0
  0
VERTEX
  5
BAD
  8
DATA
 62
     7
 10
52.878735927727647
 20
81.488227728994431
 30
0.0
  0
VERTEX
  5
BAE
  8
DATA
 62
     7
 10
52.909204027428522
 20
81.455466233662378
 30
0.0
  0
VERTEX
  5
BAF
  8
DATA
 62
     7
 10
52.938919828371361
 20
81.422629803957605
 30
0.0
  0
VERTEX
  5
BB0
  8
DATA
 62
     7
 10
52.967883330556141
 20
81.389718439880156
 30
0.0
  0
VERTEX
  5
BB1
  8
DATA
 62
     7
 10
52.996094533982877
 20
81.356732141430001
 30
0.0
  0
VERTEX
  5
BB2
  8
DATA
 62
     7
 10
53.023553438651582
 20
81.323670908607141
 30
0.0
  0
VERTEX
  5
BB3
  8
DATA
 62
     7
 10
53.050260044562208
 20
81.290534741411577
 30
0.0
  0
VERTEX
  5
BB4
  8
DATA
 62
     7
 10
53.076214351714817
 20
81.257323639843335
 30
0.0
  0
VERTEX
  5
BB5
  8
DATA
 62
     7
 10
53.10141636010939
 20
81.224037603902389
 30
0.0
  0
VERTEX
  5
BB6
  8
DATA
 62
     7
 10
53.125866069745882
 20
81.190676633588737
 30
0.0
  0
VERTEX
  5
BB7
  8
DATA
 62
     7
 10
53.149563480624337
 20
81.15724072890238
 30
0.0
  0
VERTEX
  5
BB8
  8
DATA
 62
     7
 10
53.172508592744762
 20
81.123729889843332
 30
0.0
  0
VERTEX
  5
BB9
  8
DATA
 62
     7
 10
53.194701406107129
 20
81.090144116411579
 30
0.0
  0
VERTEX
  5
BBA
  8
DATA
 62
     7
 10
53.216141920711451
 20
81.056483408607136
 30
0.0
  0
VERTEX
  5
BBB
  8
DATA
 62
     7
 10
53.236830136557721
 20
81.022747766430001
 30
0.0
  0
VERTEX
  5
BBC
  8
DATA
 62
     7
 10
53.256766053645947
 20
80.988937189880133
 30
0.0
  0
VERTEX
  5
BBD
  8
DATA
 62
     7
 10
53.275949671976129
 20
80.955051678957645
 30
0.0
  0
VERTEX
  5
BBE
  8
DATA
 62
     7
 10
53.294380991548259
 20
80.921091233662381
 30
0.0
  0
VERTEX
  5
BBF
  8
DATA
 62
     7
 10
53.312060012362352
 20
80.887055853994454
 30
0.0
  0
VERTEX
  5
BC0
  8
DATA
 62
     7
 10
53.328986734418393
 20
80.852945539953794
 30
0.0
  0
VERTEX
  5
BC1
  8
DATA
 62
     7
 10
53.34516115771639
 20
80.818760291540485
 30
0.0
  0
VERTEX
  5
BC2
  8
DATA
 62
     7
 10
53.360583282256343
 20
80.784500108754457
 30
0.0
  0
VERTEX
  5
BC3
  8
DATA
 62
     7
 10
53.375253108038251
 20
80.750164991595724
 30
0.0
  0
VERTEX
  5
BC4
  8
DATA
 62
     7
 10
53.389170635062101
 20
80.715754940064286
 30
0.0
  0
VERTEX
  5
BC5
  8
DATA
 62
     7
 10
53.40233586332792
 20
80.681269954160186
 30
0.0
  0
VERTEX
  5
BC6
  8
DATA
 62
     7
 10
53.414748792835681
 20
80.646710033883323
 30
0.0
  0
VERTEX
  5
BC7
  8
DATA
 62
     7
 10
53.42640942358539
 20
80.612075179233813
 30
0.0
  0
VERTEX
  5
BC8
  8
DATA
 62
     7
 10
53.437317755577062
 20
80.577365390211625
 30
0.0
  0
VERTEX
  5
BC9
  8
DATA
 62
     7
 10
53.447473788810697
 20
80.542580666816676
 30
0.0
  0
VERTEX
  5
BCA
  8
DATA
 62
     7
 10
53.456877523286288
 20
80.507721009049092
 30
0.0
  0
VERTEX
  5
BCB
  8
DATA
 62
     7
 10
53.465528959003812
 20
80.472786416908775
 30
0.0
  0
VERTEX
  5
BCC
  8
DATA
 62
     7
 10
53.4734280959633
 20
80.437776890395739
 30
0.0
  0
VERTEX
  5
BCD
  8
DATA
 62
     7
 10
53.480574934164743
 20
80.402692429510054
 30
0.0
  0
VERTEX
  5
BCE
  8
DATA
 62
     7
 10
53.486969473608141
 20
80.367533034251636
 30
0.0
  0
VERTEX
  5
BCF
  8
DATA
 62
     7
 10
53.492611714293488
 20
80.332298704620513
 30
0.0
  0
VERTEX
  5
BD0
  8
DATA
 62
     7
 10
53.497501656220791
 20
80.296989440616684
 30
0.0
  0
VERTEX
  5
BD1
  8
DATA
 62
     7
 10
53.501639299390042
 20
80.261605242240194
 30
0.0
  0
VERTEX
  5
BD2
  8
DATA
 62
     7
 10
53.505024643801249
 20
80.226146109491012
 30
0.0
  0
VERTEX
  5
BD3
  8
DATA
 62
     7
 10
53.507657689454398
 20
80.190612042369082
 30
0.0
  0
VERTEX
  5
BD4
  8
DATA
 62
     7
 10
53.509538436349537
 20
80.155003040874504
 30
0.0
  0
VERTEX
  5
BD5
  8
DATA
 62
     7
 10
53.510666884486596
 20
80.119319105007193
 30
0.0
  0
VERTEX
  5
BD6
  8
DATA
 62
     7
 10
53.511043033865612
 20
80.083560234767205
 30
0.0
  0
VERTEX
  5
BD7
  8
DATA
 62
     7
 10
53.510666884486596
 20
80.047801364527217
 30
0.0
  0
VERTEX
  5
BD8
  8
DATA
 62
     7
 10
53.509538436349537
 20
80.012117428659906
 30
0.0
  0
VERTEX
  5
BD9
  8
DATA
 62
     7
 10
53.507657689454398
 20
79.9765084271653
 30
0.0
  0
VERTEX
  5
BDA
  8
DATA
 62
     7
 10
53.505024643801249
 20
79.940974360043398
 30
0.0
  0
VERTEX
  5
BDB
  8
DATA
 62
     7
 10
53.501639299390042
 20
79.905515227294202
 30
0.0
  0
VERTEX
  5
BDC
  8
DATA
 62
     7
 10
53.497501656220791
 20
79.870131028917683
 30
0.0
  0
VERTEX
  5
BDD
  8
DATA
 62
     7
 10
53.492611714293488
 20
79.834821764913883
 30
0.0
  0
VERTEX
  5
BDE
  8
DATA
 62
     7
 10
53.486969473608141
 20
79.799587435282774
 30
0.0
  0
VERTEX
  5
BDF
  8
DATA
 62
     7
 10
53.480574934164743
 20
79.76442804002437
 30
0.0
  0
VERTEX
  5
BE0
  8
DATA
 62
     7
 10
53.4734280959633
 20
79.729343579138657
 30
0.0
  0
VERTEX
  5
BE1
  8
DATA
 62
     7
 10
53.465528959003812
 20
79.694334052625649
 30
0.0
  0
VERTEX
  5
BE2
  8
DATA
 62
     7
 10
53.456877523286288
 20
79.659399460485318
 30
0.0
  0
VERTEX
  5
BE3
  8
DATA
 62
     7
 10
53.447473788810697
 20
79.62453980271772
 30
0.0
  0
VERTEX
  5
BE4
  8
DATA
 62
     7
 10
53.437317755577062
 20
79.589755079322785
 30
0.0
  0
VERTEX
  5
BE5
  8
DATA
 62
     7
 10
53.42640942358539
 20
79.555045290300583
 30
0.0
  0
VERTEX
  5
BE6
  8
DATA
 62
     7
 10
53.414748792835681
 20
79.520410435651058
 30
0.0
  0
VERTEX
  5
BE7
  8
DATA
 62
     7
 10
53.40233586332792
 20
79.485850515374224
 30
0.0
  0
VERTEX
  5
BE8
  8
DATA
 62
     7
 10
53.389170635062101
 20
79.45136552947011
 30
0.0
  0
VERTEX
  5
BE9
  8
DATA
 62
     7
 10
53.375253108038251
 20
79.416955477938686
 30
0.0
  0
VERTEX
  5
BEA
  8
DATA
 62
     7
 10
53.360583282256343
 20
79.382620360779953
 30
0.0
  0
VERTEX
  5
BEB
  8
DATA
 62
     7
 10
53.34516115771639
 20
79.348360177993911
 30
0.0
  0
VERTEX
  5
BEC
  8
DATA
 62
     7
 10
53.328986734418393
 20
79.314174929580574
 30
0.0
  0
VERTEX
  5
BED
  8
DATA
 62
     7
 10
53.312060012362352
 20
79.280064615539956
 30
0.0
  0
VERTEX
  5
BEE
  8
DATA
 62
     7
 10
53.294380991548259
 20
79.246029235872015
 30
0.0
  0
VERTEX
  5
BEF
  8
DATA
 62
     7
 10
53.275949671976129
 20
79.212068790576765
 30
0.0
  0
VERTEX
  5
BF0
  8
DATA
 62
     7
 10
53.256766053645947
 20
79.178183279654263
 30
0.0
  0
VERTEX
  5
BF1
  8
DATA
 62
     7
 10
53.236830136557721
 20
79.144372703104423
 30
0.0
  0
VERTEX
  5
BF2
  8
DATA
 62
     7
 10
53.216141920711451
 20
79.11063706092726
 30
0.0
  0
VERTEX
  5
BF3
  8
DATA
 62
     7
 10
53.194701406107129
 20
79.076976353122816
 30
0.0
  0
VERTEX
  5
BF4
  8
DATA
 62
     7
 10
53.172508592744762
 20
79.043390579691064
 30
0.0
  0
VERTEX
  5
BF5
  8
DATA
 62
     7
 10
53.149563480624337
 20
79.009879740632016
 30
0.0
  0
VERTEX
  5
BF6
  8
DATA
 62
     7
 10
53.125866069745882
 20
78.976443835945659
 30
0.0
  0
VERTEX
  5
BF7
  8
DATA
 62
     7
 10
53.10141636010939
 20
78.943082865632022
 30
0.0
  0
VERTEX
  5
BF8
  8
DATA
 62
     7
 10
53.076214351714817
 20
78.909796829691061
 30
0.0
  0
VERTEX
  5
BF9
  8
DATA
 62
     7
 10
53.050260044562208
 20
78.876585728122791
 30
0.0
  0
VERTEX
  5
BFA
  8
DATA
 62
     7
 10
53.023553438651582
 20
78.843449560927255
 30
0.0
  0
VERTEX
  5
BFB
  8
DATA
 62
     7
 10
52.996094533982877
 20
78.810388328104366
 30
0.0
  0
VERTEX
  5
BFC
  8
DATA
 62
     7
 10
52.967883330556141
 20
78.77740202965424
 30
0.0
  0
VERTEX
  5
BFD
  8
DATA
 62
     7
 10
52.938919828371361
 20
78.744490665576762
 30
0.0
  0
VERTEX
  5
BFE
  8
DATA
 62
     7
 10
52.909204027428522
 20
78.711654235872032
 30
0.0
  0
VERTEX
  5
BFF
  8
DATA
 62
     7
 10
52.878735927727647
 20
78.678892740539951
 30
0.0
  0
VERTEX
  5
C00
  8
DATA
 62
     7
 10
52.847515529268719
 20
78.646206179580574
 30
0.0
  0
VERTEX
  5
C01
  8
DATA
 62
     7
 10
52.815542832051747
 20
78.613594552993902
 30
0.0
  0
VERTEX
  5
C02
  8
DATA
 62
     7
 10
52.782817836076717
 20
78.58105786077995
 30
0.0
  0
VERTEX
  5
C03
  8
DATA
 62
     7
 10
52.74934054134367
 20
78.548596102938674
 30
0.0
  0
VERTEX
  5
C04
  8
DATA
 62
     7
 10
52.715110947852573
 20
78.51620927947009
 30
0.0
  0
VERTEX
  5
C05
  8
DATA
 62
     7
 10
52.680129055603402
 20
78.483897390374224
 30
0.0
  0
VERTEX
  5
C06
  8
DATA
 62
     7
 10
52.644394864596208
 20
78.451660435651064
 30
0.0
  0
VERTEX
  5
C07
  8
DATA
 62
     7
 10
52.607908374830963
 20
78.419498415300581
 30
0.0
  0
VERTEX
  5
C08
  8
DATA
 62
     7
 10
52.570669586307652
 20
78.387411329322802
 30
0.0
  0
VERTEX
  5
C09
  8
DATA
 62
     7
 10
52.532678499026311
 20
78.3553991777177
 30
0.0
  0
VERTEX
  5
C0A
  8
DATA
 62
     7
 10
52.493935112986918
 20
78.323461960485318
 30
0.0
  0
VERTEX
  5
C0B
  8
DATA
 62
     7
 10
52.454439428189488
 20
78.291599677625626
 30
0.0
  0
VERTEX
  5
C0C
  8
DATA
 62
     7
 10
52.414191444634028
 20
78.259812329138654
 30
0.0
  0
VERTEX
  5
C0D
  8
DATA
 62
     7
 10
52.373191162320502
 20
78.228099915024373
 30
0.0
  0
VERTEX
  5
C0E
  8
DATA
 62
     7
 10
52.331438581248932
 20
78.196462435282783
 30
0.0
  0
VERTEX
  5
C0F
  8
DATA
 62
     7
 10
52.288933701419289
 20
78.164899889913883
 30
0.0
  0
VERTEX
  5
C10
  8
DATA
 62
     7
 10
52.245676522831623
 20
78.133412278917703
 30
0.0
  0
VERTEX
  5
C11
  8
DATA
 62
     7
 10
52.20166704548592
 20
78.1019996022942
 30
0.0
  0
VERTEX
  5
C12
  8
DATA
 62
     7
 10
52.15690526938215
 20
78.070661860043387
 30
0.0
  0
VERTEX
  5
C13
  8
DATA
 62
     7
 10
52.111391194520351
 20
78.039399052165294
 30
0.0
  0
VERTEX
  5
C14
  8
DATA
 62
     7
 10
52.0651248209005
 20
78.008211178659906
 30
0.0
  0
VERTEX
  5
C15
  8
DATA
 62
     7
 10
52.018106148522598
 20
77.977098239527223
 30
0.0
  0
VERTEX
  5
C16
  8
DATA
 62
     7
 10
51.970335177386659
 20
77.946060234767202
 30
0.0
  0
VERTEX
  5
C17
  8
DATA
 62
     7
 10
51.921912696415013
 20
77.915162059450253
 30
0.0
  0
VERTEX
  5
C18
  8
DATA
 62
     7
 10
51.872939494530002
 20
77.884468608646785
 30
0.0
  0
VERTEX
  5
C19
  8
DATA
 62
     7
 10
51.82341557173163
 20
77.853979882356754
 30
0.0
  0
VERTEX
  5
C1A
  8
DATA
 62
     7
 10
51.773340928019898
 20
77.823695880580132
 30
0.0
  0
VERTEX
  5
C1B
  8
DATA
 62
     7
 10
51.722715563394807
 20
77.793616603316991
 30
0.0
  0
VERTEX
  5
C1C
  8
DATA
 62
     7
 10
51.671539477856349
 20
77.763742050567288
 30
0.0
  0
VERTEX
  5
C1D
  8
DATA
 62
     7
 10
51.619812671404539
 20
77.734072222331022
 30
0.0
  0
VERTEX
  5
C1E
  8
DATA
 62
     7
 10
51.567535144039361
 20
77.704607118608195
 30
0.0
  0
VERTEX
  5
C1F
  8
DATA
 62
     7
 10
51.514706895760831
 20
77.675346739398833
 30
0.0
  0
VERTEX
  5
C20
  8
DATA
 62
     7
 10
51.461327926568927
 20
77.646291084702895
 30
0.0
  0
VERTEX
  5
C21
  8
DATA
 62
     7
 10
51.407398236463671
 20
77.617440154520423
 30
0.0
  0
VERTEX
  5
C22
  8
DATA
 62
     7
 10
51.352917825445061
 20
77.588793948851389
 30
0.0
  0
VERTEX
  5
C23
  8
DATA
 62
     7
 10
51.297886693513078
 20
77.560352467695793
 30
0.0
  0
VERTEX
  5
C24
  8
DATA
 62
     7
 10
51.242304840667742
 20
77.532115711053663
 30
0.0
  0
VERTEX
  5
C25
  8
DATA
 62
     7
 10
51.18617226690904
 20
77.504083678924943
 30
0.0
  0
VERTEX
  5
C26
  8
DATA
 62
     7
 10
51.129488972236977
 20
77.476256371309702
 30
0.0
  0
VERTEX
  5
C27
  8
DATA
 62
     7
 10
51.072254956651562
 20
77.448633788207871
 30
0.0
  0
VERTEX
  5
C28
  8
DATA
 62
     7
 10
51.014470220152781
 20
77.421215929619507
 30
0.0
  0
VERTEX
  5
C29
  8
DATA
 62
     7
 10
50.956134762740632
 20
77.394002795544594
 30
0.0
  0
VERTEX
  5
C2A
  8
DATA
 62
     7
 10
50.897248584415117
 20
77.366994385983091
 30
0.0
  0
VERTEX
  5
C2B
  8
DATA
 62
     7
 10
50.837811685176248
 20
77.340190700935054
 30
0.0
  0
VERTEX
  5
C2C
  8
DATA
 62
     7
 10
50.777824065024042
 20
77.313591740400497
 30
0.0
  0
VERTEX
  5
C2D
  8
DATA
 62
     7
 10
50.717285723958447
 20
77.287197504379336
 30
0.0
  0
VERTEX
  5
C2E
  8
DATA
 62
     7
 10
50.6561966619795
 20
77.261007992871654
 30
0.0
  0
VERTEX
  5
C2F
  8
DATA
 62
     7
 10
50.5945568790872
 20
77.235023205877411
 30
0.0
  0
VERTEX
  5
C30
  8
DATA
 62
     7
 10
50.532366375281534
 20
77.209243143396606
 30
0.0
  0
VERTEX
  5
C31
  8
DATA
 62
     7
 10
50.469625150562493
 20
77.183667805429252
 30
0.0
  0
VERTEX
  5
C32
  8
DATA
 62
     7
 10
50.406333204930107
 20
77.158297191975322
 30
0.0
  0
VERTEX
  5
C33
  8
DATA
 62
     7
 10
50.34249053838434
 20
77.133131303034844
 30
0.0
  0
VERTEX
  5
C34
  8
DATA
 62
     7
 10
50.278097150925227
 20
77.108170138607818
 30
0.0
  0
VERTEX
  5
C35
  8
DATA
 62
     7
 10
50.213153042552747
 20
77.083413698694244
 30
0.0
  0
VERTEX
  5
C36
  8
DATA
 62
     7
 10
50.147658213266929
 20
77.058861983294108
 30
0.0
  0
VERTEX
  5
C37
  8
DATA
 62
     7
 10
50.081612663067723
 20
77.034514992407424
 30
0.0
  0
VERTEX
  5
C38
  8
DATA
 62
     7
 10
50.015016391955179
 20
77.010372726034177
 30
0.0
  0
VERTEX
  5
C39
  8
DATA
 62
     7
 10
49.947869399929239
 20
76.986435184174383
 30
0.0
  0
VERTEX
  5
C3A
  8
DATA
 62
     7
 10
49.880171686989968
 20
76.962702366828012
 30
0.0
  0
VERTEX
  5
C3B
  8
DATA
 62
     7
 10
49.811923253137323
 20
76.939174273995093
 30
0.0
  0
VERTEX
  5
C3C
  8
DATA
 62
     7
 10
49.743124098371318
 20
76.915850905675626
 30
0.0
  0
VERTEX
  5
C3D
  8
DATA
 62
     7
 10
49.673774222691968
 20
76.892732261869625
 30
0.0
  0
VERTEX
  5
C3E
  8
DATA
 62
     7
 10
49.603873626099251
 20
76.86981834257702
 30
0.0
  0
VERTEX
  5
C3F
  8
DATA
 62
     7
 10
49.53342230859316
 20
76.847109147797923
 30
0.0
  0
VERTEX
  5
C40
  8
DATA
 62
     7
 10
49.46242027017373
 20
76.824604677532221
 30
0.0
  0
VERTEX
  5
C41
  8
DATA
 62
     7
 10
49.390867510840899
 20
76.802304931779986
 30
0.0
  0
VERTEX
  5
C42
  8
DATA
 62
     7
 10
49.318764030594743
 20
76.780209910541174
 30
0.0
  0
VERTEX
  5
C43
  8
DATA
 62
     7
 10
49.246109829435213
 20
76.758319613815843
 30
0.0
  0
VERTEX
  5
C44
  8
DATA
 62
     7
 10
49.172904907362309
 20
76.736634041603921
 30
0.0
  0
VERTEX
  5
C45
  8
DATA
 62
     7
 10
49.099149264376081
 20
76.715153193905451
 30
0.0
  0
VERTEX
  5
C46
  8
DATA
 62
     7
 10
49.024842900476457
 20
76.693877070720447
 30
0.0
  0
VERTEX
  5
C47
  8
DATA
 62
     7
 10
48.949985815663503
 20
76.672805672048881
 30
0.0
  0
VERTEX
  5
C48
  8
DATA
 62
     7
 10
48.874578009937167
 20
76.651938997890753
 30
0.0
  0
VERTEX
  5
C49
  8
DATA
 62
     7
 10
48.798619483297472
 20
76.631277048246062
 30
0.0
  0
VERTEX
  5
C4A
  8
DATA
 62
     7
 10
48.722110235744417
 20
76.610819823114824
 30
0.0
  0
VERTEX
  5
C4B
  8
DATA
 62
     7
 10
48.645050267278002
 20
76.590567322497066
 30
0.0
  0
VERTEX
  5
C4C
  8
DATA
 62
     7
 10
48.567439577898227
 20
76.570519546392703
 30
0.0
  0
VERTEX
  5
C4D
  8
DATA
 62
     7
 10
48.489278167605093
 20
76.550676494801792
 30
0.0
  0
VERTEX
  5
C4E
  8
DATA
 62
     7
 10
48.410566036398592
 20
76.531038167724347
 30
0.0
  0
VERTEX
  5
C4F
  8
DATA
 62
     7
 10
48.331303184278731
 20
76.51160456516034
 30
0.0
  0
VERTEX
  5
C50
  8
DATA
 62
     7
 10
48.251489611245518
 20
76.492375687109785
 30
0.0
  0
VERTEX
  5
C51
  8
DATA
 62
     7
 10
48.17112531729893
 20
76.473351533572654
 30
0.0
  0
VERTEX
  5
C52
  8
DATA
 62
     7
 10
48.09021030243899
 20
76.454532104548989
 30
0.0
  0
VERTEX
  5
C53
  8
DATA
 62
     7
 10
48.008744566665669
 20
76.435917400038733
 30
0.0
  0
VERTEX
  5
C54
  8
DATA
 62
     7
 10
47.926728109979017
 20
76.417507420041943
 30
0.0
  0
VERTEX
  5
C55
  8
DATA
 62
     7
 10
47.844160932378998
 20
76.39930216455862
 30
0.0
  0
VERTEX
  5
C56
  8
DATA
 62
     7
 10
47.761043033865612
 20
76.38130163358872
 30
0.0
  0
VERTEX
  5
C57
  8
DATA
 62
     7
 10
47.67754898597321
 20
76.363543294318603
 30
0.0
  0
VERTEX
  5
C58
  8
DATA
 62
     7
 10
47.59385336023611
 20
76.346064613934658
 30
0.0
  0
VERTEX
  5
C59
  8
DATA
 62
     7
 10
47.50995615665434
 20
76.328865592436827
 30
0.0
  0
VERTEX
  5
C5A
  8
DATA
 62
     7
 10
47.425857375227856
 20
76.311946229825153
 30
0.0
  0
VERTEX
  5
C5B
  8
DATA
 62
     7
 10
47.34155701595671
 20
76.295306526099651
 30
0.0
  0
VERTEX
  5
C5C
  8
DATA
 62
     7
 10
47.257055078840892
 20
76.278946481260263
 30
0.0
  0
VERTEX
  5
C5D
  8
DATA
 62
     7
 10
47.172351563880369
 20
76.262866095307004
 30
0.0
  0
VERTEX
  5
C5E
  8
DATA
 62
     7
 10
47.08744647107514
 20
76.24706536823993
 30
0.0
  0
VERTEX
  5
C5F
  8
DATA
 62
     7
 10
47.002339800425268
 20
76.231544300058985
 30
0.0
  0
VERTEX
  5
C60
  8
DATA
 62
     7
 10
46.917031551930677
 20
76.21630289076414
 30
0.0
  0
VERTEX
  5
C61
  8
DATA
 62
     7
 10
46.831521725591422
 20
76.201341140355481
 30
0.0
  0
VERTEX
  5
C62
  8
DATA
 62
     7
 10
46.745810321407482
 20
76.186659048832951
 30
0.0
  0
VERTEX
  5
C63
  8
DATA
 62
     7
 10
46.659897339378851
 20
76.172256616196591
 30
0.0
  0
VERTEX
  5
C64
  8
DATA
 62
     7
 10
46.573782779505507
 20
76.158133842446347
 30
0.0
  0
VERTEX
  5
C65
  8
DATA
 62
     7
 10
46.48746664178752
 20
76.144290727582259
 30
0.0
  0
VERTEX
  5
C66
  8
DATA
 62
     7
 10
46.400948926224821
 20
76.1307272716043
 30
0.0
  0
VERTEX
  5
C67
  8
DATA
 62
     7
 10
46.314229632817451
 20
76.117443474512527
 30
0.0
  0
VERTEX
  5
C68
  8
DATA
 62
     7
 10
46.227308761565389
 20
76.104439336306825
 30
0.0
  0
VERTEX
  5
C69
  8
DATA
 62
     7
 10
46.14018631246865
 20
76.091714856987323
 30
0.0
  0
VERTEX
  5
C6A
  8
DATA
 62
     7
 10
46.052862285527212
 20
76.079270036553936
 30
0.0
  0
VERTEX
  5
C6B
  8
DATA
 62
     7
 10
45.965336680741082
 20
76.067104875006706
 30
0.0
  0
VERTEX
  5
C6C
  8
DATA
 62
     7
 10
45.877609498110282
 20
76.055219372345633
 30
0.0
  0
VERTEX
  5
C6D
  8
DATA
 62
     7
 10
45.789680737634789
 20
76.043613528570646
 30
0.0
  0
VERTEX
  5
C6E
  8
DATA
 62
     7
 10
45.701550399314627
 20
76.032287343681858
 30
0.0
  0
VERTEX
  5
C6F
  8
DATA
 62
     7
 10
45.613218483149772
 20
76.0212408176792
 30
0.0
  0
VERTEX
  5
C70
  8
DATA
 62
     7
 10
45.524684989140233
 20
76.01047395056267
 30
0.0
  0
VERTEX
  5
C71
  8
DATA
 62
     7
 10
45.435949917285988
 20
75.999986742332297
 30
0.0
  0
VERTEX
  5
C72
  8
DATA
 62
     7
 10
45.34701326758708
 20
75.989779192988067
 30
0.0
  0
VERTEX
  5
C73
  8
DATA
 62
     7
 10
45.25787504004348
 20
75.97985130252998
 30
0.0
  0
VERTEX
  5
C74
  8
DATA
 62
     7
 10
45.168535234655202
 20
75.970203070958036
 30
0.0
  0
VERTEX
  5
C75
  8
DATA
 62
     7
 10
45.078993851422233
 20
75.96083449827222
 30
0.0
  0
VERTEX
  5
C76
  8
DATA
 62
     7
 10
44.989250890344557
 20
75.951745584472576
 30
0.0
  0
VERTEX
  5
C77
  8
DATA
 62
     7
 10
44.899306351422219
 20
75.94293632955906
 30
0.0
  0
VERTEX
  5
C78
  8
DATA
 62
     7
 10
44.809160234655202
 20
75.934406733531674
 30
0.0
  0
VERTEX
  5
C79
  8
DATA
 62
     7
 10
44.71881254004348
 20
75.926156796390444
 30
0.0
  0
VERTEX
  5
C7A
  8
DATA
 62
     7
 10
44.628263267587073
 20
75.918186518135371
 30
0.0
  0
VERTEX
  5
C7B
  8
DATA
 62
     7
 10
44.537512417285988
 20
75.910495898766442
 30
0.0
  0
VERTEX
  5
C7C
  8
DATA
 62
     7
 10
44.446559989140219
 20
75.903084938283627
 30
0.0
  0
VERTEX
  5
C7D
  8
DATA
 62
     7
 10
44.35540598314978
 20
75.895953636686983
 30
0.0
  0
VERTEX
  5
C7E
  8
DATA
 62
     7
 10
44.264050399314627
 20
75.889101993976453
 30
0.0
  0
VERTEX
  5
C7F
  8
DATA
 62
     7
 10
44.172493237634789
 20
75.882530010152095
 30
0.0
  0
VERTEX
  5
C80
  8
DATA
 62
     7
 10
44.080734498110282
 20
75.876237685213866
 30
0.0
  0
VERTEX
  5
C81
  8
DATA
 62
     7
 10
43.988774180741089
 20
75.870225019161794
 30
0.0
  0
VERTEX
  5
C82
  8
DATA
 62
     7
 10
43.896612285527212
 20
75.864492011995836
 30
0.0
  0
VERTEX
  5
C83
  8
DATA
 62
     7
 10
43.80424881246865
 20
75.859038663716063
 30
0.0
  0
VERTEX
  5
C84
  8
DATA
 62
     7
 10
43.711683761565389
 20
75.853864974322406
 30
0.0
  0
VERTEX
  5
C85
  8
DATA
 62
     7
 10
43.618917132817451
 20
75.848970943814905
 30
0.0
  0
VERTEX
  5
C86
  8
DATA
 62
     7
 10
43.525948926224828
 20
75.844356572193547
 30
0.0
  0
VERTEX
  5
C87
  8
DATA
 62
     7
 10
43.432779141787513
 20
75.84002185945829
 30
0.0
  0
VERTEX
  5
C88
  8
DATA
 62
     7
 10
43.339407779505521
 20
75.835966805609232
 30
0.0
  0
VERTEX
  5
C89
  8
DATA
 62
     7
 10
43.245834839378837
 20
75.83219141064626
 30
0.0
  0
VERTEX
  5
C8A
  8
DATA
 62
     7
 10
43.152060321407482
 20
75.828695674569502
 30
0.0
  0
VERTEX
  5
C8B
  8
DATA
 62
     7
 10
43.058084225591429
 20
75.825479597378859
 30
0.0
  0
VERTEX
  5
C8C
  8
DATA
 62
     7
 10
42.963906551930677
 20
75.822543179074373
 30
0.0
  0
VERTEX
  5
C8D
  8
DATA
 62
     7
 10
42.869527300425283
 20
75.819886419656001
 30
0.0
  0
VERTEX
  5
C8E
  8
DATA
 62
     7
 10
42.774946471075147
 20
75.817509319123786
 30
0.0
  0
VERTEX
  5
C8F
  8
DATA
 62
     7
 10
42.680164063880369
 20
75.8154118774777
 30
0.0
  0
VERTEX
  5
C90
  8
DATA
 62
     7
 10
42.585180078840892
 20
75.813594094717786
 30
0.0
  0
VERTEX
  5
C91
  8
DATA
 62
     7
 10
42.48999451595671
 20
75.812055970844
 30
0.0
  0
VERTEX
  5
C92
  8
DATA
 62
     7
 10
42.394607375227849
 20
75.810797505856343
 30
0.0
  0
VERTEX
  5
C93
  8
DATA
 62
     7
 10
42.299018656654319
 20
75.809818699754842
 30
0.0
  0
VERTEX
  5
C94
  8
DATA
 62
     7
 10
42.20322836023611
 20
75.809119552539499
 30
0.0
  0
VERTEX
  5
C95
  8
DATA
 62
     7
 10
42.107236485973203
 20
75.808700064210257
 30
0.0
  0
VERTEX
  5
C96
  8
DATA
 62
     7
 10
42.011043033865612
 20
75.808560234767185
 30
0.0
  0
VERTEX
  5
C97
  8
DATA
 62
     7
 10
41.914849581758013
 20
75.808700064210257
 30
0.0
  0
VERTEX
  5
C98
  8
DATA
 62
     7
 10
41.818857707495098
 20
75.809119552539499
 30
0.0
  0
VERTEX
  5
C99
  8
DATA
 62
     7
 10
41.72306741107689
 20
75.809818699754842
 30
0.0
  0
VERTEX
  5
C9A
  8
DATA
 62
     7
 10
41.62747869250336
 20
75.810797505856343
 30
0.0
  0
VERTEX
  5
C9B
  8
DATA
 62
     7
 10
41.532091551774499
 20
75.812055970844
 30
0.0
  0
VERTEX
  5
C9C
  8
DATA
 62
     7
 10
41.436905988890331
 20
75.813594094717786
 30
0.0
  0
VERTEX
  5
C9D
  8
DATA
 62
     7
 10
41.341922003850847
 20
75.8154118774777
 30
0.0
  0
VERTEX
  5
C9E
  8
DATA
 62
     7
 10
41.247139596656069
 20
75.817509319123786
 30
0.0
  0
VERTEX
  5
C9F
  8
DATA
 62
     7
 10
41.152558767305962
 20
75.819886419656001
 30
0.0
  0
VERTEX
  5
CA0
  8
DATA
 62
     7
 10
41.058179515800532
 20
75.822543179074373
 30
0.0
  0
VERTEX
  5
CA1
  8
DATA
 62
     7
 10
40.964001842139787
 20
75.825479597378859
 30
0.0
  0
VERTEX
  5
CA2
  8
DATA
 62
     7
 10
40.870025746323741
 20
75.828695674569502
 30
0.0
  0
VERTEX
  5
CA3
  8
DATA
 62
     7
 10
40.776251228352372
 20
75.83219141064626
 30
0.0
  0
VERTEX
  5
CA4
  8
DATA
 62
     7
 10
40.682678288225688
 20
75.835966805609232
 30
0.0
  0
VERTEX
  5
CA5
  8
DATA
 62
     7
 10
40.589306925943688
 20
75.84002185945829
 30
0.0
  0
VERTEX
  5
CA6
  8
DATA
 62
     7
 10
40.496137141506402
 20
75.844356572193547
 30
0.0
  0
VERTEX
  5
CA7
  8
DATA
 62
     7
 10
40.403168934913772
 20
75.848970943814905
 30
0.0
  0
VERTEX
  5
CA8
  8
DATA
 62
     7
 10
40.31040230616582
 20
75.853864974322406
 30
0.0
  0
VERTEX
  5
CA9
  8
DATA
 62
     7
 10
40.217837255262573
 20
75.859038663716063
 30
0.0
  0
VERTEX
  5
CAA
  8
DATA
 62
     7
 10
40.125473782204011
 20
75.864492011995836
 30
0.0
  0
VERTEX
  5
CAB
  8
DATA
 62
     7
 10
40.033311886990127
 20
75.870225019161794
 30
0.0
  0
VERTEX
  5
CAC
  8
DATA
 62
     7
 10
39.941351569620927
 20
75.876237685213866
 30
0.0
  0
VERTEX
  5
CAD
  8
DATA
 62
     7
 10
39.84959283009642
 20
75.882530010152095
 30
0.0
  0
VERTEX
  5
CAE
  8
DATA
 62
     7
 10
39.758035668416611
 20
75.889101993976453
 30
0.0
  0
VERTEX
  5
CAF
  8
DATA
 62
     7
 10
39.666680084581451
 20
75.895953636686983
 30
0.0
  0
VERTEX
  5
CB0
  8
DATA
 62
     7
 10
39.575526078590997
 20
75.903084938283627
 30
0.0
  0
VERTEX
  5
CB1
  8
DATA
 62
     7
 10
39.484573650445228
 20
75.910495898766442
 30
0.0
  0
VERTEX
  5
CB2
  8
DATA
 62
     7
 10
39.39382280014415
 20
75.918186518135371
 30
0.0
  0
VERTEX
  5
CB3
  8
DATA
 62
     7
 10
39.303273527687743
 20
75.926156796390444
 30
0.0
  0
VERTEX
  5
CB4
  8
DATA
 62
     7
 10
39.212925833076021
 20
75.934406733531674
 30
0.0
  0
VERTEX
  5
CB5
  8
DATA
 62
     7
 10
39.122779716308997
 20
75.94293632955906
 30
0.0
  0
VERTEX
  5
CB6
  8
DATA
 62
     7
 10
39.032835177386659
 20
75.951745584472576
 30
0.0
  0
VERTEX
  5
CB7
  8
DATA
 62
     7
 10
38.943092216308997
 20
75.96083449827222
 30
0.0
  0
VERTEX
  5
CB8
  8
DATA
 62
     7
 10
38.853550833076021
 20
75.970203070958036
 30
0.0
  0
VERTEX
  5
CB9
  8
DATA
 62
     7
 10
38.764211027687729
 20
75.97985130252998
 30
0.0
  0
VERTEX
  5
CBA
  8
DATA
 62
     7
 10
38.67507280014415
 20
75.989779192988067
 30
0.0
  0
VERTEX
  5
CBB
  8
DATA
 62
     7
 10
38.586136150445228
 20
75.999986742332297
 30
0.0
  0
VERTEX
  5
CBC
  8
DATA
 62
     7
 10
38.497401078590997
 20
76.01047395056267
 30
0.0
  0
VERTEX
  5
CBD
  8
DATA
 62
     7
 10
38.408867584581451
 20
76.0212408176792
 30
0.0
  0
VERTEX
  5
CBE
  8
DATA
 62
     7
 10
38.320535668416603
 20
76.032287343681858
 30
0.0
  0
VERTEX
  5
CBF
  8
DATA
 62
     7
 10
38.23240533009642
 20
76.043613528570646
 30
0.0
  0
VERTEX
  5
CC0
  8
DATA
 62
     7
 10
38.144476569620927
 20
76.055219372345633
 30
0.0
  0
VERTEX
  5
CC1
  8
DATA
 62
     7
 10
38.056749386990127
 20
76.067104875006706
 30
0.0
  0
VERTEX
  5
CC2
  8
DATA
 62
     7
 10
37.969223782204011
 20
76.079270036553936
 30
0.0
  0
VERTEX
  5
CC3
  8
DATA
 62
     7
 10
37.88189975526258
 20
76.091714856987323
 30
0.0
  0
VERTEX
  5
CC4
  8
DATA
 62
     7
 10
37.794777306165827
 20
76.104439336306825
 30
0.0
  0
VERTEX
  5
CC5
  8
DATA
 62
     7
 10
37.707856434913779
 20
76.117443474512527
 30
0.0
  0
VERTEX
  5
CC6
  8
DATA
 62
     7
 10
37.621137141506402
 20
76.1307272716043
 30
0.0
  0
VERTEX
  5
CC7
  8
DATA
 62
     7
 10
37.534619425943703
 20
76.144290727582259
 30
0.0
  0
VERTEX
  5
CC8
  8
DATA
 62
     7
 10
37.448303288225688
 20
76.158133842446347
 30
0.0
  0
VERTEX
  5
CC9
  8
DATA
 62
     7
 10
37.362188728352372
 20
76.172256616196591
 30
0.0
  0
VERTEX
  5
CCA
  8
DATA
 62
     7
 10
37.276275746323748
 20
76.186659048832951
 30
0.0
  0
VERTEX
  5
CCB
  8
DATA
 62
     7
 10
37.190564342139787
 20
76.201341140355481
 30
0.0
  0
VERTEX
  5
CCC
  8
DATA
 62
     7
 10
37.105054515800532
 20
76.21630289076414
 30
0.0
  0
VERTEX
  5
CCD
  8
DATA
 62
     7
 10
37.019746267305962
 20
76.231544300058985
 30
0.0
  0
VERTEX
  5
CCE
  8
DATA
 62
     7
 10
36.934639596656069
 20
76.24706536823993
 30
0.0
  0
VERTEX
  5
CCF
  8
DATA
 62
     7
 10
36.849734503850847
 20
76.262866095307004
 30
0.0
  0
VERTEX
  5
CD0
  8
DATA
 62
     7
 10
36.765030988890338
 20
76.278946481260263
 30
0.0
  0
VERTEX
  5
CD1
  8
DATA
 62
     7
 10
36.680529051774514
 20
76.295306526099651
 30
0.0
  0
VERTEX
  5
CD2
  8
DATA
 62
     7
 10
36.596228692503352
 20
76.311946229825153
 30
0.0
  0
VERTEX
  5
CD3
  8
DATA
 62
     7
 10
36.512129911076883
 20
76.328865592436827
 30
0.0
  0
VERTEX
  5
CD4
  8
DATA
 62
     7
 10
36.428232707495113
 20
76.346064613934658
 30
0.0
  0
VERTEX
  5
CD5
  8
DATA
 62
     7
 10
36.344537081758013
 20
76.363543294318603
 30
0.0
  0
VERTEX
  5
CD6
  8
DATA
 62
     7
 10
36.261043033865597
 20
76.38130163358872
 30
0.0
  0
VERTEX
  5
CD7
  8
DATA
 62
     7
 10
36.177925135352233
 20
76.39930216455862
 30
0.0
  0
VERTEX
  5
CD8
  8
DATA
 62
     7
 10
36.095357957752213
 20
76.417507420041943
 30
0.0
  0
VERTEX
  5
CD9
  8
DATA
 62
     7
 10
36.01334150106554
 20
76.435917400038733
 30
0.0
  0
VERTEX
  5
CDA
  8
DATA
 62
     7
 10
35.931875765292233
 20
76.454532104548989
 30
0.0
  0
VERTEX
  5
CDB
  8
DATA
 62
     7
 10
35.850960750432293
 20
76.473351533572654
 30
0.0
  0
VERTEX
  5
CDC
  8
DATA
 62
     7
 10
35.770596456485713
 20
76.492375687109785
 30
0.0
  0
VERTEX
  5
CDD
  8
DATA
 62
     7
 10
35.690782883452492
 20
76.51160456516034
 30
0.0
  0
VERTEX
  5
CDE
  8
DATA
 62
     7
 10
35.611520031332631
 20
76.531038167724347
 30
0.0
  0
VERTEX
  5
CDF
  8
DATA
 62
     7
 10
35.53280790012613
 20
76.550676494801792
 30
0.0
  0
VERTEX
  5
CE0
  8
DATA
 62
     7
 10
35.454646489833003
 20
76.570519546392703
 30
0.0
  0
VERTEX
  5
CE1
  8
DATA
 62
     7
 10
35.377035800453207
 20
76.590567322497066
 30
0.0
  0
VERTEX
  5
CE2
  8
DATA
 62
     7
 10
35.299975831986799
 20
76.610819823114824
 30
0.0
  0
VERTEX
  5
CE3
  8
DATA
 62
     7
 10
35.223466584433751
 20
76.631277048246062
 30
0.0
  0
VERTEX
  5
CE4
  8
DATA
 62
     7
 10
35.14750805779407
 20
76.651938997890753
 30
0.0
  0
VERTEX
  5
CE5
  8
DATA
 62
     7
 10
35.072100252067749
 20
76.672805672048881
 30
0.0
  0
VERTEX
  5
CE6
  8
DATA
 62
     7
 10
34.997243167254773
 20
76.693877070720447
 30
0.0
  0
VERTEX
  5
CE7
  8
DATA
 62
     7
 10
34.922936803355157
 20
76.715153193905451
 30
0.0
  0
VERTEX
  5
CE8
  8
DATA
 62
     7
 10
34.849181160368921
 20
76.736634041603921
 30
0.0
  0
VERTEX
  5
CE9
  8
DATA
 62
     7
 10
34.775976238296018
 20
76.758319613815843
 30
0.0
  0
VERTEX
  5
CEA
  8
DATA
 62
     7
 10
34.703322037136502
 20
76.780209910541174
 30
0.0
  0
VERTEX
  5
CEB
  8
DATA
 62
     7
 10
34.631218556890332
 20
76.802304931779986
 30
0.0
  0
VERTEX
  5
CEC
  8
DATA
 62
     7
 10
34.559665797557528
 20
76.824604677532221
 30
0.0
  0
VERTEX
  5
CED
  8
DATA
 62
     7
 10
34.488663759138092
 20
76.847109147797923
 30
0.0
  0
VERTEX
  5
CEE
  8
DATA
 62
     7
 10
34.418212441631987
 20
76.86981834257702
 30
0.0
  0
VERTEX
  5
CEF
  8
DATA
 62
     7
 10
34.348311845039269
 20
76.892732261869625
 30
0.0
  0
VERTEX
  5
CF0
  8
DATA
 62
     7
 10
34.278961969359891
 20
76.915850905675626
 30
0.0
  0
VERTEX
  5
CF1
  8
DATA
 62
     7
 10
34.210162814593893
 20
76.939174273995093
 30
0.0
  0
VERTEX
  5
CF2
  8
DATA
 62
     7
 10
34.141914380741248
 20
76.962702366828012
 30
0.0
  0
VERTEX
  5
CF3
  8
DATA
 62
     7
 10
34.07421666780197
 20
76.986435184174383
 30
0.0
  0
VERTEX
  5
CF4
  8
DATA
 62
     7
 10
34.007069675776052
 20
77.010372726034177
 30
0.0
  0
VERTEX
  5
CF5
  8
DATA
 62
     7
 10
33.940473404663493
 20
77.034514992407424
 30
0.0
  0
VERTEX
  5
CF6
  8
DATA
 62
     7
 10
33.874427854464301
 20
77.058861983294108
 30
0.0
  0
VERTEX
  5
CF7
  8
DATA
 62
     7
 10
33.808933025178483
 20
77.083413698694244
 30
0.0
  0
VERTEX
  5
CF8
  8
DATA
 62
     7
 10
33.743988916805989
 20
77.108170138607818
 30
0.0
  0
VERTEX
  5
CF9
  8
DATA
 62
     7
 10
33.679595529346869
 20
77.133131303034844
 30
0.0
  0
VERTEX
  5
CFA
  8
DATA
 62
     7
 10
33.615752862801131
 20
77.158297191975322
 30
0.0
  0
VERTEX
  5
CFB
  8
DATA
 62
     7
 10
33.552460917168723
 20
77.183667805429252
 30
0.0
  0
VERTEX
  5
CFC
  8
DATA
 62
     7
 10
33.489719692449697
 20
77.209243143396606
 30
0.0
  0
VERTEX
  5
CFD
  8
DATA
 62
     7
 10
33.427529188644023
 20
77.235023205877411
 30
0.0
  0
VERTEX
  5
CFE
  8
DATA
 62
     7
 10
33.365889405751702
 20
77.261007992871654
 30
0.0
  0
VERTEX
  5
CFF
  8
DATA
 62
     7
 10
33.304800343772762
 20
77.287197504379336
 30
0.0
  0
VERTEX
  5
D00
  8
DATA
 62
     7
 10
33.244262002707181
 20
77.313591740400497
 30
0.0
  0
VERTEX
  5
D01
  8
DATA
 62
     7
 10
33.184274382554953
 20
77.340190700935054
 30
0.0
  0
VERTEX
  5
D02
  8
DATA
 62
     7
 10
33.124837483316071
 20
77.366994385983091
 30
0.0
  0
VERTEX
  5
D03
  8
DATA
 62
     7
 10
33.06595130499057
 20
77.394002795544594
 30
0.0
  0
VERTEX
  5
D04
  8
DATA
 62
     7
 10
33.007615847578421
 20
77.421215929619507
 30
0.0
  0
VERTEX
  5
D05
  8
DATA
 62
     7
 10
32.949831111079632
 20
77.448633788207871
 30
0.0
  0
VERTEX
  5
D06
  8
DATA
 62
     7
 10
32.892597095494231
 20
77.476256371309702
 30
0.0
  0
VERTEX
  5
D07
  8
DATA
 62
     7
 10
32.835913800822162
 20
77.504083678924943
 30
0.0
  0
VERTEX
  5
D08
  8
DATA
 62
     7
 10
32.779781227063467
 20
77.532115711053663
 30
0.0
  0
VERTEX
  5
D09
  8
DATA
 62
     7
 10
32.724199374218131
 20
77.560352467695793
 30
0.0
  0
VERTEX
  5
D0A
  8
DATA
 62
     7
 10
32.669168242286148
 20
77.588793948851389
 30
0.0
  0
VERTEX
  5
D0B
  8
DATA
 62
     7
 10
32.614687831267531
 20
77.617440154520423
 30
0.0
  0
VERTEX
  5
D0C
  8
DATA
 62
     7
 10
32.560758141162282
 20
77.646291084702895
 30
0.0
  0
VERTEX
  5
D0D
  8
DATA
 62
     7
 10
32.507379171970392
 20
77.675346739398833
 30
0.0
  0
VERTEX
  5
D0E
  8
DATA
 62
     7
 10
32.454550923691848
 20
77.704607118608195
 30
0.0
  0
VERTEX
  5
D0F
  8
DATA
 62
     7
 10
32.402273396326677
 20
77.734072222331022
 30
0.0
  0
VERTEX
  5
D10
  8
DATA
 62
     7
 10
32.350546589874881
 20
77.763742050567288
 30
0.0
  0
VERTEX
  5
D11
  8
DATA
 62
     7
 10
32.299370504336409
 20
77.793616603316991
 30
0.0
  0
VERTEX
  5
D12
  8
DATA
 62
     7
 10
32.248745139711318
 20
77.823695880580132
 30
0.0
  0
VERTEX
  5
D13
  8
DATA
 62
     7
 10
32.198670495999593
 20
77.853979882356754
 30
0.0
  0
VERTEX
  5
D14
  8
DATA
 62
     7
 10
32.149146573201229
 20
77.884468608646785
 30
0.0
  0
VERTEX
  5
D15
  8
DATA
 62
     7
 10
32.100173371316217
 20
77.915162059450253
 30
0.0
  0
VERTEX
  5
D16
  8
DATA
 62
     7
 10
32.051750890344572
 20
77.946060234767202
 30
0.0
  0
VERTEX
  5
D17
  8
DATA
 62
     7
 10
32.003979919208611
 20
77.977098239527223
 30
0.0
  0
VERTEX
  5
D18
  8
DATA
 62
     7
 10
31.956961246830719
 20
78.008211178659906
 30
0.0
  0
VERTEX
  5
D19
  8
DATA
 62
     7
 10
31.910694873210868
 20
78.039399052165294
 30
0.0
  0
VERTEX
  5
D1A
  8
DATA
 62
     7
 10
31.865180798349058
 20
78.070661860043387
 30
0.0
  0
VERTEX
  5
D1B
  8
DATA
 62
     7
 10
31.820419022245289
 20
78.1019996022942
 30
0.0
  0
VERTEX
  5
D1C
  8
DATA
 62
     7
 10
31.776409544899568
 20
78.133412278917703
 30
0.0
  0
VERTEX
  5
D1D
  8
DATA
 62
     7
 10
31.73315236631192
 20
78.164899889913883
 30
0.0
  0
VERTEX
  5
D1E
  8
DATA
 62
     7
 10
31.690647486482309
 20
78.196462435282783
 30
0.0
  0
VERTEX
  5
D1F
  8
DATA
 62
     7
 10
31.648894905410749
 20
78.228099915024373
 30
0.0
  0
VERTEX
  5
D20
  8
DATA
 62
     7
 10
31.607894623097209
 20
78.259812329138654
 30
0.0
  0
VERTEX
  5
D21
  8
DATA
 62
     7
 10
31.567646639541731
 20
78.291599677625626
 30
0.0
  0
VERTEX
  5
D22
  8
DATA
 62
     7
 10
31.528150954744302
 20
78.323461960485318
 30
0.0
  0
VERTEX
  5
D23
  8
DATA
 62
     7
 10
31.489407568704909
 20
78.3553991777177
 30
0.0
  0
VERTEX
  5
D24
  8
DATA
 62
     7
 10
31.451416481423571
 20
78.387411329322802
 30
0.0
  0
VERTEX
  5
D25
  8
DATA
 62
     7
 10
31.414177692900282
 20
78.419498415300581
 30
0.0
  0
VERTEX
  5
D26
  8
DATA
 62
     7
 10
31.37769120313504
 20
78.451660435651064
 30
0.0
  0
VERTEX
  5
D27
  8
DATA
 62
     7
 10
31.341957012127821
 20
78.483897390374224
 30
0.0
  0
VERTEX
  5
D28
  8
DATA
 62
     7
 10
31.306975119878651
 20
78.51620927947009
 30
0.0
  0
VERTEX
  5
D29
  8
DATA
 62
     7
 10
31.272745526387549
 20
78.548596102938674
 30
0.0
  0
VERTEX
  5
D2A
  8
DATA
 62
     7
 10
31.239268231654489
 20
78.58105786077995
 30
0.0
  0
VERTEX
  5
D2B
  8
DATA
 62
     7
 10
31.206543235679479
 20
78.613594552993902
 30
0.0
  0
VERTEX
  5
D2C
  8
DATA
 62
     7
 10
31.1745705384625
 20
78.646206179580574
 30
0.0
  0
VERTEX
  5
D2D
  8
DATA
 62
     7
 10
31.14335014000358
 20
78.678892740539951
 30
0.0
  0
VERTEX
  5
D2E
  8
DATA
 62
     7
 10
31.11288204030269
 20
78.711654235872032
 30
0.0
  0
VERTEX
  5
D2F
  8
DATA
 62
     7
 10
31.083166239359869
 20
78.744490665576762
 30
0.0
  0
VERTEX
  5
D30
  8
DATA
 62
     7
 10
31.054202737175078
 20
78.77740202965424
 30
0.0
  0
VERTEX
  5
D31
  8
DATA
 62
     7
 10
31.025991533748339
 20
78.810388328104366
 30
0.0
  0
VERTEX
  5
D32
  8
DATA
 62
     7
 10
30.998532629079651
 20
78.843449560927255
 30
0.0
  0
VERTEX
  5
D33
  8
DATA
 62
     7
 10
30.971826023169001
 20
78.876585728122791
 30
0.0
  0
VERTEX
  5
D34
  8
DATA
 62
     7
 10
30.945871716016399
 20
78.909796829691061
 30
0.0
  0
VERTEX
  5
D35
  8
DATA
 62
     7
 10
30.92066970762184
 20
78.943082865632022
 30
0.0
  0
VERTEX
  5
D36
  8
DATA
 62
     7
 10
30.896219997985341
 20
78.976443835945659
 30
0.0
  0
VERTEX
  5
D37
  8
DATA
 62
     7
 10
30.872522587106889
 20
79.009879740632016
 30
0.0
  0
VERTEX
  5
D38
  8
DATA
 62
     7
 10
30.849577474986479
 20
79.043390579691064
 30
0.0
  0
VERTEX
  5
D39
  8
DATA
 62
     7
 10
30.827384661624091
 20
79.076976353122816
 30
0.0
  0
VERTEX
  5
D3A
  8
DATA
 62
     7
 10
30.805944147019769
 20
79.11063706092726
 30
0.0
  0
VERTEX
  5
D3B
  8
DATA
 62
     7
 10
30.785255931173491
 20
79.144372703104423
 30
0.0
  0
VERTEX
  5
D3C
  8
DATA
 62
     7
 10
30.76532001408529
 20
79.178183279654263
 30
0.0
  0
VERTEX
  5
D3D
  8
DATA
 62
     7
 10
30.746136395755091
 20
79.212068790576765
 30
0.0
  0
VERTEX
  5
D3E
  8
DATA
 62
     7
 10
30.72770507618295
 20
79.246029235872015
 30
0.0
  0
VERTEX
  5
D3F
  8
DATA
 62
     7
 10
30.710026055368861
 20
79.280064615539956
 30
0.0
  0
VERTEX
  5
D40
  8
DATA
 62
     7
 10
30.693099333312819
 20
79.314174929580574
 30
0.0
  0
VERTEX
  5
D41
  8
DATA
 62
     7
 10
30.676924910014819
 20
79.348360177993911
 30
0.0
  0
VERTEX
  5
D42
  8
DATA
 62
     7
 10
30.661502785474859
 20
79.382620360779953
 30
0.0
  0
VERTEX
  5
D43
  8
DATA
 62
     7
 10
30.646832959692961
 20
79.416955477938686
 30
0.0
  0
VERTEX
  5
D44
  8
DATA
 62
     7
 10
30.63291543266909
 20
79.45136552947011
 30
0.0
  0
VERTEX
  5
D45
  8
DATA
 62
     7
 10
30.619750204403289
 20
79.485850515374224
 30
0.0
  0
VERTEX
  5
D46
  8
DATA
 62
     7
 10
30.607337274895531
 20
79.520410435651058
 30
0.0
  0
VERTEX
  5
D47
  8
DATA
 62
     7
 10
30.595676644145811
 20
79.555045290300583
 30
0.0
  0
VERTEX
  5
D48
  8
DATA
 62
     7
 10
30.584768312154139
 20
79.589755079322785
 30
0.0
  0
VERTEX
  5
D49
  8
DATA
 62
     7
 10
30.57461227892054
 20
79.62453980271772
 30
0.0
  0
VERTEX
  5
D4A
  8
DATA
 62
     7
 10
30.56520854444495
 20
79.659399460485318
 30
0.0
  0
VERTEX
  5
D4B
  8
DATA
 62
     7
 10
30.556557108727411
 20
79.694334052625649
 30
0.0
  0
VERTEX
  5
D4C
  8
DATA
 62
     7
 10
30.548657971767931
 20
79.729343579138657
 30
0.0
  0
VERTEX
  5
D4D
  8
DATA
 62
     7
 10
30.541511133566491
 20
79.76442804002437
 30
0.0
  0
VERTEX
  5
D4E
  8
DATA
 62
     7
 10
30.535116594123089
 20
79.799587435282774
 30
0.0
  0
VERTEX
  5
D4F
  8
DATA
 62
     7
 10
30.529474353437749
 20
79.834821764913883
 30
0.0
  0
VERTEX
  5
D50
  8
DATA
 62
     7
 10
30.52458441151045
 20
79.870131028917683
 30
0.0
  0
VERTEX
  5
D51
  8
DATA
 62
     7
 10
30.520446768341198
 20
79.905515227294202
 30
0.0
  0
VERTEX
  5
D52
  8
DATA
 62
     7
 10
30.51706142392997
 20
79.940974360043398
 30
0.0
  0
VERTEX
  5
D53
  8
DATA
 62
     7
 10
30.514428378276818
 20
79.9765084271653
 30
0.0
  0
VERTEX
  5
D54
  8
DATA
 62
     7
 10
30.512547631381711
 20
80.012117428659906
 30
0.0
  0
VERTEX
  5
D55
  8
DATA
 62
     7
 10
30.51141918324463
 20
80.047801364527217
 30
0.0
  0
VERTEX
  5
D56
  8
DATA
 62
     7
 10
30.511043033865612
 20
80.083560234767205
 30
0.0
  0
VERTEX
  5
D57
  8
DATA
 62
     7
 10
30.51141918324463
 20
80.119319105007193
 30
0.0
  0
VERTEX
  5
D58
  8
DATA
 62
     7
 10
30.512547631381711
 20
80.155003040874504
 30
0.0
  0
VERTEX
  5
D59
  8
DATA
 62
     7
 10
30.514428378276818
 20
80.190612042369082
 30
0.0
  0
VERTEX
  5
D5A
  8
DATA
 62
     7
 10
30.51706142392997
 20
80.226146109491012
 30
0.0
  0
VERTEX
  5
D5B
  8
DATA
 62
     7
 10
30.520446768341198
 20
80.261605242240194
 30
0.0
  0
VERTEX
  5
D5C
  8
DATA
 62
     7
 10
30.52458441151045
 20
80.296989440616684
 30
0.0
  0
VERTEX
  5
D5D
  8
DATA
 62
     7
 10
30.529474353437749
 20
80.332298704620513
 30
0.0
  0
VERTEX
  5
D5E
  8
DATA
 62
     7
 10
30.535116594123089
 20
80.367533034251636
 30
0.0
  0
VERTEX
  5
D5F
  8
DATA
 62
     7
 10
30.541511133566491
 20
80.402692429510054
 30
0.0
  0
VERTEX
  5
D60
  8
DATA
 62
     7
 10
30.548657971767931
 20
80.437776890395739
 30
0.0
  0
VERTEX
  5
D61
  8
DATA
 62
     7
 10
30.556557108727411
 20
80.472786416908775
 30
0.0
  0
VERTEX
  5
D62
  8
DATA
 62
     7
 10
30.56520854444495
 20
80.507721009049092
 30
0.0
  0
VERTEX
  5
D63
  8
DATA
 62
     7
 10
30.57461227892054
 20
80.542580666816676
 30
0.0
  0
VERTEX
  5
D64
  8
DATA
 62
     7
 10
30.584768312154139
 20
80.577365390211625
 30
0.0
  0
VERTEX
  5
D65
  8
DATA
 62
     7
 10
30.595676644145811
 20
80.612075179233813
 30
0.0
  0
VERTEX
  5
D66
  8
DATA
 62
     7
 10
30.607337274895531
 20
80.646710033883323
 30
0.0
  0
VERTEX
  5
D67
  8
DATA
 62
     7
 10
30.619750204403289
 20
80.681269954160186
 30
0.0
  0
VERTEX
  5
D68
  8
DATA
 62
     7
 10
30.63291543266909
 20
80.715754940064286
 30
0.0
  0
VERTEX
  5
D69
  8
DATA
 62
     7
 10
30.646832959692961
 20
80.750164991595724
 30
0.0
  0
VERTEX
  5
D6A
  8
DATA
 62
     7
 10
30.661502785474859
 20
80.784500108754457
 30
0.0
  0
VERTEX
  5
D6B
  8
DATA
 62
     7
 10
30.676924910014819
 20
80.818760291540485
 30
0.0
  0
VERTEX
  5
D6C
  8
DATA
 62
     7
 10
30.693099333312819
 20
80.852945539953794
 30
0.0
  0
VERTEX
  5
D6D
  8
DATA
 62
     7
 10
30.710026055368861
 20
80.887055853994454
 30
0.0
  0
VERTEX
  5
D6E
  8
DATA
 62
     7
 10
30.72770507618295
 20
80.921091233662381
 30
0.0
  0
VERTEX
  5
D6F
  8
DATA
 62
     7
 10
30.746136395755091
 20
80.955051678957645
 30
0.0
  0
VERTEX
  5
D70
  8
DATA
 62
     7
 10
30.76532001408529
 20
80.988937189880133
 30
0.0
  0
VERTEX
  5
D71
  8
DATA
 62
     7
 10
30.785255931173491
 20
81.022747766430001
 30
0.0
  0
VERTEX
  5
D72
  8
DATA
 62
     7
 10
30.805944147019769
 20
81.056483408607136
 30
0.0
  0
VERTEX
  5
D73
  8
DATA
 62
     7
 10
30.827384661624091
 20
81.090144116411579
 30
0.0
  0
VERTEX
  5
D74
  8
DATA
 62
     7
 10
30.849577474986479
 20
81.123729889843332
 30
0.0
  0
VERTEX
  5
D75
  8
DATA
 62
     7
 10
30.872522587106889
 20
81.15724072890238
 30
0.0
  0
VERTEX
  5
D76
  8
DATA
 62
     7
 10
30.896219997985341
 20
81.190676633588737
 30
0.0
  0
VERTEX
  5
D77
  8
DATA
 62
     7
 10
30.92066970762184
 20
81.224037603902389
 30
0.0
  0
VERTEX
  5
D78
  8
DATA
 62
     7
 10
30.945871716016399
 20
81.257323639843335
 30
0.0
  0
VERTEX
  5
D79
  8
DATA
 62
     7
 10
30.971826023169001
 20
81.290534741411577
 30
0.0
  0
VERTEX
  5
D7A
  8
DATA
 62
     7
 10
30.998532629079651
 20
81.323670908607141
 30
0.0
  0
VERTEX
  5
D7B
  8
DATA
 62
     7
 10
31.025991533748339
 20
81.356732141430001
 30
0.0
  0
VERTEX
  5
D7C
  8
DATA
 62
     7
 10
31.054202737175078
 20
81.389718439880156
 30
0.0
  0
VERTEX
  5
D7D
  8
DATA
 62
     7
 10
31.083166239359869
 20
81.422629803957605
 30
0.0
  0
VERTEX
  5
D7E
  8
DATA
 62
     7
 10
31.11288204030269
 20
81.455466233662378
 30
0.0
  0
VERTEX
  5
D7F
  8
DATA
 62
     7
 10
31.14335014000358
 20
81.488227728994431
 30
0.0
  0
VERTEX
  5
D80
  8
DATA
 62
     7
 10
31.1745705384625
 20
81.520914289953794
 30
0.0
  0
VERTEX
  5
D81
  8
DATA
 62
     7
 10
31.206543235679479
 20
81.553525916540494
 30
0.0
  0
VERTEX
  5
D82
  8
DATA
 62
     7
 10
31.239268231654489
 20
81.586062608754418
 30
0.0
  0
VERTEX
  5
D83
  8
DATA
 62
     7
 10
31.272745526387549
 20
81.618524366595693
 30
0.0
  0
VERTEX
  5
D84
  8
DATA
 62
     7
 10
31.306975119878651
 20
81.650911190064292
 30
0.0
  0
VERTEX
  5
D85
  8
DATA
 62
     7
 10
31.341957012127821
 20
81.683223079160186
 30
0.0
  0
VERTEX
  5
D86
  8
DATA
 62
     7
 10
31.37769120313504
 20
81.715460033883346
 30
0.0
  0
VERTEX
  5
D87
  8
DATA
 62
     7
 10
31.414177692900282
 20
81.747622054233815
 30
0.0
  0
VERTEX
  5
D88
  8
DATA
 62
     7
 10
31.451416481423571
 20
81.779709140211622
 30
0.0
  0
VERTEX
  5
D89
  8
DATA
 62
     7
 10
31.489407568704909
 20
81.811721291816681
 30
0.0
  0
VERTEX
  5
D8A
  8
DATA
 62
     7
 10
31.528150954744302
 20
81.843658509049078
 30
0.0
  0
VERTEX
  5
D8B
  8
DATA
 62
     7
 10
31.567646639541731
 20
81.875520791908784
 30
0.0
  0
VERTEX
  5
D8C
  8
DATA
 62
     7
 10
31.607894623097209
 20
81.907308140395727
 30
0.0
  0
VERTEX
  5
D8D
  8
DATA
 62
     7
 10
31.648894905410749
 20
81.939020554510023
 30
0.0
  0
VERTEX
  5
D8E
  8
DATA
 62
     7
 10
31.690647486482309
 20
81.970658034251628
 30
0.0
  0
VERTEX
  5
D8F
  8
DATA
 62
     7
 10
31.73315236631192
 20
82.002220579620513
 30
0.0
  0
VERTEX
  5
D90
  8
DATA
 62
     7
 10
31.776409544899568
 20
82.033708190616736
 30
0.0
  0
VERTEX
  5
D91
  8
DATA
 62
     7
 10
31.820419022245289
 20
82.065120867240196
 30
0.0
  0
VERTEX
  5
D92
  8
DATA
 62
     7
 10
31.865180798349058
 20
82.096458609490995
 30
0.0
  0
VERTEX
  5
D93
  8
DATA
 62
     7
 10
31.910694873210868
 20
82.127721417369088
 30
0.0
  0
VERTEX
  5
D94
  8
DATA
 62
     7
 10
31.956961246830719
 20
82.158909290874504
 30
0.0
  0
VERTEX
  5
D95
  8
DATA
 62
     7
 10
32.003979919208611
 20
82.190022230007187
 30
0.0
  0
VERTEX
  5
D96
  8
DATA
 62
     7
 10
32.051750890344572
 20
82.221060234767194
 30
0.0
  0
VERTEX
  5
D97
  8
DATA
 62
     7
 10
32.100173371316217
 20
82.251958410084143
 30
0.0
  0
VERTEX
  5
D98
  8
DATA
 62
     7
 10
32.149146573201229
 20
82.282651860887626
 30
0.0
  0
VERTEX
  5
D99
  8
DATA
 62
     7
 10
32.198670495999593
 20
82.313140587177656
 30
0.0
  0
VERTEX
  5
D9A
  8
DATA
 62
     7
 10
32.248745139711318
 20
82.343424588954264
 30
0.0
  0
VERTEX
  5
D9B
  8
DATA
 62
     7
 10
32.299370504336409
 20
82.373503866217405
 30
0.0
  0
VERTEX
  5
D9C
  8
DATA
 62
     7
 10
32.350546589874881
 20
82.403378418967122
 30
0.0
  0
VERTEX
  5
D9D
  8
DATA
 62
     7
 10
32.402273396326677
 20
82.433048247203374
 30
0.0
  0
VERTEX
  5
D9E
  8
DATA
 62
     7
 10
32.454550923691848
 20
82.462513350926216
 30
0.0
  0
VERTEX
  5
D9F
  8
DATA
 62
     7
 10
32.507379171970392
 20
82.491773730135563
 30
0.0
  0
VERTEX
  5
DA0
  8
DATA
 62
     7
 10
32.560758141162282
 20
82.520829384831501
 30
0.0
  0
VERTEX
  5
DA1
  8
DATA
 62
     7
 10
32.614687831267531
 20
82.549680315013987
 30
0.0
  0
VERTEX
  5
DA2
  8
DATA
 62
     7
 10
32.669168242286148
 20
82.578326520683007
 30
0.0
  0
VERTEX
  5
DA3
  8
DATA
 62
     7
 10
32.724199374218131
 20
82.606768001838603
 30
0.0
  0
VERTEX
  5
DA4
  8
DATA
 62
     7
 10
32.779781227063467
 20
82.635004758480761
 30
0.0
  0
VERTEX
  5
DA5
  8
DATA
 62
     7
 10
32.835913800822162
 20
82.663036790609453
 30
0.0
  0
VERTEX
  5
DA6
  8
DATA
 62
     7
 10
32.892597095494231
 20
82.690864098224722
 30
0.0
  0
VERTEX
  5
DA7
  8
DATA
 62
     7
 10
32.949831111079632
 20
82.718486681326553
 30
0.0
  0
VERTEX
  5
DA8
  8
DATA
 62
     7
 10
33.007615847578421
 20
82.745904539914903
 30
0.0
  0
VERTEX
  5
DA9
  8
DATA
 62
     7
 10
33.06595130499057
 20
82.773117673989816
 30
0.0
  0
VERTEX
  5
DAA
  8
DATA
 62
     7
 10
33.124837483316071
 20
82.800126083551291
 30
0.0
  0
VERTEX
  5
DAB
  8
DATA
 62
     7
 10
33.184274382554953
 20
82.826929768599314
 30
0.0
  0
VERTEX
  5
DAC
  8
DATA
 62
     7
 10
33.244262002707181
 20
82.853528729133899
 30
0.0
  0
VERTEX
  5
DAD
  8
DATA
 62
     7
 10
33.304800343772762
 20
82.87992296515506
 30
0.0
  0
VERTEX
  5
DAE
  8
DATA
 62
     7
 10
33.365889405751702
 20
82.906112476662756
 30
0.0
  0
VERTEX
  5
DAF
  8
DATA
 62
     7
 10
33.427529188644023
 20
82.932097263656999
 30
0.0
  0
VERTEX
  5
DB0
  8
DATA
 62
     7
 10
33.489719692449697
 20
82.957877326137805
 30
0.0
  0
VERTEX
  5
DB1
  8
DATA
 62
     7
 10
33.552460917168723
 20
82.983452664105172
 30
0.0
  0
VERTEX
  5
DB2
  8
DATA
 62
     7
 10
33.615752862801131
 20
83.008823277559046
 30
0.0
  0
VERTEX
  5
DB3
  8
DATA
 62
     7
 10
33.679595529346869
 20
83.033989166499552
 30
0.0
  0
VERTEX
  5
DB4
  8
DATA
 62
     7
 10
33.743988916805989
 20
83.058950330926578
 30
0.0
  0
VERTEX
  5
DB5
  8
DATA
 62
     7
 10
33.808933025178483
 20
83.083706770840152
 30
0.0
  0
VERTEX
  5
DB6
  8
DATA
 62
     7
 10
33.874427854464301
 20
83.108258486240302
 30
0.0
  0
VERTEX
  5
DB7
  8
DATA
 62
     7
 10
33.940473404663493
 20
83.132605477126987
 30
0.0
  0
VERTEX
  5
DB8
  8
DATA
 62
     7
 10
34.007069675776052
 20
83.156747743500205
 30
0.0
  0
VERTEX
  5
DB9
  8
DATA
 62
     7
 10
34.07421666780197
 20
83.180685285360013
 30
0.0
  0
VERTEX
  5
DBA
  8
DATA
 62
     7
 10
34.141914380741248
 20
83.204418102706398
 30
0.0
  0
VERTEX
  5
DBB
  8
DATA
 62
     7
 10
34.210162814593893
 20
83.227946195539289
 30
0.0
  0
VERTEX
  5
DBC
  8
DATA
 62
     7
 10
34.278961969359891
 20
83.251269563858784
 30
0.0
  0
VERTEX
  5
DBD
  8
DATA
 62
     7
 10
34.348311845039269
 20
83.274388207664785
 30
0.0
  0
VERTEX
  5
DBE
  8
DATA
 62
     7
 10
34.418212441631987
 20
83.297302126957362
 30
0.0
  0
VERTEX
  5
DBF
  8
DATA
 62
     7
 10
34.488663759138092
 20
83.320011321736487
 30
0.0
  0
VERTEX
  5
DC0
  8
DATA
 62
     7
 10
34.559665797557528
 20
83.342515792002175
 30
0.0
  0
VERTEX
  5
DC1
  8
DATA
 62
     7
 10
34.631218556890332
 20
83.364815537754424
 30
0.0
  0
VERTEX
  5
DC2
  8
DATA
 62
     7
 10
34.703322037136502
 20
83.386910558993236
 30
0.0
  0
VERTEX
  5
DC3
  8
DATA
 62
     7
 10
34.775976238296018
 20
83.408800855718567
 30
0.0
  0
VERTEX
  5
DC4
  8
DATA
 62
     7
 10
34.849181160368921
 20
83.430486427930447
 30
0.0
  0
VERTEX
  5
DC5
  8
DATA
 62
     7
 10
34.922936803355157
 20
83.451967275628945
 30
0.0
  0
VERTEX
  5
DC6
  8
DATA
 62
     7
 10
34.997243167254773
 20
83.473243398813935
 30
0.0
  0
VERTEX
  5
DC7
  8
DATA
 62
     7
 10
35.072100252067749
 20
83.494314797485544
 30
0.0
  0
VERTEX
  5
DC8
  8
DATA
 62
     7
 10
35.14750805779407
 20
83.515181471643658
 30
0.0
  0
VERTEX
  5
DC9
  8
DATA
 62
     7
 10
35.223466584433751
 20
83.535843421288348
 30
0.0
  0
VERTEX
  5
DCA
  8
DATA
 62
     7
 10
35.299975831986799
 20
83.556300646419544
 30
0.0
  0
VERTEX
  5
DCB
  8
DATA
 62
     7
 10
35.377035800453207
 20
83.576553147037359
 30
0.0
  0
VERTEX
  5
DCC
  8
DATA
 62
     7
 10
35.454646489833003
 20
83.596600923141693
 30
0.0
  0
VERTEX
  5
DCD
  8
DATA
 62
     7
 10
35.53280790012613
 20
83.616443974732604
 30
0.0
  0
VERTEX
  5
DCE
  8
DATA
 62
     7
 10
35.611520031332631
 20
83.636082301810049
 30
0.0
  0
VERTEX
  5
DCF
  8
DATA
 62
     7
 10
35.690782883452492
 20
83.65551590437407
 30
0.0
  0
VERTEX
  5
DD0
  8
DATA
 62
     7
 10
35.770596456485713
 20
83.674744782424625
 30
0.0
  0
VERTEX
  5
DD1
  8
DATA
 62
     7
 10
35.850960750432293
 20
83.693768935961728
 30
0.0
  0
VERTEX
  5
DD2
  8
DATA
 62
     7
 10
35.931875765292233
 20
83.712588364985422
 30
0.0
  0
VERTEX
  5
DD3
  8
DATA
 62
     7
 10
36.01334150106554
 20
83.731203069495663
 30
0.0
  0
VERTEX
  5
DD4
  8
DATA
 62
     7
 10
36.095357957752213
 20
83.749613049492453
 30
0.0
  0
VERTEX
  5
DD5
  8
DATA
 62
     7
 10
36.177925135352233
 20
83.767818304975776
 30
0.0
  0
VERTEX
  5
DD6
  8
DATA
 62
     7
 10
36.261043033865597
 20
83.785818835945648
 30
0.0
  0
VERTEX
  5
DD7
  8
DATA
 62
     7
 10
36.261043033865597
 20
83.785818835945648
 30
0.0
  0
SEQEND
  5
DD8
  8
DATA
 62
     7
  0
CIRCLE
  5
746
  8
DATA
 62
     7
 10
54.660721493103502
 20
80.083560234767205
 30
0.0
 40
0.8032418570877133
  0
LINE
  5
747
  8
DATA
 62
     7
 10
42.011043033865619
 20
84.358560234767182
 30
0.0
 11
42.011043033865619
 21
75.808562419602225
 31
0.0
  0
LINE
  5
748
  8
DATA
 62
     7
 10
43.711043033865607
 20
84.313294813708339
 30
0.0
 11
43.711043033865607
 21
75.853830569704655
 31
0.0
  0
LINE
  5
749
  8
DATA
 62
     7
 10
45.41104303386561
 20
84.170027852699519
 30
0.0
 11
45.41104303386561
 21
75.997097630960653
 31
0.0
  0
LINE
  5
74A
  8
DATA
 62
     7
 10
47.111043033865613
 20
83.915697051194812
 30
0.0
 11
47.111043033865613
 21
76.251427260761872
 31
0.0
  0
LINE
  5
74B
  8
DATA
 62
     7
 10
40.311043033865623
 20
84.313294813708339
 30
0.0
 11
40.311043033865623
 21
75.853830569704655
 31
0.0
  0
LINE
  5
74C
  8
DATA
 62
     7
 10
38.611043033865613
 20
84.170027852699519
 30
0.0
 11
38.611043033865613
 21
75.997097630960653
 31
0.0
  0
LINE
  5
74D
  8
DATA
 62
     7
 10
38.611043033865613
 20
75.663411460551913
 30
0.0
 11
38.611043033865613
 21
75.663407965078434
 31
0.0
  0
LINE
  5
74E
  8
DATA
 62
     7
 10
36.91104303386561
 20
83.915697051194812
 30
0.0
 11
36.91104303386561
 21
76.251427260761915
 31
0.0
  0
LINE
  5
74F
  8
DATA
 62
     7
 10
36.91104303386561
 20
75.952542595468572
 30
0.0
 11
36.91104303386561
 21
75.952537807112904
 31
0.0
  0
ARC
  5
750
  8
DATA
 62
     7
 10
22.823663713889289
 20
88.323143568100534
 30
0.0
 40
2.7604166666666798
 50
355.0208941560017
 51
184.97910584399821
  0
ARC
  5
751
  8
DATA
 62
     7
 10
22.823663713889289
 20
71.843976901433862
 30
0.0
 40
2.7604166666666519
 50
175.0208941560015
 51
4.9791058439984681
  0
LINE
  5
752
  8
DATA
 62
     7
 10
20.07366371388931
 20
72.083560234767205
 30
0.0
 11
20.07366371388931
 21
88.083560234767205
 31
0.0
  0
LINE
  5
753
  8
DATA
 62
     7
 10
25.573663713889299
 20
72.083560234767205
 30
0.0
 11
25.573663713889299
 21
88.083560234767205
 31
0.0
  0
TEXT
  5
754
  8
DATA
 62
     7
 10
24.785150601181201
 20
73.909949123656091
 30
0.0
 40
3.8006293402777769
  1
SHURE
 50
90.0
 41
0.8
 11
20.984521260903431
 21
73.909949123656091
 31
0.0
 73
     3
  0
CIRCLE
  5
755
  8
DATA
 62
     7
 10
180.0
 20
84.199999999999989
 30
0.0
 40
1.2500013901192359
  0
CIRCLE
  5
756
  8
DATA
 62
     7
 10
184.19999999999999
 20
80.0
 30
0.0
 40
1.2500013901192359
  0
CIRCLE
  5
757
  8
DATA
 62
     7
 10
180.0
 20
75.800000000000026
 30
0.0
 40
1.2500013901192359
  0
LINE
  5
758
  8
DATA
 62
     7
 10
175.4382499999999
 20
86.633070000000004
 30
0.0
 11
175.0847
 21
86.986620000000002
 31
0.0
  0
LINE
  5
759
  8
DATA
 62
     7
 10
173.31693000000001
 20
84.511750000000006
 30
0.0
 11
172.96338
 21
84.865299999999976
 31
0.0
  0
LINE
  5
75A
  8
DATA
 62
     7
 10
172.96338
 20
85.572400000000002
 30
0.0
 11
174.37759999999989
 21
86.986620000000002
 31
0.0
  0
ARC
  5
75B
  8
DATA
 62
     7
 10
173.31693999999999
 20
85.218850000000003
 30
0.0
 40
0.5000022760948095
 50
135.0008102809951
 51
224.99918971900601
  0
ARC
  5
75C
  8
DATA
 62
     7
 10
174.73115000000001
 20
86.63306
 30
0.0
 40
0.5000022760948195
 50
45.000810280996269
 51
134.99918971900371
  0
CIRCLE
  5
75D
  8
DATA
 62
     7
 10
180.0
 20
80.0
 30
0.0
 40
11.0
  0
ARC
  5
75E
  8
DATA
 62
     7
 10
180.0
 20
80.0
 30
0.0
 40
7.999999347999986
 50
145.97669650640239
 51
124.51740146030249
  0
CIRCLE
  5
75F
  8
DATA
 62
     7
 10
180.0
 20
80.0
 30
0.0
 40
21.500000000000011
  0
CIRCLE
  5
760
  8
DATA
 62
     7
 10
180.0
 20
80.0
 30
0.0
 40
25.907420000000009
  0
CIRCLE
  5
761
  8
DATA
 62
     7
 10
180.0
 20
80.0
 30
0.0
 40
27.000000000000021
  0
LINE
  5
762
  8
DATA
 62
     7
 10
5.2736637138893476
 20
100.1085602347672
 30
0.0
 11
-0.326336286110589
 21
101.7585602347672
 31
0.0
  0
ENDSEC
  0
EOF
