  0
SECTION
  2
HEADER
  9
$ACADVER
  1
AC1009
  9
$INSBASE
 10
0.0
 20
0.0
 30
0.0
  9
$EXTMIN
 10
-80.01097548933717
 20
-131.7119772163976
 30
-0.0015258207003583
  9
$EXTMAX
 10
280.0109771657178
 20
403.54812151310119
 30
0.0000000349246037
  9
$LIMMIN
 10
0.0
 20
0.0
  9
$LIMMAX
 10
0.0
 20
0.0
  9
$ORTHOMODE
 70
     0
  9
$REGENMODE
 70
     1
  9
$FILLMODE
 70
     1
  9
$QTEXTMODE
 70
     0
  9
$MIRRTEXT
 70
     1
  9
$DRAGMODE
 70
     2
  9
$LTSCALE
 40
10.16
  9
$OSMODE
 70
   231
  9
$ATTMODE
 70
     1
  9
$TEXTSIZE
 40
0.0
  9
$TRACEWID
 40
1.0
  9
$TEXTSTYLE
  7
STANDARD
  9
$CLAYER
  8
DATA
  9
$CELTYPE
  6
BYLAYER
  9
$CECOLOR
 62
   256
  9
$DIMSCALE
 40
1.0
  9
$DIMASZ
 40
0.18
  9
$DIMEXO
 40
0.0625
  9
$DIMDLI
 40
0.38
  9
$DIMRND
 40
0.0
  9
$DIMDLE
 40
0.0
  9
$DIMEXE
 40
0.18
  9
$DIMTP
 40
0.0
  9
$DIMTM
 40
0.0
  9
$DIMTXT
 40
0.18
  9
$DIMCEN
 40
0.09
  9
$DIMTSZ
 40
0.0
  9
$DIMTOL
 70
     0
  9
$DIMLIM
 70
     0
  9
$DIMTIH
 70
     1
  9
$DIMTOH
 70
     1
  9
$DIMSE1
 70
     0
  9
$DIMSE2
 70
     0
  9
$DIMTAD
 70
     0
  9
$DIMZIN
 70
     0
  9
$DIMBLK
  1

  9
$DIMASO
 70
     1
  9
$DIMSHO
 70
     1
  9
$DIMPOST
  1

  9
$DIMAPOST
  1

  9
$DIMALT
 70
     0
  9
$DIMALTD
 70
     2
  9
$DIMALTF
 40
25.399999999999999
  9
$DIMLFAC
 40
1.0
  9
$DIMTOFL
 70
     0
  9
$DIMTVP
 40
0.0
  9
$DIMTIX
 70
     0
  9
$DIMSOXD
 70
     0
  9
$DIMSAH
 70
     0
  9
$DIMBLK1
  1

  9
$DIMBLK2
  1

  9
$DIMSTYLE
  2
STANDARD
  9
$DIMCLRD
 70
     0
  9
$DIMCLRE
 70
     0
  9
$DIMCLRT
 70
     0
  9
$DIMTFAC
 40
1.0
  9
$DIMGAP
 40
0.09
  9
$LUNITS
 70
     2
  9
$LUPREC
 70
     4
  9
$SKETCHINC
 40
0.1
  9
$FILLETRAD
 40
0.0
  9
$AUNITS
 70
     0
  9
$AUPREC
 70
     0
  9
$MENU
  1
acad
  9
$ELEVATION
 40
0.0
  9
$PELEVATION
 40
0.0
  9
$THICKNESS
 40
0.0
  9
$LIMCHECK
 70
     0
  9
$BLIPMODE
 70
     0
  9
$CHAMFERA
 40
0.0
  9
$CHAMFERB
 40
0.0
  9
$SKPOLY
 70
     0
  9
$TDCREATE
 40
2453984.6612615739
  9
$TDUPDATE
 40
2453984.6775047341
  9
$TDINDWG
 40
0.0002967708
  9
$TDUSRTIMER
 40
0.0002965856
  9
$USRTIMER
 70
     1
  9
$ANGBASE
 50
0.0
  9
$ANGDIR
 70
     0
  9
$PDMODE
 70
     1
  9
$PDSIZE
 40
-2.0
  9
$PLINEWID
 40
0.0
  9
$COORDS
 70
     1
  9
$SPLFRAME
 70
     0
  9
$SPLINETYPE
 70
     6
  9
$SPLINESEGS
 70
     8
  9
$ATTDIA
 70
     0
  9
$ATTREQ
 70
     1
  9
$HANDLING
 70
     1
  9
$HANDSEED
  5
280
  9
$SURFTAB1
 70
     6
  9
$SURFTAB2
 70
     6
  9
$SURFTYPE
 70
     6
  9
$SURFU
 70
     6
  9
$SURFV
 70
     6
  9
$UCSNAME
  2

  9
$UCSORG
 10
0.0
 20
0.0
 30
0.0
  9
$UCSXDIR
 10
1.0
 20
0.0
 30
0.0
  9
$UCSYDIR
 10
0.0
 20
1.0
 30
0.0
  9
$PUCSNAME
  2

  9
$PUCSORG
 10
0.0
 20
0.0
 30
0.0
  9
$PUCSXDIR
 10
1.0
 20
0.0
 30
0.0
  9
$PUCSYDIR
 10
0.0
 20
1.0
 30
0.0
  9
$USERI1
 70
     0
  9
$USERI2
 70
     0
  9
$USERI3
 70
     0
  9
$USERI4
 70
     0
  9
$USERI5
 70
     0
  9
$USERR1
 40
0.0
  9
$USERR2
 40
0.0
  9
$USERR3
 40
0.0
  9
$USERR4
 40
0.0
  9
$USERR5
 40
0.0
  9
$WORLDVIEW
 70
     1
  9
$SHADEDGE
 70
     3
  9
$SHADEDIF
 70
    70
  9
$TILEMODE
 70
     1
  9
$MAXACTVP
 70
    64
  9
$PLIMCHECK
 70
     0
  9
$PEXTMIN
 10
1.0000000000000000E+020
 20
1.0000000000000000E+020
 30
1.0000000000000000E+020
  9
$PEXTMAX
 10
-1.0000000000000000E+020
 20
-1.0000000000000000E+020
 30
-1.0000000000000000E+020
  9
$PLIMMIN
 10
0.0
 20
0.0
  9
$PLIMMAX
 10
12.0
 20
9.0
  9
$UNITMODE
 70
     0
  9
$VISRETAIN
 70
     0
  9
$PLINEGEN
 70
     1
  9
$PSLTSCALE
 70
     0
  0
ENDSEC
  0
SECTION
  2
TABLES
  0
TABLE
  2
VPORT
 70
     1
  0
VPORT
  2
*ACTIVE
 70
     0
 10
0.0
 20
0.0
 11
1.0
 21
1.0
 12
100.0000008381903
 22
135.9180721483518
 13
0.0
 23
0.0
 14
1.0
 24
1.0
 15
0.0
 25
0.0
 16
0.0
 26
0.0
 36
1.0
 17
0.0
 27
0.0
 37
0.0
 40
539.70209125007557
 41
1.6703601108033239
 42
50.0
 43
0.0
 44
0.0
 50
0.0
 51
0.0
 71
     0
 72
  2000
 73
     1
 74
     1
 75
     0
 76
     0
 77
     0
 78
     0
  0
ENDTAB
  0
TABLE
  2
LTYPE
 70
    11
  0
LTYPE
  2
CONTINUOUS
 70
     0
  3
Solid line
 72
    65
 73
     0
 40
0.0
  0
ENDTAB
  0
TABLE
  2
LAYER
 70
     6
  0
LAYER
  2
0
 70
     0
 62
     7
  6
CONTINUOUS
  0
LAYER
  2
DATA
 70
     0
 62
     7
  6
CONTINUOUS
  0
LAYER
  2
HIBINO-BASE
 70
     0
 62
     7
  6
CONTINUOUS
  0
LAYER
  2
PATTERN_FILL
 70
     0
 62
     7
  6
CONTINUOUS
  0
LAYER
  2
SPEC
 70
     0
 62
     7
  6
CONTINUOUS
  0
LAYER
  2
DIMNSIONS
 70
     0
 62
     7
  6
CONTINUOUS
  0
ENDTAB
  0
TABLE
  2
STYLE
 70
     2
  0
STYLE
  2
STANDARD
 70
     0
 40
0.0
 41
1.0
 50
0.0
 71
     0
 42
0.0
  3
txt
  4
BIGFONT.SHX
  0
ENDTAB
  0
TABLE
  2
VIEW
 70
     0
  0
ENDTAB
  0
TABLE
  2
UCS
 70
     0
  0
ENDTAB
  0
TABLE
  2
APPID
 70
     1
  0
APPID
  2
ACAD
 70
     0
  0
ENDTAB
  0
TABLE
  2
DIMSTYLE
 70
     1
  0
DIMSTYLE
  2
STANDARD
 70
     0
  3

  4

  5

  6

  7

 40
1.0
 41
0.18
 42
0.0625
 43
0.38
 44
0.18
 45
0.0
 46
0.0
 47
0.0
 48
0.0
140
0.18
141
0.09
142
0.0
143
25.399999999999999
144
1.0
145
0.0
146
1.0
147
0.09
 71
     0
 72
     0
 73
     1
 74
     1
 75
     0
 76
     0
 77
     0
 78
     0
170
     0
171
     2
172
     0
173
     0
174
     0
175
     0
176
     0
177
     0
178
     0
  0
ENDTAB
  0
ENDSEC
  0
SECTION
  2
BLOCKS
  0
BLOCK
  8
0
  2
$MODEL_SPACE
 70
     0
 10
0.0
 20
0.0
 30
0.0
  3
$MODEL_SPACE
  1

  0
ENDBLK
  5
218
  8
0
  0
BLOCK
 67
     1
  8
0
  2
$PAPER_SPACE
 70
     0
 10
0.0
 20
0.0
 30
0.0
  3
$PAPER_SPACE
  1

  0
ENDBLK
  5
214
 67
     1
  8
0
  0
ENDSEC
  0
SECTION
  2
ENTITIES
  0
LINE
  5
2D
  8
HIBINO-BASE
 62
     7
 10
-79.999990000000025
 20
403.53181999999993
 30
0.0
 11
279.99999000000003
 21
403.53181999999993
 31
0.0
  0
LINE
  5
2E
  8
HIBINO-BASE
 62
     7
 10
279.99999000000003
 20
-116.46817
 30
0.0
 11
-79.999990000000025
 21
-116.46817
 31
0.0
  0
LINE
  5
2F
  8
HIBINO-BASE
 62
     7
 10
-79.999990000000025
 20
-116.46817
 30
0.0
 11
-79.999990000000025
 21
403.53181999999993
 31
0.0
  0
TEXT
  5
30
  8
HIBINO-BASE
 62
     7
 10
-65.631980000000013
 20
-129.2855084
 30
0.0
 40
7.2000729687499989
  1
Hibino Corporation
 41
0.8
 11
-65.631980000000013
 21
-122.08543543125
 31
0.0
 73
     3
  0
LINE
  5
31
  8
HIBINO-BASE
 62
     7
 10
279.99999000000003
 20
403.53181999999993
 30
0.0
 11
279.99999000000003
 21
-116.46817
 31
0.0
  0
LINE
  5
32
  8
HIBINO-BASE
 62
     7
 10
100.0
 20
-71.468179999999975
 30
0.0
 11
279.99999000000003
 21
-71.468179999999975
 31
0.0
  0
LINE
  5
33
  8
HIBINO-BASE
 62
     7
 10
100.0
 20
-116.46817
 30
0.0
 11
100.0
 21
-71.468179999999975
 31
0.0
  0
TEXT
  5
34
  8
HIBINO-BASE
 62
     7
 10
101.79998000000001
 20
-76.868186399999985
 30
0.0
 40
3.6000518750000001
  1
NOTE
 41
0.8
 11
101.79998000000001
 21
-73.268134524999965
 31
0.0
 73
     3
  0
LINE
  5
35
  8
HIBINO-BASE
 62
     7
 10
170.0
 20
-116.46817
 30
0.0
 11
170.0
 21
-71.468179999999975
 31
0.0
  0
TEXT
  5
36
  8
HIBINO-BASE
 62
     7
 10
171.7999999999999
 20
-76.868186399999985
 30
0.0
 40
3.6000518750000001
  1
TITLE
 41
0.8
 11
171.7999999999999
 21
-73.268134524999965
 31
0.0
 73
     3
  0
TEXT
  5
37
  8
HIBINO-BASE
 62
     7
 10
200.13676000000001
 20
-129.2855084
 30
0.0
 40
7.2000729687499989
  1
ヒビノ株式会社
 41
0.8
 11
200.13676000000001
 21
-122.08543543125
 31
0.0
 73
     3
  0
LINE
  5
38
  8
HIBINO-BASE
 62
     7
 10
100.0
 20
-96.468180000000004
 30
0.0
 11
279.99999000000003
 21
-96.468180000000004
 31
0.0
  0
TEXT
  5
39
  8
HIBINO-BASE
 62
     7
 10
196.80000000000001
 20
-101.75552639999999
 30
0.0
 40
3.6000518750000001
  1
DRAWN
 41
0.8
 11
196.80000000000001
 21
-98.155474525000002
 31
0.0
 73
     3
  0
TEXT
  5
3A
  8
HIBINO-BASE
 62
     7
 10
146.7999999999999
 20
-101.75552639999999
 30
0.0
 40
3.6000518750000001
  1
DATE
 41
0.8
 11
146.7999999999999
 21
-98.155474525000002
 31
0.0
 73
     3
  0
TEXT
  5
3B
  8
HIBINO-BASE
 62
     7
 10
102.19998
 20
-101.7070652
 30
0.0
 40
3.2576720312499998
  1
図面サイズ
 41
0.8
 11
102.19998
 21
-98.449393168750007
 31
0.0
 73
     3
  0
TEXT
  5
3C
  8
HIBINO-BASE
 62
     7
 10
126.79998000000001
 20
-101.75552639999999
 30
0.0
 40
3.6000518750000001
  1
SCALE
 41
0.8
 11
126.79998000000001
 21
-98.155474525000002
 31
0.0
 73
     3
  0
TEXT
  5
3D
  8
HIBINO-BASE
 62
     7
 10
171.7999999999999
 20
-101.75552639999999
 30
0.0
 40
3.6000518750000001
  1
DESIGN
 41
0.8
 11
171.7999999999999
 21
-98.155474525000002
 31
0.0
 73
     3
  0
TEXT
  5
3E
  8
HIBINO-BASE
 62
     7
 10
246.79997999999989
 20
-101.75552639999999
 30
0.0
 40
3.6000518750000001
  1
DRAWING NO.
 41
0.8
 11
246.79997999999989
 21
-98.155474525000002
 31
0.0
 73
     3
  0
TEXT
  5
3F
  8
HIBINO-BASE
 62
     7
 10
221.79999000000001
 20
-101.75552639999999
 30
0.0
 40
3.6000518750000001
  1
CHECK
 41
0.8
 11
221.79999000000001
 21
-98.155474525000002
 31
0.0
 73
     3
  0
LINE
  5
40
  8
HIBINO-BASE
 62
     7
 10
128.74997999999999
 20
-113.96818
 30
0.0
 11
136.25
 21
-106.46818
 31
0.0
  0
TEXT
  5
41
  8
HIBINO-BASE
 62
     7
 10
127.49997999999999
 20
-109.8995983999999
 30
0.0
 40
4.3435729687500002
  1
1
 41
0.8
 11
127.49997999999999
 21
-105.55602543124991
 31
0.0
 73
     3
  0
LINE
  5
42
  8
HIBINO-BASE
 62
     7
 10
124.99997999999999
 20
-116.46817
 30
0.0
 11
124.99997999999999
 21
-96.468180000000004
 31
0.0
  0
LINE
  5
43
  8
HIBINO-BASE
 62
     7
 10
144.99998999999991
 20
-116.46817
 30
0.0
 11
144.99998999999991
 21
-96.468180000000004
 31
0.0
  0
LINE
  5
44
  8
HIBINO-BASE
 62
     7
 10
194.99999
 20
-96.468180000000004
 30
0.0
 11
194.99999
 21
-116.46817
 31
0.0
  0
LINE
  5
45
  8
HIBINO-BASE
 62
     7
 10
245.0
 20
-96.468180000000004
 30
0.0
 11
245.0
 21
-116.46817
 31
0.0
  0
LINE
  5
46
  8
HIBINO-BASE
 62
     7
 10
219.99997999999999
 20
-116.46817
 30
0.0
 11
219.99997999999999
 21
-96.468180000000004
 31
0.0
  0
TEXT
  5
47
  8
HIBINO-BASE
 62
     7
 10
107.82178
 20
-111.4712389999999
 30
0.0
 40
6.5153517578124989
  1
A4
 41
0.8
 11
107.82178
 21
-104.9558872421874
 31
0.0
 73
     3
  0
TEXT
  5
48
  8
HIBINO-BASE
 62
     7
 10
146.71307999999999
 20
-111.1234863999999
 30
0.0
 40
3.6000518750000001
  1
'06.08.
 41
0.8
 11
146.71307999999999
 21
-107.5234345249999
 31
0.0
 73
     3
  0
TEXT
  5
49
  8
HIBINO-BASE
 62
     7
 10
135.0
 20
-113.6495983999999
 30
0.0
 40
4.3435729687500002
  1
2
 41
0.8
 11
135.0
 21
-109.30602543124991
 31
0.0
 73
     3
  0
ARC
  5
4A
  8
PATTERN_FILL
 62
     7
 10
-12.04545411641972
 20
80.000000000053987
 30
0.0
 40
12.705600000000191
 50
132.12435123059331
 51
227.87564876940459
  0
ARC
  5
4B
  8
PATTERN_FILL
 62
     7
 10
-12.04545411641972
 20
80.000000000053987
 30
0.0
 40
14.823200000000281
 50
125.0941442767944
 51
234.90585572320521
  0
ARC
  5
4C
  8
PATTERN_FILL
 62
     7
 10
-12.04545411641972
 20
80.000000000053987
 30
0.0
 40
16.94080000000039
 50
120.2024185522517
 51
239.79758144774891
  0
ARC
  5
4D
  8
PATTERN_FILL
 62
     7
 10
-12.04545411641972
 20
80.000000000053987
 30
0.0
 40
19.0584000000004
 50
116.5616993229383
 51
243.43494882292259
  0
LINE
  5
4E
  8
PATTERN_FILL
 62
     7
 10
-45.999999999951918
 20
80.000000000053987
 30
0.0
 11
-20.567632463582608
 21
80.000000000053987
 31
0.0
  0
ARC
  5
4F
  8
PATTERN_FILL
 62
     7
 10
-18.398254116419729
 20
744.13230000005433
 30
0.0
 40
662.01470000000063
 50
267.62228234378682
 51
269.81224518743272
  0
ARC
  5
50
  8
PATTERN_FILL
 62
     7
 10
-6.886066595443352
 20
744.03183466157634
 30
0.0
 40
659.89710000000036
 50
266.64787135243432
 51
268.81200849019518
  0
ARC
  5
51
  8
PATTERN_FILL
 62
     7
 10
4.5825525193439631
 20
743.73154375978095
 30
0.0
 40
657.77949999999998
 50
265.69251852549371
 51
267.8087629860006
  0
ARC
  5
52
  8
PATTERN_FILL
 62
     7
 10
16.005906489890499
 20
743.23279194146062
 30
0.0
 40
655.66190000000017
 50
264.75689678642618
 51
266.80231891580303
  0
ARC
  5
53
  8
PATTERN_FILL
 62
     7
 10
27.38188198367418
 20
742.53700747349319
 30
0.0
 40
653.54430000000002
 50
263.84215089977079
 51
265.79251849750761
  0
ARC
  5
54
  8
PATTERN_FILL
 62
     7
 10
38.70716651988765
 20
741.64568825021854
 30
0.0
 40
651.42669999999976
 50
262.95012616238392
 51
264.77930535910878
  0
ARC
  5
55
  8
PATTERN_FILL
 62
     7
 10
49.9784114410987
 20
740.56039080475375
 30
0.0
 40
649.30909999999994
 50
262.08355841610472
 51
263.76262353086292
  0
ARC
  5
56
  8
PATTERN_FILL
 62
     7
 10
-18.398254116419832
 20
-584.13229999994735
 30
0.0
 40
662.01470000000154
 50
90.187754812567263
 51
92.377717656213235
  0
ARC
  5
57
  8
PATTERN_FILL
 62
     7
 10
-6.8860665954434523
 20
-584.03183466146925
 30
0.0
 40
659.89710000000127
 50
91.187991509804917
 51
93.35212864756565
  0
ARC
  5
58
  8
PATTERN_FILL
 62
     7
 10
4.582552519343877
 20
-583.73154375967385
 30
0.0
 40
657.77950000000124
 50
92.191237013999483
 51
94.307481474506346
  0
ARC
  5
59
  8
PATTERN_FILL
 62
     7
 10
16.005906489890421
 20
-583.23279194135353
 30
0.0
 40
655.66190000000097
 50
93.197681084196986
 51
95.243103213573832
  0
ARC
  5
5A
  8
PATTERN_FILL
 62
     7
 10
27.381881983674091
 20
-582.5370074733861
 30
0.0
 40
653.54430000000127
 50
94.207481502492413
 51
96.157849100229214
  0
ARC
  5
5B
  8
PATTERN_FILL
 62
     7
 10
38.707166519887572
 20
-581.64568825011145
 30
0.0
 40
651.42670000000055
 50
95.220694640891153
 51
97.049873837616104
  0
ARC
  5
5C
  8
PATTERN_FILL
 62
     7
 10
49.978411441098622
 20
-580.56039080464666
 30
0.0
 40
649.30910000000085
 50
96.237376469137075
 51
97.916441583895235
  0
ARC
  5
5D
  8
PATTERN_FILL
 62
     7
 10
61.192306962304031
 20
-579.28272879700705
 30
0.0
 40
647.19150000000081
 50
97.257589257470926
 51
98.753383122575499
  0
ARC
  5
5E
  8
PATTERN_FILL
 62
     7
 10
-24.85461081074552
 20
80.000000000053987
 30
0.0
 40
12.705600000000221
 50
312.12435123059521
 51
47.875648769406553
  0
ARC
  5
5F
  8
PATTERN_FILL
 62
     7
 10
-24.85461081074552
 20
80.000000000053987
 30
0.0
 40
14.823200000000281
 50
305.09414427679468
 51
54.905855723205633
  0
ARC
  5
60
  8
PATTERN_FILL
 62
     7
 10
-24.85461081074552
 20
80.000000000053987
 30
0.0
 40
16.940800000000351
 50
300.20241855225112
 51
59.797581447748357
  0
ARC
  5
61
  8
PATTERN_FILL
 62
     7
 10
-12.04545411641972
 20
80.000000000053987
 30
0.0
 40
10.58800000000009
 50
143.59966096376289
 51
216.400339036237
  0
ARC
  5
62
  8
PATTERN_FILL
 62
     7
 10
-24.85461081074552
 20
80.000000000053987
 30
0.0
 40
10.58800000000009
 50
323.59966096376291
 51
36.400339036237028
  0
ARC
  5
63
  8
PATTERN_FILL
 62
     7
 10
-12.04545411641972
 20
80.000000000053987
 30
0.0
 40
21.1760000000004
 50
113.7311254270569
 51
246.26887457294379
  0
ARC
  5
64
  8
PATTERN_FILL
 62
     7
 10
-12.04545411641972
 20
80.000000000053987
 30
0.0
 40
23.293600000000399
 50
111.4604701882603
 51
248.53952981173839
  0
ARC
  5
65
  8
PATTERN_FILL
 62
     7
 10
-12.04545411641972
 20
80.000000000053987
 30
0.0
 40
25.411200000000392
 50
109.5950969443755
 51
250.40490305562599
  0
ARC
  5
66
  8
PATTERN_FILL
 62
     7
 10
-12.04545411641972
 20
80.000000000053987
 30
0.0
 40
27.52880000000042
 50
108.0335106411206
 51
251.96648935887879
  0
ARC
  5
67
  8
PATTERN_FILL
 62
     7
 10
-12.04545411641972
 20
80.000000000053987
 30
0.0
 40
29.646400000000352
 50
121.7386770531252
 51
238.2551027116171
  0
ARC
  5
68
  8
PATTERN_FILL
 62
     7
 10
-12.04545411641972
 20
80.000000000053987
 30
0.0
 40
31.764000000000269
 50
139.93695319065421
 51
220.0630468093461
  0
ARC
  5
69
  8
PATTERN_FILL
 62
     7
 10
61.192306962304109
 20
739.28272879711415
 30
0.0
 40
647.19149999999979
 50
261.24661687742457
 51
262.74241074252899
  0
ARC
  5
6A
  8
PATTERN_FILL
 62
     7
 10
72.345583141489627
 20
737.81437213184222
 30
0.0
 40
645.07389999999987
 50
260.44604891570879
 51
261.7185981453211
  0
ARC
  5
6B
  8
PATTERN_FILL
 62
     7
 10
83.435010831237065
 20
736.15704605922053
 30
0.0
 40
642.95630000000006
 50
259.69395782133438
 51
260.69111000020263
  0
ARC
  5
6C
  8
PATTERN_FILL
 62
     7
 10
94.457402611103987
 20
734.31253026046011
 30
0.0
 40
640.83870000000002
 50
259.01635455265722
 51
259.65986332948
  0
ARC
  5
6D
  8
PATTERN_FILL
 62
     7
 10
105.4096137005069
 20
732.28265791726164
 30
0.0
 40
638.72109999999986
 50
258.50119800312558
 51
258.62476752819879
  0
ARC
  5
6E
  8
PATTERN_FILL
 62
     7
 10
72.345583141489541
 20
-577.8143721317349
 30
0.0
 40
645.07390000000089
 50
98.281401854678847
 51
99.553951084291157
  0
ARC
  5
6F
  8
PATTERN_FILL
 62
     7
 10
83.435010831236966
 20
-576.15704605911355
 30
0.0
 40
642.95630000000085
 50
99.308889999797302
 51
100.30604217866551
  0
ARC
  5
70
  8
PATTERN_FILL
 62
     7
 10
94.457402611103916
 20
-574.31253026035279
 30
0.0
 40
640.83870000000081
 50
100.34013667052
 51
100.9836454473427
  0
ARC
  5
71
  8
PATTERN_FILL
 62
     7
 10
105.4096137005068
 20
-572.28265791715444
 30
0.0
 40
638.72110000000066
 50
101.375232471801
 51
101.49880199687431
  0
ARC
  5
72
  8
PATTERN_FILL
 62
     7
 10
-109.2456480686545
 20
-577.8143721317349
 30
0.0
 40
645.07390000000089
 50
80.446048915708843
 51
81.718598145321167
  0
ARC
  5
73
  8
PATTERN_FILL
 62
     7
 10
-120.3350757584019
 20
-576.15704605911355
 30
0.0
 40
642.95630000000085
 50
79.693957821334536
 51
80.691110000202684
  0
ARC
  5
74
  8
PATTERN_FILL
 62
     7
 10
-131.35746753826891
 20
-574.31253026035279
 30
0.0
 40
640.83870000000081
 50
79.016354552657262
 51
79.659863329480032
  0
ARC
  5
75
  8
PATTERN_FILL
 62
     7
 10
-142.30967862767179
 20
-572.28265791715444
 30
0.0
 40
638.72110000000066
 50
78.501198003125708
 51
78.624767528198944
  0
LINE
  5
76
  8
PATTERN_FILL
 62
     7
 10
-0.5444567468797743
 20
59.555731722829456
 30
0.0
 11
-0.9900000001370871
 21
59.070882729346167
 31
0.0
  0
ARC
  5
77
  8
PATTERN_FILL
 62
     7
 10
-24.85461081074552
 20
80.000000000053987
 30
0.0
 40
19.058400000000361
 50
296.56505117707729
 51
63.438300677061697
  0
ARC
  5
78
  8
PATTERN_FILL
 62
     7
 10
-24.85461081074552
 20
80.000000000053987
 30
0.0
 40
21.17600000000035
 50
293.73112542705621
 51
66.268874572943062
  0
ARC
  5
79
  8
PATTERN_FILL
 62
     7
 10
-24.85461081074552
 20
80.000000000053987
 30
0.0
 40
23.293600000000339
 50
291.46047018826158
 51
68.539529811739726
  0
ARC
  5
7A
  8
PATTERN_FILL
 62
     7
 10
-24.85461081074552
 20
80.000000000053987
 30
0.0
 40
25.411200000000321
 50
289.59509694437401
 51
70.404903055624459
  0
ARC
  5
7B
  8
PATTERN_FILL
 62
     7
 10
-24.85461081074552
 20
80.000000000053987
 30
0.0
 40
27.52880000000037
 50
288.0335106411211
 51
337.66199279519242
  0
ARC
  5
7C
  8
PATTERN_FILL
 62
     7
 10
-24.85461081074552
 20
80.000000000053987
 30
0.0
 40
27.528800000000111
 50
22.338007204807631
 51
71.9664893588794
  0
ARC
  5
7D
  8
PATTERN_FILL
 62
     7
 10
-24.85461081074552
 20
80.000000000053987
 30
0.0
 40
29.646400000000309
 50
301.74489728838302
 51
329.1921111921049
  0
ARC
  5
7E
  8
PATTERN_FILL
 62
     7
 10
-24.85461081074552
 20
80.000000000053987
 30
0.0
 40
29.64640000000017
 50
30.807888807895051
 51
58.261322946874742
  0
LINE
  5
7F
  8
PATTERN_FILL
 62
     7
 10
0.6083675364173758
 20
80.000000000053987
 30
0.0
 11
-16.33243246358262
 21
80.000000000053987
 31
0.0
  0
ARC
  5
80
  8
PATTERN_FILL
 62
     7
 10
-18.501810810745411
 20
744.13230000005433
 30
0.0
 40
662.01470000000029
 50
270.18775481256728
 51
271.65416974496031
  0
ARC
  5
81
  8
PATTERN_FILL
 62
     7
 10
-30.013998331721801
 20
744.03183466157634
 30
0.0
 40
659.89710000000048
 50
271.18799150980487
 51
272.6597520068936
  0
ARC
  5
82
  8
PATTERN_FILL
 62
     7
 10
-41.482617446509032
 20
743.73154375978095
 30
0.0
 40
657.77950000000055
 50
272.1912370139994
 51
273.66883528374871
  0
ARC
  5
83
  8
PATTERN_FILL
 62
     7
 10
-52.905971417055369
 20
743.23279194146062
 30
0.0
 40
655.66189999999995
 50
273.19768108419697
 51
274.68162061171807
  0
ARC
  5
84
  8
PATTERN_FILL
 62
     7
 10
-64.281946910838954
 20
742.53700747349319
 30
0.0
 40
653.54430000000013
 50
274.20748150249239
 51
275.69827826682109
  0
ARC
  5
85
  8
PATTERN_FILL
 62
     7
 10
-75.607231447052413
 20
741.64568825021854
 30
0.0
 40
651.42669999999976
 50
275.220694640891
 51
276.71887813101438
  0
ARC
  5
86
  8
PATTERN_FILL
 62
     7
 10
-86.878476368263492
 20
740.56039080475375
 30
0.0
 40
649.30909999999994
 50
276.23737646913708
 51
277.74349084927462
  0
ARC
  5
87
  8
PATTERN_FILL
 62
     7
 10
-18.501810810745489
 20
-584.13229999994735
 30
0.0
 40
662.01470000000165
 50
88.345830255040042
 51
89.812245187432694
  0
ARC
  5
88
  8
PATTERN_FILL
 62
     7
 10
-30.013998331721879
 20
-584.03183466146925
 30
0.0
 40
659.89710000000127
 50
87.34024799310599
 51
88.812008490195254
  0
ARC
  5
89
  8
PATTERN_FILL
 62
     7
 10
-41.482617446509131
 20
-583.73154375967385
 30
0.0
 40
657.77950000000124
 50
86.331164716251067
 51
87.808762986000517
  0
ARC
  5
8A
  8
PATTERN_FILL
 62
     7
 10
-52.905971417055468
 20
-583.23279194135353
 30
0.0
 40
655.66190000000074
 50
85.318379388276227
 51
86.802318915803085
  0
ARC
  5
8B
  8
PATTERN_FILL
 62
     7
 10
-64.281946910839011
 20
-582.5370074733861
 30
0.0
 40
653.5443000000007
 50
84.301721733178823
 51
85.792518497507274
  0
ARC
  5
8C
  8
PATTERN_FILL
 62
     7
 10
-75.607231447052484
 20
-581.64568825011145
 30
0.0
 40
651.42670000000078
 50
83.281121868980193
 51
84.779305359108733
  0
ARC
  5
8D
  8
PATTERN_FILL
 62
     7
 10
-86.878476368263534
 20
-580.56039080464666
 30
0.0
 40
649.30910000000074
 50
82.256509150726941
 51
83.762623530862726
  0
ARC
  5
8E
  8
PATTERN_FILL
 62
     7
 10
-98.092371889469021
 20
-579.28272879700705
 30
0.0
 40
647.19150000000081
 50
81.246616877424515
 51
82.742410742529117
  0
ARC
  5
8F
  8
PATTERN_FILL
 62
     7
 10
-24.85461081074552
 20
80.000000000053987
 30
0.0
 40
31.76400000000028
 50
319.93695319065381
 51
323.28604814697161
  0
LINE
  5
90
  8
PATTERN_FILL
 62
     7
 10
0.3983601491435564
 20
60.370625274359611
 30
0.0
 11
0.538590607257845
 21
60.349033266147863
 31
0.0
  0
ARC
  5
91
  8
PATTERN_FILL
 62
     7
 10
-98.09237188946895
 20
739.28272879711415
 30
0.0
 40
647.19149999999979
 50
277.2575892574709
 51
278.75338312257543
  0
ARC
  5
92
  8
PATTERN_FILL
 62
     7
 10
-109.2456480686544
 20
737.81437213184222
 30
0.0
 40
645.07389999999987
 50
278.28140185467879
 51
279.5539510842911
  0
ARC
  5
93
  8
PATTERN_FILL
 62
     7
 10
-120.3350757584018
 20
736.15704605922053
 30
0.0
 40
642.95630000000006
 50
279.30888999979732
 51
280.30604217866539
  0
ARC
  5
94
  8
PATTERN_FILL
 62
     7
 10
-131.35746753826879
 20
734.31253026046011
 30
0.0
 40
640.83870000000002
 50
280.34013667052
 51
280.98364544734272
  0
ARC
  5
95
  8
PATTERN_FILL
 62
     7
 10
-142.3096786276717
 20
732.28265791726164
 30
0.0
 40
638.72109999999975
 50
281.3752324718011
 51
281.49880199687431
  0
LINE
  5
96
  8
PATTERN_FILL
 62
     7
 10
0.3983601491435564
 20
99.629374725748434
 30
0.0
 11
0.538590607257774
 21
99.650966733960146
 31
0.0
  0
ARC
  5
97
  8
PATTERN_FILL
 62
     7
 10
-24.85461081074552
 20
80.000000000053987
 30
0.0
 40
31.764000000000252
 50
36.713951853028398
 51
40.063046809345813
  0
LINE
  5
98
  8
PATTERN_FILL
 62
     7
 10
-0.544456746879618
 20
100.4442682772783
 30
0.0
 11
-0.8805453335584303
 21
100.8439091551263
 31
0.0
  0
LINE
  5
99
  8
PATTERN_FILL
 62
     7
 10
166.0
 20
105.20305999999999
 30
0.0
 11
166.0
 21
100.6458228220626
 31
0.0
  0
LINE
  5
9A
  8
PATTERN_FILL
 62
     7
 10
170.0
 20
103.89967
 30
0.0
 11
170.0
 21
99.032866310674294
 31
0.0
  0
LINE
  5
9B
  8
PATTERN_FILL
 62
     7
 10
174.0
 20
101.79895
 30
0.0
 11
174.0
 21
96.317168872080728
 31
0.0
  0
LINE
  5
9C
  8
PATTERN_FILL
 62
     7
 10
154.0
 20
105.20305999999999
 30
0.0
 11
154.0
 21
100.6458228220626
 31
0.0
  0
LINE
  5
9D
  8
PATTERN_FILL
 62
     7
 10
150.0
 20
103.89967
 30
0.0
 11
150.0
 21
99.032866310674294
 31
0.0
  0
LINE
  5
9E
  8
PATTERN_FILL
 62
     7
 10
146.0
 20
101.79895
 30
0.0
 11
146.0
 21
96.317168872080728
 31
0.0
  0
LINE
  5
9F
  8
PATTERN_FILL
 62
     7
 10
155.21603999999999
 20
105.46189
 30
0.0
 11
159.19307774376171
 21
101.4848522562383
 31
0.0
  0
LINE
  5
A0
  8
PATTERN_FILL
 62
     7
 10
151.28708999999989
 20
104.39834999999999
 30
0.0
 11
154.8190207174766
 21
100.8664192825234
 31
0.0
  0
LINE
  5
A1
  8
PATTERN_FILL
 62
     7
 10
147.33243999999999
 20
102.59927
 30
0.0
 11
150.59695510755961
 21
99.334754892440429
 31
0.0
  0
LINE
  5
A2
  8
PATTERN_FILL
 62
     7
 10
143.35579000000001
 20
99.853579999999994
 30
0.0
 11
146.48681524097731
 21
96.722554759022714
 31
0.0
  0
LINE
  5
A3
  8
PATTERN_FILL
 62
     7
 10
162.0
 20
105.83011
 30
0.0
 11
162.0
 21
101.40677462860759
 31
0.0
  0
LINE
  5
A4
  8
PATTERN_FILL
 62
     7
 10
158.0
 20
105.83011
 30
0.0
 11
158.0
 21
101.40677462860759
 31
0.0
  0
LINE
  5
A5
  8
PATTERN_FILL
 62
     7
 10
159.10794000000001
 20
105.89206
 30
0.0
 11
163.84696585006159
 21
101.15303414993841
 31
0.0
  0
LINE
  5
A6
  8
PATTERN_FILL
 62
     7
 10
178.0
 20
98.500000000000014
 30
0.0
 11
178.0
 21
91.757976016304852
 31
0.0
  0
LINE
  5
A7
  8
PATTERN_FILL
 62
     7
 10
162.93759
 20
105.74034
 30
0.0
 11
169.2873234124786
 21
99.390606587521347
 31
0.0
  0
LINE
  5
A8
  8
PATTERN_FILL
 62
     7
 10
142.0
 20
98.633150000000001
 30
0.0
 11
142.0
 21
91.757976016304823
 31
0.0
  0
LINE
  5
A9
  8
PATTERN_FILL
 62
     7
 10
139.35207
 20
95.647929999999988
 30
0.0
 11
142.50416724553119
 21
92.495832754468793
 31
0.0
  0
LINE
  5
AA
  8
PATTERN_FILL
 62
     7
 10
137.33134999999999
 20
92.542990000000003
 30
0.0
 11
140.6021516047868
 21
89.272188395213178
 31
0.0
  0
LINE
  5
AB
  8
PATTERN_FILL
 62
     7
 10
154.0
 20
100.6458228220626
 30
0.0
 11
154.0
 21
100.1246117974981
 31
0.0
  0
LINE
  5
AC
  8
PATTERN_FILL
 62
     7
 10
154.8190207174766
 20
100.8664192825234
 30
0.0
 11
155.23352720261599
 21
100.451912797384
 31
0.0
  0
LINE
  5
AD
  8
PATTERN_FILL
 62
     7
 10
158.0
 20
101.40677462860759
 30
0.0
 11
158.0
 21
100.90454496036681
 31
0.0
  0
LINE
  5
AE
  8
PATTERN_FILL
 62
     7
 10
159.19307774376171
 20
101.4848522562383
 30
0.0
 11
159.68036271223369
 21
100.9975672877662
 31
0.0
  0
LINE
  5
AF
  8
PATTERN_FILL
 62
     7
 10
162.0
 20
101.40677462860759
 30
0.0
 11
162.0
 21
100.90454496036681
 31
0.0
  0
LINE
  5
B0
  8
PATTERN_FILL
 62
     7
 10
163.84696585006159
 20
101.15303414993841
 30
0.0
 11
164.49079356939831
 21
100.5142090541422
 31
0.0
  0
LINE
  5
B1
  8
PATTERN_FILL
 62
     7
 10
163.99999998509881
 20
101.0
 30
0.0
 11
160.0
 21
101.0
 31
0.0
  0
LINE
  5
B2
  8
PATTERN_FILL
 62
     7
 10
166.0
 20
100.6458228220626
 30
0.0
 11
166.0
 21
100.1246117974981
 31
0.0
  0
LINE
  5
B3
  8
PATTERN_FILL
 62
     7
 10
170.0
 20
99.032866310674294
 30
0.0
 11
170.0
 21
98.466185312619402
 31
0.0
  0
LINE
  5
B4
  8
PATTERN_FILL
 62
     7
 10
169.2873234124786
 20
99.390606587521347
 30
0.0
 11
170.47967973861091
 21
98.198250261389163
 31
0.0
  0
LINE
  5
B5
  8
PATTERN_FILL
 62
     7
 10
174.0
 20
96.317168872080728
 30
0.0
 11
174.0
 21
95.652475842498546
 31
0.0
  0
LINE
  5
B6
  8
PATTERN_FILL
 62
     7
 10
178.0
 20
91.757976016304852
 30
0.0
 11
178.0
 21
90.816653826391985
 31
0.0
  0
LINE
  5
B7
  8
PATTERN_FILL
 62
     7
 10
179.39060658752129
 20
89.287323412478628
 30
0.0
 11
178.19825026138881
 21
90.479679738611196
 31
0.0
  0
LINE
  5
B8
  8
PATTERN_FILL
 62
     7
 10
140.6021516047868
 20
89.272188395213178
 30
0.0
 11
140.97766598334169
 21
88.896674016658295
 31
0.0
  0
LINE
  5
B9
  8
PATTERN_FILL
 62
     7
 10
142.0
 20
91.757976016304823
 30
0.0
 11
142.0
 21
90.816653826391985
 31
0.0
  0
LINE
  5
BA
  8
PATTERN_FILL
 62
     7
 10
142.50416724553119
 20
92.495832754468793
 30
0.0
 11
142.86271883169559
 21
92.137281168304412
 31
0.0
  0
LINE
  5
BB
  8
PATTERN_FILL
 62
     7
 10
146.0
 20
96.317168872080728
 30
0.0
 11
146.0
 21
95.652475842498546
 31
0.0
  0
LINE
  5
BC
  8
PATTERN_FILL
 62
     7
 10
146.48681524097731
 20
96.722554759022714
 30
0.0
 11
146.84240245119429
 21
96.366967548805718
 31
0.0
  0
LINE
  5
BD
  8
PATTERN_FILL
 62
     7
 10
150.0
 20
99.032866310674294
 30
0.0
 11
150.0
 21
98.466185312619402
 31
0.0
  0
LINE
  5
BE
  8
PATTERN_FILL
 62
     7
 10
150.59695510755961
 20
99.334754892440429
 30
0.0
 11
150.97156030112441
 21
98.96014969887554
 31
0.0
  0
LINE
  5
BF
  8
PATTERN_FILL
 62
     7
 10
142.00549000000001
 20
68.233623758357055
 30
0.0
 11
142.00549000000001
 21
61.361539999999991
 31
0.0
  0
LINE
  5
C0
  8
PATTERN_FILL
 62
     7
 10
143.41058645810759
 20
66.323693541892311
 30
0.0
 11
134.54271
 21
75.191570000000013
 31
0.0
  0
LINE
  5
C1
  8
PATTERN_FILL
 62
     7
 10
139.37630967781601
 20
73.924360322184029
 30
0.0
 11
134.10507000000001
 21
79.195600000000013
 31
0.0
  0
LINE
  5
C2
  8
PATTERN_FILL
 62
     7
 10
138.5083939469485
 20
79.399276053051523
 30
0.0
 11
134.33948000000001
 21
83.568190000000016
 31
0.0
  0
LINE
  5
C3
  8
PATTERN_FILL
 62
     7
 10
138.0
 20
93.681899999999999
 30
0.0
 11
138.0
 21
66.318100000000015
 31
0.0
  0
LINE
  5
C4
  8
PATTERN_FILL
 62
     7
 10
135.27202
 20
87.727979999999988
 30
0.0
 11
138.89543733404449
 21
84.104562665955484
 31
0.0
  0
LINE
  5
C5
  8
PATTERN_FILL
 62
     7
 10
142.00549000000001
 20
68.233623758357055
 30
0.0
 11
142.00549000000001
 21
69.179591199546678
 31
0.0
  0
LINE
  5
C6
  8
PATTERN_FILL
 62
     7
 10
139.37630967781601
 20
73.924360322184029
 30
0.0
 11
140.14753218984379
 21
73.153137810156139
 31
0.0
  0
LINE
  5
C7
  8
PATTERN_FILL
 62
     7
 10
138.5083939469485
 20
79.399276053051523
 30
0.0
 11
139.03001321639391
 21
78.877656783606113
 31
0.0
  0
LINE
  5
C8
  8
PATTERN_FILL
 62
     7
 10
138.89543733404449
 20
84.104562665955484
 30
0.0
 11
139.3242043381141
 21
83.675795661885914
 31
0.0
  0
LINE
  5
C9
  8
PATTERN_FILL
 62
     7
 10
177.98815999999999
 20
68.223918316587657
 30
0.0
 11
177.98815999999999
 21
61.355420000000002
 31
0.0
  0
LINE
  5
CA
  8
PATTERN_FILL
 62
     7
 10
182.54169999999999
 20
67.230259999999987
 30
0.0
 11
179.28223643838021
 21
70.489723561619783
 31
0.0
  0
LINE
  5
CB
  8
PATTERN_FILL
 62
     7
 10
178.62989999999999
 20
61.99663000000001
 30
0.0
 11
175.51283292279879
 21
65.113697077201195
 31
0.0
  0
LINE
  5
CC
  8
PATTERN_FILL
 62
     7
 10
158.00549000000001
 20
58.592713159769659
 30
0.0
 11
158.00549000000001
 21
54.16946999999999
 31
0.0
  0
LINE
  5
CD
  8
PATTERN_FILL
 62
     7
 10
154.00479000000001
 20
59.35278573134137
 30
0.0
 11
154.00479000000001
 21
54.795800000000021
 31
0.0
  0
LINE
  5
CE
  8
PATTERN_FILL
 62
     7
 10
150.00549000000001
 20
60.964250215452502
 30
0.0
 11
150.00549000000001
 21
56.098030000000001
 31
0.0
  0
LINE
  5
CF
  8
PATTERN_FILL
 62
     7
 10
162.00097
 20
58.593316019077122
 30
0.0
 11
162.00097
 21
54.169970000000013
 31
0.0
  0
LINE
  5
D0
  8
PATTERN_FILL
 62
     7
 10
166.00479000000001
 20
59.355569829711932
 30
0.0
 11
166.00479000000001
 21
54.79808000000002
 31
0.0
  0
LINE
  5
D1
  8
PATTERN_FILL
 62
     7
 10
169.99732999999989
 20
60.965731091762422
 30
0.0
 11
169.99732999999989
 21
56.099210000000021
 31
0.0
  0
LINE
  5
D2
  8
PATTERN_FILL
 62
     7
 10
173.99423999999999
 20
63.677890858642058
 30
0.0
 11
173.99423999999999
 21
58.5
 31
0.0
  0
LINE
  5
D3
  8
PATTERN_FILL
 62
     7
 10
174.64737
 20
58.630659999999999
 30
0.0
 11
171.46563901997749
 21
61.812390980022457
 31
0.0
  0
LINE
  5
D4
  8
PATTERN_FILL
 62
     7
 10
170.68476999999999
 20
56.398520000000019
 30
0.0
 11
167.30444452240729
 21
59.778845477592697
 31
0.0
  0
LINE
  5
D5
  8
PATTERN_FILL
 62
     7
 10
166.74943999999999
 20
54.987210000000012
 30
0.0
 11
163.02305707003649
 21
58.713592929963468
 31
0.0
  0
LINE
  5
D6
  8
PATTERN_FILL
 62
     7
 10
162.76494
 20
54.240549999999999
 30
0.0
 11
158.449509673248
 21
58.555980326752
 31
0.0
  0
LINE
  5
D7
  8
PATTERN_FILL
 62
     7
 10
158.97211999999999
 20
54.112979999999993
 30
0.0
 11
153.0692421762956
 21
59.647737325074637
 31
0.0
  0
LINE
  5
D8
  8
PATTERN_FILL
 62
     7
 10
146.00549000000001
 20
63.678122354952563
 30
0.0
 11
146.00549000000001
 21
58.197519999999997
 31
0.0
  0
LINE
  5
D9
  8
PATTERN_FILL
 62
     7
 10
155.19157000000001
 20
54.54271
 30
0.0
 11
146.3236935418924
 21
63.410586458107531
 31
0.0
  0
LINE
  5
DA
  8
PATTERN_FILL
 62
     7
 10
150.00549000000001
 20
57.084730000000008
 30
0.0
 11
135.49316999999999
 21
71.597050000000024
 31
0.0
  0
LINE
  5
DB
  8
PATTERN_FILL
 62
     7
 10
179.28223643838021
 20
70.489723561619783
 30
0.0
 11
178.9083620886324
 21
70.863597911367563
 31
0.0
  0
LINE
  5
DC
  8
PATTERN_FILL
 62
     7
 10
177.98815999999999
 20
68.223918316587657
 30
0.0
 11
177.98815999999999
 21
69.16366760317861
 31
0.0
  0
LINE
  5
DD
  8
PATTERN_FILL
 62
     7
 10
175.51283292279879
 20
65.113697077201195
 30
0.0
 11
175.1520693664547
 21
65.459890168429013
 31
0.0
  0
LINE
  5
DE
  8
PATTERN_FILL
 62
     7
 10
173.99423999999999
 20
63.677890858642058
 30
0.0
 11
173.99423999999999
 21
64.342374163928923
 31
0.0
  0
LINE
  5
DF
  8
PATTERN_FILL
 62
     7
 10
171.46563901997749
 20
61.812390980022457
 30
0.0
 11
171.10289345046311
 21
62.175136549536859
 31
0.0
  0
LINE
  5
E0
  8
PATTERN_FILL
 62
     7
 10
169.99732999999989
 20
60.965731091762422
 30
0.0
 11
169.99732999999989
 21
61.532369050928587
 31
0.0
  0
LINE
  5
E1
  8
PATTERN_FILL
 62
     7
 10
162.00097
 20
58.593316019077122
 30
0.0
 11
162.00097
 21
59.095547865129298
 31
0.0
  0
LINE
  5
E2
  8
PATTERN_FILL
 62
     7
 10
163.02305707003649
 20
58.713592929963468
 30
0.0
 11
162.5778301857188
 21
59.158819814281173
 31
0.0
  0
LINE
  5
E3
  8
PATTERN_FILL
 62
     7
 10
163.99999998509881
 20
59.0
 30
0.0
 11
161.0307935693983
 21
59.0
 31
0.0
  0
LINE
  5
E4
  8
PATTERN_FILL
 62
     7
 10
166.00479000000001
 20
59.355569829711932
 30
0.0
 11
166.00479000000001
 21
59.876816925349523
 31
0.0
  0
LINE
  5
E5
  8
PATTERN_FILL
 62
     7
 10
167.30444452240729
 20
59.778845477592697
 30
0.0
 11
166.9128697267771
 21
60.170420273222902
 31
0.0
  0
LINE
  5
E6
  8
PATTERN_FILL
 62
     7
 10
158.449509673248
 20
58.555980326752
 30
0.0
 11
157.90025144931801
 21
59.105238550681932
 31
0.0
  0
LINE
  5
E7
  8
PATTERN_FILL
 62
     7
 10
158.00549000000001
 20
58.592713159769659
 30
0.0
 11
158.00549000000001
 21
59.000000000000021
 31
0.0
  0
LINE
  5
E8
  8
PATTERN_FILL
 62
     7
 10
154.00479000000001
 20
59.35278573134137
 30
0.0
 11
154.00479000000001
 21
59.873960721098129
 31
0.0
  0
LINE
  5
E9
  8
PATTERN_FILL
 62
     7
 10
153.0692421762956
 20
59.647737325074637
 30
0.0
 11
152.22442515075889
 21
60.492554350611407
 31
0.0
  0
LINE
  5
EA
  8
PATTERN_FILL
 62
     7
 10
150.00549000000001
 20
60.964250215452502
 30
0.0
 11
150.00549000000001
 21
61.530842740939697
 31
0.0
  0
LINE
  5
EB
  8
PATTERN_FILL
 62
     7
 10
146.00549000000001
 20
63.678122354952563
 30
0.0
 11
146.00549000000001
 21
64.34261548470181
 31
0.0
  0
LINE
  5
EC
  8
PATTERN_FILL
 62
     7
 10
146.3236935418924
 20
63.410586458107531
 30
0.0
 11
143.7325250240597
 21
66.719591199546699
 31
0.0
  0
LINE
  5
ED
  8
PATTERN_FILL
 62
     7
 10
143.41058645810759
 20
66.323693541892311
 30
0.0
 11
145.58056036396249
 21
64.359591199546685
 31
0.0
  0
LINE
  5
EE
  8
PATTERN_FILL
 62
     7
 10
181.87501
 20
93.880859999999984
 30
0.0
 11
181.87501
 21
66.119140000000016
 31
0.0
  0
LINE
  5
EF
  8
PATTERN_FILL
 62
     7
 10
179.39060658752129
 20
89.287323412478628
 30
0.0
 11
185.74034
 21
82.937589999999986
 31
0.0
  0
LINE
  5
F0
  8
PATTERN_FILL
 62
     7
 10
181.19086409966539
 20
83.632805900334589
 30
0.0
 11
185.88565
 21
78.93801999999998
 31
0.0
  0
LINE
  5
F1
  8
PATTERN_FILL
 62
     7
 10
184.72798
 20
72.272019999999998
 30
0.0
 11
181.1045626659554
 21
75.895437334044544
 31
0.0
  0
LINE
  5
F2
  8
PATTERN_FILL
 62
     7
 10
181.19086409966539
 20
83.632805900334589
 30
0.0
 11
180.56329817741641
 21
84.260371822583622
 31
0.0
  0
LINE
  5
F3
  8
PATTERN_FILL
 62
     7
 10
181.1045626659554
 20
75.895437334044544
 30
0.0
 11
180.67579566188579
 21
76.324204338114129
 31
0.0
  0
LINE
  5
F4
  8
PATTERN_FILL
 62
     7
 10
166.6446
 20
105.04084
 30
0.0
 11
185.04084
 21
86.644599999999983
 31
0.0
  0
LINE
  5
F5
  8
SPEC
 62
     7
 10
-64.999990000000011
 20
383.53181999999998
 30
0.0
 11
230.0
 21
383.53181999999998
 31
0.0
  0
LINE
  5
F6
  8
SPEC
 62
     7
 10
-64.999990000000011
 20
383.53181999999998
 30
0.0
 11
-64.999990000000011
 21
323.53181999999998
 31
0.0
  0
LINE
  5
F7
  8
SPEC
 62
     7
 10
0.000009999999989
 20
383.53181999999998
 30
0.0
 11
0.000009999999989
 21
323.53181999999998
 31
0.0
  0
LINE
  5
F8
  8
SPEC
 62
     7
 10
230.0
 20
383.53181999999998
 30
0.0
 11
230.0
 21
323.53181999999998
 31
0.0
  0
TEXT
  5
F9
  8
SPEC
 62
     7
 10
-63.351387559306573
 20
362.98477080858368
 30
0.0
 40
3.8006293402777769
  1
指向特性
 41
0.8
 11
-63.351387559306573
 21
366.78540014886153
 31
0.0
 73
     3
  0
TEXT
  5
FA
  8
SPEC
 62
     7
 10
1.777926786331306
 20
363.00958078353563
 30
0.0
 40
3.8006293402777769
  1
カーディオイド
 41
0.8
 11
1.777926786331306
 21
366.81021012381342
 31
0.0
 73
     3
  0
LINE
  5
FB
  8
SPEC
 62
     7
 10
-64.999990000000011
 20
376.03181999999998
 30
0.0
 11
230.0
 21
376.03181999999998
 31
0.0
  0
TEXT
  5
FC
  8
SPEC
 62
     7
 10
-63.004064731156902
 20
377.99800441221907
 30
0.0
 40
3.8006293402777769
  1
形式
 41
0.8
 11
-63.004064731156902
 21
381.79863375249693
 31
0.0
 73
     3
  0
TEXT
  5
FD
  8
SPEC
 62
     7
 10
1.520423148940039
 20
377.96846571031051
 30
0.0
 40
3.8006293402777769
  1
ダイナミック型 
 41
0.8
 11
1.520423148940039
 21
381.76909505058831
 31
0.0
 73
     3
  0
LINE
  5
FE
  8
SPEC
 62
     7
 10
-64.999990000000011
 20
368.53181999999998
 30
0.0
 11
230.0
 21
368.53181999999998
 31
0.0
  0
TEXT
  5
FF
  8
SPEC
 62
     7
 10
-63.451364482196553
 20
370.51927922971112
 30
0.0
 40
3.8006293402777769
  1
周波数特性
 41
0.8
 11
-63.451364482196553
 21
374.31990856998891
 31
0.0
 73
     3
  0
TEXT
  5
100
  8
SPEC
 62
     7
 10
2.58735093298047
 20
370.48108655106819
 30
0.0
 40
3.8006293402777769
  1
55Hz～14kHz
 41
0.8
 11
2.58735093298047
 21
374.28171589134598
 31
0.0
 73
     3
  0
LINE
  5
101
  8
SPEC
 62
     7
 10
-64.999990000000011
 20
353.53181999999998
 30
0.0
 11
230.0
 21
353.53181999999998
 31
0.0
  0
TEXT
  5
102
  8
SPEC
 62
     7
 10
-63.426344482466568
 20
355.53917272165069
 30
0.0
 40
3.8006293402777769
  1
出力レベル(@1kHz)
 41
0.8
 11
-63.426344482466568
 21
359.33980206192848
 31
0.0
 73
     3
  0
TEXT
  5
103
  8
SPEC
 62
     7
 10
2.7961370209159351
 20
355.63054595324121
 30
0.0
 40
3.8006293402777769
  1
-57.5dB re 1V/Pa *1Pa=94dB
 41
0.8
 11
2.7961370209159351
 21
359.431175293519
 31
0.0
 73
     3
  0
LINE
  5
104
  8
SPEC
 62
     7
 10
-64.999990000000011
 20
346.03181999999998
 30
0.0
 11
230.0
 21
346.03181999999998
 31
0.0
  0
TEXT
  5
105
  8
SPEC
 62
     7
 10
-63.472400971371748
 20
340.503096602938
 30
0.0
 40
3.8006293402777769
  1
出力コネクター
 41
0.8
 11
-63.472400971371748
 21
344.3037259432158
 31
0.0
 73
     3
  0
TEXT
  5
106
  8
SPEC
 62
     7
 10
2.7544984146624061
 20
340.49286172755671
 30
0.0
 40
3.8006293402777769
  1
XLR3ピン　オス
 41
0.8
 11
2.754498414662407
 21
344.2934910678344
 31
0.0
 73
     3
  0
LINE
  5
107
  8
SPEC
 62
     7
 10
-64.999990000000011
 20
338.53181999999998
 30
0.0
 11
230.0
 21
338.53181999999998
 31
0.0
  0
LINE
  5
108
  8
SPEC
 62
     7
 10
-64.999990000000011
 20
323.53181999999998
 30
0.0
 11
230.0
 21
323.53181999999998
 31
0.0
  0
TEXT
  5
109
  8
SPEC
 62
     7
 10
-63.582359076375219
 20
347.96303569709647
 30
0.0
 40
3.8006293402777769
  1
インピーダンス
 41
0.8
 11
-63.582359076375219
 21
351.76366503737432
 31
0.0
 73
     3
  0
TEXT
  5
10A
  8
SPEC
 62
     7
 10
2.6468928645972469
 20
347.85202469493339
 30
0.0
 40
3.8006293402777769
  1
150Ω
 41
0.8
 11
2.6468928645972478
 21
351.65265403521119
 31
0.0
 73
     3
  0
TEXT
  5
10B
  8
SPEC
 62
     7
 10
-62.499990000000011
 20
386.31833999999998
 30
0.0
 40
4.8865234375000002
  1
仕様
 41
0.8
 11
-62.499990000000011
 21
391.20486343750002
 31
0.0
 73
     3
  0
TEXT
  5
10C
  8
SPEC
 62
     7
 10
-63.215143311890706
 20
333.05941321385791
 30
0.0
 40
3.8006293402777769
  1
寸法
 41
0.8
 11
-63.215143311890706
 21
336.8600425541357
 31
0.0
 73
     3
  0
TEXT
  5
10D
  8
SPEC
 62
     7
 10
1.4225484043712551
 20
333.00404178946479
 30
0.0
 40
3.8006293402777769
  1
φ54×全長166
 41
0.8
 11
1.4225484043712551
 21
336.80467112974259
 31
0.0
 73
     3
  0
TEXT
  5
10E
  8
SPEC
 62
     7
 10
-63.432575089603702
 20
325.59472973294521
 30
0.0
 40
3.8006293402777769
  1
質量
 41
0.8
 11
-63.432575089603702
 21
329.39535907322289
 31
0.0
 73
     3
  0
TEXT
  5
10F
  8
SPEC
 62
     7
 10
2.7303350103710629
 20
325.5440563249407
 30
0.0
 40
3.8006293402777769
  1
370g
 41
0.8
 11
2.7303350103710642
 21
329.34468566521849
 31
0.0
 73
     3
  0
LINE
  5
110
  8
SPEC
 62
     7
 10
-64.999990000000011
 20
361.03181999999998
 30
0.0
 11
230.0
 21
361.03181999999998
 31
0.0
  0
LINE
  5
111
  8
SPEC
 62
     7
 10
-64.999990000000011
 20
331.03181999999998
 30
0.0
 11
230.0
 21
331.03181999999998
 31
0.0
  0
TEXT
  5
112
  8
DIMNSIONS
 62
     7
 10
60.0
 20
-91.929190000000006
 30
0.0
 40
4.8865234375000002
  1
(単位：mm)
 41
0.8
 11
60.0
 21
-87.042666562500003
 31
0.0
 73
     3
  0
LINE
  5
113
  8
DIMNSIONS
 62
     7
 10
163.99999998509881
 20
107.0
 30
0.0
 11
253.9999999850989
 21
107.0
 31
0.0
  0
LINE
  5
114
  8
DIMNSIONS
 62
     7
 10
163.99999998509881
 20
53.0
 30
0.0
 11
253.9999999850989
 21
53.0
 31
0.0
  0
LINE
  5
115
  8
DIMNSIONS
 62
     7
 10
250.0
 20
107.0
 30
0.0
 11
250.0
 21
53.0
 31
0.0
  0
LINE
  5
116
  8
DIMNSIONS
 62
     7
 10
250.0
 20
107.0
 30
0.0
 11
251.7014773719377
 21
100.65000000000001
 31
0.0
  0
LINE
  5
117
  8
DIMNSIONS
 62
     7
 10
250.0
 20
107.0
 30
0.0
 11
248.29852262806239
 21
100.65000000000001
 31
0.0
  0
LINE
  5
118
  8
DIMNSIONS
 62
     7
 10
250.0
 20
53.0
 30
0.0
 11
248.29852262806239
 21
59.350000000000001
 31
0.0
  0
LINE
  5
119
  8
DIMNSIONS
 62
     7
 10
250.0
 20
53.0
 30
0.0
 11
251.7014773719377
 21
59.350000000000001
 31
0.0
  0
TEXT
  5
11A
  8
DIMNSIONS
 62
     7
 10
247.0122216
 20
76.47222020361157
 30
0.0
 40
5.4294739062499993
  1
54
 50
90.0
 41
0.8
 11
241.58274769375001
 21
76.47222020361157
 31
0.0
 73
     3
  0
LINE
  5
11B
  8
DIMNSIONS
 62
     7
 10
163.99999998509881
 20
69.0
 30
0.0
 11
213.9999999850989
 21
69.0
 31
0.0
  0
LINE
  5
11C
  8
DIMNSIONS
 62
     7
 10
163.99999998509881
 20
91.0
 30
0.0
 11
213.9999999850989
 21
91.0
 31
0.0
  0
LINE
  5
11D
  8
DIMNSIONS
 62
     7
 10
210.0
 20
69.0
 30
0.0
 11
210.0
 21
91.0
 31
0.0
  0
LINE
  5
11E
  8
DIMNSIONS
 62
     7
 10
210.0
 20
69.0
 30
0.0
 11
208.29852262806239
 21
75.34999999999998
 31
0.0
  0
LINE
  5
11F
  8
DIMNSIONS
 62
     7
 10
210.0
 20
69.0
 30
0.0
 11
211.70147737193761
 21
75.34999999999998
 31
0.0
  0
LINE
  5
120
  8
DIMNSIONS
 62
     7
 10
210.0
 20
91.0
 30
0.0
 11
211.70147737193761
 21
84.650000000000006
 31
0.0
  0
LINE
  5
121
  8
DIMNSIONS
 62
     7
 10
210.0
 20
91.0
 30
0.0
 11
208.29852262806239
 21
84.650000000000006
 31
0.0
  0
TEXT
  5
122
  8
DIMNSIONS
 62
     7
 10
207.0122222296728
 20
76.472222222222229
 30
0.0
 40
5.4294704861111107
  1
22
 50
90.0
 41
0.8
 11
201.58275174356169
 21
76.472222222222229
 31
0.0
 73
     3
  0
LINE
  5
123
  8
DIMNSIONS
 62
     7
 10
163.99999998509881
 20
59.0
 30
0.0
 11
233.99999998509881
 21
59.0
 31
0.0
  0
LINE
  5
124
  8
DIMNSIONS
 62
     7
 10
163.99999998509881
 20
101.0
 30
0.0
 11
233.99999998509881
 21
101.0
 31
0.0
  0
LINE
  5
125
  8
DIMNSIONS
 62
     7
 10
230.0
 20
59.0
 30
0.0
 11
230.0
 21
101.0
 31
0.0
  0
LINE
  5
126
  8
DIMNSIONS
 62
     7
 10
230.0
 20
59.0
 30
0.0
 11
228.29852262806239
 21
65.349999999999994
 31
0.0
  0
LINE
  5
127
  8
DIMNSIONS
 62
     7
 10
230.0
 20
59.0
 30
0.0
 11
231.70147737193761
 21
65.349999999999994
 31
0.0
  0
LINE
  5
128
  8
DIMNSIONS
 62
     7
 10
230.0
 20
101.0
 30
0.0
 11
231.70147737193761
 21
94.650000000000006
 31
0.0
  0
LINE
  5
129
  8
DIMNSIONS
 62
     7
 10
230.0
 20
101.0
 30
0.0
 11
228.29852262806239
 21
94.650000000000006
 31
0.0
  0
TEXT
  5
12A
  8
DIMNSIONS
 62
     7
 10
227.0122222296728
 20
76.472222222222229
 30
0.0
 40
5.4294704861111107
  1
42
 50
90.0
 41
0.8
 11
221.58275174356169
 21
76.472222222222229
 31
0.0
 73
     3
  0
LINE
  5
12B
  8
DIMNSIONS
 62
     7
 10
120.0
 20
94.999999985098853
 30
0.0
 11
120.0
 21
153.99999998509881
 31
0.0
  0
LINE
  5
12C
  8
DIMNSIONS
 62
     7
 10
-45.999999999951918
 20
83.999999985152826
 30
0.0
 11
-45.999999999951918
 21
153.99999998509881
 31
0.0
  0
LINE
  5
12D
  8
DIMNSIONS
 62
     7
 10
120.0
 20
150.0
 30
0.0
 11
-45.999999999951918
 21
150.0
 31
0.0
  0
LINE
  5
12E
  8
DIMNSIONS
 62
     7
 10
120.0
 20
150.0
 30
0.0
 11
113.65000000000001
 21
148.2985226280623
 31
0.0
  0
LINE
  5
12F
  8
DIMNSIONS
 62
     7
 10
120.0
 20
150.0
 30
0.0
 11
113.65000000000001
 21
151.70147737193761
 31
0.0
  0
LINE
  5
130
  8
DIMNSIONS
 62
     7
 10
-45.999999999951918
 20
150.0
 30
0.0
 11
-39.64999999995193
 21
151.70147737193761
 31
0.0
  0
LINE
  5
131
  8
DIMNSIONS
 62
     7
 10
-45.999999999951918
 20
150.0
 30
0.0
 11
-39.64999999995193
 21
148.29852262806239
 31
0.0
  0
TEXT
  5
132
  8
DIMNSIONS
 62
     7
 10
31.70833333335738
 20
152.9877777703272
 30
0.0
 40
5.4294704861111107
  1
166
 41
0.8
 11
31.70833333335738
 21
158.41724825643831
 31
0.0
 73
     3
  0
LINE
  5
133
  8
DIMNSIONS
 62
     7
 10
0.6083675364173758
 20
104.3818999851532
 30
0.0
 11
0.6083675364173758
 21
133.99999998509881
 31
0.0
  0
LINE
  5
134
  8
DIMNSIONS
 62
     7
 10
120.0
 20
94.999999985098853
 30
0.0
 11
120.0
 21
133.99999998509881
 31
0.0
  0
LINE
  5
135
  8
DIMNSIONS
 62
     7
 10
0.6083675364173758
 20
130.0
 30
0.0
 11
120.0
 21
130.0
 31
0.0
  0
LINE
  5
136
  8
DIMNSIONS
 62
     7
 10
0.6083675364173758
 20
130.0
 30
0.0
 11
6.95836753641737
 21
131.70147737193761
 31
0.0
  0
LINE
  5
137
  8
DIMNSIONS
 62
     7
 10
0.6083675364173758
 20
130.0
 30
0.0
 11
6.95836753641737
 21
128.2985226280623
 31
0.0
  0
LINE
  5
138
  8
DIMNSIONS
 62
     7
 10
120.0
 20
130.0
 30
0.0
 11
113.65000000000001
 21
128.2985226280623
 31
0.0
  0
LINE
  5
139
  8
DIMNSIONS
 62
     7
 10
120.0
 20
130.0
 30
0.0
 11
113.65000000000001
 21
131.70147737193761
 31
0.0
  0
TEXT
  5
13A
  8
DIMNSIONS
 62
     7
 10
55.012517101542016
 20
132.9877777703272
 30
0.0
 40
5.4294704861111107
  1
119
 41
0.8
 11
55.012517101542016
 21
138.41724825643831
 31
0.0
 73
     3
  0
LINE
  5
13B
  8
DIMNSIONS
 62
     7
 10
0.6083675364173758
 20
104.3818999851532
 30
0.0
 11
0.6083675364173758
 21
133.99999998509881
 31
0.0
  0
LINE
  5
13C
  8
DIMNSIONS
 62
     7
 10
-45.999999999951918
 20
83.999999985152826
 30
0.0
 11
-45.999999999951918
 21
133.99999998509881
 31
0.0
  0
LINE
  5
13D
  8
DIMNSIONS
 62
     7
 10
0.6083675364173758
 20
130.0
 30
0.0
 11
-45.999999999951918
 21
130.0
 31
0.0
  0
LINE
  5
13E
  8
DIMNSIONS
 62
     7
 10
0.6083675364173758
 20
130.0
 30
0.0
 11
-5.7416324635826177
 21
128.2985226280623
 31
0.0
  0
LINE
  5
13F
  8
DIMNSIONS
 62
     7
 10
0.6083675364173758
 20
130.0
 30
0.0
 11
-5.7416324635826177
 21
131.70147737193761
 31
0.0
  0
LINE
  5
140
  8
DIMNSIONS
 62
     7
 10
-45.999999999951918
 20
130.0
 30
0.0
 11
-39.64999999995193
 21
131.70147737193761
 31
0.0
  0
LINE
  5
141
  8
DIMNSIONS
 62
     7
 10
-45.999999999951918
 20
130.0
 30
0.0
 11
-39.64999999995193
 21
128.2985226280623
 31
0.0
  0
TEXT
  5
142
  8
DIMNSIONS
 62
     7
 10
-26.223594009545039
 20
132.9877777703272
 30
0.0
 40
5.4294704861111107
  1
47
 41
0.8
 11
-26.223594009545039
 21
138.41724825643831
 31
0.0
 73
     3
  0
TEXT
  5
143
  8
DATA
 62
     7
 10
189.75533983634591
 20
-94.271671723339637
 30
0.0
 40
4.8865234375000002
  1
SM48S-LC
 41
0.8
 11
189.75533983634591
 21
-89.385148285839634
 31
0.0
 73
     3
  0
TEXT
  5
144
  8
DATA
 62
     7
 10
194.73601478442399
 20
-79.015395975094989
 30
0.0
 40
4.8865234375000002
  1
SHURE
 41
0.8
 11
194.73601478442399
 21
-74.128872537594987
 31
0.0
 73
     3
  0
TEXT
  5
145
  8
DATA
 62
     7
 10
188.3442567289554
 20
-86.167321337683887
 30
0.0
 40
3.8006293402777769
  1
ダイナミック型マイクロホン
 41
0.8
 11
188.3442567289554
 21
-82.366691997406093
 31
0.0
 73
     3
  0
ARC
  5
146
  8
DATA
 62
     7
 10
-3.2499950001371181
 20
-447.48063231582051
 30
0.0
 40
537.70469467432906
 50
60.196960435815221
 51
60.196961289588849
  0
CIRCLE
  5
147
  8
DATA
 62
     7
 10
160.0
 20
84.199999999999989
 30
0.0
 40
1.2500013901192359
  0
CIRCLE
  5
148
  8
DATA
 62
     7
 10
164.19999999999999
 20
80.0
 30
0.0
 40
1.2500013901192359
  0
CIRCLE
  5
149
  8
DATA
 62
     7
 10
160.0
 20
75.800000000000026
 30
0.0
 40
1.2500013901192359
  0
LINE
  5
14A
  8
DATA
 62
     7
 10
155.4382499999999
 20
86.633070000000004
 30
0.0
 11
155.0847
 21
86.986620000000002
 31
0.0
  0
LINE
  5
14B
  8
DATA
 62
     7
 10
153.31693000000001
 20
84.511750000000006
 30
0.0
 11
152.96338
 21
84.865299999999976
 31
0.0
  0
LINE
  5
14C
  8
DATA
 62
     7
 10
152.96338
 20
85.572400000000002
 30
0.0
 11
154.3776
 21
86.986620000000002
 31
0.0
  0
ARC
  5
14D
  8
DATA
 62
     7
 10
153.31693999999999
 20
85.218850000000003
 30
0.0
 40
0.5000022760948095
 50
135.0008102809951
 51
224.99918971900601
  0
ARC
  5
14E
  8
DATA
 62
     7
 10
154.73115000000001
 20
86.63306
 30
0.0
 40
0.5000022760948195
 50
45.000810280996269
 51
134.99918971900371
  0
CIRCLE
  5
14F
  8
DATA
 62
     7
 10
160.0
 20
80.0
 30
0.0
 40
11.0
  0
ARC
  5
150
  8
DATA
 62
     7
 10
160.0
 20
80.0
 30
0.0
 40
7.999999347999986
 50
145.97669650640239
 51
124.51740146030249
  0
CIRCLE
  5
151
  8
DATA
 62
     7
 10
160.0
 20
80.0
 30
0.0
 40
21.0
  0
CIRCLE
  5
152
  8
DATA
 62
     7
 10
160.0
 20
80.0
 30
0.0
 40
25.907420000000009
  0
CIRCLE
  5
153
  8
DATA
 62
     7
 10
160.0
 20
80.0
 30
0.0
 40
27.000000000000011
  0
LINE
  5
154
  8
DATA
 62
     7
 10
5.4247458835802709
 20
62.000400000053588
 30
0.0
 11
5.4247458835802709
 21
97.999600000054414
 31
0.0
  0
LINE
  5
155
  8
DATA
 62
     7
 10
2.7259675364173721
 20
98.842238353341557
 30
0.0
 11
2.7259675364173721
 21
61.157761646766652
 31
0.0
  0
ARC
  5
156
  8
DATA
 62
     7
 10
0.6083675364173758
 20
98.264300000054419
 30
0.0
 40
2.1176000000000141
 50
25.944479772371182
 51
90.0
  0
LINE
  5
157
  8
DATA
 62
     7
 10
5.4247458835802709
 20
62.000400000053588
 30
0.0
 11
4.4167373490798658
 21
62.000400000053588
 31
0.0
  0
ARC
  5
158
  8
DATA
 62
     7
 10
0.6083675364173758
 20
61.735700000053583
 30
0.0
 40
2.1176000000000101
 50
270.0
 51
334.05552022762879
  0
ARC
  5
159
  8
DATA
 62
     7
 10
4.4167373490798658
 20
59.882800000053813
 30
0.0
 40
2.1175999999997819
 50
90.0
 51
154.0555202276347
  0
ARC
  5
15A
  8
DATA
 62
     7
 10
0.6083675364173758
 20
61.735700000053583
 30
0.0
 40
2.1176000000000101
 50
270.0
 51
334.05552022762879
  0
LINE
  5
15B
  8
DATA
 62
     7
 10
5.4247458835802709
 20
97.999600000054414
 30
0.0
 11
4.4167373490798658
 21
97.999600000054414
 31
0.0
  0
ARC
  5
15C
  8
DATA
 62
     7
 10
4.4167373490798658
 20
100.1172000000541
 30
0.0
 40
2.117599999999757
 50
205.94447977236479
 51
270.0
  0
LINE
  5
15D
  8
DATA
 62
     7
 10
5.4247458835802709
 20
97.999600000054414
 30
0.0
 11
5.4247458835802709
 21
62.000400000053588
 31
0.0
  0
LINE
  5
15E
  8
DATA
 62
     7
 10
-19.508832463582621
 20
53.000600000053559
 30
0.0
 11
-19.508832463582621
 21
106.99940000005439
 31
0.0
  0
LINE
  5
15F
  8
DATA
 62
     7
 10
-17.391232463582622
 20
53.000600000053559
 30
0.0
 11
-17.391232463582622
 21
106.99940000005439
 31
0.0
  0
LINE
  5
160
  8
DATA
 62
     7
 10
-16.33243246358262
 20
53.000600000053559
 30
0.0
 11
-17.391232463582622
 21
53.000600000053559
 31
0.0
  0
LINE
  5
161
  8
DATA
 62
     7
 10
-19.508832463582621
 20
53.000600000053559
 30
0.0
 11
-20.567632463582608
 21
53.000600000053559
 31
0.0
  0
LINE
  5
162
  8
DATA
 62
     7
 10
-20.567632463582608
 20
106.99940000005439
 30
0.0
 11
-19.508832463582621
 21
106.99940000005439
 31
0.0
  0
LINE
  5
163
  8
DATA
 62
     7
 10
-17.391232463582622
 20
106.99940000005439
 30
0.0
 11
-16.33243246358262
 21
106.99940000005439
 31
0.0
  0
LINE
  5
164
  8
DATA
 62
     7
 10
-20.567632463582608
 20
53.000600000053559
 30
0.0
 11
-20.567632463582608
 21
106.99940000005439
 31
0.0
  0
LINE
  5
165
  8
DATA
 62
     7
 10
-16.33243246358262
 20
53.000600000053559
 30
0.0
 11
-16.33243246358262
 21
106.99940000005439
 31
0.0
  0
LINE
  5
166
  8
DATA
 62
     7
 10
-17.391232463582622
 20
53.530000000053583
 30
0.0
 11
-19.508832463582621
 21
53.530000000053583
 31
0.0
  0
LINE
  5
167
  8
DATA
 62
     7
 10
-17.391232463582622
 20
106.4700000000544
 30
0.0
 11
-19.508832463582621
 21
106.4700000000544
 31
0.0
  0
ARC
  5
168
  8
DATA
 62
     7
 10
-19.508832463582621
 20
80.000000000053987
 30
0.0
 40
26.491167536369989
 50
92.290610042638491
 51
267.70938995736151
  0
ARC
  5
169
  8
DATA
 62
     7
 10
-17.242130703314391
 20
79.939427409945012
 30
0.0
 40
26.546164183294529
 50
47.744930410249751
 51
88.036172902247586
  0
LINE
  5
16A
  8
DATA
 62
     7
 10
0.6083675364173758
 20
100.3819000000544
 30
0.0
 11
0.6083675364173758
 21
59.618100000053573
 31
0.0
  0
LINE
  5
16B
  8
DATA
 62
     7
 10
9.1305458835323048
 20
97.5
 30
0.0
 11
5.4247458835802709
 21
97.5
 31
0.0
  0
LINE
  5
16C
  8
DATA
 62
     7
 10
9.1305458835323048
 20
62.5
 30
0.0
 11
5.4247458835802709
 21
62.5
 31
0.0
  0
LINE
  5
16D
  8
DATA
 62
     7
 10
120.0
 20
69.0
 30
0.0
 11
120.0
 21
91.0
 31
0.0
  0
CIRCLE
  5
16E
  8
DATA
 62
     7
 10
103.0
 20
80.071672874196295
 30
0.0
 40
1.6499999999999979
  0
LINE
  5
16F
  8
DATA
 62
     7
 10
104.6378339354159
 20
79.871672874196264
 30
0.0
 11
101.362166064584
 21
79.871672874196264
 31
0.0
  0
LINE
  5
170
  8
DATA
 62
     7
 10
101.362166064584
 20
80.271672874196256
 30
0.0
 11
104.6378339354159
 21
80.271672874196256
 31
0.0
  0
POLYLINE
  5
171
  8
DATA
 62
     7
 66
     1
 10
0.0
 20
0.0
 30
0.0
 70
   129
  0
VERTEX
  5
236
  8
DATA
 62
     7
 10
117.02500000000001
 20
81.699999999999989
 30
0.0
  0
VERTEX
  5
237
  8
DATA
 62
     7
 10
117.02500000000001
 20
81.699999999999989
 30
0.0
 42
-0.4142135623730951
  0
VERTEX
  5
238
  8
DATA
 62
     7
 10
117.825
 20
82.5
 30
0.0
  0
VERTEX
  5
239
  8
DATA
 62
     7
 10
118.175
 20
82.5
 30
0.0
  0
VERTEX
  5
23A
  8
DATA
 62
     7
 10
118.175
 20
82.5
 30
0.0
 42
-0.4142135623730951
  0
VERTEX
  5
23B
  8
DATA
 62
     7
 10
118.97499999999999
 20
81.699999999999989
 30
0.0
  0
VERTEX
  5
23C
  8
DATA
 62
     7
 10
118.97499999999999
 20
78.299999999999983
 30
0.0
  0
VERTEX
  5
23D
  8
DATA
 62
     7
 10
118.97499999999999
 20
78.299999999999983
 30
0.0
 42
-0.4142135623730951
  0
VERTEX
  5
23E
  8
DATA
 62
     7
 10
118.175
 20
77.5
 30
0.0
  0
VERTEX
  5
23F
  8
DATA
 62
     7
 10
117.825
 20
77.5
 30
0.0
  0
VERTEX
  5
240
  8
DATA
 62
     7
 10
117.825
 20
77.5
 30
0.0
 42
-0.4142135623730951
  0
VERTEX
  5
241
  8
DATA
 62
     7
 10
117.02500000000001
 20
78.299999999999983
 30
0.0
  0
SEQEND
  5
242
  8
DATA
 62
     7
  0
TEXT
  5
17F
  8
DATA
 62
     7
 10
10.552167943774
 20
83.908136109234675
 30
0.0
 40
3.8006293402777769
  1
SM48S
 50
90.0
 41
0.8
 11
6.7515386034962281
 21
83.908136109234675
 31
0.0
 73
     3
  0
CIRCLE
  5
180
  8
DATA
 62
     7
 10
24.400000000000009
 20
80.0
 30
0.0
 40
3.0
  0
CIRCLE
  5
181
  8
DATA
 62
     7
 10
54.400000000000013
 20
80.0
 30
0.0
 40
3.0
  0
LINE
  5
182
  8
DATA
 62
     7
 10
32.0
 20
77.84999999999998
 30
0.0
 11
32.0
 21
82.150000000000006
 31
0.0
  0
LINE
  5
183
  8
DATA
 62
     7
 10
43.400000000000013
 20
76.84999999999998
 30
0.0
 11
43.400000000000013
 21
83.150000000000006
 31
0.0
  0
LINE
  5
184
  8
DATA
 62
     7
 10
33.0
 20
76.84999999999998
 30
0.0
 11
43.400000000000013
 21
76.84999999999998
 31
0.0
  0
LINE
  5
185
  8
DATA
 62
     7
 10
43.400000000000013
 20
83.150000000000006
 30
0.0
 11
33.0
 21
83.150000000000006
 31
0.0
  0
LINE
  5
186
  8
DATA
 62
     7
 10
64.700000000000017
 20
74.5
 30
0.0
 11
64.700000000000017
 21
77.09999999999998
 31
0.0
  0
LINE
  5
187
  8
DATA
 62
     7
 10
64.700000000000017
 20
82.900000000000006
 30
0.0
 11
64.700000000000017
 21
85.5
 31
0.0
  0
LINE
  5
188
  8
DATA
 62
     7
 10
64.700000000000017
 20
85.5
 30
0.0
 11
45.900000000000013
 21
85.5
 31
0.0
  0
LINE
  5
189
  8
DATA
 62
     7
 10
64.700000000000017
 20
74.5
 30
0.0
 11
45.900000000000013
 21
74.5
 31
0.0
  0
LINE
  5
18A
  8
DATA
 62
     7
 10
43.400000000000013
 20
77.0
 30
0.0
 11
43.400000000000013
 21
83.0
 31
0.0
  0
LINE
  5
18B
  8
DATA
 62
     7
 10
63.299999999999997
 20
77.09999999999998
 30
0.0
 11
63.299999999999997
 21
82.900000000000006
 31
0.0
  0
ARC
  5
18C
  8
DATA
 62
     7
 10
45.900000000000013
 20
83.0
 30
0.0
 40
2.5
 50
90.0
 51
180.0
  0
ARC
  5
18D
  8
DATA
 62
     7
 10
45.900000000000013
 20
77.0
 30
0.0
 40
2.5
 50
180.0
 51
270.0
  0
LINE
  5
18E
  8
DATA
 62
     7
 10
63.299999999999997
 20
82.900000000000006
 30
0.0
 11
64.700000000000017
 21
82.900000000000006
 31
0.0
  0
LINE
  5
18F
  8
DATA
 62
     7
 10
63.299999999999997
 20
77.09999999999998
 30
0.0
 11
64.700000000000017
 21
77.09999999999998
 31
0.0
  0
ARC
  5
190
  8
DATA
 62
     7
 10
33.0
 20
82.150000000000006
 30
0.0
 40
1.0
 50
90.0
 51
180.0
  0
ARC
  5
191
  8
DATA
 62
     7
 10
33.0
 20
77.84999999999998
 30
0.0
 40
1.0
 50
180.0
 51
270.0
  0
POLYLINE
  5
192
  8
DATA
 62
     7
 66
     1
 10
0.0
 20
0.0
 30
0.0
  0
VERTEX
  5
243
  8
DATA
 62
     7
 10
24.0
 20
80.400000000000006
 30
0.0
  0
VERTEX
  5
244
  8
DATA
 62
     7
 10
24.0
 20
82.0
 30
0.0
  0
VERTEX
  5
245
  8
DATA
 62
     7
 10
24.800000000000001
 20
82.0
 30
0.0
  0
VERTEX
  5
246
  8
DATA
 62
     7
 10
24.800000000000001
 20
80.400000000000006
 30
0.0
  0
SEQEND
  5
247
  8
DATA
 62
     7
  0
POLYLINE
  5
199
  8
DATA
 62
     7
 66
     1
 10
0.0
 20
0.0
 30
0.0
  0
VERTEX
  5
248
  8
DATA
 62
     7
 10
24.800000000000001
 20
79.59999999999998
 30
0.0
  0
VERTEX
  5
249
  8
DATA
 62
     7
 10
24.800000000000001
 20
78.0
 30
0.0
  0
VERTEX
  5
24A
  8
DATA
 62
     7
 10
24.0
 20
78.0
 30
0.0
  0
VERTEX
  5
24B
  8
DATA
 62
     7
 10
24.0
 20
79.59999999999998
 30
0.0
  0
SEQEND
  5
24C
  8
DATA
 62
     7
  0
POLYLINE
  5
1A0
  8
DATA
 62
     7
 66
     1
 10
0.0
 20
0.0
 30
0.0
  0
VERTEX
  5
24D
  8
DATA
 62
     7
 10
54.799999999999997
 20
79.59999999999998
 30
0.0
  0
VERTEX
  5
24E
  8
DATA
 62
     7
 10
54.799999999999997
 20
78.0
 30
0.0
  0
VERTEX
  5
24F
  8
DATA
 62
     7
 10
54.0
 20
78.0
 30
0.0
  0
VERTEX
  5
250
  8
DATA
 62
     7
 10
54.0
 20
79.59999999999998
 30
0.0
  0
SEQEND
  5
251
  8
DATA
 62
     7
  0
POLYLINE
  5
1A7
  8
DATA
 62
     7
 66
     1
 10
0.0
 20
0.0
 30
0.0
  0
VERTEX
  5
252
  8
DATA
 62
     7
 10
54.0
 20
80.400000000000006
 30
0.0
  0
VERTEX
  5
253
  8
DATA
 62
     7
 10
54.0
 20
82.0
 30
0.0
  0
VERTEX
  5
254
  8
DATA
 62
     7
 10
54.799999999999997
 20
82.0
 30
0.0
  0
VERTEX
  5
255
  8
DATA
 62
     7
 10
54.799999999999997
 20
80.400000000000006
 30
0.0
  0
SEQEND
  5
256
  8
DATA
 62
     7
  0
POLYLINE
  5
1AE
  8
DATA
 62
     7
 66
     1
 10
0.0
 20
0.0
 30
0.0
  0
VERTEX
  5
257
  8
DATA
 62
     7
 10
54.799999999999997
 20
80.400000000000006
 30
0.0
  0
VERTEX
  5
258
  8
DATA
 62
     7
 10
56.400000000000013
 20
80.400000000000006
 30
0.0
  0
VERTEX
  5
259
  8
DATA
 62
     7
 10
56.400000000000013
 20
79.59999999999998
 30
0.0
  0
VERTEX
  5
25A
  8
DATA
 62
     7
 10
54.799999999999997
 20
79.59999999999998
 30
0.0
  0
SEQEND
  5
25B
  8
DATA
 62
     7
  0
POLYLINE
  5
1B5
  8
DATA
 62
     7
 66
     1
 10
0.0
 20
0.0
 30
0.0
  0
VERTEX
  5
25C
  8
DATA
 62
     7
 10
54.0
 20
79.59999999999998
 30
0.0
  0
VERTEX
  5
25D
  8
DATA
 62
     7
 10
52.400000000000013
 20
79.59999999999998
 30
0.0
  0
VERTEX
  5
25E
  8
DATA
 62
     7
 10
52.400000000000013
 20
80.400000000000006
 30
0.0
  0
VERTEX
  5
25F
  8
DATA
 62
     7
 10
54.0
 20
80.400000000000006
 30
0.0
  0
SEQEND
  5
260
  8
DATA
 62
     7
  0
POLYLINE
  5
1BC
  8
DATA
 62
     7
 66
     1
 10
0.0
 20
0.0
 30
0.0
  0
VERTEX
  5
261
  8
DATA
 62
     7
 10
24.800000000000001
 20
80.400000000000006
 30
0.0
  0
VERTEX
  5
262
  8
DATA
 62
     7
 10
26.400000000000009
 20
80.400000000000006
 30
0.0
  0
VERTEX
  5
263
  8
DATA
 62
     7
 10
26.400000000000009
 20
79.59999999999998
 30
0.0
  0
VERTEX
  5
264
  8
DATA
 62
     7
 10
24.800000000000001
 20
79.59999999999998
 30
0.0
  0
SEQEND
  5
265
  8
DATA
 62
     7
  0
POLYLINE
  5
1C3
  8
DATA
 62
     7
 66
     1
 10
0.0
 20
0.0
 30
0.0
  0
VERTEX
  5
266
  8
DATA
 62
     7
 10
24.0
 20
79.59999999999998
 30
0.0
  0
VERTEX
  5
267
  8
DATA
 62
     7
 10
22.400000000000009
 20
79.59999999999998
 30
0.0
  0
VERTEX
  5
268
  8
DATA
 62
     7
 10
22.400000000000009
 20
80.400000000000006
 30
0.0
  0
VERTEX
  5
269
  8
DATA
 62
     7
 10
24.0
 20
80.400000000000006
 30
0.0
  0
SEQEND
  5
26A
  8
DATA
 62
     7
  0
POLYLINE
  5
1CA
  8
DATA
 62
     7
 66
     1
 10
0.0
 20
0.0
 30
0.0
 70
     1
  0
VERTEX
  5
26B
  8
DATA
 62
     7
 10
32.743275334078952
 20
82.84999999999998
 30
0.0
  0
VERTEX
  5
26C
  8
DATA
 62
     7
 10
40.243275334078952
 20
82.84999999999998
 30
0.0
  0
VERTEX
  5
26D
  8
DATA
 62
     7
 10
40.243275334078952
 20
77.150000000000006
 30
0.0
  0
VERTEX
  5
26E
  8
DATA
 62
     7
 10
32.743275334078952
 20
77.150000000000006
 30
0.0
  0
SEQEND
  5
26F
  8
DATA
 62
     7
  0
LINE
  5
1D1
  8
DATA
 62
     7
 10
33.543275334078949
 20
77.150000000000006
 30
0.0
 11
33.543275334078949
 21
82.84999999999998
 31
0.0
  0
LINE
  5
1D2
  8
DATA
 62
     7
 10
34.343275334078932
 20
77.150000000000006
 30
0.0
 11
34.343275334078932
 21
82.84999999999998
 31
0.0
  0
LINE
  5
1D3
  8
DATA
 62
     7
 10
35.14327533407895
 20
77.150000000000006
 30
0.0
 11
35.14327533407895
 21
82.84999999999998
 31
0.0
  0
LINE
  5
1D4
  8
DATA
 62
     7
 10
35.943275334078947
 20
77.150000000000006
 30
0.0
 11
35.943275334078947
 21
82.84999999999998
 31
0.0
  0
LINE
  5
1D5
  8
DATA
 62
     7
 10
36.743275334078952
 20
77.150000000000006
 30
0.0
 11
36.743275334078952
 21
82.84999999999998
 31
0.0
  0
LINE
  5
1D6
  8
DATA
 62
     7
 10
37.543275334078949
 20
77.150000000000006
 30
0.0
 11
37.543275334078949
 21
82.84999999999998
 31
0.0
  0
LINE
  5
1D7
  8
DATA
 62
     7
 10
38.34327533407896
 20
77.150000000000006
 30
0.0
 11
38.34327533407896
 21
82.84999999999998
 31
0.0
  0
LINE
  5
1D8
  8
DATA
 62
     7
 10
39.143275334078943
 20
77.150000000000006
 30
0.0
 11
39.143275334078943
 21
82.84999999999998
 31
0.0
  0
LINE
  5
1D9
  8
DATA
 62
     7
 10
120.0
 20
91.0
 30
0.0
 11
12.0
 21
97.800000000000011
 31
0.0
  0
LINE
  5
1DA
  8
DATA
 62
     7
 10
120.0
 20
69.0
 30
0.0
 11
12.0
 21
62.200000000000003
 31
0.0
  0
LINE
  5
1DB
  8
DATA
 62
     7
 10
12.0
 20
62.200000000000003
 30
0.0
 11
12.0
 21
97.800000000000011
 31
0.0
  0
LINE
  5
1DC
  8
DATA
 62
     7
 10
12.0
 20
97.5
 30
0.0
 11
9.1305458835323048
 21
97.5
 31
0.0
  0
LINE
  5
1DD
  8
DATA
 62
     7
 10
12.0
 20
62.5
 30
0.0
 11
9.1305458835323048
 21
62.5
 31
0.0
  0
ARC
  5
1DE
  8
DATA
 62
     7
 10
-17.242130703314391
 20
80.060572590162934
 30
0.0
 40
26.546164183294611
 50
271.96382709775241
 51
312.25506958975041
  0
ENDSEC
  0
EOF
