  0
SECTION
  2
HEADER
  9
$ACADVER
  1
AC1009
  9
$INSBASE
 10
0.0
 20
0.0
 30
0.0
  9
$EXTMIN
 10
-80.012748558621865
 20
-131.2306395013035
 30
-0.0015258207003583
  9
$EXTMAX
 10
282.7306077200144
 20
403.53214576640943
 30
0.0000000349246037
  9
$LIMMIN
 10
0.0
 20
0.0
  9
$LIMMAX
 10
0.0
 20
0.0
  9
$ORTHOMODE
 70
     0
  9
$REGENMODE
 70
     1
  9
$FILLMODE
 70
     1
  9
$QTEXTMODE
 70
     0
  9
$MIRRTEXT
 70
     1
  9
$DRAGMODE
 70
     2
  9
$LTSCALE
 40
2.0
  9
$OSMODE
 70
    37
  9
$ATTMODE
 70
     1
  9
$TEXTSIZE
 40
0.0
  9
$TRACEWID
 40
0.05
  9
$TEXTSTYLE
  7
STANDARD
  9
$CLAYER
  8
0
  9
$CELTYPE
  6
CONTINUOUS
  9
$CECOLOR
 62
   256
  9
$DIMSCALE
 40
1.0
  9
$DIMASZ
 40
0.18
  9
$DIMEXO
 40
0.0625
  9
$DIMDLI
 40
0.38
  9
$DIMRND
 40
0.0
  9
$DIMDLE
 40
0.0
  9
$DIMEXE
 40
0.18
  9
$DIMTP
 40
0.0
  9
$DIMTM
 40
0.0
  9
$DIMTXT
 40
0.18
  9
$DIMCEN
 40
0.09
  9
$DIMTSZ
 40
0.0
  9
$DIMTOL
 70
     0
  9
$DIMLIM
 70
     0
  9
$DIMTIH
 70
     1
  9
$DIMTOH
 70
     1
  9
$DIMSE1
 70
     0
  9
$DIMSE2
 70
     0
  9
$DIMTAD
 70
     0
  9
$DIMZIN
 70
     0
  9
$DIMBLK
  1

  9
$DIMASO
 70
     1
  9
$DIMSHO
 70
     1
  9
$DIMPOST
  1

  9
$DIMAPOST
  1

  9
$DIMALT
 70
     0
  9
$DIMALTD
 70
     2
  9
$DIMALTF
 40
25.399999999999999
  9
$DIMLFAC
 40
1.0
  9
$DIMTOFL
 70
     0
  9
$DIMTVP
 40
0.0
  9
$DIMTIX
 70
     0
  9
$DIMSOXD
 70
     0
  9
$DIMSAH
 70
     0
  9
$DIMBLK1
  1

  9
$DIMBLK2
  1

  9
$DIMSTYLE
  2
STANDARD
  9
$DIMCLRD
 70
     0
  9
$DIMCLRE
 70
     0
  9
$DIMCLRT
 70
     0
  9
$DIMTFAC
 40
1.0
  9
$DIMGAP
 40
0.09
  9
$LUNITS
 70
     2
  9
$LUPREC
 70
     4
  9
$SKETCHINC
 40
0.1
  9
$FILLETRAD
 40
0.0
  9
$AUNITS
 70
     0
  9
$AUPREC
 70
     0
  9
$MENU
  1
acad
  9
$ELEVATION
 40
0.0
  9
$PELEVATION
 40
0.0
  9
$THICKNESS
 40
0.0
  9
$LIMCHECK
 70
     0
  9
$BLIPMODE
 70
     0
  9
$CHAMFERA
 40
0.0
  9
$CHAMFERB
 40
0.0
  9
$SKPOLY
 70
     0
  9
$TDCREATE
 40
2451873.6928819441
  9
$TDUPDATE
 40
2451873.6932092588
  9
$TDINDWG
 40
0.00021875
  9
$TDUSRTIMER
 40
0.00021875
  9
$USRTIMER
 70
     1
  9
$ANGBASE
 50
0.0
  9
$ANGDIR
 70
     0
  9
$PDMODE
 70
     0
  9
$PDSIZE
 40
0.0
  9
$PLINEWID
 40
0.0
  9
$COORDS
 70
     1
  9
$SPLFRAME
 70
     0
  9
$SPLINETYPE
 70
     6
  9
$SPLINESEGS
 70
     8
  9
$ATTDIA
 70
     0
  9
$ATTREQ
 70
     1
  9
$HANDLING
 70
-16383
  9
$HANDSEED
  5
195
  9
$SURFTAB1
 70
     6
  9
$SURFTAB2
 70
     6
  9
$SURFTYPE
 70
     6
  9
$SURFU
 70
     6
  9
$SURFV
 70
     6
  9
$UCSNAME
  2

  9
$UCSORG
 10
0.0
 20
0.0
 30
0.0
  9
$UCSXDIR
 10
1.0
 20
0.0
 30
0.0
  9
$UCSYDIR
 10
0.0
 20
1.0
 30
0.0
  9
$PUCSNAME
  2

  9
$PUCSORG
 10
0.0
 20
0.0
 30
0.0
  9
$PUCSXDIR
 10
1.0
 20
0.0
 30
0.0
  9
$PUCSYDIR
 10
0.0
 20
1.0
 30
0.0
  9
$USERI1
 70
     0
  9
$USERI2
 70
     0
  9
$USERI3
 70
     0
  9
$USERI4
 70
     0
  9
$USERI5
 70
     0
  9
$USERR1
 40
0.0
  9
$USERR2
 40
0.0
  9
$USERR3
 40
0.0
  9
$USERR4
 40
0.0
  9
$USERR5
 40
0.0
  9
$WORLDVIEW
 70
     1
  9
$SHADEDGE
 70
     3
  9
$SHADEDIF
 70
    70
  9
$TILEMODE
 70
     1
  9
$MAXACTVP
 70
    16
  9
$PLIMCHECK
 70
     0
  9
$PEXTMIN
 10
1.0000000000000000E+020
 20
1.0000000000000000E+020
 30
1.0000000000000000E+020
  9
$PEXTMAX
 10
-1.0000000000000000E+020
 20
-1.0000000000000000E+020
 30
-1.0000000000000000E+020
  9
$PLIMMIN
 10
0.0
 20
0.0
  9
$PLIMMAX
 10
12.0
 20
9.0
  9
$UNITMODE
 70
     0
  9
$VISRETAIN
 70
     0
  9
$PLINEGEN
 70
     1
  9
$PSLTSCALE
 70
     0
  0
ENDSEC
  0
SECTION
  2
TABLES
  0
TABLE
  2
VPORT
 70
     2
  0
VPORT
  2
*ACTIVE
 70
     0
 10
0.0
 20
0.0
 11
1.0
 21
1.0
 12
101.3589295806962
 22
136.15075313255289
 13
0.0
 23
0.0
 14
1.0
 24
1.0
 15
0.0
 25
0.0
 16
0.0
 26
0.0
 36
1.0
 17
0.0
 27
0.0
 37
0.0
 40
540.74893584906795
 41
1.743925233644859
 42
50.0
 43
0.0
 44
0.0
 50
0.0
 51
0.0
 71
     0
 72
   100
 73
     1
 74
     1
 75
     0
 76
     0
 77
     0
 78
     0
  0
ENDTAB
  0
TABLE
  2
LTYPE
 70
    11
  0
LTYPE
  2
CONTINUOUS
 70
     0
  3
Solid line
 72
    65
 73
     0
 40
0.0
  0
LTYPE
  2
VECTORWORKS_DASH_01
 70
     0
  3
(unavailable)
 72
    65
 73
     2
 40
2.116537475585937
 49
1.058074951171875
 49
-1.058462524414062
  0
LTYPE
  2
VECTORWORKS_DASH_02
 70
     0
  3
(unavailable)
 72
    65
 73
     2
 40
3.5276916503906239
 49
2.469229125976562
 49
-1.058462524414062
  0
LTYPE
  2
VECTORWORKS_DASH_03
 70
     0
  3
(unavailable)
 72
    65
 73
     2
 40
6.3499999999999988
 49
5.2915374755859359
 49
-1.058462524414062
  0
LTYPE
  2
VECTORWORKS_DASH_04
 70
     0
  3
(unavailable)
 72
    65
 73
     2
 40
7.7607666015624988
 49
6.7026916503906238
 49
-1.058074951171875
  0
LTYPE
  2
VECTORWORKS_DASH_05
 70
     0
  3
(unavailable)
 72
    65
 73
     2
 40
1.058074951171875
 49
0.352691650390625
 49
-0.70538330078125
  0
LTYPE
  2
VECTORWORKS_DASH_06
 70
     0
  3
(unavailable)
 72
    65
 73
     4
 40
5.2915374755859359
 49
3.1749999999999989
 49
-1.058074951171875
 49
0.352691650390625
 49
-0.7057708740234375
  0
LTYPE
  2
VECTORWORKS_DASH_07
 70
     0
  3
(unavailable)
 72
    65
 73
     6
 40
9.5249999999999986
 49
3.1749999999999989
 49
-1.058074951171875
 49
3.1749999999999989
 49
-1.058462524414062
 49
0.352691650390625
 49
-0.7057708740234375
  0
LTYPE
  2
VECTORWORKS_DASH_08
 70
     0
  3
(unavailable)
 72
    65
 73
     6
 40
6.3499999999999988
 49
3.1749999999999989
 49
-1.058074951171875
 49
0.352691650390625
 49
-0.7057708740234375
 49
0.352691650390625
 49
-0.7057708740234375
  0
LTYPE
  2
VECTORWORKS_DASH_09
 70
     0
  3
(unavailable)
 72
    65
 73
     4
 40
25.399999999999999
 49
19.04999999999999
 49
-1.411154174804687
 49
3.5276916503906239
 49
-1.411154174804687
  0
LTYPE
  2
VECTORWORKS_DASH_10
 70
     0
  3
(unavailable)
 72
    65
 73
     6
 40
30.162499999999991
 49
19.04999999999999
 49
-1.411154174804687
 49
3.5276916503906239
 49
-1.411154174804687
 49
3.1749999999999989
 49
-1.587499999999999
  0
ENDTAB
  0
TABLE
  2
LAYER
 70
     6
  0
LAYER
  2
0
 70
     0
 62
     7
  6
CONTINUOUS
  0
LAYER
  2
HIBINO-BASE
 70
     0
 62
     7
  6
CONTINUOUS
  0
LAYER
  2
PATTERN_FILL
 70
     0
 62
     7
  6
CONTINUOUS
  0
LAYER
  2
SPEC
 70
     0
 62
     7
  6
CONTINUOUS
  0
LAYER
  2
DIMNSIONS
 70
     0
 62
     7
  6
CONTINUOUS
  0
LAYER
  2
DATA
 70
     0
 62
     7
  6
CONTINUOUS
  0
ENDTAB
  0
TABLE
  2
STYLE
 70
     1
  0
STYLE
  2
STANDARD
 70
     0
 40
0.0
 41
1.0
 50
0.0
 71
     0
 42
0.0
  3
txt
  4
BIGFONT.SHX
  0
ENDTAB
  0
TABLE
  2
VIEW
 70
     0
  0
ENDTAB
  0
TABLE
  2
UCS
 70
     0
  0
ENDTAB
  0
TABLE
  2
APPID
 70
     1
  0
APPID
  2
ACAD
 70
     0
  0
ENDTAB
  0
TABLE
  2
DIMSTYLE
 70
     1
  0
DIMSTYLE
  2
STANDARD
 70
     0
  3

  4

  5

  6

  7

 40
1.0
 41
0.18
 42
0.0625
 43
0.38
 44
0.18
 45
0.0
 46
0.0
 47
0.0
 48
0.0
140
0.18
141
0.09
142
0.0
143
25.399999999999999
144
1.0
145
0.0
146
1.0
147
0.09
 71
     0
 72
     0
 73
     1
 74
     1
 75
     0
 76
     0
 77
     0
 78
     0
170
     0
171
     2
172
     0
173
     0
174
     0
175
     0
176
     0
177
     0
178
     0
  0
ENDTAB
  0
ENDSEC
  0
SECTION
  2
BLOCKS
  0
BLOCK
  8
0
  2
$MODEL_SPACE
 70
     0
 10
0.0
 20
0.0
 30
0.0
  3
$MODEL_SPACE
  1

  0
ENDBLK
  5
184
  8
0
  0
BLOCK
 67
     1
  8
0
  2
$PAPER_SPACE
 70
     0
 10
0.0
 20
0.0
 30
0.0
  3
$PAPER_SPACE
  1

  0
ENDBLK
  5
182
 67
     1
  8
0
  0
BLOCK
  8
DIMNSIONS
  2
*G0
 70
     1
 10
0.0
 20
0.0
 30
0.0
  3
*G0
  1

  0
TEXT
  5
32
  8
DIMNSIONS
 62
     7
 10
-51.72728
 20
-11.588889999999999
 30
0.0
 40
5.6444499999999991
  1
157
 11
-51.72728
 21
-5.9444400000000002
 31
0.0
 73
     3
  0
ENDBLK
  5
33
  8
DIMNSIONS
  0
BLOCK
  8
DIMNSIONS
  2
*G1
 70
     1
 10
0.0
 20
0.0
 30
0.0
  3
*G1
  1

  0
TEXT
  5
35
  8
DIMNSIONS
 62
     7
 10
-113.27778000000001
 20
-36.588889999999999
 30
0.0
 40
5.6444499999999991
  1
31
 11
-113.27778000000001
 21
-30.94444
 31
0.0
 73
     3
  0
ENDBLK
  5
36
  8
DIMNSIONS
  0
BLOCK
  8
DIMNSIONS
  2
*G2
 70
     1
 10
0.0
 20
0.0
 30
0.0
  3
*G2
  1

  0
TEXT
  5
38
  8
DIMNSIONS
 62
     7
 10
-36.478230000000003
 20
-36.588889999999999
 30
0.0
 40
5.6444499999999991
  1
127
 11
-36.478230000000003
 21
-30.94444
 31
0.0
 73
     3
  0
ENDBLK
  5
39
  8
DIMNSIONS
  0
BLOCK
  8
DIMNSIONS
  2
*G3
 70
     1
 10
0.0
 20
0.0
 30
0.0
  3
*G3
  1

  0
TEXT
  5
3B
  8
DIMNSIONS
 62
     7
 10
121.58889000000001
 20
-77.527780000000007
 30
0.0
 40
5.6444499999999991
  1
23
 50
90.0
 11
115.9444399999999
 21
-77.527780000000007
 31
0.0
 73
     3
  0
ENDBLK
  5
3C
  8
DIMNSIONS
  0
BLOCK
  8
DIMNSIONS
  2
*G4
 70
     1
 10
0.0
 20
0.0
 30
0.0
  3
*G4
  1

  0
TEXT
  5
3E
  8
DIMNSIONS
 62
     7
 10
146.58888999999991
 20
-77.527780000000007
 30
0.0
 40
5.6444499999999991
  1
32
 50
90.0
 11
140.9444399999999
 21
-77.527780000000007
 31
0.0
 73
     3
  0
ENDBLK
  5
3F
  8
DIMNSIONS
  0
ENDSEC
  0
SECTION
  2
ENTITIES
  0
LINE
  5
40
  8
HIBINO-BASE
  6
CONTINUOUS
 62
     7
 10
-80.0
 20
403.53181999999993
 30
0.0
 11
280.0
 21
403.53181999999993
 31
0.0
  0
LINE
  5
41
  8
HIBINO-BASE
  6
CONTINUOUS
 62
     7
 10
280.0
 20
-116.46818
 30
0.0
 11
-80.0
 21
-116.46818
 31
0.0
  0
LINE
  5
42
  8
HIBINO-BASE
  6
CONTINUOUS
 62
     7
 10
-80.0
 20
-116.46818
 30
0.0
 11
-80.0
 21
403.53181999999993
 31
0.0
  0
TEXT
  5
43
  8
HIBINO-BASE
 62
     7
 10
-65.632000000000005
 20
-128.72415000000001
 30
0.0
 40
7.4851700000000001
  1
Hibino Corporation
 11
-65.632000000000005
 21
-121.23898
 31
0.0
 73
     3
  0
LINE
  5
44
  8
HIBINO-BASE
  6
CONTINUOUS
 62
     7
 10
280.0
 20
403.53181999999993
 30
0.0
 11
280.0
 21
-116.46818
 31
0.0
  0
LINE
  5
45
  8
HIBINO-BASE
  6
CONTINUOUS
 62
     7
 10
100.0
 20
-71.46817999999999
 30
0.0
 11
280.0
 21
-71.46817999999999
 31
0.0
  0
LINE
  5
46
  8
HIBINO-BASE
  6
CONTINUOUS
 62
     7
 10
100.0
 20
-116.46818
 30
0.0
 11
100.0
 21
-71.46817999999999
 31
0.0
  0
TEXT
  5
47
  8
HIBINO-BASE
 62
     7
 10
101.8
 20
-76.587490000000003
 30
0.0
 40
3.742589999999999
  1
NOTE
 11
101.8
 21
-72.844899999999996
 31
0.0
 73
     3
  0
LINE
  5
48
  8
HIBINO-BASE
  6
CONTINUOUS
 62
     7
 10
170.0
 20
-116.46818
 30
0.0
 11
170.0
 21
-71.46817999999999
 31
0.0
  0
TEXT
  5
49
  8
HIBINO-BASE
 62
     7
 10
171.80000000000001
 20
-76.587490000000003
 30
0.0
 40
3.742589999999999
  1
TITLE
 11
171.80000000000001
 21
-72.844899999999996
 31
0.0
 73
     3
  0
TEXT
  5
4A
  8
HIBINO-BASE
 62
     7
 10
200.1367799999999
 20
-128.72415000000001
 30
0.0
 40
7.4851700000000001
  1
ヒビノ株式会社
 11
200.1367799999999
 21
-121.23898
 31
0.0
 73
     3
  0
LINE
  5
4B
  8
HIBINO-BASE
  6
CONTINUOUS
 62
     7
 10
100.0
 20
-96.46817999999999
 30
0.0
 11
280.0
 21
-96.46817999999999
 31
0.0
  0
TEXT
  5
4C
  8
HIBINO-BASE
 62
     7
 10
196.80000000000001
 20
-101.47485
 30
0.0
 40
3.742589999999999
  1
DRAWN
 11
196.80000000000001
 21
-97.732260000000011
 31
0.0
 73
     3
  0
TEXT
  5
4D
  8
HIBINO-BASE
 62
     7
 10
146.80000000000001
 20
-101.47485
 30
0.0
 40
3.742589999999999
  1
DATE
 11
146.80000000000001
 21
-97.732260000000011
 31
0.0
 73
     3
  0
TEXT
  5
4E
  8
HIBINO-BASE
 62
     7
 10
102.2
 20
-101.45309
 30
0.0
 40
3.3866700000000001
  1
図面サイズ
 11
102.2
 21
-98.066419999999994
 31
0.0
 73
     3
  0
TEXT
  5
4F
  8
HIBINO-BASE
 62
     7
 10
126.8
 20
-101.47485
 30
0.0
 40
3.742589999999999
  1
SCALE
 11
126.8
 21
-97.732260000000011
 31
0.0
 73
     3
  0
TEXT
  5
50
  8
HIBINO-BASE
 62
     7
 10
171.80000000000001
 20
-101.47485
 30
0.0
 40
3.742589999999999
  1
DESIGN
 11
171.80000000000001
 21
-97.732260000000011
 31
0.0
 73
     3
  0
TEXT
  5
51
  8
HIBINO-BASE
 62
     7
 10
246.7999999999999
 20
-101.47485
 30
0.0
 40
3.742589999999999
  1
DRAWING NO.
 11
246.7999999999999
 21
-97.732260000000011
 31
0.0
 73
     3
  0
TEXT
  5
52
  8
HIBINO-BASE
 62
     7
 10
221.7999999999999
 20
-101.47485
 30
0.0
 40
3.742589999999999
  1
CHECK
 11
221.7999999999999
 21
-97.732260000000011
 31
0.0
 73
     3
  0
LINE
  5
53
  8
HIBINO-BASE
  6
CONTINUOUS
 62
     7
 10
128.75
 20
-113.9681799999999
 30
0.0
 11
136.25
 21
-106.46818
 31
0.0
  0
TEXT
  5
54
  8
HIBINO-BASE
 62
     7
 10
127.5
 20
-109.56095000000001
 30
0.0
 40
4.5155500000000002
  1
1
 11
127.5
 21
-105.0453999999999
 31
0.0
 73
     3
  0
LINE
  5
55
  8
HIBINO-BASE
  6
CONTINUOUS
 62
     7
 10
125.0
 20
-116.46818
 30
0.0
 11
125.0
 21
-96.46817999999999
 31
0.0
  0
LINE
  5
56
  8
HIBINO-BASE
  6
CONTINUOUS
 62
     7
 10
145.0
 20
-116.46818
 30
0.0
 11
145.0
 21
-96.46817999999999
 31
0.0
  0
LINE
  5
57
  8
HIBINO-BASE
  6
CONTINUOUS
 62
     7
 10
195.0
 20
-96.46817999999999
 30
0.0
 11
195.0
 21
-116.46818
 31
0.0
  0
LINE
  5
58
  8
HIBINO-BASE
  6
CONTINUOUS
 62
     7
 10
245.0
 20
-96.46817999999999
 30
0.0
 11
245.0
 21
-116.46818
 31
0.0
  0
LINE
  5
59
  8
HIBINO-BASE
  6
CONTINUOUS
 62
     7
 10
220.0
 20
-116.46818
 30
0.0
 11
220.0
 21
-96.46817999999999
 31
0.0
  0
TEXT
  5
5A
  8
HIBINO-BASE
 62
     7
 10
107.82178
 20
-110.96326999999999
 30
0.0
 40
6.7733299999999987
  1
A4
 11
107.82178
 21
-104.18994000000001
 31
0.0
 73
     3
  0
TEXT
  5
5B
  8
HIBINO-BASE
 62
     7
 10
145.71307999999991
 20
-110.84281
 30
0.0
 40
3.742589999999999
  1
'00.11.20.
 11
145.71307999999991
 21
-107.10021999999999
 31
0.0
 73
     3
  0
TEXT
  5
5C
  8
HIBINO-BASE
 62
     7
 10
135.0
 20
-113.31094999999991
 30
0.0
 40
4.5155500000000002
  1
2
 11
135.0
 21
-108.7954
 31
0.0
 73
     3
  0
LINE
  5
5D
  8
PATTERN_FILL
  6
CONTINUOUS
 62
     7
 10
-24.5
 20
76.75
 30
0.0
 11
-21.845369999999999
 21
74.095370000000003
 31
0.0
  0
LINE
  5
5E
  8
PATTERN_FILL
  6
CONTINUOUS
 62
     7
 10
-25.0
 20
75.25
 30
0.0
 11
-22.540749999999999
 21
72.790750000000003
 31
0.0
  0
LINE
  5
5F
  8
PATTERN_FILL
  6
CONTINUOUS
 62
     7
 10
-25.0
 20
73.25
 30
0.0
 11
-21.845369999999999
 21
70.095370000000003
 31
0.0
  0
LINE
  5
60
  8
PATTERN_FILL
  6
CONTINUOUS
 62
     7
 10
-25.0
 20
71.25
 30
0.0
 11
-22.705719999999999
 21
68.955719999999999
 31
0.0
  0
LINE
  5
61
  8
PATTERN_FILL
  6
CONTINUOUS
 62
     7
 10
-25.0
 20
69.25
 30
0.0
 11
-21.845369999999999
 21
66.095370000000003
 31
0.0
  0
LINE
  5
62
  8
PATTERN_FILL
  6
CONTINUOUS
 62
     7
 10
-25.0
 20
67.25
 30
0.0
 11
-22.705719999999999
 21
64.955719999999999
 31
0.0
  0
LINE
  5
63
  8
PATTERN_FILL
  6
CONTINUOUS
 62
     7
 10
-25.0
 20
65.25
 30
0.0
 11
-21.845369999999999
 21
62.095370000000003
 31
0.0
  0
LINE
  5
64
  8
PATTERN_FILL
  6
CONTINUOUS
 62
     7
 10
-25.0
 20
63.25
 30
0.0
 11
-22.176439999999989
 21
60.426439999999999
 31
0.0
  0
LINE
  5
65
  8
PATTERN_FILL
  6
CONTINUOUS
 62
     7
 10
-24.5
 20
60.75
 30
0.0
 11
-21.845369999999999
 21
58.095370000000003
 31
0.0
  0
LINE
  5
66
  8
PATTERN_FILL
  6
CONTINUOUS
 62
     7
 10
-25.0
 20
59.25
 30
0.0
 11
-22.415749999999999
 21
56.665750000000003
 31
0.0
  0
LINE
  5
67
  8
PATTERN_FILL
  6
CONTINUOUS
 62
     7
 10
-25.0
 20
58.113100000000003
 30
0.0
 11
-21.845369999999999
 21
61.26773
 31
0.0
  0
LINE
  5
68
  8
PATTERN_FILL
  6
CONTINUOUS
 62
     7
 10
-25.0
 20
60.489800000000002
 30
0.0
 11
-22.5
 21
63.0
 31
0.0
  0
LINE
  5
69
  8
PATTERN_FILL
  6
CONTINUOUS
 62
     7
 10
-25.0
 20
62.866500000000002
 30
0.0
 11
-21.845369999999999
 21
66.021129999999999
 31
0.0
  0
LINE
  5
6A
  8
PATTERN_FILL
  6
CONTINUOUS
 62
     7
 10
-25.0
 20
65.243200000000002
 30
0.0
 11
-22.953579999999999
 21
67.289619999999999
 31
0.0
  0
LINE
  5
6B
  8
PATTERN_FILL
  6
CONTINUOUS
 62
     7
 10
-25.0
 20
67.619900000000001
 30
0.0
 11
-21.845369999999999
 21
70.774529999999999
 31
0.0
  0
LINE
  5
6C
  8
PATTERN_FILL
  6
CONTINUOUS
 62
     7
 10
-25.0
 20
69.996600000000001
 30
0.0
 11
-22.618809999999989
 21
72.377790000000005
 31
0.0
  0
LINE
  5
6D
  8
PATTERN_FILL
  6
CONTINUOUS
 62
     7
 10
-25.0
 20
72.3733
 30
0.0
 11
-22.255309999999991
 21
75.117990000000006
 31
0.0
  0
LINE
  5
6E
  8
PATTERN_FILL
  6
CONTINUOUS
 62
     7
 10
-25.0
 20
74.75
 30
0.0
 11
-23.0
 21
76.75
 31
0.0
  0
LINE
  5
6F
  8
PATTERN_FILL
  6
CONTINUOUS
 62
     7
 10
-25.0
 20
57.25
 30
0.0
 11
-23.0
 21
55.25
 31
0.0
  0
LINE
  5
70
  8
PATTERN_FILL
  6
CONTINUOUS
 62
     7
 10
-25.0
 20
55.73640000000001
 30
0.0
 11
-21.845369999999999
 21
58.891030000000001
 31
0.0
  0
LINE
  5
71
  8
PATTERN_FILL
  6
CONTINUOUS
 62
     7
 10
-23.0
 20
55.25
 30
0.0
 11
-22.42171999999999
 21
55.937979999999989
 31
0.0
  0
LINE
  5
72
  8
SPEC
  6
CONTINUOUS
 62
     7
 10
-65.0
 20
383.53181999999998
 30
0.0
 11
260.0
 21
383.53181999999998
 31
0.0
  0
LINE
  5
73
  8
SPEC
  6
CONTINUOUS
 62
     7
 10
-65.0
 20
376.03181999999998
 30
0.0
 11
260.0
 21
376.03181999999998
 31
0.0
  0
LINE
  5
74
  8
SPEC
  6
CONTINUOUS
 62
     7
 10
-65.0
 20
346.03181999999998
 30
0.0
 11
260.0
 21
346.03181999999998
 31
0.0
  0
LINE
  5
75
  8
SPEC
  6
CONTINUOUS
 62
     7
 10
-65.0
 20
353.53181999999998
 30
0.0
 11
260.0
 21
353.53181999999998
 31
0.0
  0
LINE
  5
76
  8
SPEC
  6
CONTINUOUS
 62
     7
 10
-65.0
 20
361.03181999999998
 30
0.0
 11
260.0
 21
361.03181999999998
 31
0.0
  0
LINE
  5
77
  8
SPEC
  6
CONTINUOUS
 62
     7
 10
-65.0
 20
368.53181999999998
 30
0.0
 11
260.0
 21
368.53181999999998
 31
0.0
  0
TEXT
  5
78
  8
SPEC
 62
     7
 10
1.799999999999996
 20
377.904
 30
0.0
 40
3.9510999999999989
  1
ダイナミック型
 11
1.7999999999999969
 21
381.85509999999988
 31
0.0
 73
     3
  0
LINE
  5
79
  8
SPEC
  6
CONTINUOUS
 62
     7
 10
-65.0
 20
383.53181999999998
 30
0.0
 11
-65.0
 21
316.03181999999998
 31
0.0
  0
TEXT
  5
7A
  8
SPEC
 62
     7
 10
-62.5
 20
386.69936000000001
 30
0.0
 40
5.0800000000000001
  1
仕様
 11
-62.5
 21
391.77935999999988
 31
0.0
 73
     3
  0
LINE
  5
7B
  8
SPEC
  6
CONTINUOUS
 62
     7
 10
0.0
 20
383.53181999999998
 30
0.0
 11
0.0
 21
316.03181999999998
 31
0.0
  0
LINE
  5
7C
  8
SPEC
  6
CONTINUOUS
 62
     7
 10
260.0
 20
383.53181999999998
 30
0.0
 11
260.0
 21
316.03181999999998
 31
0.0
  0
TEXT
  5
7D
  8
SPEC
 62
     7
 10
-63.199999999999989
 20
347.90399999999988
 30
0.0
 40
3.9510999999999989
  1
インピーダンス
 11
-63.199999999999989
 21
351.85509999999988
 31
0.0
 73
     3
  0
TEXT
  5
7E
  8
SPEC
 62
     7
 10
-63.199999999999989
 20
377.904
 30
0.0
 40
3.9510999999999989
  1
形式
 11
-63.199999999999989
 21
381.85509999999988
 31
0.0
 73
     3
  0
TEXT
  5
7F
  8
SPEC
 62
     7
 10
-63.199999999999989
 20
355.404
 30
0.0
 40
3.9510999999999989
  1
出力レベル(@1kHz)
 11
-63.199999999999989
 21
359.35509999999999
 31
0.0
 73
     3
  0
TEXT
  5
80
  8
SPEC
 62
     7
 10
-63.199999999999989
 20
340.404
 30
0.0
 40
3.9510999999999989
  1
外装
 11
-63.199999999999989
 21
344.35509999999988
 31
0.0
 73
     3
  0
TEXT
  5
81
  8
SPEC
 62
     7
 10
-63.199999999999989
 20
370.40399999999988
 30
0.0
 40
3.9510999999999989
  1
周波数特性
 11
-63.199999999999989
 21
374.35509999999999
 31
0.0
 73
     3
  0
TEXT
  5
82
  8
SPEC
 62
     7
 10
-63.199999999999989
 20
362.90399999999988
 30
0.0
 40
3.9510999999999989
  1
指向特性
 11
-63.199999999999989
 21
366.85509999999988
 31
0.0
 73
     3
  0
TEXT
  5
83
  8
SPEC
 62
     7
 10
1.799999999999996
 20
347.90399999999988
 30
0.0
 40
3.9510999999999989
  1
150Ω(310Ω実効)
 11
1.7999999999999969
 21
351.85509999999988
 31
0.0
 73
     3
  0
TEXT
  5
84
  8
SPEC
 62
     7
 10
1.799999999999996
 20
355.46262999999988
 30
0.0
 40
3.892469999999999
  1
開放端電圧 -54.5dBV/Pa* (1.9mV)　*1Pa=94dB SPL
 11
1.7999999999999969
 21
359.35509999999999
 31
0.0
 73
     3
  0
TEXT
  5
85
  8
SPEC
 62
     7
 10
1.799999999999996
 20
340.404
 30
0.0
 40
3.9510999999999989
  1
ダイキャストスチール､ダークグレーエナメル塗装､ポリカーボネイトグリル､ステンレススチールスクリーン
 11
1.7999999999999969
 21
344.35509999999988
 31
0.0
 73
     3
  0
TEXT
  5
86
  8
SPEC
 62
     7
 10
1.799999999999996
 20
362.90399999999988
 30
0.0
 40
3.9510999999999989
  1
単一指向性(カーディオイド)
 11
1.7999999999999969
 21
366.85509999999988
 31
0.0
 73
     3
  0
TEXT
  5
87
  8
SPEC
 62
     7
 10
1.799999999999996
 20
370.40399999999988
 30
0.0
 40
3.9510999999999989
  1
40Hz～15kHz
 11
1.7999999999999969
 21
374.35509999999999
 31
0.0
 73
     3
  0
LINE
  5
88
  8
SPEC
  6
CONTINUOUS
 62
     7
 10
-65.0
 20
331.03181999999998
 30
0.0
 11
260.0
 21
331.03181999999998
 31
0.0
  0
LINE
  5
89
  8
SPEC
  6
CONTINUOUS
 62
     7
 10
-65.0
 20
316.03181999999998
 30
0.0
 11
260.0
 21
316.03181999999998
 31
0.0
  0
LINE
  5
8A
  8
SPEC
  6
CONTINUOUS
 62
     7
 10
-65.0
 20
323.53181999999998
 30
0.0
 11
260.0
 21
323.53181999999998
 31
0.0
  0
TEXT
  5
8B
  8
SPEC
 62
     7
 10
-63.199999999999989
 20
317.80399999999992
 30
0.0
 40
3.9510999999999989
  1
重量
 11
-63.199999999999989
 21
321.75509999999991
 31
0.0
 73
     3
  0
TEXT
  5
8C
  8
SPEC
 62
     7
 10
1.799999999999996
 20
325.40399999999988
 30
0.0
 40
3.9510999999999989
  1
φ32×157mm
 11
1.7999999999999969
 21
329.35509999999988
 31
0.0
 73
     3
  0
TEXT
  5
8D
  8
SPEC
 62
     7
 10
1.799999999999996
 20
317.80399999999992
 30
0.0
 40
3.9510999999999989
  1
約284g
 11
1.7999999999999969
 21
321.75509999999991
 31
0.0
 73
     3
  0
TEXT
  5
8E
  8
SPEC
 62
     7
 10
-63.199999999999989
 20
325.61959999999999
 30
0.0
 40
3.9510999999999989
  1
寸法
 11
-63.199999999999989
 21
329.57069999999999
 31
0.0
 73
     3
  0
LINE
  5
8F
  8
SPEC
  6
CONTINUOUS
 62
     7
 10
-65.0
 20
338.53181999999998
 30
0.0
 11
260.0
 21
338.53181999999998
 31
0.0
  0
TEXT
  5
90
  8
SPEC
 62
     7
 10
1.799999999999996
 20
332.90399999999988
 30
0.0
 40
3.9510999999999989
  1
XLR3ピン オス
 11
1.7999999999999969
 21
336.85509999999999
 31
0.0
 73
     3
  0
TEXT
  5
91
  8
SPEC
 62
     7
 10
-63.199999999999989
 20
333.11959999999988
 30
0.0
 40
3.9510999999999989
  1
出力コネクター
 11
-63.199999999999989
 21
337.07069999999987
 31
0.0
 73
     3
  0
TEXT
  5
92
  8
DIMNSIONS
 62
     7
 10
60.0
 20
-91.548199999999994
 30
0.0
 40
5.0800000000000001
  1
(単位：mm)
 11
60.0
 21
-86.468199999999996
 31
0.0
 73
     3
  0
LINE
  5
93
  8
DIMNSIONS
  6
CONTINUOUS
 62
     7
 10
-25.0
 20
80.25
 30
0.0
 11
-25.0
 21
129.0
 31
0.0
  0
LINE
  5
94
  8
DIMNSIONS
  6
CONTINUOUS
 62
     7
 10
132.12879000000001
 20
79.25
 30
0.0
 11
132.12879000000001
 21
129.0
 31
0.0
  0
LINE
  5
96
  8
DIMNSIONS
 62
     7
 10
-25.0
 20
125.0
 30
0.0
 11
-18.650009999999991
 21
126.70147
 31
0.0
  0
LINE
  5
97
  8
DIMNSIONS
 62
     7
 10
-25.0
 20
125.0
 30
0.0
 11
-18.650009999999991
 21
123.2985199999999
 31
0.0
  0
LINE
  5
98
  8
DIMNSIONS
 62
     7
 10
132.12879000000001
 20
125.0
 30
0.0
 11
125.77879
 21
123.2985199999999
 31
0.0
  0
LINE
  5
99
  8
DIMNSIONS
 62
     7
 10
132.12879000000001
 20
125.0
 30
0.0
 11
125.77879
 21
126.70147
 31
0.0
  0
LINE
  5
95
  8
DIMNSIONS
  6
CONTINUOUS
 62
     7
 10
-25.0
 20
125.0
 30
0.0
 11
132.12879000000001
 21
125.0
 31
0.0
  0
INSERT
  5
9A
  8
DIMNSIONS
  2
*G0
 10
100.0
 20
140.0
 30
0.0
  0
LINE
  5
9B
  8
DIMNSIONS
  6
CONTINUOUS
 62
     7
 10
-25.0
 20
80.25
 30
0.0
 11
-25.0
 21
104.0
 31
0.0
  0
LINE
  5
9C
  8
DIMNSIONS
  6
CONTINUOUS
 62
     7
 10
5.5
 20
86.0
 30
0.0
 11
5.5
 21
104.0
 31
0.0
  0
LINE
  5
9E
  8
DIMNSIONS
 62
     7
 10
-25.0
 20
100.0
 30
0.0
 11
-18.650009999999991
 21
101.70147
 31
0.0
  0
LINE
  5
9F
  8
DIMNSIONS
 62
     7
 10
-25.0
 20
100.0
 30
0.0
 11
-18.650009999999991
 21
98.298519999999996
 31
0.0
  0
LINE
  5
A0
  8
DIMNSIONS
 62
     7
 10
5.5
 20
100.0
 30
0.0
 11
-0.8499999999999943
 21
98.298519999999996
 31
0.0
  0
LINE
  5
A1
  8
DIMNSIONS
 62
     7
 10
5.5
 20
100.0
 30
0.0
 11
-0.8499999999999943
 21
101.70147
 31
0.0
  0
LINE
  5
9D
  8
DIMNSIONS
  6
CONTINUOUS
 62
     7
 10
-25.0
 20
100.0
 30
0.0
 11
5.5
 21
100.0
 31
0.0
  0
INSERT
  5
A2
  8
DIMNSIONS
  2
*G1
 10
100.0
 20
140.0
 30
0.0
  0
LINE
  5
A3
  8
DIMNSIONS
  6
CONTINUOUS
 62
     7
 10
5.5
 20
86.0
 30
0.0
 11
5.5
 21
104.0
 31
0.0
  0
LINE
  5
A4
  8
DIMNSIONS
  6
CONTINUOUS
 62
     7
 10
132.12688
 20
80.209519999999983
 30
0.0
 11
132.12688
 21
104.0
 31
0.0
  0
LINE
  5
A6
  8
DIMNSIONS
 62
     7
 10
5.5
 20
100.0
 30
0.0
 11
11.84999
 21
101.70147
 31
0.0
  0
LINE
  5
A7
  8
DIMNSIONS
 62
     7
 10
5.5
 20
100.0
 30
0.0
 11
11.84999
 21
98.298519999999996
 31
0.0
  0
LINE
  5
A8
  8
DIMNSIONS
 62
     7
 10
132.12688
 20
100.0
 30
0.0
 11
125.77688000000001
 21
98.298519999999996
 31
0.0
  0
LINE
  5
A9
  8
DIMNSIONS
 62
     7
 10
132.12688
 20
100.0
 30
0.0
 11
125.77688000000001
 21
101.70147
 31
0.0
  0
LINE
  5
A5
  8
DIMNSIONS
  6
CONTINUOUS
 62
     7
 10
5.5
 20
100.0
 30
0.0
 11
132.12688
 21
100.0
 31
0.0
  0
INSERT
  5
AA
  8
DIMNSIONS
  2
*G2
 10
100.0
 20
140.0
 30
0.0
  0
LINE
  5
AB
  8
DIMNSIONS
  6
CONTINUOUS
 62
     7
 10
195.0
 20
77.5
 30
0.0
 11
229.0
 21
77.5
 31
0.0
  0
LINE
  5
AC
  8
DIMNSIONS
  6
CONTINUOUS
 62
     7
 10
195.0
 20
54.5
 30
0.0
 11
229.0
 21
54.5
 31
0.0
  0
LINE
  5
AE
  8
DIMNSIONS
 62
     7
 10
225.0
 20
77.5
 30
0.0
 11
226.70147
 21
71.150000000000006
 31
0.0
  0
LINE
  5
AF
  8
DIMNSIONS
 62
     7
 10
225.0
 20
77.5
 30
0.0
 11
223.29851999999991
 21
71.150000000000006
 31
0.0
  0
LINE
  5
B0
  8
DIMNSIONS
 62
     7
 10
225.0
 20
54.5
 30
0.0
 11
223.29851999999991
 21
60.849989999999998
 31
0.0
  0
LINE
  5
B1
  8
DIMNSIONS
 62
     7
 10
225.0
 20
54.5
 30
0.0
 11
226.70147
 21
60.849989999999998
 31
0.0
  0
LINE
  5
AD
  8
DIMNSIONS
  6
CONTINUOUS
 62
     7
 10
225.0
 20
77.5
 30
0.0
 11
225.0
 21
54.5
 31
0.0
  0
INSERT
  5
B2
  8
DIMNSIONS
  2
*G3
 10
100.0
 20
140.0
 30
0.0
  0
LINE
  5
B3
  8
DIMNSIONS
  6
CONTINUOUS
 62
     7
 10
195.0
 20
82.0
 30
0.0
 11
254.0
 21
82.0
 31
0.0
  0
LINE
  5
B4
  8
DIMNSIONS
  6
CONTINUOUS
 62
     7
 10
195.0
 20
50.0
 30
0.0
 11
254.0
 21
50.0
 31
0.0
  0
LINE
  5
B6
  8
DIMNSIONS
 62
     7
 10
250.0
 20
82.0
 30
0.0
 11
251.70147
 21
75.650000000000006
 31
0.0
  0
LINE
  5
B7
  8
DIMNSIONS
 62
     7
 10
250.0
 20
82.0
 30
0.0
 11
248.29851999999991
 21
75.650000000000006
 31
0.0
  0
LINE
  5
B8
  8
DIMNSIONS
 62
     7
 10
250.0
 20
50.0
 30
0.0
 11
248.29851999999991
 21
56.349989999999998
 31
0.0
  0
LINE
  5
B9
  8
DIMNSIONS
 62
     7
 10
250.0
 20
50.0
 30
0.0
 11
251.70147
 21
56.349989999999998
 31
0.0
  0
LINE
  5
B5
  8
DIMNSIONS
  6
CONTINUOUS
 62
     7
 10
250.0
 20
82.0
 30
0.0
 11
250.0
 21
50.0
 31
0.0
  0
INSERT
  5
BA
  8
DIMNSIONS
  2
*G4
 10
100.0
 20
140.0
 30
0.0
  0
TEXT
  5
BB
  8
DATA
 62
     7
 10
194.1999999999999
 20
-79.325399999999988
 30
0.0
 40
5.0800000000000001
  1
SHURE
 11
194.1999999999999
 21
-74.245399999999989
 31
0.0
 73
     3
  0
TEXT
  5
BC
  8
DATA
 62
     7
 10
194.1999999999999
 20
-85.206309999999988
 30
0.0
 40
3.3866700000000001
  1
ダイナミック型・単一指向性マイクロホン
 11
194.1999999999999
 21
-81.819639999999978
 31
0.0
 73
     3
  0
TEXT
  5
BD
  8
DATA
 62
     7
 10
194.1999999999999
 20
-93.31483999999999
 30
0.0
 40
5.0800000000000001
  1
SM57-LCE
 11
194.1999999999999
 21
-88.234839999999977
 31
0.0
 73
     3
  0
LINE
  5
BE
  8
DATA
  6
CONTINUOUS
 62
     7
 10
132.12572
 20
76.794280000000001
 30
0.0
 11
132.16801000000001
 21
55.501989999999999
 31
0.0
  0
LINE
  5
BF
  8
DATA
  6
CONTINUOUS
 62
     7
 10
38.0
 20
82.0
 30
0.0
 11
38.0
 21
50.0
 31
0.0
  0
CIRCLE
  5
C0
  8
DATA
  6
CONTINUOUS
 62
     7
 10
191.0
 20
66.0
 30
0.0
 40
11.5
  0
CIRCLE
  5
C1
  8
DATA
  6
CONTINUOUS
 62
     7
 10
191.0
 20
70.200000000000003
 30
0.0
 40
1.25
  0
CIRCLE
  5
C2
  8
DATA
  6
CONTINUOUS
 62
     7
 10
195.1999999999999
 20
66.0
 30
0.0
 40
1.25
  0
CIRCLE
  5
C3
  8
DATA
  6
CONTINUOUS
 62
     7
 10
191.0
 20
61.79999999999999
 30
0.0
 40
1.25
  0
LINE
  5
C4
  8
DATA
  6
CONTINUOUS
 62
     7
 10
186.40662
 20
72.703559999999996
 30
0.0
 11
185.69952000000001
 21
73.410659999999993
 31
0.0
  0
LINE
  5
C5
  8
DATA
  6
CONTINUOUS
 62
     7
 10
184.28530000000001
 20
70.582239999999999
 30
0.0
 11
183.5781999999999
 21
71.289339999999996
 31
0.0
  0
LINE
  5
C6
  8
DATA
  6
CONTINUOUS
 62
     7
 10
183.5781999999999
 20
71.289339999999996
 30
0.0
 11
185.69952000000001
 21
73.410659999999993
 31
0.0
  0
ARC
  5
C7
  8
DATA
  6
CONTINUOUS
 62
     7
 10
191.0
 20
66.0
 30
0.0
 40
8.0
 50
145.689595916733
 51
124.4195428246199
  0
CIRCLE
  5
C8
  8
DATA
  6
CONTINUOUS
 62
     7
 10
115.67
 20
66.0
 30
0.0
 40
1.8999999999999999
  0
ARC
  5
C9
  8
DATA
  6
CONTINUOUS
 62
     7
 10
129.90000000000001
 20
68.25
 30
0.0
 40
1.0
 50
0.0
 51
180.0
  0
ARC
  5
CA
  8
DATA
  6
CONTINUOUS
 62
     7
 10
129.90000000000001
 20
63.75
 30
0.0
 40
1.0
 50
180.0
 51
0.0
  0
LINE
  5
CB
  8
DATA
  6
CONTINUOUS
 62
     7
 10
128.90000000000001
 20
68.25
 30
0.0
 11
128.90000000000001
 21
63.75
 31
0.0
  0
LINE
  5
CC
  8
DATA
  6
CONTINUOUS
 62
     7
 10
130.90000000000001
 20
68.25
 30
0.0
 11
130.90000000000001
 21
63.75
 31
0.0
  0
POLYLINE
  5
CD
  8
DATA
  6
CONTINUOUS
 62
     7
 66
     1
 10
0.0
 20
0.0
 30
0.0
 70
   128
  0
VERTEX
  5
189
  8
DATA
  6
CONTINUOUS
 62
     7
 10
38.0
 20
50.0
 30
0.0
  0
VERTEX
  5
18A
  8
DATA
  6
CONTINUOUS
 62
     7
 10
97.529780000000002
 20
54.5
 30
0.0
  0
VERTEX
  5
18B
  8
DATA
  6
CONTINUOUS
 62
     7
 10
131.16801000000001
 20
54.5
 30
0.0
  0
SEQEND
  5
18C
  8
DATA
  6
CONTINUOUS
 62
     7
  0
POLYLINE
  5
D2
  8
DATA
  6
CONTINUOUS
 62
     7
 66
     1
 10
0.0
 20
0.0
 30
0.0
 70
   128
  0
VERTEX
  5
18D
  8
DATA
  6
CONTINUOUS
 62
     7
 10
38.0
 20
82.0
 30
0.0
  0
VERTEX
  5
18E
  8
DATA
  6
CONTINUOUS
 62
     7
 10
97.719080000000005
 20
77.455719999999999
 30
0.0
  0
VERTEX
  5
18F
  8
DATA
  6
CONTINUOUS
 62
     7
 10
131.46428
 20
77.455719999999999
 30
0.0
  0
SEQEND
  5
190
  8
DATA
  6
CONTINUOUS
 62
     7
  0
ARC
  5
D7
  8
DATA
  6
CONTINUOUS
 62
     7
 10
131.16999999999999
 20
76.5
 30
0.0
 40
1.0
 50
0.0
 51
90.0
  0
ARC
  5
D8
  8
DATA
  6
CONTINUOUS
 62
     7
 10
131.16801000000001
 20
55.5
 30
0.0
 40
1.0
 50
270.0
 51
0.1140184507230515
  0
LINE
  5
D9
  8
DATA
  6
CONTINUOUS
 62
     7
 10
37.0
 20
82.0
 30
0.0
 11
37.0
 21
50.0
 31
0.0
  0
LINE
  5
DA
  8
DATA
  6
CONTINUOUS
 62
     7
 10
5.5
 20
82.0
 30
0.0
 11
5.5
 21
50.0
 31
0.0
  0
LINE
  5
DB
  8
DATA
  6
CONTINUOUS
 62
     7
 10
5.5
 20
82.0
 30
0.0
 11
37.0
 21
82.0
 31
0.0
  0
LINE
  5
DC
  8
DATA
  6
CONTINUOUS
 62
     7
 10
5.5
 20
50.0
 30
0.0
 11
37.0
 21
50.0
 31
0.0
  0
LINE
  5
DD
  8
DATA
  6
CONTINUOUS
 62
     7
 10
37.5
 20
81.5
 30
0.0
 11
38.0
 21
82.0
 31
0.0
  0
LINE
  5
DE
  8
DATA
  6
CONTINUOUS
 62
     7
 10
37.0
 20
50.0
 30
0.0
 11
37.5
 21
50.5
 31
0.0
  0
LINE
  5
DF
  8
DATA
  6
CONTINUOUS
 62
     7
 10
37.0
 20
82.0
 30
0.0
 11
37.5
 21
81.5
 31
0.0
  0
LINE
  5
E0
  8
DATA
  6
CONTINUOUS
 62
     7
 10
37.5
 20
50.5
 30
0.0
 11
38.0
 21
50.0
 31
0.0
  0
LINE
  5
E1
  8
DATA
  6
CONTINUOUS
 62
     7
 10
4.5
 20
51.75
 30
0.0
 11
4.5
 21
80.25
 31
0.0
  0
LINE
  5
E2
  8
DATA
  6
CONTINUOUS
 62
     7
 10
2.0
 20
80.750000000000014
 30
0.0
 11
2.0
 21
51.25
 31
0.0
  0
LINE
  5
E3
  8
DATA
  6
CONTINUOUS
 62
     7
 10
-23.0
 20
68.5
 30
0.0
 11
-23.0
 21
67.5
 31
0.0
  0
LINE
  5
E4
  8
DATA
  6
CONTINUOUS
 62
     7
 10
-25.0
 20
76.25
 30
0.0
 11
-25.0
 21
55.75
 31
0.0
  0
LINE
  5
E5
  8
DATA
  6
CONTINUOUS
 62
     7
 10
-21.860079999999989
 20
80.811620000000005
 30
0.0
 11
-4.5
 21
81.75
 31
0.0
  0
LINE
  5
E6
  8
DATA
  6
CONTINUOUS
 62
     7
 10
-21.860079999999989
 20
51.188380000000002
 30
0.0
 11
-4.5
 21
50.25
 31
0.0
  0
LINE
  5
E7
  8
DATA
  6
CONTINUOUS
 62
     7
 10
-24.5
 20
76.75
 30
0.0
 11
-21.845369999999999
 21
76.75
 31
0.0
  0
LINE
  5
E8
  8
DATA
  6
CONTINUOUS
 62
     7
 10
-24.5
 20
55.25
 30
0.0
 11
-21.845369999999999
 21
55.25
 31
0.0
  0
LINE
  5
E9
  8
DATA
  6
CONTINUOUS
 62
     7
 10
4.5
 20
80.25
 30
0.0
 11
5.5
 21
80.25
 31
0.0
  0
LINE
  5
EA
  8
DATA
  6
CONTINUOUS
 62
     7
 10
4.5
 20
51.75
 30
0.0
 11
5.5
 21
51.75
 31
0.0
  0
LINE
  5
EB
  8
DATA
  6
CONTINUOUS
 62
     7
 10
3.5
 20
80.25
 30
0.0
 11
2.0
 21
80.25
 31
0.0
  0
LINE
  5
EC
  8
DATA
  6
CONTINUOUS
 62
     7
 10
3.5
 20
51.75
 30
0.0
 11
2.0
 21
51.75
 31
0.0
  0
ARC
  5
ED
  8
DATA
  6
CONTINUOUS
 62
     7
 10
3.5
 20
52.75
 30
0.0
 40
1.0
 50
270.0
 51
0.0
  0
ARC
  5
EE
  8
DATA
  6
CONTINUOUS
 62
     7
 10
3.5
 20
79.25
 30
0.0
 40
1.0
 50
0.0
 51
90.0
  0
LINE
  5
EF
  8
DATA
  6
CONTINUOUS
 62
     7
 10
-4.5
 20
81.75
 30
0.0
 11
-4.5
 21
50.25
 31
0.0
  0
LINE
  5
F0
  8
DATA
  6
CONTINUOUS
 62
     7
 10
-4.5
 20
81.75
 30
0.0
 11
1.0
 21
81.75
 31
0.0
  0
LINE
  5
F1
  8
DATA
  6
CONTINUOUS
 62
     7
 10
-4.5
 20
50.25
 30
0.0
 11
1.0
 21
50.25
 31
0.0
  0
ARC
  5
F2
  8
DATA
  6
CONTINUOUS
 62
     7
 10
1.0
 20
80.750000000000014
 30
0.0
 40
1.0
 50
0.0
 51
90.0
  0
ARC
  5
F3
  8
DATA
  6
CONTINUOUS
 62
     7
 10
1.0
 20
51.25
 30
0.0
 40
1.0
 50
270.0
 51
0.0
  0
LINE
  5
F4
  8
DATA
  6
CONTINUOUS
 62
     7
 10
-8.0
 20
50.459199999999989
 30
0.0
 11
-8.0
 21
50.439189999999989
 31
0.0
  0
LINE
  5
F5
  8
DATA
  6
CONTINUOUS
 62
     7
 10
-8.0
 20
51.897109999999991
 30
0.0
 11
-8.0
 21
51.5
 31
0.0
  0
LINE
  5
F6
  8
DATA
  6
CONTINUOUS
 62
     7
 10
-8.0
 20
55.038469999999997
 30
0.0
 11
-8.0
 21
53.0
 31
0.0
  0
LINE
  5
F7
  8
DATA
  6
CONTINUOUS
 62
     7
 10
-8.0
 20
59.0
 30
0.0
 11
-8.0
 21
56.022739999999999
 31
0.0
  0
LINE
  5
F8
  8
DATA
  6
CONTINUOUS
 62
     7
 10
-8.0
 20
63.0
 30
0.0
 11
-8.0
 21
60.0
 31
0.0
  0
LINE
  5
F9
  8
DATA
  6
CONTINUOUS
 62
     7
 10
-8.0
 20
67.0
 30
0.0
 11
-8.0
 21
65.0
 31
0.0
  0
LINE
  5
FA
  8
DATA
  6
CONTINUOUS
 62
     7
 10
-8.0
 20
72.0
 30
0.0
 11
-8.0
 21
69.0
 31
0.0
  0
LINE
  5
FB
  8
DATA
  6
CONTINUOUS
 62
     7
 10
-8.0
 20
75.977260000000001
 30
0.0
 11
-8.0
 21
73.0
 31
0.0
  0
LINE
  5
FC
  8
DATA
  6
CONTINUOUS
 62
     7
 10
-8.0
 20
79.125460000000004
 30
0.0
 11
-8.0
 21
76.959450000000004
 31
0.0
  0
LINE
  5
FD
  8
DATA
  6
CONTINUOUS
 62
     7
 10
-8.0147099999999938
 20
80.560020000000009
 30
0.0
 11
-8.0
 21
80.081420000000008
 31
0.0
  0
LINE
  5
FE
  8
DATA
  6
CONTINUOUS
 62
     7
 10
-8.0
 20
81.560810000000004
 30
0.0
 11
-8.0
 21
81.515979999999985
 31
0.0
  0
LINE
  5
FF
  8
DATA
  6
CONTINUOUS
 62
     7
 10
-8.0
 20
67.0
 30
0.0
 11
-22.5
 21
67.0
 31
0.0
  0
LINE
  5
100
  8
DATA
  6
CONTINUOUS
 62
     7
 10
-8.0
 20
69.0
 30
0.0
 11
-22.5
 21
69.0
 31
0.0
  0
LINE
  5
101
  8
DATA
  6
CONTINUOUS
 62
     7
 10
-8.0
 20
65.0
 30
0.0
 11
-22.5
 21
65.0
 31
0.0
  0
LINE
  5
102
  8
DATA
  6
CONTINUOUS
 62
     7
 10
-8.0
 20
63.0
 30
0.0
 11
-22.5
 21
63.0
 31
0.0
  0
TEXT
  5
103
  8
DATA
 62
     7
 10
0.4705900000000041
 20
58.5
 30
0.0
 40
4.7999999999999989
  1
SHURE
 50
90.0
 11
-4.3294099999999949
 21
58.5
 31
0.0
 73
     3
  0
LINE
  5
104
  8
DATA
  6
CONTINUOUS
 62
     7
 10
-21.845369999999999
 20
76.228859999999997
 30
0.0
 11
-8.0
 21
76.977260000000001
 31
0.0
  0
LINE
  5
105
  8
DATA
  6
CONTINUOUS
 62
     7
 10
-22.339479999999991
 20
75.202160000000006
 30
0.0
 11
-8.0
 21
75.977260000000001
 31
0.0
  0
LINE
  5
106
  8
DATA
  6
CONTINUOUS
 62
     7
 10
-21.329409999999989
 20
74.203599999999994
 30
0.0
 11
-8.0
 21
74.5
 31
0.0
  0
LINE
  5
107
  8
DATA
  6
CONTINUOUS
 62
     7
 10
-8.0
 20
71.0
 30
0.0
 11
-21.556619999999992
 21
71.0
 31
0.0
  0
LINE
  5
108
  8
DATA
  6
CONTINUOUS
 62
     7
 10
-8.0
 20
72.0
 30
0.0
 11
-22.422650000000001
 21
72.0
 31
0.0
  0
LINE
  5
109
  8
DATA
  6
CONTINUOUS
 62
     7
 10
-8.0
 20
73.0
 30
0.0
 11
-22.133970000000001
 21
73.0
 31
0.0
  0
LINE
  5
10A
  8
DATA
  6
CONTINUOUS
 62
     7
 10
-21.845369999999999
 20
76.228859999999997
 30
0.0
 11
-21.845369999999999
 21
77.5
 31
0.0
  0
LINE
  5
10B
  8
DATA
  6
CONTINUOUS
 62
     7
 10
-21.845369999999999
 20
73.0
 30
0.0
 11
-21.845369999999999
 21
74.346339999999984
 31
0.0
  0
LINE
  5
10C
  8
DATA
  6
CONTINUOUS
 62
     7
 10
-21.845369999999999
 20
69.0
 30
0.0
 11
-21.845369999999999
 21
71.091800000000006
 31
0.0
  0
LINE
  5
10D
  8
DATA
  6
CONTINUOUS
 62
     7
 10
-21.845369999999999
 20
65.0
 30
0.0
 11
-21.845369999999999
 21
67.0
 31
0.0
  0
ARC
  5
10E
  8
DATA
  6
CONTINUOUS
 62
     7
 10
-22.5
 20
68.5
 30
0.0
 40
0.5
 50
90.0
 51
180.0
  0
ARC
  5
10F
  8
DATA
  6
CONTINUOUS
 62
     7
 10
-22.5
 20
67.5
 30
0.0
 40
0.5
 50
180.0
 51
270.0
  0
ARC
  5
110
  8
DATA
  6
CONTINUOUS
 62
     7
 10
-21.556619999999992
 20
71.5
 30
0.0
 40
0.5
 50
210.0001548077453
 51
270.0
  0
ARC
  5
111
  8
DATA
  6
CONTINUOUS
 62
     7
 10
-22.13397999999999
 20
72.5
 30
0.0
 40
0.5
 50
89.998854084409899
 51
210.0001548077453
  0
LINE
  5
112
  8
DATA
  6
CONTINUOUS
 62
     7
 10
-22.566990000000001
 20
72.25
 30
0.0
 11
-21.845369999999999
 21
71.000129999999999
 31
0.0
  0
LINE
  5
113
  8
DATA
  6
CONTINUOUS
 62
     7
 10
-8.0
 20
73.0
 30
0.0
 11
-22.133970000000001
 21
73.0
 31
0.0
  0
ARC
  5
114
  8
DATA
  6
CONTINUOUS
 62
     7
 10
-21.482189999999999
 20
74.717290000000006
 30
0.0
 40
0.5
 50
210.0001548077453
 51
270.0
  0
ARC
  5
115
  8
DATA
  6
CONTINUOUS
 62
     7
 10
-22.059550000000002
 20
75.717290000000006
 30
0.0
 40
0.5
 50
89.998854084409899
 51
210.0001548077453
  0
LINE
  5
116
  8
DATA
  6
CONTINUOUS
 62
     7
 10
-22.49255999999999
 20
75.467290000000006
 30
0.0
 11
-21.770939999999989
 21
74.217420000000004
 31
0.0
  0
LINE
  5
117
  8
DATA
  6
CONTINUOUS
 62
     7
 10
-21.860079999999989
 20
79.37706
 30
0.0
 11
-8.0147099999999938
 21
80.125460000000004
 31
0.0
  0
LINE
  5
118
  8
DATA
  6
CONTINUOUS
 62
     7
 10
-22.354189999999999
 20
78.350359999999995
 30
0.0
 11
-8.0147099999999938
 21
79.125460000000004
 31
0.0
  0
LINE
  5
119
  8
DATA
  6
CONTINUOUS
 62
     7
 10
-21.34412
 20
77.351799999999983
 30
0.0
 11
-8.0147099999999938
 21
77.648200000000003
 31
0.0
  0
ARC
  5
11A
  8
DATA
  6
CONTINUOUS
 62
     7
 10
-21.496899999999989
 20
77.865489999999994
 30
0.0
 40
0.5
 50
210.0001548077453
 51
270.0
  0
ARC
  5
11B
  8
DATA
  6
CONTINUOUS
 62
     7
 10
-22.074259999999988
 20
78.865489999999994
 30
0.0
 40
0.5
 50
89.998854084409899
 51
210.0001548077453
  0
LINE
  5
11C
  8
DATA
  6
CONTINUOUS
 62
     7
 10
-22.507269999999998
 20
78.615489999999994
 30
0.0
 11
-21.78565
 21
77.365620000000007
 31
0.0
  0
LINE
  5
11D
  8
DATA
  6
CONTINUOUS
 62
     7
 10
-21.860079999999989
 20
80.811620000000005
 30
0.0
 11
-8.0147099999999938
 21
81.560019999999994
 31
0.0
  0
LINE
  5
11E
  8
DATA
  6
CONTINUOUS
 62
     7
 10
-22.354189999999999
 20
79.78492
 30
0.0
 11
-8.0147099999999938
 21
80.560020000000009
 31
0.0
  0
ARC
  5
11F
  8
DATA
  6
CONTINUOUS
 62
     7
 10
-22.074259999999988
 20
80.300049999999999
 30
0.0
 40
0.5
 50
89.998854084409899
 51
210.0001548077453
  0
LINE
  5
120
  8
DATA
  6
CONTINUOUS
 62
     7
 10
-22.507269999999998
 20
80.050049999999999
 30
0.0
 11
-22.111239999999992
 21
79.36412
 31
0.0
  0
LINE
  5
121
  8
DATA
  6
CONTINUOUS
 62
     7
 10
-21.845369999999999
 20
55.771140000000003
 30
0.0
 11
-8.0
 21
55.022739999999992
 31
0.0
  0
LINE
  5
122
  8
DATA
  6
CONTINUOUS
 62
     7
 10
-22.339479999999991
 20
56.797839999999987
 30
0.0
 11
-8.0
 21
56.022739999999999
 31
0.0
  0
LINE
  5
123
  8
DATA
  6
CONTINUOUS
 62
     7
 10
-21.329409999999989
 20
57.796399999999998
 30
0.0
 11
-8.0
 21
57.5
 31
0.0
  0
LINE
  5
124
  8
DATA
  6
CONTINUOUS
 62
     7
 10
-8.0
 20
61.0
 30
0.0
 11
-21.556619999999992
 21
61.0
 31
0.0
  0
LINE
  5
125
  8
DATA
  6
CONTINUOUS
 62
     7
 10
-8.0
 20
60.0
 30
0.0
 11
-22.422650000000001
 21
60.0
 31
0.0
  0
LINE
  5
126
  8
DATA
  6
CONTINUOUS
 62
     7
 10
-8.0
 20
59.0
 30
0.0
 11
-22.133970000000001
 21
59.0
 31
0.0
  0
LINE
  5
127
  8
DATA
  6
CONTINUOUS
 62
     7
 10
-21.845369999999999
 20
55.771140000000003
 30
0.0
 11
-21.845369999999999
 21
54.5
 31
0.0
  0
LINE
  5
128
  8
DATA
  6
CONTINUOUS
 62
     7
 10
-21.845369999999999
 20
59.0
 30
0.0
 11
-21.845369999999999
 21
57.653660000000002
 31
0.0
  0
ARC
  5
129
  8
DATA
  6
CONTINUOUS
 62
     7
 10
-21.556619999999992
 20
60.5
 30
0.0
 40
0.5
 50
90.0
 51
149.99984519225461
  0
ARC
  5
12A
  8
DATA
  6
CONTINUOUS
 62
     7
 10
-22.13397999999999
 20
59.5
 30
0.0
 40
0.5
 50
149.99984519225461
 51
270.00114591559009
  0
LINE
  5
12B
  8
DATA
  6
CONTINUOUS
 62
     7
 10
-22.566990000000001
 20
59.75
 30
0.0
 11
-21.845369999999999
 21
60.999870000000001
 31
0.0
  0
LINE
  5
12C
  8
DATA
  6
CONTINUOUS
 62
     7
 10
-8.0
 20
59.0
 30
0.0
 11
-22.133970000000001
 21
59.0
 31
0.0
  0
ARC
  5
12D
  8
DATA
  6
CONTINUOUS
 62
     7
 10
-21.482189999999999
 20
57.282709999999987
 30
0.0
 40
0.5
 50
90.0
 51
149.99984519225461
  0
ARC
  5
12E
  8
DATA
  6
CONTINUOUS
 62
     7
 10
-22.059550000000002
 20
56.282709999999987
 30
0.0
 40
0.5
 50
149.99984519225461
 51
270.00114591559009
  0
LINE
  5
12F
  8
DATA
  6
CONTINUOUS
 62
     7
 10
-22.49255999999999
 20
56.532710000000002
 30
0.0
 11
-21.770939999999989
 21
57.782580000000003
 31
0.0
  0
LINE
  5
130
  8
DATA
  6
CONTINUOUS
 62
     7
 10
-21.860079999999989
 20
52.62294
 30
0.0
 11
-8.0147099999999938
 21
51.874539999999989
 31
0.0
  0
LINE
  5
131
  8
DATA
  6
CONTINUOUS
 62
     7
 10
-22.354189999999999
 20
53.649639999999998
 30
0.0
 11
-8.0147099999999938
 21
52.874540000000003
 31
0.0
  0
LINE
  5
132
  8
DATA
  6
CONTINUOUS
 62
     7
 10
-21.34412
 20
54.648200000000003
 30
0.0
 11
-8.0147099999999938
 21
54.35179999999999
 31
0.0
  0
ARC
  5
133
  8
DATA
  6
CONTINUOUS
 62
     7
 10
-21.496899999999989
 20
54.134510000000013
 30
0.0
 40
0.5
 50
90.0
 51
149.99984519225461
  0
ARC
  5
134
  8
DATA
  6
CONTINUOUS
 62
     7
 10
-22.074259999999988
 20
53.134509999999999
 30
0.0
 40
0.5
 50
149.99984519225461
 51
270.00114591559009
  0
LINE
  5
135
  8
DATA
  6
CONTINUOUS
 62
     7
 10
-22.507269999999998
 20
53.384509999999999
 30
0.0
 11
-21.78565
 21
54.63438
 31
0.0
  0
LINE
  5
136
  8
DATA
  6
CONTINUOUS
 62
     7
 10
-21.860079999999989
 20
51.188380000000002
 30
0.0
 11
-8.0147099999999938
 21
50.439980000000013
 31
0.0
  0
LINE
  5
137
  8
DATA
  6
CONTINUOUS
 62
     7
 10
-22.354189999999999
 20
52.21508
 30
0.0
 11
-8.0147099999999938
 21
51.439979999999998
 31
0.0
  0
ARC
  5
138
  8
DATA
  6
CONTINUOUS
 62
     7
 10
-22.074259999999988
 20
51.699950000000001
 30
0.0
 40
0.5
 50
149.99984519225461
 51
270.00114591559009
  0
LINE
  5
139
  8
DATA
  6
CONTINUOUS
 62
     7
 10
-22.507269999999998
 20
51.949950000000001
 30
0.0
 11
-22.111239999999992
 21
52.63588
 31
0.0
  0
LINE
  5
13A
  8
DATA
  6
CONTINUOUS
 62
     7
 10
-21.845369999999999
 20
63.0
 30
0.0
 11
-21.845369999999999
 21
60.999870000000001
 31
0.0
  0
LINE
  5
13B
  8
DATA
  6
CONTINUOUS
 62
     7
 10
-23.0
 20
64.5
 30
0.0
 11
-23.0
 21
63.5
 31
0.0
  0
ARC
  5
13C
  8
DATA
  6
CONTINUOUS
 62
     7
 10
-22.5
 20
64.5
 30
0.0
 40
0.5
 50
90.0
 51
180.0
  0
ARC
  5
13D
  8
DATA
  6
CONTINUOUS
 62
     7
 10
-22.5
 20
63.5
 30
0.0
 40
0.5
 50
180.0
 51
270.0
  0
LINE
  5
13E
  8
DATA
  6
CONTINUOUS
 62
     7
 10
-16.0
 20
55.50779
 30
0.0
 11
-16.0
 21
54.52937
 31
0.0
  0
LINE
  5
13F
  8
DATA
  6
CONTINUOUS
 62
     7
 10
-16.0
 20
59.0
 30
0.0
 11
-16.0
 21
57.651859999999992
 31
0.0
  0
LINE
  5
140
  8
DATA
  6
CONTINUOUS
 62
     7
 10
-16.0
 20
63.0
 30
0.0
 11
-16.0
 21
61.0
 31
0.0
  0
LINE
  5
141
  8
DATA
  6
CONTINUOUS
 62
     7
 10
-16.0
 20
67.0
 30
0.0
 11
-16.0
 21
65.0
 31
0.0
  0
LINE
  5
142
  8
DATA
  6
CONTINUOUS
 62
     7
 10
-16.0
 20
71.0
 30
0.0
 11
-16.0
 21
69.0
 31
0.0
  0
LINE
  5
143
  8
DATA
  6
CONTINUOUS
 62
     7
 10
-16.0
 20
74.322109999999995
 30
0.0
 11
-16.0
 21
73.0
 31
0.0
  0
LINE
  5
144
  8
DATA
  6
CONTINUOUS
 62
     7
 10
-16.0
 20
77.47063
 30
0.0
 11
-16.0
 21
76.589709999999997
 31
0.0
  0
ARC
  5
145
  8
DATA
  6
CONTINUOUS
 62
     7
 10
-24.5
 20
76.25
 30
0.0
 40
0.5
 50
90.0
 51
180.0
  0
ARC
  5
146
  8
DATA
  6
CONTINUOUS
 62
     7
 10
-24.5
 20
55.75
 30
0.0
 40
0.5
 50
180.0
 51
270.0
  0
CIRCLE
  5
147
  8
DATA
  6
CONTINUOUS
 62
     7
 10
191.0
 20
66.0
 30
0.0
 40
16.0
  0
ENDSEC
  0
EOF
