  0
SECTION
  2
HEADER
  9
$ACADVER
  1
AC1009
  9
$INSBASE
 10
0.0
 20
0.0
 30
0.0
  9
$EXTMIN
 10
-80.012748558621865
 20
-131.2306395013035
 30
-0.0015258207003583
  9
$EXTMAX
 10
282.7306077200144
 20
403.53214576640943
 30
0.0000000349246037
  9
$LIMMIN
 10
0.0
 20
0.0
  9
$LIMMAX
 10
0.0
 20
0.0
  9
$ORTHOMODE
 70
     0
  9
$REGENMODE
 70
     1
  9
$FILLMODE
 70
     1
  9
$QTEXTMODE
 70
     0
  9
$MIRRTEXT
 70
     1
  9
$DRAGMODE
 70
     2
  9
$LTSCALE
 40
2.0
  9
$OSMODE
 70
    37
  9
$ATTMODE
 70
     1
  9
$TEXTSIZE
 40
0.0
  9
$TRACEWID
 40
0.05
  9
$TEXTSTYLE
  7
STANDARD
  9
$CLAYER
  8
0
  9
$CELTYPE
  6
CONTINUOUS
  9
$CECOLOR
 62
   256
  9
$DIMSCALE
 40
1.0
  9
$DIMASZ
 40
0.18
  9
$DIMEXO
 40
0.0625
  9
$DIMDLI
 40
0.38
  9
$DIMRND
 40
0.0
  9
$DIMDLE
 40
0.0
  9
$DIMEXE
 40
0.18
  9
$DIMTP
 40
0.0
  9
$DIMTM
 40
0.0
  9
$DIMTXT
 40
0.18
  9
$DIMCEN
 40
0.09
  9
$DIMTSZ
 40
0.0
  9
$DIMTOL
 70
     0
  9
$DIMLIM
 70
     0
  9
$DIMTIH
 70
     1
  9
$DIMTOH
 70
     1
  9
$DIMSE1
 70
     0
  9
$DIMSE2
 70
     0
  9
$DIMTAD
 70
     0
  9
$DIMZIN
 70
     0
  9
$DIMBLK
  1

  9
$DIMASO
 70
     1
  9
$DIMSHO
 70
     1
  9
$DIMPOST
  1

  9
$DIMAPOST
  1

  9
$DIMALT
 70
     0
  9
$DIMALTD
 70
     2
  9
$DIMALTF
 40
25.399999999999999
  9
$DIMLFAC
 40
1.0
  9
$DIMTOFL
 70
     0
  9
$DIMTVP
 40
0.0
  9
$DIMTIX
 70
     0
  9
$DIMSOXD
 70
     0
  9
$DIMSAH
 70
     0
  9
$DIMBLK1
  1

  9
$DIMBLK2
  1

  9
$DIMSTYLE
  2
STANDARD
  9
$DIMCLRD
 70
     0
  9
$DIMCLRE
 70
     0
  9
$DIMCLRT
 70
     0
  9
$DIMTFAC
 40
1.0
  9
$DIMGAP
 40
0.09
  9
$LUNITS
 70
     2
  9
$LUPREC
 70
     4
  9
$SKETCHINC
 40
0.1
  9
$FILLETRAD
 40
0.0
  9
$AUNITS
 70
     0
  9
$AUPREC
 70
     0
  9
$MENU
  1
acad
  9
$ELEVATION
 40
0.0
  9
$PELEVATION
 40
0.0
  9
$THICKNESS
 40
0.0
  9
$LIMCHECK
 70
     0
  9
$BLIPMODE
 70
     0
  9
$CHAMFERA
 40
0.0
  9
$CHAMFERB
 40
0.0
  9
$SKPOLY
 70
     0
  9
$TDCREATE
 40
2451873.7130208332
  9
$TDUPDATE
 40
2451873.7132443278
  9
$TDINDWG
 40
0.0001309028
  9
$TDUSRTIMER
 40
0.0001309028
  9
$USRTIMER
 70
     1
  9
$ANGBASE
 50
0.0
  9
$ANGDIR
 70
     0
  9
$PDMODE
 70
     0
  9
$PDSIZE
 40
0.0
  9
$PLINEWID
 40
0.0
  9
$COORDS
 70
     1
  9
$SPLFRAME
 70
     0
  9
$SPLINETYPE
 70
     6
  9
$SPLINESEGS
 70
     8
  9
$ATTDIA
 70
     0
  9
$ATTREQ
 70
     1
  9
$HANDLING
 70
-16383
  9
$HANDSEED
  5
17B
  9
$SURFTAB1
 70
     6
  9
$SURFTAB2
 70
     6
  9
$SURFTYPE
 70
     6
  9
$SURFU
 70
     6
  9
$SURFV
 70
     6
  9
$UCSNAME
  2

  9
$UCSORG
 10
0.0
 20
0.0
 30
0.0
  9
$UCSXDIR
 10
1.0
 20
0.0
 30
0.0
  9
$UCSYDIR
 10
0.0
 20
1.0
 30
0.0
  9
$PUCSNAME
  2

  9
$PUCSORG
 10
0.0
 20
0.0
 30
0.0
  9
$PUCSXDIR
 10
1.0
 20
0.0
 30
0.0
  9
$PUCSYDIR
 10
0.0
 20
1.0
 30
0.0
  9
$USERI1
 70
     0
  9
$USERI2
 70
     0
  9
$USERI3
 70
     0
  9
$USERI4
 70
     0
  9
$USERI5
 70
     0
  9
$USERR1
 40
0.0
  9
$USERR2
 40
0.0
  9
$USERR3
 40
0.0
  9
$USERR4
 40
0.0
  9
$USERR5
 40
0.0
  9
$WORLDVIEW
 70
     1
  9
$SHADEDGE
 70
     3
  9
$SHADEDIF
 70
    70
  9
$TILEMODE
 70
     1
  9
$MAXACTVP
 70
    16
  9
$PLIMCHECK
 70
     0
  9
$PEXTMIN
 10
1.0000000000000000E+020
 20
1.0000000000000000E+020
 30
1.0000000000000000E+020
  9
$PEXTMAX
 10
-1.0000000000000000E+020
 20
-1.0000000000000000E+020
 30
-1.0000000000000000E+020
  9
$PLIMMIN
 10
0.0
 20
0.0
  9
$PLIMMAX
 10
12.0
 20
9.0
  9
$UNITMODE
 70
     0
  9
$VISRETAIN
 70
     0
  9
$PLINEGEN
 70
     1
  9
$PSLTSCALE
 70
     0
  0
ENDSEC
  0
SECTION
  2
TABLES
  0
TABLE
  2
VPORT
 70
     2
  0
VPORT
  2
*ACTIVE
 70
     0
 10
0.0
 20
0.0
 11
1.0
 21
1.0
 12
101.3589295806962
 22
136.15075313255289
 13
0.0
 23
0.0
 14
1.0
 24
1.0
 15
0.0
 25
0.0
 16
0.0
 26
0.0
 36
1.0
 17
0.0
 27
0.0
 37
0.0
 40
540.74893584906795
 41
1.743925233644859
 42
50.0
 43
0.0
 44
0.0
 50
0.0
 51
0.0
 71
     0
 72
   100
 73
     1
 74
     1
 75
     0
 76
     0
 77
     0
 78
     0
  0
ENDTAB
  0
TABLE
  2
LTYPE
 70
    11
  0
LTYPE
  2
CONTINUOUS
 70
     0
  3
Solid line
 72
    65
 73
     0
 40
0.0
  0
LTYPE
  2
VECTORWORKS_DASH_01
 70
     0
  3
(unavailable)
 72
    65
 73
     2
 40
2.116537475585937
 49
1.058074951171875
 49
-1.058462524414062
  0
LTYPE
  2
VECTORWORKS_DASH_02
 70
     0
  3
(unavailable)
 72
    65
 73
     2
 40
3.5276916503906239
 49
2.469229125976562
 49
-1.058462524414062
  0
LTYPE
  2
VECTORWORKS_DASH_03
 70
     0
  3
(unavailable)
 72
    65
 73
     2
 40
6.3499999999999988
 49
5.2915374755859359
 49
-1.058462524414062
  0
LTYPE
  2
VECTORWORKS_DASH_04
 70
     0
  3
(unavailable)
 72
    65
 73
     2
 40
7.7607666015624988
 49
6.7026916503906238
 49
-1.058074951171875
  0
LTYPE
  2
VECTORWORKS_DASH_05
 70
     0
  3
(unavailable)
 72
    65
 73
     2
 40
1.058074951171875
 49
0.352691650390625
 49
-0.70538330078125
  0
LTYPE
  2
VECTORWORKS_DASH_06
 70
     0
  3
(unavailable)
 72
    65
 73
     4
 40
5.2915374755859359
 49
3.1749999999999989
 49
-1.058074951171875
 49
0.352691650390625
 49
-0.7057708740234375
  0
LTYPE
  2
VECTORWORKS_DASH_07
 70
     0
  3
(unavailable)
 72
    65
 73
     6
 40
9.5249999999999986
 49
3.1749999999999989
 49
-1.058074951171875
 49
3.1749999999999989
 49
-1.058462524414062
 49
0.352691650390625
 49
-0.7057708740234375
  0
LTYPE
  2
VECTORWORKS_DASH_08
 70
     0
  3
(unavailable)
 72
    65
 73
     6
 40
6.3499999999999988
 49
3.1749999999999989
 49
-1.058074951171875
 49
0.352691650390625
 49
-0.7057708740234375
 49
0.352691650390625
 49
-0.7057708740234375
  0
LTYPE
  2
VECTORWORKS_DASH_09
 70
     0
  3
(unavailable)
 72
    65
 73
     4
 40
25.399999999999999
 49
19.04999999999999
 49
-1.411154174804687
 49
3.5276916503906239
 49
-1.411154174804687
  0
LTYPE
  2
VECTORWORKS_DASH_10
 70
     0
  3
(unavailable)
 72
    65
 73
     6
 40
30.162499999999991
 49
19.04999999999999
 49
-1.411154174804687
 49
3.5276916503906239
 49
-1.411154174804687
 49
3.1749999999999989
 49
-1.587499999999999
  0
ENDTAB
  0
TABLE
  2
LAYER
 70
     6
  0
LAYER
  2
0
 70
     0
 62
     7
  6
CONTINUOUS
  0
LAYER
  2
HIBINO-BASE
 70
     0
 62
     7
  6
CONTINUOUS
  0
LAYER
  2
PATTERN_FILL
 70
     0
 62
     7
  6
CONTINUOUS
  0
LAYER
  2
SPEC
 70
     0
 62
     7
  6
CONTINUOUS
  0
LAYER
  2
DIMNSIONS
 70
     0
 62
     7
  6
CONTINUOUS
  0
LAYER
  2
DATA
 70
     0
 62
     7
  6
CONTINUOUS
  0
ENDTAB
  0
TABLE
  2
STYLE
 70
     1
  0
STYLE
  2
STANDARD
 70
     0
 40
0.0
 41
1.0
 50
0.0
 71
     0
 42
0.0
  3
txt
  4
BIGFONT.SHX
  0
ENDTAB
  0
TABLE
  2
VIEW
 70
     0
  0
ENDTAB
  0
TABLE
  2
UCS
 70
     0
  0
ENDTAB
  0
TABLE
  2
APPID
 70
     1
  0
APPID
  2
ACAD
 70
     0
  0
ENDTAB
  0
TABLE
  2
DIMSTYLE
 70
     1
  0
DIMSTYLE
  2
STANDARD
 70
     0
  3

  4

  5

  6

  7

 40
1.0
 41
0.18
 42
0.0625
 43
0.38
 44
0.18
 45
0.0
 46
0.0
 47
0.0
 48
0.0
140
0.18
141
0.09
142
0.0
143
25.399999999999999
144
1.0
145
0.0
146
1.0
147
0.09
 71
     0
 72
     0
 73
     1
 74
     1
 75
     0
 76
     0
 77
     0
 78
     0
170
     0
171
     2
172
     0
173
     0
174
     0
175
     0
176
     0
177
     0
178
     0
  0
ENDTAB
  0
ENDSEC
  0
SECTION
  2
BLOCKS
  0
BLOCK
  8
0
  2
$MODEL_SPACE
 70
     0
 10
0.0
 20
0.0
 30
0.0
  3
$MODEL_SPACE
  1

  0
ENDBLK
  5
172
  8
0
  0
BLOCK
 67
     1
  8
0
  2
$PAPER_SPACE
 70
     0
 10
0.0
 20
0.0
 30
0.0
  3
$PAPER_SPACE
  1

  0
ENDBLK
  5
170
 67
     1
  8
0
  0
BLOCK
  8
DIMNSIONS
  2
*G0
 70
     1
 10
0.0
 20
0.0
 30
0.0
  3
*G0
  1

  0
TEXT
  5
33
  8
DIMNSIONS
 62
     7
 10
-47.784120000000001
 20
13.411110000000001
 30
0.0
 40
5.6444499999999991
  1
165
 11
-47.784120000000001
 21
19.055559999999989
 31
0.0
 73
     3
  0
ENDBLK
  5
34
  8
DIMNSIONS
  0
BLOCK
  8
DIMNSIONS
  2
*G1
 70
     1
 10
0.0
 20
0.0
 30
0.0
  3
*G1
  1

  0
TEXT
  5
36
  8
DIMNSIONS
 62
     7
 10
-106.3652299999999
 20
-11.588889999999999
 30
0.0
 40
5.6444499999999991
  1
44
 11
-106.3652299999999
 21
-5.9444400000000002
 31
0.0
 73
     3
  0
ENDBLK
  5
37
  8
DIMNSIONS
  0
BLOCK
  8
DIMNSIONS
  2
*G2
 70
     1
 10
0.0
 20
0.0
 30
0.0
  3
*G2
  1

  0
TEXT
  5
39
  8
DIMNSIONS
 62
     7
 10
-25.621559999999992
 20
-11.588889999999999
 30
0.0
 40
5.6444499999999991
  1
121
 11
-25.621559999999992
 21
-5.9444400000000002
 31
0.0
 73
     3
  0
ENDBLK
  5
3A
  8
DIMNSIONS
  0
BLOCK
  8
DIMNSIONS
  2
*G3
 70
     1
 10
0.0
 20
0.0
 30
0.0
  3
*G3
  1

  0
TEXT
  5
3C
  8
DIMNSIONS
 62
     7
 10
121.58889000000001
 20
-68.027780000000007
 30
0.0
 40
5.6444499999999991
  1
23
 50
90.0
 11
115.9444399999999
 21
-68.027780000000007
 31
0.0
 73
     3
  0
ENDBLK
  5
3D
  8
DIMNSIONS
  0
BLOCK
  8
DIMNSIONS
  2
*G4
 70
     1
 10
0.0
 20
0.0
 30
0.0
  3
*G4
  1

  0
TEXT
  5
3F
  8
DIMNSIONS
 62
     7
 10
140.33888999999991
 20
-71.55556
 30
0.0
 40
5.6444499999999991
  1
38.5
 50
90.0
 11
134.6944399999999
 21
-71.55556
 31
0.0
 73
     3
  0
ENDBLK
  5
40
  8
DIMNSIONS
  0
BLOCK
  8
DIMNSIONS
  2
*G5
 70
     1
 10
0.0
 20
0.0
 30
0.0
  3
*G5
  1

  0
TEXT
  5
42
  8
DIMNSIONS
 62
     7
 10
159.08888999999991
 20
-68.027780000000007
 30
0.0
 40
5.6444499999999991
  1
51
 50
90.0
 11
153.4444399999999
 21
-68.027780000000007
 31
0.0
 73
     3
  0
ENDBLK
  5
43
  8
DIMNSIONS
  0
ENDSEC
  0
SECTION
  2
ENTITIES
  0
LINE
  5
44
  8
HIBINO-BASE
  6
CONTINUOUS
 62
     7
 10
-80.0
 20
403.53181999999993
 30
0.0
 11
280.0
 21
403.53181999999993
 31
0.0
  0
LINE
  5
45
  8
HIBINO-BASE
  6
CONTINUOUS
 62
     7
 10
280.0
 20
-116.46818
 30
0.0
 11
-80.0
 21
-116.46818
 31
0.0
  0
LINE
  5
46
  8
HIBINO-BASE
  6
CONTINUOUS
 62
     7
 10
-80.0
 20
-116.46818
 30
0.0
 11
-80.0
 21
403.53181999999993
 31
0.0
  0
TEXT
  5
47
  8
HIBINO-BASE
 62
     7
 10
-65.632000000000005
 20
-128.72415000000001
 30
0.0
 40
7.4851700000000001
  1
Hibino Corporation
 11
-65.632000000000005
 21
-121.23898
 31
0.0
 73
     3
  0
LINE
  5
48
  8
HIBINO-BASE
  6
CONTINUOUS
 62
     7
 10
280.0
 20
403.53181999999993
 30
0.0
 11
280.0
 21
-116.46818
 31
0.0
  0
LINE
  5
49
  8
HIBINO-BASE
  6
CONTINUOUS
 62
     7
 10
100.0
 20
-71.46817999999999
 30
0.0
 11
280.0
 21
-71.46817999999999
 31
0.0
  0
LINE
  5
4A
  8
HIBINO-BASE
  6
CONTINUOUS
 62
     7
 10
100.0
 20
-116.46818
 30
0.0
 11
100.0
 21
-71.46817999999999
 31
0.0
  0
TEXT
  5
4B
  8
HIBINO-BASE
 62
     7
 10
101.8
 20
-76.587490000000003
 30
0.0
 40
3.742589999999999
  1
NOTE
 11
101.8
 21
-72.844899999999996
 31
0.0
 73
     3
  0
LINE
  5
4C
  8
HIBINO-BASE
  6
CONTINUOUS
 62
     7
 10
170.0
 20
-116.46818
 30
0.0
 11
170.0
 21
-71.46817999999999
 31
0.0
  0
TEXT
  5
4D
  8
HIBINO-BASE
 62
     7
 10
171.80000000000001
 20
-76.587490000000003
 30
0.0
 40
3.742589999999999
  1
TITLE
 11
171.80000000000001
 21
-72.844899999999996
 31
0.0
 73
     3
  0
TEXT
  5
4E
  8
HIBINO-BASE
 62
     7
 10
200.1367799999999
 20
-128.72415000000001
 30
0.0
 40
7.4851700000000001
  1
ヒビノ株式会社
 11
200.1367799999999
 21
-121.23898
 31
0.0
 73
     3
  0
LINE
  5
4F
  8
HIBINO-BASE
  6
CONTINUOUS
 62
     7
 10
100.0
 20
-96.46817999999999
 30
0.0
 11
280.0
 21
-96.46817999999999
 31
0.0
  0
TEXT
  5
50
  8
HIBINO-BASE
 62
     7
 10
196.80000000000001
 20
-101.47485
 30
0.0
 40
3.742589999999999
  1
DRAWN
 11
196.80000000000001
 21
-97.732260000000011
 31
0.0
 73
     3
  0
TEXT
  5
51
  8
HIBINO-BASE
 62
     7
 10
146.80000000000001
 20
-101.47485
 30
0.0
 40
3.742589999999999
  1
DATE
 11
146.80000000000001
 21
-97.732260000000011
 31
0.0
 73
     3
  0
TEXT
  5
52
  8
HIBINO-BASE
 62
     7
 10
102.2
 20
-101.45309
 30
0.0
 40
3.3866700000000001
  1
図面サイズ
 11
102.2
 21
-98.066419999999994
 31
0.0
 73
     3
  0
TEXT
  5
53
  8
HIBINO-BASE
 62
     7
 10
126.8
 20
-101.47485
 30
0.0
 40
3.742589999999999
  1
SCALE
 11
126.8
 21
-97.732260000000011
 31
0.0
 73
     3
  0
TEXT
  5
54
  8
HIBINO-BASE
 62
     7
 10
171.80000000000001
 20
-101.47485
 30
0.0
 40
3.742589999999999
  1
DESIGN
 11
171.80000000000001
 21
-97.732260000000011
 31
0.0
 73
     3
  0
TEXT
  5
55
  8
HIBINO-BASE
 62
     7
 10
246.7999999999999
 20
-101.47485
 30
0.0
 40
3.742589999999999
  1
DRAWING NO.
 11
246.7999999999999
 21
-97.732260000000011
 31
0.0
 73
     3
  0
TEXT
  5
56
  8
HIBINO-BASE
 62
     7
 10
221.7999999999999
 20
-101.47485
 30
0.0
 40
3.742589999999999
  1
CHECK
 11
221.7999999999999
 21
-97.732260000000011
 31
0.0
 73
     3
  0
LINE
  5
57
  8
HIBINO-BASE
  6
CONTINUOUS
 62
     7
 10
128.75
 20
-113.9681799999999
 30
0.0
 11
136.25
 21
-106.46818
 31
0.0
  0
TEXT
  5
58
  8
HIBINO-BASE
 62
     7
 10
127.5
 20
-109.56095000000001
 30
0.0
 40
4.5155500000000002
  1
1
 11
127.5
 21
-105.0453999999999
 31
0.0
 73
     3
  0
LINE
  5
59
  8
HIBINO-BASE
  6
CONTINUOUS
 62
     7
 10
125.0
 20
-116.46818
 30
0.0
 11
125.0
 21
-96.46817999999999
 31
0.0
  0
LINE
  5
5A
  8
HIBINO-BASE
  6
CONTINUOUS
 62
     7
 10
145.0
 20
-116.46818
 30
0.0
 11
145.0
 21
-96.46817999999999
 31
0.0
  0
LINE
  5
5B
  8
HIBINO-BASE
  6
CONTINUOUS
 62
     7
 10
195.0
 20
-96.46817999999999
 30
0.0
 11
195.0
 21
-116.46818
 31
0.0
  0
LINE
  5
5C
  8
HIBINO-BASE
  6
CONTINUOUS
 62
     7
 10
245.0
 20
-96.46817999999999
 30
0.0
 11
245.0
 21
-116.46818
 31
0.0
  0
LINE
  5
5D
  8
HIBINO-BASE
  6
CONTINUOUS
 62
     7
 10
220.0
 20
-116.46818
 30
0.0
 11
220.0
 21
-96.46817999999999
 31
0.0
  0
TEXT
  5
5E
  8
HIBINO-BASE
 62
     7
 10
107.82178
 20
-110.96326999999999
 30
0.0
 40
6.7733299999999987
  1
A4
 11
107.82178
 21
-104.18994000000001
 31
0.0
 73
     3
  0
TEXT
  5
5F
  8
HIBINO-BASE
 62
     7
 10
145.71307999999991
 20
-110.84281
 30
0.0
 40
3.742589999999999
  1
'00.11.20.
 11
145.71307999999991
 21
-107.10021999999999
 31
0.0
 73
     3
  0
TEXT
  5
60
  8
HIBINO-BASE
 62
     7
 10
135.0
 20
-113.31094999999991
 30
0.0
 40
4.5155500000000002
  1
2
 11
135.0
 21
-108.7954
 31
0.0
 73
     3
  0
ARC
  5
61
  8
PATTERN_FILL
  6
CONTINUOUS
 62
     7
 10
5.1657199999999932
 20
75.776880000000006
 30
0.0
 40
27.630949999999991
 50
128.49509486413621
 51
236.52700464723191
  0
ARC
  5
62
  8
PATTERN_FILL
  6
CONTINUOUS
 62
     7
 10
1.5951100000000049
 20
49.0
 30
0.0
 40
45.92611999999999
 50
92.227750131364203
 51
119.4758625594841
  0
ARC
  5
63
  8
PATTERN_FILL
  6
CONTINUOUS
 62
     7
 10
1.5951100000000049
 20
49.0
 30
0.0
 40
49.921700000000001
 50
92.047886788297035
 51
107.20213974151871
  0
ARC
  5
64
  8
PATTERN_FILL
  6
CONTINUOUS
 62
     7
 10
3.8451100000000049
 20
75.776880000000006
 30
0.0
 40
5.8576800000000002
 50
133.58849104645799
 51
223.2139585405767
  0
ARC
  5
65
  8
PATTERN_FILL
  6
CONTINUOUS
 62
     7
 10
5.1657199999999932
 20
75.776880000000006
 30
0.0
 40
11.355270000000001
 50
120.07282083686
 51
240.0000160793343
  0
ARC
  5
66
  8
PATTERN_FILL
  6
CONTINUOUS
 62
     7
 10
5.1657199999999932
 20
75.776880000000006
 30
0.0
 40
16.922059999999991
 50
108.7608727786415
 51
251.8348266340175
  0
ARC
  5
67
  8
PATTERN_FILL
  6
CONTINUOUS
 62
     7
 10
5.1657199999999932
 20
75.776880000000006
 30
0.0
 40
21.708850000000002
 50
104.4513904009256
 51
255.58444429098071
  0
ARC
  5
68
  8
PATTERN_FILL
  6
CONTINUOUS
 62
     7
 10
5.1657199999999932
 20
75.776880000000006
 30
0.0
 40
24.557559999999999
 50
103.0435362889156
 51
256.89861854177678
  0
ARC
  5
69
  8
PATTERN_FILL
  6
CONTINUOUS
 62
     7
 10
1.5951100000000049
 20
49.0
 30
0.0
 40
26.123950000000001
 50
93.821242477307322
 51
150.10106156091589
  0
ARC
  5
6A
  8
PATTERN_FILL
  6
CONTINUOUS
 62
     7
 10
1.5951100000000049
 20
49.0
 30
0.0
 40
37.871909999999993
 50
92.702361090683468
 51
134.56638593500551
  0
ARC
  5
6B
  8
PATTERN_FILL
  6
CONTINUOUS
 62
     7
 10
1.5951100000000049
 20
49.0
 30
0.0
 40
41.931379999999997
 50
92.44221383389646
 51
127.9472284839982
  0
ARC
  5
6C
  8
PATTERN_FILL
  6
CONTINUOUS
 62
     7
 10
1.5951100000000049
 20
49.0
 30
0.0
 40
5.134129999999999
 50
111.4714112498538
 51
158.2173035715561
  0
ARC
  5
6D
  8
PATTERN_FILL
  6
CONTINUOUS
 62
     7
 10
1.5951100000000049
 20
49.0
 30
0.0
 40
8.1547999999999998
 50
104.599018297277
 51
162.70656585119889
  0
ARC
  5
6E
  8
PATTERN_FILL
  6
CONTINUOUS
 62
     7
 10
1.5951100000000049
 20
49.0
 30
0.0
 40
14.206200000000001
 50
98.448338557170842
 51
159.5885234295165
  0
ARC
  5
6F
  8
PATTERN_FILL
  6
CONTINUOUS
 62
     7
 10
1.5951100000000049
 20
49.0
 30
0.0
 40
19.926349999999989
 50
95.979529714078325
 51
156.4220388432131
  0
ARC
  5
70
  8
PATTERN_FILL
  6
CONTINUOUS
 62
     7
 10
1.5951100000000049
 20
49.0
 30
0.0
 40
33.893529999999991
 50
93.024460458916025
 51
139.9673160652751
  0
ARC
  5
71
  8
PATTERN_FILL
  6
CONTINUOUS
 62
     7
 10
1.5951100000000049
 20
49.0
 30
0.0
 40
30.00142
 50
93.433623499623707
 51
144.91179159996011
  0
ARC
  5
72
  8
PATTERN_FILL
  6
CONTINUOUS
 62
     7
 10
1.5951100000000049
 20
49.0
 30
0.0
 40
49.921700000000001
 50
71.66492469412799
 51
86.874754475824162
  0
ARC
  5
73
  8
PATTERN_FILL
  6
CONTINUOUS
 62
     7
 10
-1.975499999999996
 20
75.776880000000006
 30
0.0
 40
11.355270000000001
 50
304.1833054811965
 51
55.661740915644373
  0
ARC
  5
74
  8
PATTERN_FILL
  6
CONTINUOUS
 62
     7
 10
-1.975499999999996
 20
75.776880000000006
 30
0.0
 40
16.922059999999991
 50
291.76963301267619
 51
68.162903283780651
  0
ARC
  5
75
  8
PATTERN_FILL
  6
CONTINUOUS
 62
     7
 10
1.5951100000000049
 20
49.0
 30
0.0
 40
5.134129999999999
 50
20.061594168523619
 51
58.756201949990071
  0
ARC
  5
76
  8
PATTERN_FILL
  6
CONTINUOUS
 62
     7
 10
1.5951100000000049
 20
49.0
 30
0.0
 40
8.1547900000000002
 50
16.203695789179118
 51
69.99847108756542
  0
ARC
  5
77
  8
PATTERN_FILL
  6
CONTINUOUS
 62
     7
 10
1.5951100000000049
 20
49.0
 30
0.0
 40
14.206189999999999
 50
17.919516020408839
 51
78.965807622852665
  0
ARC
  5
78
  8
PATTERN_FILL
  6
CONTINUOUS
 62
     7
 10
3.8451100000000049
 20
75.5
 30
0.0
 40
24.829419999999988
 50
51.961889536998569
 51
88.892502051396804
  0
ARC
  5
79
  8
PATTERN_FILL
  6
CONTINUOUS
 62
     7
 10
1.5951100000000049
 20
49.0
 30
0.0
 40
45.926110000000001
 50
67.35525094180548
 51
86.603601110867473
  0
ARC
  5
7A
  8
PATTERN_FILL
  6
CONTINUOUS
 62
     7
 10
-1.975499999999996
 20
75.776880000000006
 30
0.0
 40
27.630949999999991
 50
39.554095551649851
 51
53.093237737663131
  0
ARC
  5
7B
  8
PATTERN_FILL
  6
CONTINUOUS
 62
     7
 10
-1.975499999999996
 20
75.776880000000006
 30
0.0
 40
24.557569999999998
 50
29.84888451966059
 51
75.126235390435284
  0
ARC
  5
7C
  8
PATTERN_FILL
  6
CONTINUOUS
 62
     7
 10
-1.975499999999996
 20
75.776880000000006
 30
0.0
 40
24.557559999999999
 50
284.8416431667759
 51
330.04244684927272
  0
ARC
  5
7D
  8
PATTERN_FILL
  6
CONTINUOUS
 62
     7
 10
1.5951100000000049
 20
49.0
 30
0.0
 40
41.931370000000001
 50
65.273010103416141
 51
86.281004526946987
  0
ARC
  5
7E
  8
PATTERN_FILL
  6
CONTINUOUS
 62
     7
 10
1.5951100000000049
 20
49.0
 30
0.0
 40
37.87189
 50
62.347812035620642
 51
85.890813100143447
  0
ARC
  5
7F
  8
PATTERN_FILL
  6
CONTINUOUS
 62
     7
 10
-1.975499999999996
 20
75.776880000000006
 30
0.0
 40
21.708839999999999
 50
13.777646851391751
 51
73.088744208330496
  0
ARC
  5
80
  8
PATTERN_FILL
  6
CONTINUOUS
 62
     7
 10
-1.975499999999996
 20
75.776880000000006
 30
0.0
 40
21.708850000000002
 50
286.86998632748521
 51
346.08603871969518
  0
ARC
  5
81
  8
PATTERN_FILL
  6
CONTINUOUS
 62
     7
 10
1.5951100000000049
 20
49.0
 30
0.0
 40
33.893540000000002
 50
58.458998486773112
 51
85.409335786656612
  0
ARC
  5
82
  8
PATTERN_FILL
  6
CONTINUOUS
 62
     7
 10
1.5951100000000049
 20
49.0
 30
0.0
 40
30.00142
 50
54.107733921179722
 51
84.699077012218879
  0
ARC
  5
83
  8
PATTERN_FILL
  6
CONTINUOUS
 62
     7
 10
1.5951100000000049
 20
49.0
 30
0.0
 40
26.12396
 50
47.721920429294002
 51
84.005904106222644
  0
ARC
  5
84
  8
PATTERN_FILL
  6
CONTINUOUS
 62
     7
 10
-1.975499999999996
 20
75.776880000000006
 30
0.0
 40
27.630949999999991
 50
300.00001378011751
 51
320.36214715597691
  0
ARC
  5
85
  8
PATTERN_FILL
  6
CONTINUOUS
 62
     7
 10
1.5951100000000049
 20
49.0
 30
0.0
 40
19.926359999999999
 50
27.36614626931269
 51
82.030378215255411
  0
LINE
  5
86
  8
PATTERN_FILL
  6
CONTINUOUS
 62
     7
 10
181.49999999999989
 20
99.769319999999993
 30
0.0
 11
181.49999999999989
 21
93.791049999999998
 31
0.0
  0
LINE
  5
87
  8
PATTERN_FILL
  6
CONTINUOUS
 62
     7
 10
185.5
 20
98.412880000000001
 30
0.0
 11
185.5
 21
91.948779999999999
 31
0.0
  0
LINE
  5
88
  8
PATTERN_FILL
  6
CONTINUOUS
 62
     7
 10
189.49999999999989
 20
96.212320000000005
 30
0.0
 11
189.49999999999989
 21
88.712209999999999
 31
0.0
  0
LINE
  5
89
  8
PATTERN_FILL
  6
CONTINUOUS
 62
     7
 10
169.5
 20
99.769319999999993
 30
0.0
 11
169.5
 21
93.791049999999998
 31
0.0
  0
LINE
  5
8A
  8
PATTERN_FILL
  6
CONTINUOUS
 62
     7
 10
165.5
 20
98.412880000000001
 30
0.0
 11
165.5
 21
91.948779999999999
 31
0.0
  0
LINE
  5
8B
  8
PATTERN_FILL
  6
CONTINUOUS
 62
     7
 10
161.5
 20
96.212320000000005
 30
0.0
 11
161.5
 21
88.712209999999999
 31
0.0
  0
LINE
  5
8C
  8
PATTERN_FILL
  6
CONTINUOUS
 62
     7
 10
171.5
 20
100.17793
 30
0.0
 11
176.98532
 21
94.692610000000016
 31
0.0
  0
LINE
  5
8D
  8
PATTERN_FILL
  6
CONTINUOUS
 62
     7
 10
167.5
 20
99.18544
 30
0.0
 11
172.21738999999999
 21
94.468050000000005
 31
0.0
  0
LINE
  5
8E
  8
PATTERN_FILL
  6
CONTINUOUS
 62
     7
 10
163.49999999999989
 20
97.431710000000024
 30
0.0
 11
167.5
 21
93.43171000000001
 31
0.0
  0
LINE
  5
8F
  8
PATTERN_FILL
  6
CONTINUOUS
 62
     7
 10
159.49999999999989
 20
94.709370000000007
 30
0.0
 11
163.49999999999989
 21
90.709370000000007
 31
0.0
  0
LINE
  5
90
  8
PATTERN_FILL
  6
CONTINUOUS
 62
     7
 10
177.5
 20
100.5
 30
0.0
 11
177.5
 21
94.749999999999986
 31
0.0
  0
LINE
  5
91
  8
PATTERN_FILL
  6
CONTINUOUS
 62
     7
 10
173.5
 20
100.5
 30
0.0
 11
173.5
 21
94.749999999999986
 31
0.0
  0
LINE
  5
92
  8
PATTERN_FILL
  6
CONTINUOUS
 62
     7
 10
175.5
 20
100.5
 30
0.0
 11
182.61193
 21
93.388069999999999
 31
0.0
  0
LINE
  5
93
  8
PATTERN_FILL
  6
CONTINUOUS
 62
     7
 10
183.49999999999989
 20
99.18544
 30
0.0
 11
199.18544
 21
83.499999999999986
 31
0.0
  0
LINE
  5
94
  8
PATTERN_FILL
  6
CONTINUOUS
 62
     7
 10
193.5
 20
92.849350000000001
 30
0.0
 11
193.5
 21
82.323669999999993
 31
0.0
  0
LINE
  5
95
  8
PATTERN_FILL
  6
CONTINUOUS
 62
     7
 10
197.5
 20
87.374339999999975
 30
0.0
 11
197.37501
 21
63.396949999999997
 31
0.0
  0
LINE
  5
96
  8
PATTERN_FILL
  6
CONTINUOUS
 62
     7
 10
193.48815999999991
 20
68.645179999999996
 30
0.0
 11
193.48815999999991
 21
58.138369999999988
 31
0.0
  0
LINE
  5
97
  8
PATTERN_FILL
  6
CONTINUOUS
 62
     7
 10
179.49999999999989
 20
100.17793
 30
0.0
 11
200.17792
 21
79.500010000000003
 31
0.0
  0
LINE
  5
98
  8
PATTERN_FILL
  6
CONTINUOUS
 62
     7
 10
193.5
 20
82.323669999999993
 30
0.0
 11
200.49938
 21
75.324290000000005
 31
0.0
  0
LINE
  5
99
  8
PATTERN_FILL
  6
CONTINUOUS
 62
     7
 10
199.5
 20
68.5
 30
0.0
 11
194.63162
 21
73.368380000000002
 31
0.0
  0
LINE
  5
9A
  8
PATTERN_FILL
  6
CONTINUOUS
 62
     7
 10
197.37501
 20
63.396949999999997
 30
0.0
 11
193.09063999999989
 21
67.681319999999999
 31
0.0
  0
LINE
  5
9B
  8
PATTERN_FILL
  6
CONTINUOUS
 62
     7
 10
193.48815999999991
 20
58.138369999999988
 30
0.0
 11
189.49423999999991
 21
62.132289999999998
 31
0.0
  0
LINE
  5
9C
  8
PATTERN_FILL
  6
CONTINUOUS
 62
     7
 10
173.5
 20
56.25
 30
0.0
 11
173.50549000000001
 21
50.5
 31
0.0
  0
LINE
  5
9D
  8
PATTERN_FILL
  6
CONTINUOUS
 62
     7
 10
169.49907999999999
 20
57.209249999999997
 30
0.0
 11
169.50479000000001
 21
51.229489999999998
 31
0.0
  0
LINE
  5
9E
  8
PATTERN_FILL
  6
CONTINUOUS
 62
     7
 10
165.50549000000001
 20
59.047879999999999
 30
0.0
 11
165.50549000000001
 21
52.584729999999993
 31
0.0
  0
LINE
  5
9F
  8
PATTERN_FILL
  6
CONTINUOUS
 62
     7
 10
177.5
 20
56.25
 30
0.0
 11
177.50549000000001
 21
50.5
 31
0.0
  0
LINE
  5
A0
  8
PATTERN_FILL
  6
CONTINUOUS
 62
     7
 10
181.49907999999991
 20
57.208649999999999
 30
0.0
 11
181.50479000000001
 21
51.231859999999998
 31
0.0
  0
LINE
  5
A1
  8
PATTERN_FILL
  6
CONTINUOUS
 62
     7
 10
185.49733000000001
 20
59.049589999999988
 30
0.0
 11
185.49733000000001
 21
52.58596
 31
0.0
  0
LINE
  5
A2
  8
PATTERN_FILL
  6
CONTINUOUS
 62
     7
 10
189.49423999999991
 20
62.281689999999998
 30
0.0
 11
189.49423999999991
 21
54.783790000000003
 31
0.0
  0
LINE
  5
A3
  8
PATTERN_FILL
  6
CONTINUOUS
 62
     7
 10
189.49423999999991
 20
54.783790000000003
 30
0.0
 11
185.49733000000001
 21
58.780700000000003
 31
0.0
  0
LINE
  5
A4
  8
PATTERN_FILL
  6
CONTINUOUS
 62
     7
 10
185.49733000000001
 20
52.58596
 30
0.0
 11
181.02375000000001
 21
57.059539999999998
 31
0.0
  0
LINE
  5
A5
  8
PATTERN_FILL
  6
CONTINUOUS
 62
     7
 10
181.50479000000001
 20
51.231859999999998
 30
0.0
 11
176.46257
 21
56.274079999999991
 31
0.0
  0
LINE
  5
A6
  8
PATTERN_FILL
  6
CONTINUOUS
 62
     7
 10
177.50549000000001
 20
50.5
 30
0.0
 11
171.4997599999999
 21
56.50573
 31
0.0
  0
LINE
  5
A7
  8
PATTERN_FILL
  6
CONTINUOUS
 62
     7
 10
173.5054099999999
 20
50.579689999999992
 30
0.0
 11
165.50549000000001
 21
58.579610000000002
 31
0.0
  0
LINE
  5
A8
  8
PATTERN_FILL
  6
CONTINUOUS
 62
     7
 10
161.50549000000001
 20
62.281970000000001
 30
0.0
 11
161.50549000000001
 21
54.78398
 31
0.0
  0
LINE
  5
A9
  8
PATTERN_FILL
  6
CONTINUOUS
 62
     7
 10
157.50549000000001
 20
68.661860000000004
 30
0.0
 11
157.50549000000001
 21
58.144949999999987
 31
0.0
  0
LINE
  5
AA
  8
PATTERN_FILL
  6
CONTINUOUS
 62
     7
 10
169.50479000000001
 20
51.229489999999998
 30
0.0
 11
151.22949999999989
 21
69.504779999999997
 31
0.0
  0
LINE
  5
AB
  8
PATTERN_FILL
  6
CONTINUOUS
 62
     7
 10
165.50549000000001
 20
52.584729999999993
 30
0.0
 11
153.5
 21
64.590220000000002
 31
0.0
  0
LINE
  5
AC
  8
PATTERN_FILL
  6
CONTINUOUS
 62
     7
 10
159.49182999999991
 20
64.808840000000004
 30
0.0
 11
150.56213
 21
73.73854
 31
0.0
  0
LINE
  5
AD
  8
PATTERN_FILL
  6
CONTINUOUS
 62
     7
 10
156.49999999999989
 20
72.407669999999996
 30
0.0
 11
150.6523
 21
78.255369999999999
 31
0.0
  0
LINE
  5
AE
  8
PATTERN_FILL
  6
CONTINUOUS
 62
     7
 10
157.5
 20
92.849350000000001
 30
0.0
 11
157.5
 21
82.323669999999993
 31
0.0
  0
LINE
  5
AF
  8
PATTERN_FILL
  6
CONTINUOUS
 62
     7
 10
153.5
 20
87.374339999999975
 30
0.0
 11
153.5
 21
63.625660000000003
 31
0.0
  0
LINE
  5
B0
  8
PATTERN_FILL
  6
CONTINUOUS
 62
     7
 10
155.49999999999989
 20
90.5
 30
0.0
 11
159.49999999999989
 21
86.5
 31
0.0
  0
LINE
  5
B1
  8
PATTERN_FILL
  6
CONTINUOUS
 62
     7
 10
153.5
 20
87.374339999999975
 30
0.0
 11
157.80194
 21
83.072400000000002
 31
0.0
  0
LINE
  5
B2
  8
PATTERN_FILL
  6
CONTINUOUS
 62
     7
 10
151.5
 20
82.5
 30
0.0
 11
156.36837999999989
 21
77.631619999999998
 31
0.0
  0
ARC
  5
B3
  8
PATTERN_FILL
  6
CONTINUOUS
 62
     7
 10
0.3051099999999991
 20
75.776880000000006
 30
0.0
 40
5.8576800000000002
 50
316.78604145942307
 51
46.411508953542068
  0
TEXT
  5
B4
  8
SPEC
 62
     7
 10
1.799999999999996
 20
349.37772000000001
 30
0.0
 40
3.9773800000000001
  1
レベル -56.0dB**　　　　　　　**0dB=1mw/10 bar
 11
1.7999999999999969
 21
353.35509999999999
 31
0.0
 73
     3
  0
TEXT
  5
B5
  8
SPEC
 62
     7
 10
1.799999999999996
 20
355.37772000000001
 30
0.0
 40
3.9773800000000001
  1
開放端電圧 -74.5dB* (0.19mV)　*0dB=1V/μbar
 11
1.7999999999999969
 21
359.35509999999999
 31
0.0
 73
     3
  0
LINE
  5
B6
  8
SPEC
  6
CONTINUOUS
 62
     7
 10
-65.0
 20
383.53181999999998
 30
0.0
 11
230.0
 21
383.53181999999998
 31
0.0
  0
LINE
  5
B7
  8
SPEC
  6
CONTINUOUS
 62
     7
 10
-65.0
 20
376.03181999999998
 30
0.0
 11
230.0
 21
376.03181999999998
 31
0.0
  0
LINE
  5
B8
  8
SPEC
  6
CONTINUOUS
 62
     7
 10
-65.0
 20
361.03181999999998
 30
0.0
 11
230.0
 21
361.03181999999998
 31
0.0
  0
LINE
  5
B9
  8
SPEC
  6
CONTINUOUS
 62
     7
 10
-65.0
 20
368.53181999999998
 30
0.0
 11
230.0
 21
368.53181999999998
 31
0.0
  0
TEXT
  5
BA
  8
SPEC
 62
     7
 10
1.799999999999996
 20
377.904
 30
0.0
 40
3.9510999999999989
  1
ダイナミック型
 11
1.7999999999999969
 21
381.85509999999988
 31
0.0
 73
     3
  0
LINE
  5
BB
  8
SPEC
  6
CONTINUOUS
 62
     7
 10
-65.0
 20
383.53181999999998
 30
0.0
 11
-65.0
 21
308.53181999999998
 31
0.0
  0
TEXT
  5
BC
  8
SPEC
 62
     7
 10
-62.5
 20
386.69936000000001
 30
0.0
 40
5.0800000000000001
  1
仕様
 11
-62.5
 21
391.77935999999988
 31
0.0
 73
     3
  0
LINE
  5
BD
  8
SPEC
  6
CONTINUOUS
 62
     7
 10
0.0
 20
383.53181999999998
 30
0.0
 11
0.0
 21
308.53181999999998
 31
0.0
  0
LINE
  5
BE
  8
SPEC
  6
CONTINUOUS
 62
     7
 10
230.0
 20
383.53181999999998
 30
0.0
 11
230.0
 21
308.53181999999998
 31
0.0
  0
TEXT
  5
BF
  8
SPEC
 62
     7
 10
-63.199999999999989
 20
377.904
 30
0.0
 40
3.9510999999999989
  1
形式
 11
-63.199999999999989
 21
381.85509999999988
 31
0.0
 73
     3
  0
TEXT
  5
C0
  8
SPEC
 62
     7
 10
-63.199999999999989
 20
355.404
 30
0.0
 40
3.9510999999999989
  1
出力レベル(@1kHz)
 11
-63.199999999999989
 21
359.35509999999999
 31
0.0
 73
     3
  0
TEXT
  5
C1
  8
SPEC
 62
     7
 10
-63.199999999999989
 20
370.40399999999988
 30
0.0
 40
3.9510999999999989
  1
周波数特性
 11
-63.199999999999989
 21
374.35509999999999
 31
0.0
 73
     3
  0
TEXT
  5
C2
  8
SPEC
 62
     7
 10
-63.199999999999989
 20
362.90399999999988
 30
0.0
 40
3.9510999999999989
  1
指向特性
 11
-63.199999999999989
 21
366.85509999999988
 31
0.0
 73
     3
  0
TEXT
  5
C3
  8
SPEC
 62
     7
 10
1.799999999999996
 20
362.90399999999988
 30
0.0
 40
3.9510999999999989
  1
単一指向性(カーディオイド)
 11
1.7999999999999969
 21
366.85509999999988
 31
0.0
 73
     3
  0
TEXT
  5
C4
  8
SPEC
 62
     7
 10
1.799999999999996
 20
370.40399999999988
 30
0.0
 40
3.9510999999999989
  1
50Hz～15kHz
 11
1.7999999999999969
 21
374.35509999999999
 31
0.0
 73
     3
  0
LINE
  5
C5
  8
SPEC
  6
CONTINUOUS
 62
     7
 10
-65.0
 20
338.53181999999998
 30
0.0
 11
230.0
 21
338.53181999999998
 31
0.0
  0
LINE
  5
C6
  8
SPEC
  6
CONTINUOUS
 62
     7
 10
-65.0
 20
346.03181999999998
 30
0.0
 11
230.0
 21
346.03181999999998
 31
0.0
  0
TEXT
  5
C7
  8
SPEC
 62
     7
 10
-63.199999999999989
 20
340.404
 30
0.0
 40
3.9510999999999989
  1
インピーダンス
 11
-63.199999999999989
 21
344.35509999999988
 31
0.0
 73
     3
  0
TEXT
  5
C8
  8
SPEC
 62
     7
 10
-63.199999999999989
 20
332.90399999999988
 30
0.0
 40
3.9510999999999989
  1
外装
 11
-63.199999999999989
 21
336.85509999999999
 31
0.0
 73
     3
  0
TEXT
  5
C9
  8
SPEC
 62
     7
 10
1.799999999999996
 20
340.404
 30
0.0
 40
3.9510999999999989
  1
150Ω(300Ω実効)
 11
1.7999999999999969
 21
344.35509999999988
 31
0.0
 73
     3
  0
TEXT
  5
CA
  8
SPEC
 62
     7
 10
1.799999999999996
 20
332.90399999999988
 30
0.0
 40
3.9510999999999989
  1
ダイキャストメタル、ダークグレイエナメル塗装つや消し仕上げ、球状スチールメッシュグリル
 11
1.7999999999999969
 21
336.85509999999999
 31
0.0
 73
     3
  0
LINE
  5
CB
  8
SPEC
  6
CONTINUOUS
 62
     7
 10
-65.0
 20
323.53181999999998
 30
0.0
 11
230.0
 21
323.53181999999998
 31
0.0
  0
LINE
  5
CC
  8
SPEC
  6
CONTINUOUS
 62
     7
 10
-65.0
 20
308.53181999999998
 30
0.0
 11
230.0
 21
308.53181999999998
 31
0.0
  0
LINE
  5
CD
  8
SPEC
  6
CONTINUOUS
 62
     7
 10
-65.0
 20
316.03181999999998
 30
0.0
 11
230.0
 21
316.03181999999998
 31
0.0
  0
TEXT
  5
CE
  8
SPEC
 62
     7
 10
-63.199999999999989
 20
310.30399999999997
 30
0.0
 40
3.9510999999999989
  1
重量
 11
-63.199999999999989
 21
314.25509999999991
 31
0.0
 73
     3
  0
TEXT
  5
CF
  8
SPEC
 62
     7
 10
1.799999999999996
 20
317.904
 30
0.0
 40
3.9510999999999989
  1
φ51×165mm
 11
1.7999999999999969
 21
321.85509999999999
 31
0.0
 73
     3
  0
TEXT
  5
D0
  8
SPEC
 62
     7
 10
1.799999999999996
 20
310.30399999999997
 30
0.0
 40
3.9510999999999989
  1
約310g
 11
1.7999999999999969
 21
314.25509999999991
 31
0.0
 73
     3
  0
TEXT
  5
D1
  8
SPEC
 62
     7
 10
-63.199999999999989
 20
318.11959999999988
 30
0.0
 40
3.9510999999999989
  1
寸法
 11
-63.199999999999989
 21
322.07069999999987
 31
0.0
 73
     3
  0
LINE
  5
D2
  8
SPEC
  6
CONTINUOUS
 62
     7
 10
-65.0
 20
331.03181999999998
 30
0.0
 11
230.0
 21
331.03181999999998
 31
0.0
  0
TEXT
  5
D3
  8
SPEC
 62
     7
 10
1.799999999999996
 20
325.40399999999988
 30
0.0
 40
3.9510999999999989
  1
XLR3ピン オス
 11
1.7999999999999969
 21
329.35509999999988
 31
0.0
 73
     3
  0
TEXT
  5
D4
  8
SPEC
 62
     7
 10
-63.199999999999989
 20
325.61959999999999
 30
0.0
 40
3.9510999999999989
  1
出力コネクター
 11
-63.199999999999989
 21
329.57069999999999
 31
0.0
 73
     3
  0
TEXT
  5
D5
  8
DIMNSIONS
 62
     7
 10
60.0
 20
-91.548199999999994
 30
0.0
 40
5.0800000000000001
  1
(単位：mm)
 11
60.0
 21
-86.468199999999996
 31
0.0
 73
     3
  0
LINE
  5
D6
  8
DIMNSIONS
  6
CONTINUOUS
 62
     7
 10
-25.0
 20
79.962600000000009
 30
0.0
 11
-25.0
 21
154.0
 31
0.0
  0
LINE
  5
D7
  8
DIMNSIONS
  6
CONTINUOUS
 62
     7
 10
140.01510999999991
 20
91.0
 30
0.0
 11
140.01510999999991
 21
154.0
 31
0.0
  0
LINE
  5
D9
  8
DIMNSIONS
 62
     7
 10
-25.0
 20
150.0
 30
0.0
 11
-18.650009999999991
 21
151.70147
 31
0.0
  0
LINE
  5
DA
  8
DIMNSIONS
 62
     7
 10
-25.0
 20
150.0
 30
0.0
 11
-18.650009999999991
 21
148.29851999999991
 31
0.0
  0
LINE
  5
DB
  8
DIMNSIONS
 62
     7
 10
140.01510999999991
 20
150.0
 30
0.0
 11
133.66511
 21
148.29851999999991
 31
0.0
  0
LINE
  5
DC
  8
DIMNSIONS
 62
     7
 10
140.01510999999991
 20
150.0
 30
0.0
 11
133.66511
 21
151.70147
 31
0.0
  0
LINE
  5
D8
  8
DIMNSIONS
  6
CONTINUOUS
 62
     7
 10
-25.0
 20
150.0
 30
0.0
 11
140.01510999999991
 21
150.0
 31
0.0
  0
INSERT
  5
DD
  8
DIMNSIONS
  2
*G0
 10
100.0
 20
140.0
 30
0.0
  0
LINE
  5
DE
  8
DIMNSIONS
  6
CONTINUOUS
 62
     7
 10
-25.0
 20
79.962600000000009
 30
0.0
 11
-25.0
 21
129.0
 31
0.0
  0
LINE
  5
DF
  8
DIMNSIONS
  6
CONTINUOUS
 62
     7
 10
19.325109999999992
 20
99.583159999999992
 30
0.0
 11
19.325109999999992
 21
129.0
 31
0.0
  0
LINE
  5
E1
  8
DIMNSIONS
 62
     7
 10
-25.0
 20
125.0
 30
0.0
 11
-18.650009999999991
 21
126.70147
 31
0.0
  0
LINE
  5
E2
  8
DIMNSIONS
 62
     7
 10
-25.0
 20
125.0
 30
0.0
 11
-18.650009999999991
 21
123.2985199999999
 31
0.0
  0
LINE
  5
E3
  8
DIMNSIONS
 62
     7
 10
19.325109999999992
 20
125.0
 30
0.0
 11
12.975110000000001
 21
123.2985199999999
 31
0.0
  0
LINE
  5
E4
  8
DIMNSIONS
 62
     7
 10
19.325109999999992
 20
125.0
 30
0.0
 11
12.975110000000001
 21
126.70147
 31
0.0
  0
LINE
  5
E0
  8
DIMNSIONS
  6
CONTINUOUS
 62
     7
 10
-25.0
 20
125.0
 30
0.0
 11
19.325109999999992
 21
125.0
 31
0.0
  0
INSERT
  5
E5
  8
DIMNSIONS
  2
*G1
 10
100.0
 20
140.0
 30
0.0
  0
LINE
  5
E6
  8
DIMNSIONS
  6
CONTINUOUS
 62
     7
 10
19.325109999999992
 20
99.583159999999992
 30
0.0
 11
19.325109999999992
 21
129.0
 31
0.0
  0
LINE
  5
E7
  8
DIMNSIONS
  6
CONTINUOUS
 62
     7
 10
140.01510999999991
 20
91.0
 30
0.0
 11
140.01510999999991
 21
129.0
 31
0.0
  0
LINE
  5
E9
  8
DIMNSIONS
 62
     7
 10
19.325109999999992
 20
125.0
 30
0.0
 11
25.6751
 21
126.70147
 31
0.0
  0
LINE
  5
EA
  8
DIMNSIONS
 62
     7
 10
19.325109999999992
 20
125.0
 30
0.0
 11
25.6751
 21
123.2985199999999
 31
0.0
  0
LINE
  5
EB
  8
DIMNSIONS
 62
     7
 10
140.01510999999991
 20
125.0
 30
0.0
 11
133.66511
 21
123.2985199999999
 31
0.0
  0
LINE
  5
EC
  8
DIMNSIONS
 62
     7
 10
140.01510999999991
 20
125.0
 30
0.0
 11
133.66511
 21
126.70147
 31
0.0
  0
LINE
  5
E8
  8
DIMNSIONS
  6
CONTINUOUS
 62
     7
 10
19.325109999999992
 20
125.0
 30
0.0
 11
140.01510999999991
 21
125.0
 31
0.0
  0
INSERT
  5
ED
  8
DIMNSIONS
  2
*G2
 10
100.0
 20
140.0
 30
0.0
  0
LINE
  5
EE
  8
DIMNSIONS
  6
CONTINUOUS
 62
     7
 10
179.49999999999989
 20
87.0
 30
0.0
 11
229.0
 21
87.0
 31
0.0
  0
LINE
  5
EF
  8
DIMNSIONS
  6
CONTINUOUS
 62
     7
 10
179.49999999999989
 20
64.0
 30
0.0
 11
229.0
 21
64.0
 31
0.0
  0
LINE
  5
F1
  8
DIMNSIONS
 62
     7
 10
225.0
 20
87.0
 30
0.0
 11
226.70147
 21
80.650000000000006
 31
0.0
  0
LINE
  5
F2
  8
DIMNSIONS
 62
     7
 10
225.0
 20
87.0
 30
0.0
 11
223.29851999999991
 21
80.650000000000006
 31
0.0
  0
LINE
  5
F3
  8
DIMNSIONS
 62
     7
 10
225.0
 20
64.0
 30
0.0
 11
223.29851999999991
 21
70.349990000000005
 31
0.0
  0
LINE
  5
F4
  8
DIMNSIONS
 62
     7
 10
225.0
 20
64.0
 30
0.0
 11
226.70147
 21
70.349990000000005
 31
0.0
  0
LINE
  5
F0
  8
DIMNSIONS
  6
CONTINUOUS
 62
     7
 10
225.0
 20
87.0
 30
0.0
 11
225.0
 21
64.0
 31
0.0
  0
INSERT
  5
F5
  8
DIMNSIONS
  2
*G3
 10
100.0
 20
140.0
 30
0.0
  0
LINE
  5
F6
  8
DIMNSIONS
  6
CONTINUOUS
 62
     7
 10
179.49999999999989
 20
94.749999999999986
 30
0.0
 11
247.75
 21
94.749999999999986
 31
0.0
  0
LINE
  5
F7
  8
DIMNSIONS
  6
CONTINUOUS
 62
     7
 10
179.49999999999989
 20
56.25
 30
0.0
 11
247.75
 21
56.25
 31
0.0
  0
LINE
  5
F9
  8
DIMNSIONS
 62
     7
 10
243.75
 20
94.749999999999986
 30
0.0
 11
245.45147
 21
88.400000000000006
 31
0.0
  0
LINE
  5
FA
  8
DIMNSIONS
 62
     7
 10
243.75
 20
94.749999999999986
 30
0.0
 11
242.04851999999991
 21
88.400000000000006
 31
0.0
  0
LINE
  5
FB
  8
DIMNSIONS
 62
     7
 10
243.75
 20
56.25
 30
0.0
 11
242.04851999999991
 21
62.599989999999998
 31
0.0
  0
LINE
  5
FC
  8
DIMNSIONS
 62
     7
 10
243.75
 20
56.25
 30
0.0
 11
245.45147
 21
62.599989999999998
 31
0.0
  0
LINE
  5
F8
  8
DIMNSIONS
  6
CONTINUOUS
 62
     7
 10
243.75
 20
94.749999999999986
 30
0.0
 11
243.75
 21
56.25
 31
0.0
  0
INSERT
  5
FD
  8
DIMNSIONS
  2
*G4
 10
100.0
 20
140.0
 30
0.0
  0
LINE
  5
FE
  8
DIMNSIONS
  6
CONTINUOUS
 62
     7
 10
179.49999999999989
 20
101.0
 30
0.0
 11
266.5
 21
101.0
 31
0.0
  0
LINE
  5
FF
  8
DIMNSIONS
  6
CONTINUOUS
 62
     7
 10
179.49999999999989
 20
50.0
 30
0.0
 11
266.5
 21
50.0
 31
0.0
  0
LINE
  5
101
  8
DIMNSIONS
 62
     7
 10
262.5
 20
101.0
 30
0.0
 11
264.20146999999992
 21
94.650000000000006
 31
0.0
  0
LINE
  5
102
  8
DIMNSIONS
 62
     7
 10
262.5
 20
101.0
 30
0.0
 11
260.79851999999988
 21
94.650000000000006
 31
0.0
  0
LINE
  5
103
  8
DIMNSIONS
 62
     7
 10
262.5
 20
50.0
 30
0.0
 11
260.79851999999988
 21
56.349989999999998
 31
0.0
  0
LINE
  5
104
  8
DIMNSIONS
 62
     7
 10
262.5
 20
50.0
 30
0.0
 11
264.20146999999992
 21
56.349989999999998
 31
0.0
  0
LINE
  5
100
  8
DIMNSIONS
  6
CONTINUOUS
 62
     7
 10
262.5
 20
101.0
 30
0.0
 11
262.5
 21
50.0
 31
0.0
  0
INSERT
  5
105
  8
DIMNSIONS
  2
*G5
 10
100.0
 20
140.0
 30
0.0
  0
TEXT
  5
106
  8
DATA
 62
     7
 10
194.1999999999999
 20
-79.325399999999988
 30
0.0
 40
5.0800000000000001
  1
SHURE
 11
194.1999999999999
 21
-74.245399999999989
 31
0.0
 73
     3
  0
TEXT
  5
107
  8
DATA
 62
     7
 10
194.1999999999999
 20
-85.206309999999988
 30
0.0
 40
3.3866700000000001
  1
ダイナミック型・単一指向性マイクロホン
 11
194.1999999999999
 21
-81.819639999999978
 31
0.0
 73
     3
  0
TEXT
  5
108
  8
DATA
 62
     7
 10
194.1999999999999
 20
-93.31483999999999
 30
0.0
 40
5.0800000000000001
  1
SM58-LCE
 11
194.1999999999999
 21
-88.234839999999977
 31
0.0
 73
     3
  0
LINE
  5
109
  8
DATA
  6
CONTINUOUS
 62
     7
 10
140.01510999999991
 20
87.0
 30
0.0
 11
140.01510999999991
 21
64.0
 31
0.0
  0
LINE
  5
10A
  8
DATA
  6
CONTINUOUS
 62
     7
 10
45.845109999999998
 20
91.5
 30
0.0
 11
45.845109999999998
 21
59.5
 31
0.0
  0
LINE
  5
10B
  8
DATA
  6
CONTINUOUS
 62
     7
 10
45.845109999999998
 20
91.0
 30
0.0
 11
139.71511000000001
 21
87.0
 31
0.0
  0
LINE
  5
10C
  8
DATA
  6
CONTINUOUS
 62
     7
 10
45.845109999999998
 20
60.0
 30
0.0
 11
139.71511000000001
 21
64.0
 31
0.0
  0
LINE
  5
10D
  8
DATA
  6
CONTINUOUS
 62
     7
 10
23.845109999999998
 20
58.81183
 30
0.0
 11
23.845109999999998
 21
92.590910000000008
 31
0.0
  0
LINE
  5
10E
  8
DATA
  6
CONTINUOUS
 62
     7
 10
29.845109999999998
 20
92.590910000000008
 30
0.0
 11
45.845109999999998
 21
91.5
 31
0.0
  0
LINE
  5
10F
  8
DATA
  6
CONTINUOUS
 62
     7
 10
29.845109999999998
 20
58.81183
 30
0.0
 11
45.845109999999998
 21
59.5
 31
0.0
  0
LINE
  5
110
  8
DATA
  6
CONTINUOUS
 62
     7
 10
23.845109999999998
 20
58.81183
 30
0.0
 11
18.845109999999998
 21
55.5
 31
0.0
  0
LINE
  5
111
  8
DATA
  6
CONTINUOUS
 62
     7
 10
23.845109999999998
 20
92.590910000000008
 30
0.0
 11
19.01258
 21
95.790059999999997
 31
0.0
  0
LINE
  5
112
  8
DATA
  6
CONTINUOUS
 62
     7
 10
19.325109999999992
 20
95.583159999999992
 30
0.0
 11
19.325109999999992
 21
55.5
 31
0.0
  0
LINE
  5
113
  8
DATA
  6
CONTINUOUS
 62
     7
 10
4.3251099999999951
 20
101.0
 30
0.0
 11
4.3251099999999951
 21
50.0
 31
0.0
  0
LINE
  5
114
  8
DATA
  6
CONTINUOUS
 62
     7
 10
-0.1748900000000049
 20
101.0
 30
0.0
 11
-0.1748900000000049
 21
50.0
 31
0.0
  0
ARC
  5
115
  8
DATA
  6
CONTINUOUS
 62
     7
 10
-0.1748900000000049
 20
75.5
 30
0.0
 40
24.829419999999988
 50
90.0
 51
270.0
  0
ARC
  5
116
  8
DATA
  6
CONTINUOUS
 62
     7
 10
4.3251099999999951
 20
75.5
 30
0.0
 40
24.800000000000001
 50
270.0
 51
307.16569298859991
  0
LINE
  5
117
  8
DATA
  6
CONTINUOUS
 62
     7
 10
-0.1748900000000049
 20
50.0
 30
0.0
 11
1.3251099999999949
 21
50.0
 31
0.0
  0
LINE
  5
118
  8
DATA
  6
CONTINUOUS
 62
     7
 10
4.3251099999999951
 20
50.0
 30
0.0
 11
2.8251099999999951
 21
50.0
 31
0.0
  0
LINE
  5
119
  8
DATA
  6
CONTINUOUS
 62
     7
 10
4.3251099999999951
 20
101.0
 30
0.0
 11
2.8251099999999951
 21
101.0
 31
0.0
  0
LINE
  5
11A
  8
DATA
  6
CONTINUOUS
 62
     7
 10
-0.1748900000000049
 20
101.0
 30
0.0
 11
1.3251099999999949
 21
101.0
 31
0.0
  0
ARC
  5
11B
  8
DATA
  6
CONTINUOUS
 62
     7
 10
4.3251099999999951
 20
75.5
 30
0.0
 40
24.829419999999988
 50
52.834306674828959
 51
90.0
  0
CIRCLE
  5
11C
  8
DATA
  6
CONTINUOUS
 62
     7
 10
175.5
 20
75.5
 30
0.0
 40
11.5
  0
CIRCLE
  5
11D
  8
DATA
  6
CONTINUOUS
 62
     7
 10
175.5
 20
79.700000000000003
 30
0.0
 40
1.25
  0
CIRCLE
  5
11E
  8
DATA
  6
CONTINUOUS
 62
     7
 10
179.6999999999999
 20
75.5
 30
0.0
 40
1.25
  0
CIRCLE
  5
11F
  8
DATA
  6
CONTINUOUS
 62
     7
 10
175.5
 20
75.5
 30
0.0
 40
19.25
  0
CIRCLE
  5
120
  8
DATA
  6
CONTINUOUS
 62
     7
 10
175.5
 20
75.5
 30
0.0
 40
25.0
  0
CIRCLE
  5
121
  8
DATA
  6
CONTINUOUS
 62
     7
 10
175.5
 20
75.5
 30
0.0
 40
25.5
  0
CIRCLE
  5
122
  8
DATA
  6
CONTINUOUS
 62
     7
 10
175.5
 20
71.299999999999983
 30
0.0
 40
1.25
  0
LINE
  5
123
  8
DATA
  6
CONTINUOUS
 62
     7
 10
29.845109999999998
 20
58.81183
 30
0.0
 11
29.845109999999998
 21
92.590910000000008
 31
0.0
  0
LINE
  5
124
  8
DATA
  6
CONTINUOUS
 62
     7
 10
29.845109999999998
 20
92.590910000000008
 30
0.0
 11
23.845109999999998
 21
92.590910000000008
 31
0.0
  0
LINE
  5
125
  8
DATA
  6
CONTINUOUS
 62
     7
 10
29.845109999999998
 20
58.81183
 30
0.0
 11
23.845109999999998
 21
58.81183
 31
0.0
  0
LINE
  5
126
  8
DATA
  6
CONTINUOUS
 62
     7
 10
170.90662
 20
82.203559999999996
 30
0.0
 11
170.19951999999989
 21
82.910659999999993
 31
0.0
  0
LINE
  5
127
  8
DATA
  6
CONTINUOUS
 62
     7
 10
168.78530000000001
 20
80.082239999999999
 30
0.0
 11
168.0781999999999
 21
80.789340000000024
 31
0.0
  0
LINE
  5
128
  8
DATA
  6
CONTINUOUS
 62
     7
 10
168.0781999999999
 20
80.789340000000024
 30
0.0
 11
170.19951999999989
 21
82.910659999999993
 31
0.0
  0
ARC
  5
129
  8
DATA
  6
CONTINUOUS
 62
     7
 10
175.5
 20
75.5
 30
0.0
 40
8.0
 50
145.689595916733
 51
124.4195428246199
  0
LINE
  5
12A
  8
DATA
  6
CONTINUOUS
 62
     7
 10
1.3251099999999949
 20
101.0
 30
0.0
 11
1.3251099999999949
 21
50.0
 31
0.0
  0
LINE
  5
12B
  8
DATA
  6
CONTINUOUS
 62
     7
 10
2.8251099999999951
 20
101.0
 30
0.0
 11
2.8251099999999951
 21
50.0
 31
0.0
  0
LINE
  5
12C
  8
DATA
  6
CONTINUOUS
 62
     7
 10
1.3251099999999949
 20
100.5
 30
0.0
 11
2.8251099999999951
 21
100.5
 31
0.0
  0
LINE
  5
12D
  8
DATA
  6
CONTINUOUS
 62
     7
 10
1.3251099999999949
 20
50.5
 30
0.0
 11
2.8251099999999951
 21
50.5
 31
0.0
  0
CIRCLE
  5
12E
  8
DATA
  6
CONTINUOUS
 62
     7
 10
123.51510999999989
 20
75.5
 30
0.0
 40
1.8999999999999999
  0
ARC
  5
12F
  8
DATA
  6
CONTINUOUS
 62
     7
 10
137.74511000000001
 20
77.75
 30
0.0
 40
1.0
 50
0.0
 51
180.0
  0
ARC
  5
130
  8
DATA
  6
CONTINUOUS
 62
     7
 10
137.74511000000001
 20
73.25
 30
0.0
 40
1.0
 50
180.0
 51
0.0
  0
LINE
  5
131
  8
DATA
  6
CONTINUOUS
 62
     7
 10
136.77686
 20
77.5
 30
0.0
 11
136.77686
 21
73.5
 31
0.0
  0
LINE
  5
132
  8
DATA
  6
CONTINUOUS
 62
     7
 10
138.71335999999999
 20
77.5
 30
0.0
 11
138.71335999999999
 21
73.5
 31
0.0
  0
TEXT
  5
133
  8
DATA
 62
     7
 10
28.815699999999989
 20
77.40137
 30
0.0
 40
4.7999999999999989
  1
SHURE
 50
90.0
 11
24.015699999999988
 21
77.40137
 31
0.0
 73
     3
  0
TEXT
  5
134
  8
DATA
 62
     7
 10
28.415700000000001
 20
63.5
 30
0.0
 40
4.0
  1
SM58
 50
90.0
 11
24.415700000000001
 21
63.5
 31
0.0
 73
     3
  0
ENDSEC
  0
EOF
