  0
SECTION
  2
HEADER
  9
$ACADVER
  1
AC1009
  9
$INSBASE
 10
0.0
 20
0.0
 30
0.0
  9
$EXTMIN
 10
-80.011058761889899
 20
-131.2355013938099
 30
-0.0015258207003583
  9
$EXTMAX
 10
280.00021605861559
 20
403.54814055060478
 30
0.0000000349246037
  9
$LIMMIN
 10
0.0
 20
0.0
  9
$LIMMAX
 10
0.0
 20
0.0
  9
$ORTHOMODE
 70
     0
  9
$REGENMODE
 70
     1
  9
$FILLMODE
 70
     1
  9
$QTEXTMODE
 70
     0
  9
$MIRRTEXT
 70
     1
  9
$DRAGMODE
 70
     2
  9
$LTSCALE
 40
10.16
  9
$OSMODE
 70
   167
  9
$ATTMODE
 70
     1
  9
$TEXTSIZE
 40
0.0
  9
$TRACEWID
 40
1.0
  9
$TEXTSTYLE
  7
STANDARD
  9
$CLAYER
  8
0
  9
$CELTYPE
  6
CONTINUOUS
  9
$CECOLOR
 62
   256
  9
$DIMSCALE
 40
1.0
  9
$DIMASZ
 40
0.18
  9
$DIMEXO
 40
0.0625
  9
$DIMDLI
 40
0.38
  9
$DIMRND
 40
0.0
  9
$DIMDLE
 40
0.0
  9
$DIMEXE
 40
0.18
  9
$DIMTP
 40
0.0
  9
$DIMTM
 40
0.0
  9
$DIMTXT
 40
0.18
  9
$DIMCEN
 40
0.09
  9
$DIMTSZ
 40
0.0
  9
$DIMTOL
 70
     0
  9
$DIMLIM
 70
     0
  9
$DIMTIH
 70
     1
  9
$DIMTOH
 70
     1
  9
$DIMSE1
 70
     0
  9
$DIMSE2
 70
     0
  9
$DIMTAD
 70
     0
  9
$DIMZIN
 70
     0
  9
$DIMBLK
  1

  9
$DIMASO
 70
     1
  9
$DIMSHO
 70
     1
  9
$DIMPOST
  1

  9
$DIMAPOST
  1

  9
$DIMALT
 70
     0
  9
$DIMALTD
 70
     2
  9
$DIMALTF
 40
25.399999999999999
  9
$DIMLFAC
 40
1.0
  9
$DIMTOFL
 70
     0
  9
$DIMTVP
 40
0.0
  9
$DIMTIX
 70
     0
  9
$DIMSOXD
 70
     0
  9
$DIMSAH
 70
     0
  9
$DIMBLK1
  1

  9
$DIMBLK2
  1

  9
$DIMSTYLE
  2
STANDARD
  9
$DIMCLRD
 70
     0
  9
$DIMCLRE
 70
     0
  9
$DIMCLRT
 70
     0
  9
$DIMTFAC
 40
1.0
  9
$DIMGAP
 40
0.09
  9
$LUNITS
 70
     2
  9
$LUPREC
 70
     4
  9
$SKETCHINC
 40
0.1
  9
$FILLETRAD
 40
0.0
  9
$AUNITS
 70
     0
  9
$AUPREC
 70
     0
  9
$MENU
  1
acad
  9
$ELEVATION
 40
0.0
  9
$PELEVATION
 40
0.0
  9
$THICKNESS
 40
0.0
  9
$LIMCHECK
 70
     0
  9
$BLIPMODE
 70
     0
  9
$CHAMFERA
 40
0.0
  9
$CHAMFERB
 40
0.0
  9
$SKPOLY
 70
     0
  9
$TDCREATE
 40
2452482.871423611
  9
$TDUPDATE
 40
2452482.4982949072
  9
$TDINDWG
 40
0.0014563657
  9
$TDUSRTIMER
 40
0.0014563657
  9
$USRTIMER
 70
     1
  9
$ANGBASE
 50
0.0
  9
$ANGDIR
 70
     0
  9
$PDMODE
 70
     1
  9
$PDSIZE
 40
-2.0
  9
$PLINEWID
 40
0.0
  9
$COORDS
 70
     0
  9
$SPLFRAME
 70
     0
  9
$SPLINETYPE
 70
     6
  9
$SPLINESEGS
 70
     8
  9
$ATTDIA
 70
     0
  9
$ATTREQ
 70
     1
  9
$HANDLING
 70
 22529
  9
$HANDSEED
  5
107
  9
$SURFTAB1
 70
     6
  9
$SURFTAB2
 70
     6
  9
$SURFTYPE
 70
     6
  9
$SURFU
 70
     6
  9
$SURFV
 70
     6
  9
$UCSNAME
  2

  9
$UCSORG
 10
0.0
 20
0.0
 30
0.0
  9
$UCSXDIR
 10
1.0
 20
0.0
 30
0.0
  9
$UCSYDIR
 10
0.0
 20
1.0
 30
0.0
  9
$PUCSNAME
  2

  9
$PUCSORG
 10
0.0
 20
0.0
 30
0.0
  9
$PUCSXDIR
 10
1.0
 20
0.0
 30
0.0
  9
$PUCSYDIR
 10
0.0
 20
1.0
 30
0.0
  9
$USERI1
 70
     0
  9
$USERI2
 70
     0
  9
$USERI3
 70
     0
  9
$USERI4
 70
     0
  9
$USERI5
 70
     0
  9
$USERR1
 40
0.0
  9
$USERR2
 40
0.0
  9
$USERR3
 40
0.0
  9
$USERR4
 40
0.0
  9
$USERR5
 40
0.0
  9
$WORLDVIEW
 70
     1
  9
$SHADEDGE
 70
     3
  9
$SHADEDIF
 70
    70
  9
$TILEMODE
 70
     1
  9
$MAXACTVP
 70
    16
  9
$PLIMCHECK
 70
     0
  9
$PEXTMIN
 10
1.0000000000000000E+020
 20
1.0000000000000000E+020
 30
1.0000000000000000E+020
  9
$PEXTMAX
 10
-1.0000000000000000E+020
 20
-1.0000000000000000E+020
 30
-1.0000000000000000E+020
  9
$PLIMMIN
 10
0.0
 20
0.0
  9
$PLIMMAX
 10
12.0
 20
9.0
  9
$UNITMODE
 70
     0
  9
$VISRETAIN
 70
     0
  9
$PLINEGEN
 70
     1
  9
$PSLTSCALE
 70
     0
  0
ENDSEC
  0
SECTION
  2
TABLES
  0
TABLE
  2
VPORT
 70
     2
  0
VPORT
  2
*ACTIVE
 70
     0
 10
0.0
 20
0.0
 11
1.0
 21
1.0
 12
99.994578916017531
 22
136.15631851321271
 13
0.0
 23
0.0
 14
1.0
 24
1.0
 15
0.0
 25
0.0
 16
0.0
 26
0.0
 36
1.0
 17
0.0
 27
0.0
 37
0.0
 40
589.03936356737779
 41
1.664912280701754
 42
50.0
 43
0.0
 44
0.0
 50
0.0
 51
0.0
 71
     0
 72
   100
 73
     1
 74
     1
 75
     0
 76
     0
 77
     0
 78
     0
  0
ENDTAB
  0
TABLE
  2
LTYPE
 70
    11
  0
LTYPE
  2
CONTINUOUS
 70
     0
  3
Solid line
 72
    65
 73
     0
 40
0.0
  0
LTYPE
  2
STYLE_01
 70
     0
  3

 72
    65
 73
     2
 40
0.4166412353515625
 49
0.208282470703125
 49
-0.2083587646484375
  0
LTYPE
  2
STYLE_02
 70
     0
  3

 72
    65
 73
     2
 40
0.694427490234375
 49
0.4860687255859375
 49
-0.2083587646484375
  0
LTYPE
  2
STYLE_03
 70
     0
  3

 72
    65
 73
     2
 40
1.25
 49
1.0416412353515621
 49
-0.2083587646484375
  0
LTYPE
  2
STYLE_04
 70
     0
  3

 72
    65
 73
     2
 40
1.5277099609375
 49
1.319427490234375
 49
-0.208282470703125
  0
LTYPE
  2
STYLE_05
 70
     0
  3

 72
    65
 73
     2
 40
0.208282470703125
 49
0.069427490234375
 49
-0.13885498046875
  0
LTYPE
  2
STYLE_06
 70
     0
  3

 72
    65
 73
     4
 40
1.0416412353515621
 49
0.625
 49
-0.208282470703125
 49
0.069427490234375
 49
-0.1389312744140625
  0
LTYPE
  2
STYLE_07
 70
     0
  3

 72
    65
 73
     6
 40
1.875
 49
0.625
 49
-0.208282470703125
 49
0.625
 49
-0.2083587646484375
 49
0.069427490234375
 49
-0.1389312744140625
  0
LTYPE
  2
STYLE_08
 70
     0
  3

 72
    65
 73
     6
 40
1.25
 49
0.625
 49
-0.208282470703125
 49
0.069427490234375
 49
-0.1389312744140625
 49
0.069427490234375
 49
-0.1389312744140625
  0
LTYPE
  2
STYLE_09
 70
     0
  3

 72
    65
 73
     4
 40
5.0
 49
3.75
 49
-0.2777862548828125
 49
0.694427490234375
 49
-0.2777862548828125
  0
LTYPE
  2
STYLE_10
 70
     0
  3

 72
    65
 73
     6
 40
5.9375
 49
3.75
 49
-0.2777862548828125
 49
0.694427490234375
 49
-0.2777862548828125
 49
0.625
 49
-0.3125
  0
ENDTAB
  0
TABLE
  2
LAYER
 70
     6
  0
LAYER
  2
0
 70
     0
 62
     7
  6
CONTINUOUS
  0
LAYER
  2
HIBINO-BASE
 70
     0
 62
     7
  6
CONTINUOUS
  0
LAYER
  2
PATTERN_FILL
 70
     0
 62
     7
  6
CONTINUOUS
  0
LAYER
  2
SPEC
 70
     0
 62
     7
  6
CONTINUOUS
  0
LAYER
  2
DIMNSIONS
 70
     0
 62
     7
  6
CONTINUOUS
  0
LAYER
  2
DATA
 70
     0
 62
     7
  6
CONTINUOUS
  0
ENDTAB
  0
TABLE
  2
STYLE
 70
     2
  0
STYLE
  2
STANDARD
 70
     0
 40
0.0
 41
1.0
 50
0.0
 71
     0
 42
0.0
  3
txt
  4
BIGFONT.SHX
  0
ENDTAB
  0
TABLE
  2
VIEW
 70
     0
  0
ENDTAB
  0
TABLE
  2
UCS
 70
     0
  0
ENDTAB
  0
TABLE
  2
APPID
 70
     1
  0
APPID
  2
ACAD
 70
     0
  0
ENDTAB
  0
TABLE
  2
DIMSTYLE
 70
     1
  0
DIMSTYLE
  2
STANDARD
 70
     0
  3

  4

  5

  6

  7

 40
1.0
 41
0.18
 42
0.0625
 43
0.38
 44
0.18
 45
0.0
 46
0.0
 47
0.0
 48
0.0
140
0.18
141
0.09
142
0.0
143
25.399999999999999
144
1.0
145
0.0
146
1.0
147
0.09
 71
     0
 72
     0
 73
     1
 74
     1
 75
     0
 76
     0
 77
     0
 78
     0
170
     0
171
     2
172
     0
173
     0
174
     0
175
     0
176
     0
177
     0
178
     0
  0
ENDTAB
  0
ENDSEC
  0
SECTION
  2
BLOCKS
  0
BLOCK
  8
0
  2
$MODEL_SPACE
 70
     0
 10
0.0
 20
0.0
 30
0.0
  3
$MODEL_SPACE
  1

  0
ENDBLK
  5
E
  8
0
  0
BLOCK
 67
     1
  8
0
  2
$PAPER_SPACE
 70
     0
 10
0.0
 20
0.0
 30
0.0
  3
$PAPER_SPACE
  1

  0
ENDBLK
  5
10
 67
     1
  8
0
  0
ENDSEC
  0
SECTION
  2
ENTITIES
  0
LINE
  5
33
  8
HIBINO-BASE
  6
CONTINUOUS
 62
     7
 10
-79.999990000000011
 20
403.53181999999993
 30
0.0
 11
279.99998999999991
 21
403.53181999999993
 31
0.0
  0
LINE
  5
34
  8
HIBINO-BASE
  6
CONTINUOUS
 62
     7
 10
279.99998999999991
 20
-116.4681699999999
 30
0.0
 11
-79.999990000000011
 21
-116.4681699999999
 31
0.0
  0
LINE
  5
35
  8
HIBINO-BASE
  6
CONTINUOUS
 62
     7
 10
-79.999990000000011
 20
-116.4681699999999
 30
0.0
 11
-79.999990000000011
 21
403.53181999999993
 31
0.0
  0
LINE
  5
37
  8
HIBINO-BASE
  6
CONTINUOUS
 62
     7
 10
279.99998999999991
 20
403.53181999999993
 30
0.0
 11
279.99998999999991
 21
-116.4681699999999
 31
0.0
  0
LINE
  5
38
  8
HIBINO-BASE
  6
CONTINUOUS
 62
     7
 10
100.0
 20
-71.46817999999999
 30
0.0
 11
279.99998999999991
 21
-71.46817999999999
 31
0.0
  0
LINE
  5
39
  8
HIBINO-BASE
  6
CONTINUOUS
 62
     7
 10
100.0
 20
-116.4681699999999
 30
0.0
 11
100.0
 21
-71.46817999999999
 31
0.0
  0
LINE
  5
3B
  8
HIBINO-BASE
  6
CONTINUOUS
 62
     7
 10
170.0
 20
-116.4681699999999
 30
0.0
 11
170.0
 21
-71.46817999999999
 31
0.0
  0
LINE
  5
3E
  8
HIBINO-BASE
  6
CONTINUOUS
 62
     7
 10
100.0
 20
-96.46817999999999
 30
0.0
 11
279.99998999999991
 21
-96.46817999999999
 31
0.0
  0
LINE
  5
46
  8
HIBINO-BASE
  6
CONTINUOUS
 62
     7
 10
128.74998999999991
 20
-113.9681799999999
 30
0.0
 11
136.25
 21
-106.46818
 31
0.0
  0
LINE
  5
48
  8
HIBINO-BASE
  6
CONTINUOUS
 62
     7
 10
124.9999899999999
 20
-116.4681699999999
 30
0.0
 11
124.9999899999999
 21
-96.46817999999999
 31
0.0
  0
LINE
  5
49
  8
HIBINO-BASE
  6
CONTINUOUS
 62
     7
 10
144.99998999999991
 20
-116.4681699999999
 30
0.0
 11
144.99998999999991
 21
-96.46817999999999
 31
0.0
  0
LINE
  5
4A
  8
HIBINO-BASE
  6
CONTINUOUS
 62
     7
 10
194.99998999999991
 20
-96.46817999999999
 30
0.0
 11
194.99998999999991
 21
-116.4681699999999
 31
0.0
  0
LINE
  5
4B
  8
HIBINO-BASE
  6
CONTINUOUS
 62
     7
 10
245.0
 20
-96.46817999999999
 30
0.0
 11
245.0
 21
-116.4681699999999
 31
0.0
  0
LINE
  5
4C
  8
HIBINO-BASE
  6
CONTINUOUS
 62
     7
 10
219.99998999999991
 20
-116.4681699999999
 30
0.0
 11
219.99998999999991
 21
-96.46817999999999
 31
0.0
  0
ARC
  5
51
  8
PATTERN_FILL
  6
CONTINUOUS
 62
     7
 10
-33.849550000000008
 20
47.509110000000007
 30
0.0
 40
33.893547925875211
 50
73.458965032164485
 51
124.81429250264389
  0
ARC
  5
52
  8
PATTERN_FILL
  6
CONTINUOUS
 62
     7
 10
-6.7877200000000073
 20
80.000010000000003
 30
0.0
 40
23.212267005895811
 50
138.60183480514999
 51
221.39818371066289
  0
ARC
  5
53
  8
PATTERN_FILL
  6
CONTINUOUS
 62
     7
 10
-28.060970000000012
 20
40.327109999999998
 30
0.0
 40
33.893519845429147
 50
83.458952656215914
 51
123.862290559885
  0
ARC
  5
54
  8
PATTERN_FILL
  6
CONTINUOUS
 62
     7
 10
-25.11148
 20
37.118730000000014
 30
0.0
 40
33.893528450620167
 50
88.458973453818601
 51
117.6932396649006
  0
ARC
  5
55
  8
PATTERN_FILL
  6
CONTINUOUS
 62
     7
 10
-22.155070000000009
 20
34.168219999999998
 30
0.0
 40
33.893524983022928
 50
93.458964075778795
 51
110.5418492097357
  0
ARC
  5
56
  8
PATTERN_FILL
  6
CONTINUOUS
 62
     7
 10
-30.981059999999999
 20
43.791739999999997
 30
0.0
 40
33.893540781951359
 50
78.458965997660925
 51
129.2519762646761
  0
ARC
  5
57
  8
PATTERN_FILL
  6
CONTINUOUS
 62
     7
 10
-44.38015
 20
64.768900000000002
 30
0.0
 40
33.893542297282828
 50
53.458963452767946
 51
62.539311411609511
  0
ARC
  5
58
  8
PATTERN_FILL
  6
CONTINUOUS
 62
     7
 10
-41.929999999999993
 20
60.113720000000001
 30
0.0
 40
33.893524522601652
 50
58.458966393599717
 51
81.388029376608387
  0
ARC
  5
59
  8
PATTERN_FILL
  6
CONTINUOUS
 62
     7
 10
-6.7877200000000073
 20
80.000010000000003
 30
0.0
 40
45.712299269102623
 50
166.82268745638021
 51
193.177324747586
  0
ARC
  5
5A
  8
PATTERN_FILL
  6
CONTINUOUS
 62
     7
 10
-6.7877200000000073
 20
80.000010000000003
 30
0.0
 40
43.212278574748858
 50
165.06460358624949
 51
194.93542203616781
  0
ARC
  5
5B
  8
PATTERN_FILL
  6
CONTINUOUS
 62
     7
 10
-6.7877200000000073
 20
80.000010000000003
 30
0.0
 40
38.212280890734583
 50
160.9949281511955
 51
199.0050860255472
  0
ARC
  5
5C
  8
PATTERN_FILL
  6
CONTINUOUS
 62
     7
 10
-6.7877200000000073
 20
80.000010000000003
 30
0.0
 40
28.212282654271348
 50
148.9484770398158
 51
211.05152988335419
  0
ARC
  5
5D
  8
PATTERN_FILL
  6
CONTINUOUS
 62
     7
 10
-6.7877200000000073
 20
80.000010000000003
 30
0.0
 40
33.21228519726548
 50
155.8603211375837
 51
204.139710347945
  0
ARC
  5
5E
  8
PATTERN_FILL
  6
CONTINUOUS
 62
     7
 10
-6.7877200000000073
 20
80.000010000000003
 30
0.0
 40
18.212286221847592
 50
162.95458674082411
 51
197.0454433371805
  0
ARC
  5
5F
  8
PATTERN_FILL
  6
CONTINUOUS
 62
     7
 10
-36.644600000000011
 20
51.473770000000002
 30
0.0
 40
33.893541074808049
 50
68.458958703013622
 51
119.23894482911351
  0
ARC
  5
60
  8
PATTERN_FILL
  6
CONTINUOUS
 62
     7
 10
-39.344929999999991
 20
55.678370000000001
 30
0.0
 40
33.893525338819501
 50
63.458959333405232
 51
114.1283455584641
  0
LINE
  5
61
  8
SPEC
  6
CONTINUOUS
 62
     7
 10
-64.999990000000011
 20
383.53181999999993
 30
0.0
 11
180.0
 21
383.53181999999993
 31
0.0
  0
LINE
  5
62
  8
SPEC
  6
CONTINUOUS
 62
     7
 10
-64.999990000000011
 20
376.03181999999993
 30
0.0
 11
180.0
 21
376.03181999999993
 31
0.0
  0
LINE
  5
63
  8
SPEC
  6
CONTINUOUS
 62
     7
 10
-64.999990000000011
 20
338.53181999999993
 30
0.0
 11
180.0
 21
338.53181999999993
 31
0.0
  0
LINE
  5
64
  8
SPEC
  6
CONTINUOUS
 62
     7
 10
-64.999990000000011
 20
346.03181999999993
 30
0.0
 11
180.0
 21
346.03181999999993
 31
0.0
  0
LINE
  5
65
  8
SPEC
  6
CONTINUOUS
 62
     7
 10
-64.999990000000011
 20
361.03181999999998
 30
0.0
 11
180.0
 21
361.03181999999998
 31
0.0
  0
LINE
  5
66
  8
SPEC
  6
CONTINUOUS
 62
     7
 10
-64.999990000000011
 20
368.53181999999993
 30
0.0
 11
180.0
 21
368.53181999999993
 31
0.0
  0
LINE
  5
68
  8
SPEC
  6
CONTINUOUS
 62
     7
 10
-64.999990000000011
 20
331.03181999999993
 30
0.0
 11
180.0
 21
331.03181999999993
 31
0.0
  0
LINE
  5
69
  8
SPEC
  6
CONTINUOUS
 62
     7
 10
-64.999990000000011
 20
308.53181999999993
 30
0.0
 11
180.0
 21
308.53181999999993
 31
0.0
  0
LINE
  5
6A
  8
SPEC
  6
CONTINUOUS
 62
     7
 10
-64.999990000000011
 20
316.03181999999993
 30
0.0
 11
180.0
 21
316.03181999999993
 31
0.0
  0
LINE
  5
6B
  8
SPEC
  6
CONTINUOUS
 62
     7
 10
-64.999990000000011
 20
323.53181999999998
 30
0.0
 11
180.0
 21
323.53181999999998
 31
0.0
  0
LINE
  5
6C
  8
SPEC
  6
CONTINUOUS
 62
     7
 10
-64.999990000000011
 20
383.53181999999993
 30
0.0
 11
-64.999990000000011
 21
308.53181999999993
 31
0.0
  0
LINE
  5
6E
  8
SPEC
  6
CONTINUOUS
 62
     7
 10
0.000009999999989
 20
383.53181999999993
 30
0.0
 11
0.000009999999989
 21
308.53181999999993
 31
0.0
  0
LINE
  5
6F
  8
SPEC
  6
CONTINUOUS
 62
     7
 10
180.0
 20
383.53181999999993
 30
0.0
 11
180.0
 21
308.53181999999993
 31
0.0
  0
LINE
  5
83
  8
DIMNSIONS
  6
CONTINUOUS
 62
     7
 10
-28.199989985098838
 20
63.400010000000002
 30
0.0
 11
-68.999979985098847
 21
63.400010000000002
 31
0.0
  0
LINE
  5
84
  8
DIMNSIONS
  6
CONTINUOUS
 62
     7
 10
-28.199989985098838
 20
96.599999999999994
 30
0.0
 11
-68.999979985098847
 21
96.599999999999994
 31
0.0
  0
LINE
  5
86
  8
DIMNSIONS
 62
     7
 10
-64.999980000000008
 20
63.400010000000002
 30
0.0
 11
-66.70145737193765
 21
69.750010000000003
 31
0.0
  0
LINE
  5
87
  8
DIMNSIONS
 62
     7
 10
-64.999980000000008
 20
63.400010000000002
 30
0.0
 11
-63.298502628062359
 21
69.750010000000003
 31
0.0
  0
LINE
  5
88
  8
DIMNSIONS
 62
     7
 10
-64.999980000000008
 20
96.599999999999994
 30
0.0
 11
-63.298502628062387
 21
90.25
 31
0.0
  0
LINE
  5
89
  8
DIMNSIONS
 62
     7
 10
-64.999980000000008
 20
96.599999999999994
 30
0.0
 11
-66.70145737193765
 21
90.25
 31
0.0
  0
LINE
  5
85
  8
DIMNSIONS
  6
CONTINUOUS
 62
     7
 10
-64.999980000000008
 20
63.400010000000002
 30
0.0
 11
-64.999980000000008
 21
96.599999999999994
 31
0.0
  0
LINE
  5
8B
  8
DIMNSIONS
  6
CONTINUOUS
 62
     7
 10
-53.19999
 20
67.61761001490116
 30
0.0
 11
-53.19999
 21
36.000010014901157
 31
0.0
  0
LINE
  5
8C
  8
DIMNSIONS
  6
CONTINUOUS
 62
     7
 10
180.0
 20
65.950000014901164
 30
0.0
 11
180.0
 21
36.000010014901157
 31
0.0
  0
LINE
  5
8E
  8
DIMNSIONS
 62
     7
 10
-53.19999
 20
40.000010000000003
 30
0.0
 11
-46.849989999999998
 21
41.701487371937631
 31
0.0
  0
LINE
  5
8F
  8
DIMNSIONS
 62
     7
 10
-53.19999
 20
40.000010000000003
 30
0.0
 11
-46.849989999999998
 21
38.298532628062368
 31
0.0
  0
LINE
  5
90
  8
DIMNSIONS
 62
     7
 10
180.0
 20
40.000010000000003
 30
0.0
 11
173.64999999999989
 21
38.298532628062368
 31
0.0
  0
LINE
  5
91
  8
DIMNSIONS
 62
     7
 10
180.0
 20
40.000010000000003
 30
0.0
 11
173.64999999999989
 21
41.701487371937631
 31
0.0
  0
LINE
  5
8D
  8
DIMNSIONS
  6
CONTINUOUS
 62
     7
 10
-53.19999
 20
40.000010000000003
 30
0.0
 11
180.0
 21
40.000010000000003
 31
0.0
  0
LINE
  5
93
  8
DIMNSIONS
  6
CONTINUOUS
 62
     7
 10
183.99999998509881
 20
90.049999999999997
 30
0.0
 11
198.99998998509869
 21
90.049999999999997
 31
0.0
  0
LINE
  5
94
  8
DIMNSIONS
  6
CONTINUOUS
 62
     7
 10
183.99999998509881
 20
69.950000000000003
 30
0.0
 11
198.99998998509869
 21
69.950000000000003
 31
0.0
  0
LINE
  5
96
  8
DIMNSIONS
 62
     7
 10
194.99998999999991
 20
90.049999999999997
 30
0.0
 11
196.70146737193761
 21
83.700000000000003
 31
0.0
  0
LINE
  5
97
  8
DIMNSIONS
 62
     7
 10
194.99998999999991
 20
90.049999999999997
 30
0.0
 11
193.2985126280623
 21
83.700000000000003
 31
0.0
  0
LINE
  5
98
  8
DIMNSIONS
 62
     7
 10
194.99998999999991
 20
69.950000000000003
 30
0.0
 11
193.2985126280623
 21
76.300000000000011
 31
0.0
  0
LINE
  5
99
  8
DIMNSIONS
 62
     7
 10
194.99998999999991
 20
69.950000000000003
 30
0.0
 11
196.70146737193761
 21
76.300000000000011
 31
0.0
  0
LINE
  5
95
  8
DIMNSIONS
  6
CONTINUOUS
 62
     7
 10
194.99998999999991
 20
90.049999999999997
 30
0.0
 11
194.99998999999991
 21
69.950000000000003
 31
0.0
  0
LINE
  5
9C
  8
DIMNSIONS
 62
     7
 10
224.04501999999991
 20
63.900390000000002
 30
0.0
 11
227.2321602594042
 21
58.150636769286521
 31
0.0
  0
LINE
  5
9D
  8
DIMNSIONS
 62
     7
 10
224.04501999999991
 20
63.900390000000002
 30
0.0
 11
223.93028781471139
 21
57.327387507008318
 31
0.0
  0
LINE
  5
9B
  8
DIMNSIONS
  6
CONTINUOUS
 62
     7
 10
224.04501999999991
 20
63.900390000000002
 30
0.0
 11
230.0499880689602
 21
40.000019506739967
 31
0.0
  0
LINE
  5
9E
  8
DIMNSIONS
  6
CONTINUOUS
 62
     7
 10
230.0499880689602
 20
40.000019506739967
 30
0.0
 11
242.0499780689602
 21
40.000019506739967
 31
0.0
  0
LINE
  5
A1
  8
DIMNSIONS
 62
     7
 10
226.27818999999991
 20
72.152270000000001
 30
0.0
 11
231.5284228344232
 21
68.195935783637665
 31
0.0
  0
LINE
  5
A2
  8
DIMNSIONS
 62
     7
 10
226.27818999999991
 20
72.152270000000001
 30
0.0
 11
228.84685790221249
 21
66.100867645556974
 31
0.0
  0
LINE
  5
A0
  8
DIMNSIONS
  6
CONTINUOUS
 62
     7
 10
226.27818999999991
 20
72.152270000000001
 30
0.0
 11
240.00000452542429
 21
55.000001843219508
 31
0.0
  0
LINE
  5
A3
  8
DIMNSIONS
  6
CONTINUOUS
 62
     7
 10
240.00000452542429
 20
55.000001843219508
 30
0.0
 11
251.99999452542431
 21
55.000001843219508
 31
0.0
  0
CIRCLE
  5
A7
  8
DATA
  6
CONTINUOUS
 62
     7
 10
219.99998999999991
 20
80.000010000000003
 30
0.0
 40
10.049989999999999
  0
LINE
  5
A8
  8
DATA
  6
CONTINUOUS
 62
     7
 10
180.0
 20
69.950000000000003
 30
0.0
 11
31.487059999999978
 21
69.950000000000003
 31
0.0
  0
LINE
  5
A9
  8
DATA
  6
CONTINUOUS
 62
     7
 10
180.0
 20
90.049999999999997
 30
0.0
 11
31.487059999999978
 21
90.049999999999997
 31
0.0
  0
LINE
  5
AA
  8
DATA
  6
CONTINUOUS
 62
     7
 10
180.0
 20
69.950000000000003
 30
0.0
 11
180.0
 21
90.049999999999997
 31
0.0
  0
LINE
  5
AB
  8
DATA
  6
CONTINUOUS
 62
     7
 10
-53.19999
 20
71.617609999999999
 30
0.0
 11
-53.19999
 21
88.382400000000004
 31
0.0
  0
LINE
  5
AC
  8
DATA
  6
CONTINUOUS
 62
     7
 10
-24.19999
 20
63.400010000000002
 30
0.0
 11
-24.19999
 21
96.599999999999994
 31
0.0
  0
LINE
  5
AD
  8
DATA
  6
CONTINUOUS
 62
     7
 10
-13.68704000000001
 20
63.400010000000002
 30
0.0
 11
-24.19999
 21
63.400010000000002
 31
0.0
  0
LINE
  5
AE
  8
DATA
  6
CONTINUOUS
 62
     7
 10
-24.19999
 20
96.599999999999994
 30
0.0
 11
-13.68704000000001
 21
96.599999999999994
 31
0.0
  0
LINE
  5
AF
  8
DATA
  6
CONTINUOUS
 62
     7
 10
57.29999999999999
 20
69.950000000000003
 30
0.0
 11
57.29999999999999
 21
90.049999999999997
 31
0.0
  0
ARC
  5
B0
  8
DATA
  6
CONTINUOUS
 62
     7
 10
-51.199989999999993
 20
71.617609999999999
 30
0.0
 40
2.0
 50
180.0
 51
259.64275351762183
  0
ARC
  5
B1
  8
DATA
  6
CONTINUOUS
 62
     7
 10
-51.199989999999993
 20
88.382400000000004
 30
0.0
 40
1.9999865383546911
 50
100.35701617450169
 51
180.0
  0
LINE
  5
B2
  8
DATA
  6
CONTINUOUS
 62
     7
 10
22.584649999999989
 20
90.848910000000004
 30
0.0
 11
-4.7846400000000102
 21
95.801090000000002
 31
0.0
  0
LINE
  5
B3
  8
DATA
  6
CONTINUOUS
 62
     7
 10
22.584649999999989
 20
69.1511
 30
0.0
 11
-4.7846400000000102
 21
64.198920000000001
 31
0.0
  0
ARC
  5
B4
  8
DATA
  6
CONTINUOUS
 62
     7
 10
-8.0750700000000109
 20
230.23226999999989
 30
0.0
 40
166.365555313334
 50
254.84809088530571
 51
264.43789567066062
  0
ARC
  5
B5
  8
DATA
  6
CONTINUOUS
 62
     7
 10
-8.0750700000000109
 20
-70.232269999999971
 30
0.0
 40
166.36556489658329
 50
95.562103995533889
 51
105.15191063857461
  0
ARC
  5
B6
  8
DATA
  6
CONTINUOUS
 62
     7
 10
-13.68704000000001
 20
46.600000000000009
 30
0.0
 40
49.999999829480991
 50
79.743918040426166
 51
90.0
  0
ARC
  5
B7
  8
DATA
  6
CONTINUOUS
 62
     7
 10
-13.68704000000001
 20
113.40000000000001
 30
0.0
 40
49.99998999999999
 50
270.0
 51
280.25609323563259
  0
ARC
  5
B8
  8
DATA
  6
CONTINUOUS
 62
     7
 10
31.487049999999989
 20
140.05000000000001
 30
0.0
 40
49.999999829480991
 50
259.74391804042608
 51
270.0
  0
ARC
  5
B9
  8
DATA
  6
CONTINUOUS
 62
     7
 10
31.487049999999989
 20
19.950009999999999
 30
0.0
 40
49.999990000000999
 50
89.999988540841827
 51
100.2560932356327
  0
LINE
  5
BA
  8
DATA
  6
CONTINUOUS
 62
     7
 10
-22.699989999999989
 20
63.400010000000002
 30
0.0
 11
-22.699989999999989
 21
96.599999999999994
 31
0.0
  0
LINE
  5
BB
  8
DATA
  6
CONTINUOUS
 62
     7
 10
-15.19999
 20
63.400010000000002
 30
0.0
 11
-15.19999
 21
96.599999999999994
 31
0.0
  0
LINE
  5
BC
  8
DATA
  6
CONTINUOUS
 62
     7
 10
-16.699989999999989
 20
63.400010000000002
 30
0.0
 11
-16.699989999999989
 21
96.599999999999994
 31
0.0
  0
CIRCLE
  5
BF
  8
DATA
  6
CONTINUOUS
 62
     7
 10
219.99998999999991
 20
84.199999999999989
 30
0.0
 40
1.2499917187725571
  0
CIRCLE
  5
C0
  8
DATA
  6
CONTINUOUS
 62
     7
 10
224.1999899999999
 20
80.000010000000003
 30
0.0
 40
1.250011061471066
  0
CIRCLE
  5
C1
  8
DATA
  6
CONTINUOUS
 62
     7
 10
219.99998999999991
 20
75.80001
 30
0.0
 40
1.2499917187725571
  0
LINE
  5
C2
  8
DATA
  6
CONTINUOUS
 62
     7
 10
215.40660999999989
 20
86.70356000000001
 30
0.0
 11
214.69951999999989
 21
87.41067000000001
 31
0.0
  0
LINE
  5
C3
  8
DATA
  6
CONTINUOUS
 62
     7
 10
213.28529999999989
 20
84.582250000000002
 30
0.0
 11
212.57820000000001
 21
85.28934000000001
 31
0.0
  0
LINE
  5
C4
  8
DATA
  6
CONTINUOUS
 62
     7
 10
212.57820000000001
 20
85.28934000000001
 30
0.0
 11
214.69951999999989
 21
87.41067000000001
 31
0.0
  0
ARC
  5
C5
  8
DATA
  6
CONTINUOUS
 62
     7
 10
219.99998999999991
 20
80.000010000000003
 30
0.0
 40
7.9999889825924049
 50
145.68961470403821
 51
124.4195242269373
  0
CIRCLE
  5
C6
  8
DATA
  6
CONTINUOUS
 62
     7
 10
219.99998999999991
 20
80.000010000000003
 30
0.0
 40
16.599989999999998
  0
CIRCLE
  5
C7
  8
DATA
  6
CONTINUOUS
 62
     7
 10
163.24998999999991
 20
79.999989999999997
 30
0.0
 40
1.750010000114288
  0
LINE
  5
C8
  8
DATA
  6
CONTINUOUS
 62
     7
 10
162.3020799999999
 20
81.471040000000002
 30
0.0
 11
164.99790999999991
 21
79.91461000000001
 31
0.0
  0
LINE
  5
C9
  8
DATA
  6
CONTINUOUS
 62
     7
 10
161.50206999999989
 20
80.085409999999996
 30
0.0
 11
164.1979299999999
 21
78.528970000000015
 31
0.0
  0
TEXT
  5
D0
  8
DATA
  6
CONTINUOUS
 62
     7
 10
199.99998999999991
 20
-93.825399999999973
 30
0.0
 40
5.0800000000000001
  1
SM63L
 41
0.8
  0
TEXT
  5
D1
  8
DATA
  6
CONTINUOUS
 62
     7
 10
199.99998999999991
 20
-79.325399999999988
 30
0.0
 40
5.0800000000000001
  1
SHURE
 41
0.8
  0
TEXT
  5
D2
  8
DATA
  6
CONTINUOUS
 62
     7
 10
-18.853334000000011
 20
65.400010000000009
 30
0.0
 40
2.2577759999999989
  1
SHURE
 50
90.0
 41
0.8
  0
TEXT
  5
D3
  8
DATA
  6
CONTINUOUS
 62
     7
 10
-19.065072000000001
 20
78.455550000000002
 30
0.0
 40
1.6933279999999999
  1
SM63L
 50
90.0
 41
0.8
  0
TEXT
  5
D4
  8
DATA
  6
CONTINUOUS
 62
     7
 10
194.99998999999991
 20
-86.406293999999974
 30
0.0
 40
3.3866639999999988
  1
ダイナミック型・無指向性マイクロホン
 41
0.8
  0
TEXT
  5
D5
  8
DATA
  6
CONTINUOUS
 62
     7
 10
-59.999990000000011
 20
-107.7381699999999
 30
0.0
 40
3.3866666666666658
  1
仕様および外観は予告なく変更されることがありますので、ご了承ください。
 41
0.8
  0
TEXT
  5
D6
  8
DIMNSIONS
  6
CONTINUOUS
 62
     7
 10
59.999999999999993
 20
-91.548189999999991
 30
0.0
 40
5.0800000000000001
  1
(単位：mm)
 41
0.8
  0
TEXT
  5
D7
  8
DIMNSIONS
  6
CONTINUOUS
 62
     7
 10
-68.411079999999984
 20
76.472229999999996
 30
0.0
 40
5.6444399999999986
  1
33
 50
90.0
 41
0.8
  0
TEXT
  5
D8
  8
DIMNSIONS
  6
CONTINUOUS
 62
     7
 10
58.108342499999992
 20
43.411109999999987
 30
0.0
 40
5.6444399999999986
  1
233
 41
0.8
  0
TEXT
  5
D9
  8
DIMNSIONS
  6
CONTINUOUS
 62
     7
 10
191.58888999999991
 20
72.944450000000003
 30
0.0
 40
5.6444399999999986
  1
20.1
 50
90.0
 41
0.8
  0
TEXT
  5
DA
  8
DIMNSIONS
  6
CONTINUOUS
 62
     7
 10
242.0499780689602
 20
37.883354506739963
 30
0.0
 40
5.6444399999999986
  1
φ33
 41
0.8
  0
TEXT
  5
DB
  8
DIMNSIONS
  6
CONTINUOUS
 62
     7
 10
251.99999452542431
 20
52.883336843219489
 30
0.0
 40
5.6444399999999986
  1
φ20.1
 41
0.8
  0
TEXT
  5
DC
  8
HIBINO-BASE
  6
CONTINUOUS
 62
     7
 10
-65.631989999999988
 20
-128.72413
 30
0.0
 40
7.4851599999999987
  1
Hibino Corporation
 41
0.8
  0
TEXT
  5
DD
  8
HIBINO-BASE
  6
CONTINUOUS
 62
     7
 10
101.79998999999989
 20
-76.587491999999983
 30
0.0
 40
3.7425920000000001
  1
NOTE
 41
0.8
  0
TEXT
  5
DE
  8
HIBINO-BASE
  6
CONTINUOUS
 62
     7
 10
171.7999999999999
 20
-76.587491999999983
 30
0.0
 40
3.7425920000000001
  1
TITLE
 41
0.8
  0
TEXT
  5
DF
  8
HIBINO-BASE
  6
CONTINUOUS
 62
     7
 10
200.1367699999999
 20
-128.72413
 30
0.0
 40
7.4851599999999987
  1
ヒビノ株式会社
 41
0.8
  0
TEXT
  5
E0
  8
HIBINO-BASE
  6
CONTINUOUS
 62
     7
 10
196.7999999999999
 20
-101.4748419999999
 30
0.0
 40
3.7425920000000001
  1
DRAWN
 41
0.8
  0
TEXT
  5
E1
  8
HIBINO-BASE
  6
CONTINUOUS
 62
     7
 10
146.7999999999999
 20
-101.4748419999999
 30
0.0
 40
3.7425920000000001
  1
DATE
 41
0.8
  0
TEXT
  5
E2
  8
HIBINO-BASE
  6
CONTINUOUS
 62
     7
 10
102.1999899999999
 20
-101.4530739999999
 30
0.0
 40
3.3866639999999988
  1
図面サイズ
 41
0.8
  0
TEXT
  5
E3
  8
HIBINO-BASE
  6
CONTINUOUS
 62
     7
 10
126.79998999999989
 20
-101.4748419999999
 30
0.0
 40
3.7425920000000001
  1
SCALE
 41
0.8
  0
TEXT
  5
E4
  8
HIBINO-BASE
  6
CONTINUOUS
 62
     7
 10
171.7999999999999
 20
-101.4748419999999
 30
0.0
 40
3.7425920000000001
  1
DESIGN
 41
0.8
  0
TEXT
  5
E5
  8
HIBINO-BASE
  6
CONTINUOUS
 62
     7
 10
246.79998999999989
 20
-101.4748419999999
 30
0.0
 40
3.7425920000000001
  1
DRAWING NO.
 41
0.8
  0
TEXT
  5
E6
  8
HIBINO-BASE
  6
CONTINUOUS
 62
     7
 10
221.79998999999989
 20
-101.4748419999999
 30
0.0
 40
3.7425920000000001
  1
CHECK
 41
0.8
  0
TEXT
  5
E7
  8
HIBINO-BASE
  6
CONTINUOUS
 62
     7
 10
127.4999899999999
 20
-109.5609419999999
 30
0.0
 40
4.5155519999999987
  1
1
 41
0.8
  0
TEXT
  5
E8
  8
HIBINO-BASE
  6
CONTINUOUS
 62
     7
 10
107.82178
 20
-110.9632499999999
 30
0.0
 40
6.77332
  1
A4
 41
0.8
  0
TEXT
  5
E9
  8
HIBINO-BASE
  6
CONTINUOUS
 62
     7
 10
146.71307999999991
 20
-110.84280199999991
 30
0.0
 40
3.7425920000000001
  1
'01.03.
 41
0.8
  0
TEXT
  5
EA
  8
HIBINO-BASE
  6
CONTINUOUS
 62
     7
 10
135.0
 20
-113.3109419999999
 30
0.0
 40
4.5155519999999987
  1
2
 41
0.8
  0
TEXT
  5
EB
  8
HIBINO-BASE
  6
CONTINUOUS
 62
     7
 10
198.01163002206911
 20
-110.4868766666667
 30
0.0
 40
3.3866666666666658
  1
N.Sasaki
 41
0.8
  0
TEXT
  5
EC
  8
SPEC
  6
CONTINUOUS
 62
     7
 10
1.8000100000000001
 20
377.90399400000001
 30
0.0
 40
3.9510959999999988
  1
ダイナミック型
 41
0.8
  0
TEXT
  5
ED
  8
SPEC
  6
CONTINUOUS
 62
     7
 10
-62.499990000000011
 20
386.69934999999992
 30
0.0
 40
5.0800000000000001
  1
仕様
 41
0.8
  0
TEXT
  5
EE
  8
SPEC
  6
CONTINUOUS
 62
     7
 10
-63.19999
 20
325.40400399999999
 30
0.0
 40
3.9510959999999988
  1
出力コネクター
 41
0.8
  0
TEXT
  5
EF
  8
SPEC
  6
CONTINUOUS
 62
     7
 10
-63.19999
 20
317.90400399999987
 30
0.0
 40
3.9510959999999988
  1
寸法
 41
0.8
  0
TEXT
  5
F0
  8
SPEC
  6
CONTINUOUS
 62
     7
 10
-63.19999
 20
310.40400399999999
 30
0.0
 40
3.9510959999999988
  1
重量
 41
0.8
  0
TEXT
  5
F1
  8
SPEC
  6
CONTINUOUS
 62
     7
 10
-63.19999
 20
340.40400399999987
 30
0.0
 40
3.9510959999999988
  1
インピーダンス
 41
0.8
  0
TEXT
  5
F2
  8
SPEC
  6
CONTINUOUS
 62
     7
 10
-63.19999
 20
377.90399400000001
 30
0.0
 40
3.9510959999999988
  1
形式
 41
0.8
  0
TEXT
  5
F3
  8
SPEC
  6
CONTINUOUS
 62
     7
 10
-63.19999
 20
355.40400399999987
 30
0.0
 40
3.9510959999999988
  1
出力レベル(@1kHz)
 41
0.8
  0
TEXT
  5
F4
  8
SPEC
  6
CONTINUOUS
 62
     7
 10
-63.19999
 20
332.90400399999987
 30
0.0
 40
3.9510959999999988
  1
外装
 41
0.8
  0
TEXT
  5
F5
  8
SPEC
  6
CONTINUOUS
 62
     7
 10
-63.19999
 20
370.40400399999987
 30
0.0
 40
3.9510959999999988
  1
周波数特性
 41
0.8
  0
TEXT
  5
F6
  8
SPEC
  6
CONTINUOUS
 62
     7
 10
-63.19999
 20
362.90400399999999
 30
0.0
 40
3.9510959999999988
  1
指向特性
 41
0.8
  0
TEXT
  5
F7
  8
SPEC
  6
CONTINUOUS
 62
     7
 10
1.8000100000000001
 20
325.40400399999999
 30
0.0
 40
3.9510959999999988
  1
XLR3ピン オス
 41
0.8
  0
TEXT
  5
F8
  8
SPEC
  6
CONTINUOUS
 62
     7
 10
1.8000100000000001
 20
317.90400399999987
 30
0.0
 40
3.9510959999999988
  1
φ33×233mm
 41
0.8
  0
TEXT
  5
F9
  8
SPEC
  6
CONTINUOUS
 62
     7
 10
1.8000100000000001
 20
310.40400399999999
 30
0.0
 40
3.9510959999999988
  1
約124g
 41
0.8
  0
TEXT
  5
FA
  8
SPEC
  6
CONTINUOUS
 62
     7
 10
1.8000100000000001
 20
340.40400399999987
 30
0.0
 40
3.9510959999999988
  1
150Ω定格 (300Ω実効)
 41
0.8
  0
TEXT
  5
FB
  8
SPEC
  6
CONTINUOUS
 62
     7
 10
1.8000100000000001
 20
332.90400399999987
 30
0.0
 40
3.9510959999999988
  1
シャンペン仕上げ
 41
0.8
  0
TEXT
  5
FC
  8
SPEC
  6
CONTINUOUS
 62
     7
 10
1.8000100000000001
 20
362.90400399999999
 30
0.0
 40
3.9510959999999988
  1
無指向性
 41
0.8
  0
TEXT
  5
FD
  8
SPEC
  6
CONTINUOUS
 62
     7
 10
1.8000100000000001
 20
370.40400399999987
 30
0.0
 40
3.9510959999999988
  1
80Hz～20kHz
 41
0.8
  0
TEXT
  5
FE
  8
SPEC
  6
CONTINUOUS
 62
     7
 10
1.8000100000000001
 20
355.4068059999999
 30
0.0
 40
3.9436239999999989
  1
開放端電圧:-77.0dB* (0.16mV)   * 0dB=1V/μbar
 41
0.8
  0
TEXT
  5
FF
  8
SPEC
  6
CONTINUOUS
 62
     7
 10
1.8000100000000001
 20
349.4068059999999
 30
0.0
 40
3.9436239999999989
  1
実効出力レベル:-57.5dB** (0.16mV)  **0dB=1mW/10μbar
 41
0.8
  0
ENDSEC
  0
EOF
