  0
SECTION
  2
HEADER
  9
$ACADVER
  1
AC1009
  9
$INSBASE
 10
0.0
 20
0.0
 30
0.0
  9
$EXTMIN
 10
-80.01097548933717
 20
-131.71198723730251
 30
-0.0015258207003583
  9
$EXTMAX
 10
280.0109771657178
 20
403.54812151340587
 30
0.0000000349246037
  9
$LIMMIN
 10
0.0
 20
0.0
  9
$LIMMAX
 10
0.0
 20
0.0
  9
$ORTHOMODE
 70
     0
  9
$REGENMODE
 70
     1
  9
$FILLMODE
 70
     1
  9
$QTEXTMODE
 70
     0
  9
$MIRRTEXT
 70
     1
  9
$DRAGMODE
 70
     2
  9
$LTSCALE
 40
10.16
  9
$OSMODE
 70
   231
  9
$ATTMODE
 70
     1
  9
$TEXTSIZE
 40
0.0
  9
$TRACEWID
 40
1.0
  9
$TEXTSTYLE
  7
STANDARD
  9
$CLAYER
  8
DATA
  9
$CELTYPE
  6
BYLAYER
  9
$CECOLOR
 62
   256
  9
$DIMSCALE
 40
1.0
  9
$DIMASZ
 40
0.18
  9
$DIMEXO
 40
0.0625
  9
$DIMDLI
 40
0.38
  9
$DIMRND
 40
0.0
  9
$DIMDLE
 40
0.0
  9
$DIMEXE
 40
0.18
  9
$DIMTP
 40
0.0
  9
$DIMTM
 40
0.0
  9
$DIMTXT
 40
0.18
  9
$DIMCEN
 40
0.09
  9
$DIMTSZ
 40
0.0
  9
$DIMTOL
 70
     0
  9
$DIMLIM
 70
     0
  9
$DIMTIH
 70
     1
  9
$DIMTOH
 70
     1
  9
$DIMSE1
 70
     0
  9
$DIMSE2
 70
     0
  9
$DIMTAD
 70
     0
  9
$DIMZIN
 70
     0
  9
$DIMBLK
  1

  9
$DIMASO
 70
     1
  9
$DIMSHO
 70
     1
  9
$DIMPOST
  1

  9
$DIMAPOST
  1

  9
$DIMALT
 70
     0
  9
$DIMALTD
 70
     2
  9
$DIMALTF
 40
25.399999999999999
  9
$DIMLFAC
 40
1.0
  9
$DIMTOFL
 70
     0
  9
$DIMTVP
 40
0.0
  9
$DIMTIX
 70
     0
  9
$DIMSOXD
 70
     0
  9
$DIMSAH
 70
     0
  9
$DIMBLK1
  1

  9
$DIMBLK2
  1

  9
$DIMSTYLE
  2
STANDARD
  9
$DIMCLRD
 70
     0
  9
$DIMCLRE
 70
     0
  9
$DIMCLRT
 70
     0
  9
$DIMTFAC
 40
1.0
  9
$DIMGAP
 40
0.09
  9
$LUNITS
 70
     2
  9
$LUPREC
 70
     4
  9
$SKETCHINC
 40
0.1
  9
$FILLETRAD
 40
0.0
  9
$AUNITS
 70
     0
  9
$AUPREC
 70
     0
  9
$MENU
  1
acad
  9
$ELEVATION
 40
0.0
  9
$PELEVATION
 40
0.0
  9
$THICKNESS
 40
0.0
  9
$LIMCHECK
 70
     0
  9
$BLIPMODE
 70
     0
  9
$CHAMFERA
 40
0.0
  9
$CHAMFERB
 40
0.0
  9
$SKPOLY
 70
     0
  9
$TDCREATE
 40
2455167.7992245369
  9
$TDUPDATE
 40
2455167.8022087379
  9
$TDINDWG
 40
0.0004581366
  9
$TDUSRTIMER
 40
0.0004539815
  9
$USRTIMER
 70
     1
  9
$ANGBASE
 50
0.0
  9
$ANGDIR
 70
     0
  9
$PDMODE
 70
     1
  9
$PDSIZE
 40
-2.0
  9
$PLINEWID
 40
0.0
  9
$COORDS
 70
     0
  9
$SPLFRAME
 70
     0
  9
$SPLINETYPE
 70
     6
  9
$SPLINESEGS
 70
     8
  9
$ATTDIA
 70
     0
  9
$ATTREQ
 70
     1
  9
$HANDLING
 70
     1
  9
$HANDSEED
  5
1A1
  9
$SURFTAB1
 70
     6
  9
$SURFTAB2
 70
     6
  9
$SURFTYPE
 70
     6
  9
$SURFU
 70
     6
  9
$SURFV
 70
     6
  9
$UCSNAME
  2

  9
$UCSORG
 10
0.0
 20
0.0
 30
0.0
  9
$UCSXDIR
 10
1.0
 20
0.0
 30
0.0
  9
$UCSYDIR
 10
0.0
 20
1.0
 30
0.0
  9
$PUCSNAME
  2

  9
$PUCSORG
 10
0.0
 20
0.0
 30
0.0
  9
$PUCSXDIR
 10
1.0
 20
0.0
 30
0.0
  9
$PUCSYDIR
 10
0.0
 20
1.0
 30
0.0
  9
$USERI1
 70
     0
  9
$USERI2
 70
     0
  9
$USERI3
 70
     0
  9
$USERI4
 70
     0
  9
$USERI5
 70
     0
  9
$USERR1
 40
0.0
  9
$USERR2
 40
0.0
  9
$USERR3
 40
0.0
  9
$USERR4
 40
0.0
  9
$USERR5
 40
0.0
  9
$WORLDVIEW
 70
     1
  9
$SHADEDGE
 70
     3
  9
$SHADEDIF
 70
    70
  9
$TILEMODE
 70
     1
  9
$MAXACTVP
 70
    64
  9
$PLIMCHECK
 70
     0
  9
$PEXTMIN
 10
1.0000000000000000E+020
 20
1.0000000000000000E+020
 30
1.0000000000000000E+020
  9
$PEXTMAX
 10
-1.0000000000000000E+020
 20
-1.0000000000000000E+020
 30
-1.0000000000000000E+020
  9
$PLIMMIN
 10
0.0
 20
0.0
  9
$PLIMMAX
 10
12.0
 20
9.0
  9
$UNITMODE
 70
     0
  9
$VISRETAIN
 70
     0
  9
$PLINEGEN
 70
     1
  9
$PSLTSCALE
 70
     0
  0
ENDSEC
  0
SECTION
  2
TABLES
  0
TABLE
  2
VPORT
 70
     1
  0
VPORT
  2
*ACTIVE
 70
     0
 10
0.0
 20
0.0
 11
1.0
 21
1.0
 12
100.0000008381903
 22
135.9180671380517
 13
0.0
 23
0.0
 14
1.0
 24
1.0
 15
0.0
 25
0.0
 16
0.0
 26
0.0
 36
1.0
 17
0.0
 27
0.0
 37
0.0
 40
539.24962508922295
 41
1.9863184079601981
 42
50.0
 43
0.0
 44
0.0
 50
0.0
 51
0.0
 71
     0
 72
  2000
 73
     1
 74
     1
 75
     0
 76
     0
 77
     0
 78
     0
  0
ENDTAB
  0
TABLE
  2
LTYPE
 70
    11
  0
LTYPE
  2
CONTINUOUS
 70
     0
  3
Solid line
 72
    65
 73
     0
 40
0.0
  0
ENDTAB
  0
TABLE
  2
LAYER
 70
     6
  0
LAYER
  2
0
 70
     0
 62
     7
  6
CONTINUOUS
  0
LAYER
  2
DATA
 70
     0
 62
     7
  6
CONTINUOUS
  0
LAYER
  2
HIBINO-BASE
 70
     0
 62
     7
  6
CONTINUOUS
  0
LAYER
  2
PATTERN_FILL
 70
     0
 62
     7
  6
CONTINUOUS
  0
LAYER
  2
SPEC
 70
     0
 62
     7
  6
CONTINUOUS
  0
LAYER
  2
DIMNSIONS
 70
     0
 62
     7
  6
CONTINUOUS
  0
ENDTAB
  0
TABLE
  2
STYLE
 70
     3
  0
STYLE
  2
STANDARD
 70
     0
 40
0.0
 41
1.0
 50
0.0
 71
     0
 42
0.0
  3
txt
  4
BIGFONT.SHX
  0
ENDTAB
  0
TABLE
  2
VIEW
 70
     0
  0
ENDTAB
  0
TABLE
  2
UCS
 70
     0
  0
ENDTAB
  0
TABLE
  2
APPID
 70
     3
  0
APPID
  2
ACAD
 70
     0
  0
APPID
  2
ACADANNOTATIVE
 70
     0
  0
APPID
  2
ACAD_MLEADERVER
 70
     0
  0
ENDTAB
  0
TABLE
  2
DIMSTYLE
 70
     2
  0
DIMSTYLE
  2
STANDARD
 70
     0
  3

  4

  5

  6

  7

 40
1.0
 41
0.18
 42
0.0625
 43
0.38
 44
0.18
 45
0.0
 46
0.0
 47
0.0
 48
0.0
140
0.18
141
0.09
142
0.0
143
25.399999999999999
144
1.0
145
0.0
146
1.0
147
0.09
 71
     0
 72
     0
 73
     1
 74
     1
 75
     0
 76
     0
 77
     0
 78
     0
170
     0
171
     2
172
     0
173
     0
174
     0
175
     0
176
     0
177
     0
178
     0
  0
ENDTAB
  0
ENDSEC
  0
SECTION
  2
BLOCKS
  0
BLOCK
  8
0
  2
$MODEL_SPACE
 70
     0
 10
0.0
 20
0.0
 30
0.0
  3
$MODEL_SPACE
  1

  0
ENDBLK
  5
13F
  8
0
  0
BLOCK
 67
     1
  8
0
  2
$PAPER_SPACE
 70
     0
 10
0.0
 20
0.0
 30
0.0
  3
$PAPER_SPACE
  1

  0
ENDBLK
  5
13B
 67
     1
  8
0
  0
ENDSEC
  0
SECTION
  2
ENTITIES
  0
LINE
  5
2D
  8
HIBINO-BASE
  6
CONTINUOUS
 62
     7
 10
-79.999990000000025
 20
403.53181999999993
 30
0.0
 11
279.99999000000003
 21
403.53181999999993
 31
0.0
  0
LINE
  5
2E
  8
HIBINO-BASE
  6
CONTINUOUS
 62
     7
 10
279.99999000000003
 20
-116.46817
 30
0.0
 11
-79.999990000000025
 21
-116.46817
 31
0.0
  0
LINE
  5
2F
  8
HIBINO-BASE
  6
CONTINUOUS
 62
     7
 10
-79.999990000000025
 20
-116.46817
 30
0.0
 11
-79.999990000000025
 21
403.53181999999993
 31
0.0
  0
TEXT
  5
30
  8
HIBINO-BASE
 62
     7
 10
-65.631989999999988
 20
-129.285517
 30
0.0
 40
7.200080664062499
  1
Hibino Corporation
 41
0.7
 11
-65.631989999999988
 21
-122.0854363359375
 31
0.0
 73
     3
  0
LINE
  5
31
  8
HIBINO-BASE
  6
CONTINUOUS
 62
     7
 10
279.99999000000003
 20
403.53181999999993
 30
0.0
 11
279.99999000000003
 21
-116.46817
 31
0.0
  0
LINE
  5
32
  8
HIBINO-BASE
  6
CONTINUOUS
 62
     7
 10
100.0
 20
-71.468179999999975
 30
0.0
 11
279.99999000000003
 21
-71.468179999999975
 31
0.0
  0
LINE
  5
33
  8
HIBINO-BASE
  6
CONTINUOUS
 62
     7
 10
100.0
 20
-116.46817
 30
0.0
 11
100.0
 21
-71.468179999999975
 31
0.0
  0
TEXT
  5
34
  8
HIBINO-BASE
 62
     7
 10
101.79998999999989
 20
-76.868186399999985
 30
0.0
 40
3.6000518750000001
  1
NOTE
 41
0.7
 11
101.79998999999989
 21
-73.268134524999965
 31
0.0
 73
     3
  0
LINE
  5
35
  8
HIBINO-BASE
  6
CONTINUOUS
 62
     7
 10
170.0
 20
-116.46817
 30
0.0
 11
170.0
 21
-71.468179999999975
 31
0.0
  0
TEXT
  5
36
  8
HIBINO-BASE
 62
     7
 10
171.7999999999999
 20
-76.868186399999985
 30
0.0
 40
3.6000518750000001
  1
TITLE
 41
0.7
 11
171.7999999999999
 21
-73.268134524999965
 31
0.0
 73
     3
  0
TEXT
  5
37
  8
HIBINO-BASE
 62
     7
 10
200.13677000000001
 20
-129.285517
 30
0.0
 40
7.200080664062499
  1
ヒビノ株式会社
 41
0.7
 11
200.13677000000001
 21
-122.0854363359375
 31
0.0
 73
     3
  0
LINE
  5
38
  8
HIBINO-BASE
  6
CONTINUOUS
 62
     7
 10
100.0
 20
-96.468180000000004
 30
0.0
 11
279.99999000000003
 21
-96.468180000000004
 31
0.0
  0
TEXT
  5
39
  8
HIBINO-BASE
 62
     7
 10
196.80000000000001
 20
-101.7555363999999
 30
0.0
 40
3.6000518750000001
  1
DRAWN
 41
0.7
 11
196.80000000000001
 21
-98.155484524999963
 31
0.0
 73
     3
  0
TEXT
  5
3A
  8
HIBINO-BASE
 62
     7
 10
146.7999999999999
 20
-101.7555363999999
 30
0.0
 40
3.6000518750000001
  1
DATE
 41
0.7
 11
146.7999999999999
 21
-98.155484524999963
 31
0.0
 73
     3
  0
TEXT
  5
3B
  8
HIBINO-BASE
 62
     7
 10
102.19999
 20
-101.7070738
 30
0.0
 40
3.257679726562499
  1
図面サイズ
 41
0.7
 11
102.19999
 21
-98.449394073437503
 31
0.0
 73
     3
  0
TEXT
  5
3C
  8
HIBINO-BASE
 62
     7
 10
126.79998999999989
 20
-101.7555363999999
 30
0.0
 40
3.6000518750000001
  1
SCALE
 41
0.7
 11
126.79998999999989
 21
-98.155484524999963
 31
0.0
 73
     3
  0
TEXT
  5
3D
  8
HIBINO-BASE
 62
     7
 10
171.7999999999999
 20
-101.7555363999999
 30
0.0
 40
3.6000518750000001
  1
DESIGN
 41
0.7
 11
171.7999999999999
 21
-98.155484524999963
 31
0.0
 73
     3
  0
TEXT
  5
3E
  8
HIBINO-BASE
 62
     7
 10
246.79999000000001
 20
-101.7555363999999
 30
0.0
 40
3.6000518750000001
  1
DRAWING NO.
 41
0.7
 11
246.79999000000001
 21
-98.155484524999963
 31
0.0
 73
     3
  0
TEXT
  5
3F
  8
HIBINO-BASE
 62
     7
 10
221.79999000000001
 20
-101.7555363999999
 30
0.0
 40
3.6000518750000001
  1
CHECK
 41
0.7
 11
221.79999000000001
 21
-98.155484524999963
 31
0.0
 73
     3
  0
LINE
  5
40
  8
HIBINO-BASE
  6
CONTINUOUS
 62
     7
 10
128.74999
 20
-113.96818
 30
0.0
 11
136.25
 21
-106.46818
 31
0.0
  0
TEXT
  5
41
  8
HIBINO-BASE
 62
     7
 10
127.49999
 20
-109.89960839999991
 30
0.0
 40
4.3435729687500002
  1
1
 41
0.7
 11
127.49999
 21
-105.5560354312499
 31
0.0
 73
     3
  0
LINE
  5
42
  8
HIBINO-BASE
  6
CONTINUOUS
 62
     7
 10
124.99999
 20
-116.46817
 30
0.0
 11
124.99999
 21
-96.468180000000004
 31
0.0
  0
LINE
  5
43
  8
HIBINO-BASE
  6
CONTINUOUS
 62
     7
 10
144.99998999999991
 20
-116.46817
 30
0.0
 11
144.99998999999991
 21
-96.468180000000004
 31
0.0
  0
LINE
  5
44
  8
HIBINO-BASE
  6
CONTINUOUS
 62
     7
 10
194.99999
 20
-96.468180000000004
 30
0.0
 11
194.99999
 21
-116.46817
 31
0.0
  0
LINE
  5
45
  8
HIBINO-BASE
  6
CONTINUOUS
 62
     7
 10
245.0
 20
-96.468180000000004
 30
0.0
 11
245.0
 21
-116.46817
 31
0.0
  0
LINE
  5
46
  8
HIBINO-BASE
  6
CONTINUOUS
 62
     7
 10
219.99999
 20
-116.46817
 30
0.0
 11
219.99999
 21
-96.468180000000004
 31
0.0
  0
TEXT
  5
47
  8
HIBINO-BASE
 62
     7
 10
107.82178
 20
-111.4712489999999
 30
0.0
 40
6.5153517578124989
  1
A4
 41
0.7
 11
107.82178
 21
-104.9558972421874
 31
0.0
 73
     3
  0
TEXT
  5
48
  8
HIBINO-BASE
 62
     7
 10
146.71307999999999
 20
-111.12349639999989
 30
0.0
 40
3.6000518750000001
  1
'09.12.
 41
0.7
 11
146.71307999999999
 21
-107.5234445249999
 31
0.0
 73
     3
  0
TEXT
  5
49
  8
HIBINO-BASE
 62
     7
 10
135.0
 20
-113.64960839999991
 30
0.0
 40
4.3435729687500002
  1
2
 41
0.7
 11
135.0
 21
-109.3060354312499
 31
0.0
 73
     3
  0
TEXT
  5
4A
  8
HIBINO-BASE
 62
     7
 10
198.0116300220692
 20
-110.74087666666669
 30
0.0
 40
3.2576822916666659
  1
N.Sasaki
 41
0.7
 11
198.0116300220692
 21
-107.4831943750001
 31
0.0
 73
     3
  0
ARC
  5
4B
  8
PATTERN_FILL
  6
CONTINUOUS
 62
     7
 10
-33.849550000000008
 20
47.509110000000007
 30
0.0
 40
33.893547925875211
 50
73.458965032164485
 51
124.81429250264399
  0
ARC
  5
4C
  8
PATTERN_FILL
  6
CONTINUOUS
 62
     7
 10
-6.7877200000000073
 20
80.000010000000003
 30
0.0
 40
23.212267005895821
 50
138.60183480514999
 51
221.39818371066289
  0
ARC
  5
4D
  8
PATTERN_FILL
  6
CONTINUOUS
 62
     7
 10
-28.060970000000012
 20
40.327110000000012
 30
0.0
 40
33.893519845429161
 50
83.458952656215914
 51
123.862290559885
  0
ARC
  5
4E
  8
PATTERN_FILL
  6
CONTINUOUS
 62
     7
 10
-25.11148
 20
37.118730000000014
 30
0.0
 40
33.893528450620167
 50
88.458973453818572
 51
117.6932396649007
  0
ARC
  5
4F
  8
PATTERN_FILL
  6
CONTINUOUS
 62
     7
 10
-22.155070000000009
 20
34.168220000000012
 30
0.0
 40
33.893524983022928
 50
93.458964075778795
 51
110.5418492097358
  0
ARC
  5
50
  8
PATTERN_FILL
  6
CONTINUOUS
 62
     7
 10
-30.981059999999999
 20
43.79173999999999
 30
0.0
 40
33.893540781951359
 50
78.458965997660897
 51
129.2519762646761
  0
ARC
  5
51
  8
PATTERN_FILL
  6
CONTINUOUS
 62
     7
 10
-44.38015
 20
64.768900000000002
 30
0.0
 40
33.893542297282828
 50
53.458963452767946
 51
62.539311411609511
  0
ARC
  5
52
  8
PATTERN_FILL
  6
CONTINUOUS
 62
     7
 10
-41.929999999999993
 20
60.113720000000001
 30
0.0
 40
33.893524522601659
 50
58.458966393599717
 51
81.388029376608415
  0
ARC
  5
53
  8
PATTERN_FILL
  6
CONTINUOUS
 62
     7
 10
-6.7877200000000073
 20
80.000010000000003
 30
0.0
 40
45.712299269102623
 50
166.82268745638021
 51
193.17732474758611
  0
ARC
  5
54
  8
PATTERN_FILL
  6
CONTINUOUS
 62
     7
 10
-6.7877200000000073
 20
80.000010000000003
 30
0.0
 40
43.212278574748851
 50
165.06460358624949
 51
194.93542203616781
  0
ARC
  5
55
  8
PATTERN_FILL
  6
CONTINUOUS
 62
     7
 10
-6.7877200000000073
 20
80.000010000000003
 30
0.0
 40
38.212280890734569
 50
160.9949281511955
 51
199.00508602554731
  0
ARC
  5
56
  8
PATTERN_FILL
  6
CONTINUOUS
 62
     7
 10
-6.7877200000000073
 20
80.000010000000003
 30
0.0
 40
28.212282654271359
 50
148.94847703981591
 51
211.05152988335411
  0
ARC
  5
57
  8
PATTERN_FILL
  6
CONTINUOUS
 62
     7
 10
-6.7877200000000073
 20
80.000010000000003
 30
0.0
 40
33.212285197265487
 50
155.86032113758381
 51
204.13971034794511
  0
ARC
  5
58
  8
PATTERN_FILL
  6
CONTINUOUS
 62
     7
 10
-6.7877200000000073
 20
80.000010000000003
 30
0.0
 40
18.212286221847592
 50
162.95458674082411
 51
197.0454433371805
  0
ARC
  5
59
  8
PATTERN_FILL
  6
CONTINUOUS
 62
     7
 10
-36.644600000000011
 20
51.473770000000002
 30
0.0
 40
33.893541074808049
 50
68.458958703013622
 51
119.23894482911351
  0
ARC
  5
5A
  8
PATTERN_FILL
  6
CONTINUOUS
 62
     7
 10
-39.344929999999991
 20
55.678370000000001
 30
0.0
 40
33.893525338819522
 50
63.458959333405247
 51
114.1283455584641
  0
LINE
  5
5B
  8
SPEC
  6
CONTINUOUS
 62
     7
 10
-64.999990000000011
 20
383.53181999999998
 30
0.0
 11
180.0
 21
383.53181999999998
 31
0.0
  0
LINE
  5
5C
  8
SPEC
  6
CONTINUOUS
 62
     7
 10
-64.999990000000011
 20
376.03181999999998
 30
0.0
 11
180.0
 21
376.03181999999998
 31
0.0
  0
LINE
  5
5D
  8
SPEC
  6
CONTINUOUS
 62
     7
 10
-64.999990000000011
 20
338.53181999999998
 30
0.0
 11
180.0
 21
338.53181999999998
 31
0.0
  0
LINE
  5
5E
  8
SPEC
  6
CONTINUOUS
 62
     7
 10
-64.999990000000011
 20
346.03181999999998
 30
0.0
 11
180.0
 21
346.03181999999998
 31
0.0
  0
LINE
  5
5F
  8
SPEC
  6
CONTINUOUS
 62
     7
 10
-64.999990000000011
 20
361.03181999999998
 30
0.0
 11
180.0
 21
361.03181999999998
 31
0.0
  0
LINE
  5
60
  8
SPEC
  6
CONTINUOUS
 62
     7
 10
-64.999990000000011
 20
368.53181999999998
 30
0.0
 11
180.0
 21
368.53181999999998
 31
0.0
  0
TEXT
  5
61
  8
SPEC
 62
     7
 10
1.8000100000000001
 20
377.60766180000002
 30
0.0
 40
3.8006148046875001
  1
ダイナミック型 
 41
0.7
 11
1.8000100000000001
 21
381.4082766046875
 31
0.0
 73
     3
  0
LINE
  5
62
  8
SPEC
  6
CONTINUOUS
 62
     7
 10
-64.999990000000011
 20
331.03181999999998
 30
0.0
 11
180.0
 21
331.03181999999998
 31
0.0
  0
LINE
  5
63
  8
SPEC
  6
CONTINUOUS
 62
     7
 10
-64.999990000000011
 20
308.53181999999998
 30
0.0
 11
180.0
 21
308.53181999999998
 31
0.0
  0
LINE
  5
64
  8
SPEC
  6
CONTINUOUS
 62
     7
 10
-64.999990000000011
 20
316.03181999999998
 30
0.0
 11
180.0
 21
316.03181999999998
 31
0.0
  0
LINE
  5
65
  8
SPEC
  6
CONTINUOUS
 62
     7
 10
-64.999990000000011
 20
323.53181999999998
 30
0.0
 11
180.0
 21
323.53181999999998
 31
0.0
  0
LINE
  5
66
  8
SPEC
  6
CONTINUOUS
 62
     7
 10
-64.999990000000011
 20
383.53181999999998
 30
0.0
 11
-64.999990000000011
 21
308.53181999999998
 31
0.0
  0
TEXT
  5
67
  8
SPEC
 62
     7
 10
-62.499990000000011
 20
386.31835000000001
 30
0.0
 40
4.8865234375000002
  1
仕様
 41
0.7
 11
-62.499990000000011
 21
391.2048734375
 31
0.0
 73
     3
  0
LINE
  5
68
  8
SPEC
  6
CONTINUOUS
 62
     7
 10
0.000009999999989
 20
383.53181999999998
 30
0.0
 11
0.000009999999989
 21
308.53181999999998
 31
0.0
  0
LINE
  5
69
  8
SPEC
  6
CONTINUOUS
 62
     7
 10
180.0
 20
383.53181999999998
 30
0.0
 11
180.0
 21
308.53181999999998
 31
0.0
  0
TEXT
  5
6A
  8
SPEC
 62
     7
 10
-63.19999
 20
325.10767180000011
 30
0.0
 40
3.8006148046875001
  1
出力コネクター
 41
0.7
 11
-63.19999
 21
328.90828660468759
 31
0.0
 73
     3
  0
TEXT
  5
6B
  8
SPEC
 62
     7
 10
-63.19999
 20
317.60767180000011
 30
0.0
 40
3.8006148046875001
  1
寸法
 41
0.7
 11
-63.19999
 21
321.40828660468759
 31
0.0
 73
     3
  0
TEXT
  5
6C
  8
SPEC
 62
     7
 10
-63.19999
 20
310.10767180000011
 30
0.0
 40
3.8006148046875001
  1
重量
 41
0.7
 11
-63.19999
 21
313.90828660468759
 31
0.0
 73
     3
  0
TEXT
  5
6D
  8
SPEC
 62
     7
 10
-63.19999
 20
340.10767180000011
 30
0.0
 40
3.8006148046875001
  1
インピーダンス
 41
0.7
 11
-63.19999
 21
343.90828660468759
 31
0.0
 73
     3
  0
TEXT
  5
6E
  8
SPEC
 62
     7
 10
-63.19999
 20
377.60766180000002
 30
0.0
 40
3.8006148046875001
  1
形式
 41
0.7
 11
-63.19999
 21
381.4082766046875
 31
0.0
 73
     3
  0
TEXT
  5
6F
  8
SPEC
 62
     7
 10
-63.19999
 20
355.10767180000011
 30
0.0
 40
3.8006148046875001
  1
出力レベル(@1kHz)
 41
0.7
 11
-63.19999
 21
358.90828660468759
 31
0.0
 73
     3
  0
TEXT
  5
70
  8
SPEC
 62
     7
 10
-63.19999
 20
332.60767180000011
 30
0.0
 40
3.8006148046875001
  1
外装
 41
0.7
 11
-63.19999
 21
336.40828660468759
 31
0.0
 73
     3
  0
TEXT
  5
71
  8
SPEC
 62
     7
 10
-63.19999
 20
370.10767179999999
 30
0.0
 40
3.8006148046875001
  1
周波数特性
 41
0.7
 11
-63.19999
 21
373.90828660468748
 31
0.0
 73
     3
  0
TEXT
  5
72
  8
SPEC
 62
     7
 10
-63.19999
 20
362.60767179999999
 30
0.0
 40
3.8006148046875001
  1
指向特性
 41
0.7
 11
-63.19999
 21
366.40828660468748
 31
0.0
 73
     3
  0
TEXT
  5
73
  8
SPEC
 62
     7
 10
1.8000100000000001
 20
325.10767180000011
 30
0.0
 40
3.8006148046875001
  1
XLR3ピン オス
 41
0.7
 11
1.8000100000000001
 21
328.90828660468759
 31
0.0
 73
     3
  0
TEXT
  5
74
  8
SPEC
 62
     7
 10
1.8000100000000001
 20
317.60767180000011
 30
0.0
 40
3.8006148046875001
  1
\U+03C633\U+00D7233mm
 41
0.7
 11
1.8000100000000001
 21
321.40828660468759
 31
0.0
 73
     3
  0
TEXT
  5
75
  8
SPEC
 62
     7
 10
1.8000100000000001
 20
310.10767180000011
 30
0.0
 40
3.8006148046875001
  1
約124g
 41
0.7
 11
1.8000100000000001
 21
313.90828660468759
 31
0.0
 73
     3
  0
TEXT
  5
76
  8
SPEC
 62
     7
 10
1.8000100000000001
 20
340.10767180000011
 30
0.0
 40
3.8006148046875001
  1
150\U+03A9定格 (300\U+03A9実効)
 41
0.7
 11
1.8000100000000001
 21
343.90828660468759
 31
0.0
 73
     3
  0
TEXT
  5
77
  8
SPEC
 62
     7
 10
1.8000100000000001
 20
332.60767180000011
 30
0.0
 40
3.8006148046875001
  1
ブラック仕上げ
 41
0.7
 11
1.8000100000000001
 21
336.40828660468759
 31
0.0
 73
     3
  0
TEXT
  5
78
  8
SPEC
 62
     7
 10
1.8000100000000001
 20
362.60767179999999
 30
0.0
 40
3.8006148046875001
  1
無指向性
 41
0.7
 11
1.8000100000000001
 21
366.40828660468748
 31
0.0
 73
     3
  0
TEXT
  5
79
  8
SPEC
 62
     7
 10
1.8000100000000001
 20
370.10767179999999
 30
0.0
 40
3.8006148046875001
  1
80Hz～20kHz
 41
0.7
 11
1.8000100000000001
 21
373.90828660468748
 31
0.0
 73
     3
  0
TEXT
  5
7A
  8
SPEC
 62
     7
 10
1.8000100000000001
 20
355.11103419999989
 30
0.0
 40
3.7934273828124989
  1
開放端電圧:-77.0dB* (0.16mV)   * 0dB=1V/\U+03BCbar
 41
0.7
 11
1.8000100000000001
 21
358.90446158281247
 31
0.0
 73
     3
  0
TEXT
  5
7B
  8
SPEC
 62
     7
 10
1.8000100000000001
 20
349.11103419999989
 30
0.0
 40
3.7934273828124989
  1
実効出力レベル:-57.5dB** (0.16mV)  **0dB=1mW/10\U+03BCbar
 41
0.7
 11
1.8000100000000001
 21
352.90446158281247
 31
0.0
 73
     3
  0
TEXT
  5
7C
  8
DIMNSIONS
 62
     7
 10
60.0
 20
-91.929190000000006
 30
0.0
 40
4.8865234375000002
  1
(単位：mm)
 41
0.7
 11
60.0
 21
-87.042666562500003
 31
0.0
 73
     3
  0
LINE
  5
7D
  8
DIMNSIONS
  6
CONTINUOUS
 62
     7
 10
-28.199989985098838
 20
63.400010000000002
 30
0.0
 11
-68.999979985098847
 21
63.400010000000002
 31
0.0
  0
LINE
  5
7E
  8
DIMNSIONS
  6
CONTINUOUS
 62
     7
 10
-28.199989985098838
 20
96.599999999999994
 30
0.0
 11
-68.999979985098847
 21
96.599999999999994
 31
0.0
  0
LINE
  5
7F
  8
DIMNSIONS
  6
CONTINUOUS
 62
     7
 10
-64.999980000000008
 20
63.400010000000002
 30
0.0
 11
-64.999980000000008
 21
96.599999999999994
 31
0.0
  0
LINE
  5
80
  8
DIMNSIONS
  6
CONTINUOUS
 62
     7
 10
-64.999980000000008
 20
63.400010000000002
 30
0.0
 11
-66.70145737193765
 21
69.750010000000003
 31
0.0
  0
LINE
  5
81
  8
DIMNSIONS
  6
CONTINUOUS
 62
     7
 10
-64.999980000000008
 20
63.400010000000002
 30
0.0
 11
-63.298502628062359
 21
69.750010000000003
 31
0.0
  0
LINE
  5
82
  8
DIMNSIONS
  6
CONTINUOUS
 62
     7
 10
-64.999980000000008
 20
96.599999999999994
 30
0.0
 11
-63.298502628062359
 21
90.25
 31
0.0
  0
LINE
  5
83
  8
DIMNSIONS
  6
CONTINUOUS
 62
     7
 10
-64.999980000000008
 20
96.599999999999994
 30
0.0
 11
-66.70145737193765
 21
90.25
 31
0.0
  0
TEXT
  5
84
  8
DIMNSIONS
 62
     7
 10
-67.987746999999999
 20
76.47222991370306
 30
0.0
 40
5.4294662109375
  1
33
 50
90.0
 41
0.7
 11
-73.417213210937504
 21
76.47222991370306
 31
0.0
 73
     3
  0
LINE
  5
85
  8
DIMNSIONS
  6
CONTINUOUS
 62
     7
 10
-53.19999
 20
67.617610014901146
 30
0.0
 11
-53.19999
 21
36.000010014901171
 31
0.0
  0
LINE
  5
86
  8
DIMNSIONS
  6
CONTINUOUS
 62
     7
 10
180.0
 20
65.950000014901164
 30
0.0
 11
180.0
 21
36.000010014901171
 31
0.0
  0
LINE
  5
87
  8
DIMNSIONS
  6
CONTINUOUS
 62
     7
 10
-53.19999
 20
40.000010000000003
 30
0.0
 11
180.0
 21
40.000010000000003
 31
0.0
  0
LINE
  5
88
  8
DIMNSIONS
  6
CONTINUOUS
 62
     7
 10
-53.19999
 20
40.000010000000003
 30
0.0
 11
-46.849990000000012
 21
41.701487371937631
 31
0.0
  0
LINE
  5
89
  8
DIMNSIONS
  6
CONTINUOUS
 62
     7
 10
-53.19999
 20
40.000010000000003
 30
0.0
 11
-46.849990000000012
 21
38.298532628062382
 31
0.0
  0
LINE
  5
8A
  8
DIMNSIONS
  6
CONTINUOUS
 62
     7
 10
180.0
 20
40.000010000000003
 30
0.0
 11
173.64999999999989
 21
38.298532628062382
 31
0.0
  0
LINE
  5
8B
  8
DIMNSIONS
  6
CONTINUOUS
 62
     7
 10
180.0
 20
40.000010000000003
 30
0.0
 11
173.64999999999989
 21
41.701487371937631
 31
0.0
  0
TEXT
  5
8C
  8
DIMNSIONS
 62
     7
 10
58.108342706989689
 20
42.987777000000001
 30
0.0
 40
5.4294662109375
  1
233
 41
0.7
 11
58.108342706989689
 21
48.417243210937492
 31
0.0
 73
     3
  0
LINE
  5
8D
  8
DIMNSIONS
  6
CONTINUOUS
 62
     7
 10
183.99999998509881
 20
90.050000000000026
 30
0.0
 11
198.99998998509881
 21
90.050000000000026
 31
0.0
  0
LINE
  5
8E
  8
DIMNSIONS
  6
CONTINUOUS
 62
     7
 10
183.99999998509881
 20
69.950000000000003
 30
0.0
 11
198.99998998509881
 21
69.950000000000003
 31
0.0
  0
LINE
  5
8F
  8
DIMNSIONS
  6
CONTINUOUS
 62
     7
 10
194.99999
 20
90.050000000000026
 30
0.0
 11
194.99999
 21
69.950000000000003
 31
0.0
  0
LINE
  5
90
  8
DIMNSIONS
  6
CONTINUOUS
 62
     7
 10
194.99999
 20
90.050000000000026
 30
0.0
 11
196.70146737193761
 21
83.700000000000003
 31
0.0
  0
LINE
  5
91
  8
DIMNSIONS
  6
CONTINUOUS
 62
     7
 10
194.99999
 20
90.050000000000026
 30
0.0
 11
193.2985126280623
 21
83.700000000000003
 31
0.0
  0
LINE
  5
92
  8
DIMNSIONS
  6
CONTINUOUS
 62
     7
 10
194.99999
 20
69.950000000000003
 30
0.0
 11
193.2985126280623
 21
76.300000000000026
 31
0.0
  0
LINE
  5
93
  8
DIMNSIONS
  6
CONTINUOUS
 62
     7
 10
194.99999
 20
69.950000000000003
 30
0.0
 11
196.70146737193761
 21
76.300000000000026
 31
0.0
  0
TEXT
  5
94
  8
DIMNSIONS
 62
     7
 10
192.01222300000001
 20
72.944449827406146
 30
0.0
 40
5.4294662109375
  1
20.1
 50
90.0
 41
0.7
 11
186.5827567890625
 21
72.944449827406146
 31
0.0
 73
     3
  0
LINE
  5
95
  8
DIMNSIONS
  6
CONTINUOUS
 62
     7
 10
224.04501999999999
 20
63.900390000000002
 30
0.0
 11
230.04998806896029
 21
40.00001950673996
 31
0.0
  0
LINE
  5
96
  8
DIMNSIONS
  6
CONTINUOUS
 62
     7
 10
224.04501999999999
 20
63.900390000000002
 30
0.0
 11
227.33202187280199
 21
58.207135751732856
 31
0.0
  0
LINE
  5
97
  8
DIMNSIONS
  6
CONTINUOUS
 62
     7
 10
224.04501999999999
 20
63.900390000000002
 30
0.0
 11
224.04501999999999
 21
57.32638625439597
 31
0.0
  0
LINE
  5
98
  8
DIMNSIONS
  6
CONTINUOUS
 62
     7
 10
230.04998806896029
 20
40.00001950673996
 30
0.0
 11
242.0499880715679
 21
40.00001950673996
 31
0.0
  0
TEXT
  5
99
  8
DIMNSIONS
 62
     7
 10
242.0499880715679
 20
37.46002150673997
 30
0.0
 40
5.4294662109375
  1
\U+03C633
 41
0.7
 11
242.0499880715679
 21
42.889487717677468
 31
0.0
 73
     3
  0
LINE
  5
9A
  8
DIMNSIONS
  6
CONTINUOUS
 62
     7
 10
226.27819
 20
72.152270000000001
 30
0.0
 11
240.0000045254244
 21
55.000001843219508
 31
0.0
  0
LINE
  5
9B
  8
DIMNSIONS
  6
CONTINUOUS
 62
     7
 10
226.27819
 20
72.152270000000001
 30
0.0
 11
231.5966707512782
 21
68.288167549818482
 31
0.0
  0
LINE
  5
9C
  8
DIMNSIONS
  6
CONTINUOUS
 62
     7
 10
226.27819
 20
72.152270000000001
 30
0.0
 11
228.95207821505471
 21
66.146618739678004
 31
0.0
  0
LINE
  5
9D
  8
DIMNSIONS
  6
CONTINUOUS
 62
     7
 10
240.0000045254244
 20
55.000001843219508
 30
0.0
 11
252.00000452803201
 21
55.000001843219508
 31
0.0
  0
TEXT
  5
9E
  8
DIMNSIONS
 62
     7
 10
252.00000452803201
 20
52.460003843219503
 30
0.0
 40
5.4294662109375
  1
\U+03C620.1
 41
0.7
 11
252.00000452803201
 21
57.889470054157002
 31
0.0
 73
     3
  0
TEXT
  5
9F
  8
DATA
 62
     7
 10
199.99999
 20
-94.206399999999974
 30
0.0
 40
4.8865234375000002
  1
SM63LB
 41
0.7
 11
199.99999
 21
-89.319876562499985
 31
0.0
 73
     3
  0
TEXT
  5
A0
  8
DATA
 62
     7
 10
199.99999
 20
-79.706399999999988
 30
0.0
 40
4.8865234375000002
  1
SHURE
 41
0.7
 11
199.99999
 21
-74.819876562499985
 31
0.0
 73
     3
  0
CIRCLE
  5
A1
  8
DATA
  6
CONTINUOUS
 62
     7
 10
219.99999
 20
80.000010000000003
 30
0.0
 40
10.049989999999999
  0
LINE
  5
A2
  8
DATA
  6
CONTINUOUS
 62
     7
 10
180.0
 20
69.950000000000003
 30
0.0
 11
31.487059999999989
 21
69.950000000000003
 31
0.0
  0
LINE
  5
A3
  8
DATA
  6
CONTINUOUS
 62
     7
 10
180.0
 20
90.050000000000026
 30
0.0
 11
31.487059999999989
 21
90.050000000000026
 31
0.0
  0
LINE
  5
A4
  8
DATA
  6
CONTINUOUS
 62
     7
 10
180.0
 20
69.950000000000003
 30
0.0
 11
180.0
 21
90.050000000000026
 31
0.0
  0
LINE
  5
A5
  8
DATA
  6
CONTINUOUS
 62
     7
 10
-53.19999
 20
71.617609999999999
 30
0.0
 11
-53.19999
 21
88.382400000000004
 31
0.0
  0
LINE
  5
A6
  8
DATA
  6
CONTINUOUS
 62
     7
 10
-24.19999
 20
63.400010000000002
 30
0.0
 11
-24.19999
 21
96.599999999999994
 31
0.0
  0
LINE
  5
A7
  8
DATA
  6
CONTINUOUS
 62
     7
 10
-13.68704000000001
 20
63.400010000000002
 30
0.0
 11
-24.19999
 21
63.400010000000002
 31
0.0
  0
LINE
  5
A8
  8
DATA
  6
CONTINUOUS
 62
     7
 10
-24.19999
 20
96.599999999999994
 30
0.0
 11
-13.68704000000001
 21
96.599999999999994
 31
0.0
  0
LINE
  5
A9
  8
DATA
  6
CONTINUOUS
 62
     7
 10
57.29999999999999
 20
69.950000000000003
 30
0.0
 11
57.29999999999999
 21
90.050000000000026
 31
0.0
  0
ARC
  5
AA
  8
DATA
  6
CONTINUOUS
 62
     7
 10
-51.199989999999993
 20
71.617609999999999
 30
0.0
 40
2.0
 50
180.0
 51
259.64275351762188
  0
ARC
  5
AB
  8
DATA
  6
CONTINUOUS
 62
     7
 10
-51.199989999999993
 20
88.382400000000004
 30
0.0
 40
1.999986538354692
 50
100.35701617450169
 51
180.0
  0
LINE
  5
AC
  8
DATA
  6
CONTINUOUS
 62
     7
 10
22.58465
 20
90.848910000000004
 30
0.0
 11
-4.7846400000000093
 21
95.801090000000002
 31
0.0
  0
LINE
  5
AD
  8
DATA
  6
CONTINUOUS
 62
     7
 10
22.58465
 20
69.1511
 30
0.0
 11
-4.7846400000000093
 21
64.198920000000001
 31
0.0
  0
ARC
  5
AE
  8
DATA
  6
CONTINUOUS
 62
     7
 10
-8.0750700000000109
 20
230.23227
 30
0.0
 40
166.365555313334
 50
254.84809088530571
 51
264.43789567066068
  0
ARC
  5
AF
  8
DATA
  6
CONTINUOUS
 62
     7
 10
-8.0750700000000109
 20
-70.232269999999971
 30
0.0
 40
166.36556489658341
 50
95.562103995533874
 51
105.15191063857461
  0
ARC
  5
B0
  8
DATA
  6
CONTINUOUS
 62
     7
 10
-13.68704000000001
 20
46.600000000000009
 30
0.0
 40
49.999999829480991
 50
79.743918040426152
 51
90.0
  0
ARC
  5
B1
  8
DATA
  6
CONTINUOUS
 62
     7
 10
-13.68704000000001
 20
113.40000000000001
 30
0.0
 40
49.99998999999999
 50
270.0
 51
280.2560932356327
  0
ARC
  5
B2
  8
DATA
  6
CONTINUOUS
 62
     7
 10
31.48705
 20
140.05000000000001
 30
0.0
 40
49.999999829480991
 50
259.74391804042631
 51
270.0
  0
ARC
  5
B3
  8
DATA
  6
CONTINUOUS
 62
     7
 10
31.48705
 20
19.950009999999999
 30
0.0
 40
49.999990000000999
 50
89.999988540841798
 51
100.2560932356327
  0
LINE
  5
B4
  8
DATA
  6
CONTINUOUS
 62
     7
 10
-22.69999
 20
63.400010000000002
 30
0.0
 11
-22.69999
 21
96.599999999999994
 31
0.0
  0
LINE
  5
B5
  8
DATA
  6
CONTINUOUS
 62
     7
 10
-15.19999
 20
63.400010000000002
 30
0.0
 11
-15.19999
 21
96.599999999999994
 31
0.0
  0
LINE
  5
B6
  8
DATA
  6
CONTINUOUS
 62
     7
 10
-16.69999
 20
63.400010000000002
 30
0.0
 11
-16.69999
 21
96.599999999999994
 31
0.0
  0
TEXT
  5
B7
  8
DATA
 62
     7
 10
-18.6840008
 20
65.400010000000009
 30
0.0
 40
2.1717864843750001
  1
SHURE
 50
90.0
 41
0.7
 11
-20.855787284375008
 21
65.400010000000009
 31
0.0
 73
     3
  0
TEXT
  5
B8
  8
DATA
 62
     7
 10
-18.93807240000001
 20
78.455550000000002
 30
0.0
 40
1.628836015624999
  1
SM63LB
 50
90.0
 41
0.7
 11
-20.566908415625011
 21
78.455550000000002
 31
0.0
 73
     3
  0
CIRCLE
  5
B9
  8
DATA
  6
CONTINUOUS
 62
     7
 10
219.99999
 20
84.199999999999989
 30
0.0
 40
1.2499917187725571
  0
CIRCLE
  5
BA
  8
DATA
  6
CONTINUOUS
 62
     7
 10
224.19999000000001
 20
80.000010000000003
 30
0.0
 40
1.250011061471066
  0
CIRCLE
  5
BB
  8
DATA
  6
CONTINUOUS
 62
     7
 10
219.99999
 20
75.80001
 30
0.0
 40
1.2499917187725571
  0
LINE
  5
BC
  8
DATA
  6
CONTINUOUS
 62
     7
 10
215.40661
 20
86.703560000000024
 30
0.0
 11
214.69952000000001
 21
87.410670000000025
 31
0.0
  0
LINE
  5
BD
  8
DATA
  6
CONTINUOUS
 62
     7
 10
213.28530000000001
 20
84.582250000000002
 30
0.0
 11
212.57820000000001
 21
85.289340000000024
 31
0.0
  0
LINE
  5
BE
  8
DATA
  6
CONTINUOUS
 62
     7
 10
212.57820000000001
 20
85.289340000000024
 30
0.0
 11
214.69952000000001
 21
87.410670000000025
 31
0.0
  0
ARC
  5
BF
  8
DATA
  6
CONTINUOUS
 62
     7
 10
219.99999
 20
80.000010000000003
 30
0.0
 40
7.9999889825924058
 50
145.68961470403821
 51
124.4195242269373
  0
CIRCLE
  5
C0
  8
DATA
  6
CONTINUOUS
 62
     7
 10
219.99999
 20
80.000010000000003
 30
0.0
 40
16.599989999999998
  0
CIRCLE
  5
C1
  8
DATA
  6
CONTINUOUS
 62
     7
 10
163.24999
 20
79.999989999999983
 30
0.0
 40
1.750010000114288
  0
LINE
  5
C2
  8
DATA
  6
CONTINUOUS
 62
     7
 10
162.30207999999999
 20
81.471040000000002
 30
0.0
 11
164.99790999999999
 21
79.914610000000025
 31
0.0
  0
LINE
  5
C3
  8
DATA
  6
CONTINUOUS
 62
     7
 10
161.50207
 20
80.085409999999996
 30
0.0
 11
164.19793000000001
 21
78.528970000000015
 31
0.0
  0
TEXT
  5
C4
  8
DATA
 62
     7
 10
194.99999
 20
-86.660293799999977
 30
0.0
 40
3.257679726562499
  1
ダイナミック型・無指向性マイクロホン
 41
0.7
 11
194.99999
 21
-83.402614073437476
 31
0.0
 73
     3
  0
TEXT
  5
C5
  8
DATA
 62
     7
 10
-59.999990000000011
 20
-107.99217
 30
0.0
 40
3.2576822916666659
  1
仕様および外観は予告なく変更されることがありますので、ご了承ください。
 41
0.7
 11
-59.999990000000011
 21
-104.7344877083333
 31
0.0
 73
     3
  0
ENDSEC
  0
EOF
