  0
SECTION
  2
HEADER
  9
$ACADVER
  1
AC1009
  9
$INSBASE
 10
0.0
 20
0.0
 30
0.0
  9
$EXTMIN
 10
-80.01097548933717
 20
-131.7119772163976
 30
-0.0015258207003583
  9
$EXTMAX
 10
280.0109771657178
 20
403.54812151310119
 30
0.0000000349246037
  9
$LIMMIN
 10
0.0
 20
0.0
  9
$LIMMAX
 10
0.0
 20
0.0
  9
$ORTHOMODE
 70
     0
  9
$REGENMODE
 70
     1
  9
$FILLMODE
 70
     1
  9
$QTEXTMODE
 70
     0
  9
$MIRRTEXT
 70
     1
  9
$DRAGMODE
 70
     2
  9
$LTSCALE
 40
10.16
  9
$OSMODE
 70
   231
  9
$ATTMODE
 70
     1
  9
$TEXTSIZE
 40
0.0
  9
$TRACEWID
 40
1.0
  9
$TEXTSTYLE
  7
STANDARD
  9
$CLAYER
  8
DATA
  9
$CELTYPE
  6
BYLAYER
  9
$CECOLOR
 62
   256
  9
$DIMSCALE
 40
1.0
  9
$DIMASZ
 40
0.18
  9
$DIMEXO
 40
0.0625
  9
$DIMDLI
 40
0.38
  9
$DIMRND
 40
0.0
  9
$DIMDLE
 40
0.0
  9
$DIMEXE
 40
0.18
  9
$DIMTP
 40
0.0
  9
$DIMTM
 40
0.0
  9
$DIMTXT
 40
0.18
  9
$DIMCEN
 40
0.09
  9
$DIMTSZ
 40
0.0
  9
$DIMTOL
 70
     0
  9
$DIMLIM
 70
     0
  9
$DIMTIH
 70
     1
  9
$DIMTOH
 70
     1
  9
$DIMSE1
 70
     0
  9
$DIMSE2
 70
     0
  9
$DIMTAD
 70
     0
  9
$DIMZIN
 70
     0
  9
$DIMBLK
  1

  9
$DIMASO
 70
     1
  9
$DIMSHO
 70
     1
  9
$DIMPOST
  1

  9
$DIMAPOST
  1

  9
$DIMALT
 70
     0
  9
$DIMALTD
 70
     2
  9
$DIMALTF
 40
25.399999999999999
  9
$DIMLFAC
 40
1.0
  9
$DIMTOFL
 70
     0
  9
$DIMTVP
 40
0.0
  9
$DIMTIX
 70
     0
  9
$DIMSOXD
 70
     0
  9
$DIMSAH
 70
     0
  9
$DIMBLK1
  1

  9
$DIMBLK2
  1

  9
$DIMSTYLE
  2
STANDARD
  9
$DIMCLRD
 70
     0
  9
$DIMCLRE
 70
     0
  9
$DIMCLRT
 70
     0
  9
$DIMTFAC
 40
1.0
  9
$DIMGAP
 40
0.09
  9
$LUNITS
 70
     2
  9
$LUPREC
 70
     4
  9
$SKETCHINC
 40
0.1
  9
$FILLETRAD
 40
0.0
  9
$AUNITS
 70
     0
  9
$AUPREC
 70
     0
  9
$MENU
  1
acad
  9
$ELEVATION
 40
0.0
  9
$PELEVATION
 40
0.0
  9
$THICKNESS
 40
0.0
  9
$LIMCHECK
 70
     0
  9
$BLIPMODE
 70
     0
  9
$CHAMFERA
 40
0.0
  9
$CHAMFERB
 40
0.0
  9
$SKPOLY
 70
     0
  9
$TDCREATE
 40
2454344.7532986109
  9
$TDUPDATE
 40
2454344.7541879979
  9
$TDINDWG
 40
0.0003236227
  9
$TDUSRTIMER
 40
0.0003219907
  9
$USRTIMER
 70
     1
  9
$ANGBASE
 50
0.0
  9
$ANGDIR
 70
     0
  9
$PDMODE
 70
     1
  9
$PDSIZE
 40
-2.0
  9
$PLINEWID
 40
0.0
  9
$COORDS
 70
     1
  9
$SPLFRAME
 70
     0
  9
$SPLINETYPE
 70
     6
  9
$SPLINESEGS
 70
     8
  9
$ATTDIA
 70
     0
  9
$ATTREQ
 70
     1
  9
$HANDLING
 70
     1
  9
$HANDSEED
  5
24F
  9
$SURFTAB1
 70
     6
  9
$SURFTAB2
 70
     6
  9
$SURFTYPE
 70
     6
  9
$SURFU
 70
     6
  9
$SURFV
 70
     6
  9
$UCSNAME
  2

  9
$UCSORG
 10
0.0
 20
0.0
 30
0.0
  9
$UCSXDIR
 10
1.0
 20
0.0
 30
0.0
  9
$UCSYDIR
 10
0.0
 20
1.0
 30
0.0
  9
$PUCSNAME
  2

  9
$PUCSORG
 10
0.0
 20
0.0
 30
0.0
  9
$PUCSXDIR
 10
1.0
 20
0.0
 30
0.0
  9
$PUCSYDIR
 10
0.0
 20
1.0
 30
0.0
  9
$USERI1
 70
     0
  9
$USERI2
 70
     0
  9
$USERI3
 70
     0
  9
$USERI4
 70
     0
  9
$USERI5
 70
     0
  9
$USERR1
 40
0.0
  9
$USERR2
 40
0.0
  9
$USERR3
 40
0.0
  9
$USERR4
 40
0.0
  9
$USERR5
 40
0.0
  9
$WORLDVIEW
 70
     1
  9
$SHADEDGE
 70
     3
  9
$SHADEDIF
 70
    70
  9
$TILEMODE
 70
     1
  9
$MAXACTVP
 70
    64
  9
$PLIMCHECK
 70
     0
  9
$PEXTMIN
 10
1.0000000000000000E+020
 20
1.0000000000000000E+020
 30
1.0000000000000000E+020
  9
$PEXTMAX
 10
-1.0000000000000000E+020
 20
-1.0000000000000000E+020
 30
-1.0000000000000000E+020
  9
$PLIMMIN
 10
0.0
 20
0.0
  9
$PLIMMAX
 10
12.0
 20
9.0
  9
$UNITMODE
 70
     0
  9
$VISRETAIN
 70
     0
  9
$PLINEGEN
 70
     1
  9
$PSLTSCALE
 70
     0
  0
ENDSEC
  0
SECTION
  2
TABLES
  0
TABLE
  2
VPORT
 70
     1
  0
VPORT
  2
*ACTIVE
 70
     0
 10
0.0
 20
0.0
 11
1.0
 21
1.0
 12
100.0000008381903
 22
135.9180721483518
 13
0.0
 23
0.0
 14
1.0
 24
1.0
 15
0.0
 25
0.0
 16
0.0
 26
0.0
 36
1.0
 17
0.0
 27
0.0
 37
0.0
 40
539.70209125007557
 41
1.6703601108033239
 42
50.0
 43
0.0
 44
0.0
 50
0.0
 51
0.0
 71
     0
 72
  2000
 73
     1
 74
     1
 75
     0
 76
     0
 77
     0
 78
     0
  0
ENDTAB
  0
TABLE
  2
LTYPE
 70
    11
  0
LTYPE
  2
CONTINUOUS
 70
     0
  3
Solid line
 72
    65
 73
     0
 40
0.0
  0
LTYPE
  2
STYLE_01
 70
     0
  3

 72
    65
 73
     2
 40
0.4166412353515625
 49
0.208282470703125
 49
-0.2083587646484375
  0
ENDTAB
  0
TABLE
  2
LAYER
 70
     6
  0
LAYER
  2
0
 70
     0
 62
     7
  6
CONTINUOUS
  0
LAYER
  2
DATA
 70
     0
 62
     7
  6
CONTINUOUS
  0
LAYER
  2
HIBINO-BASE
 70
     0
 62
     7
  6
CONTINUOUS
  0
LAYER
  2
PATTERN_FILL
 70
     0
 62
     7
  6
CONTINUOUS
  0
LAYER
  2
SPEC
 70
     0
 62
     7
  6
CONTINUOUS
  0
LAYER
  2
DIMNSIONS
 70
     0
 62
     7
  6
CONTINUOUS
  0
ENDTAB
  0
TABLE
  2
STYLE
 70
     2
  0
STYLE
  2
STANDARD
 70
     0
 40
0.0
 41
1.0
 50
0.0
 71
     0
 42
0.0
  3
txt
  4
BIGFONT.SHX
  0
ENDTAB
  0
TABLE
  2
VIEW
 70
     0
  0
ENDTAB
  0
TABLE
  2
UCS
 70
     0
  0
ENDTAB
  0
TABLE
  2
APPID
 70
     1
  0
APPID
  2
ACAD
 70
     0
  0
ENDTAB
  0
TABLE
  2
DIMSTYLE
 70
     1
  0
DIMSTYLE
  2
STANDARD
 70
     0
  3

  4

  5

  6

  7

 40
1.0
 41
0.18
 42
0.0625
 43
0.38
 44
0.18
 45
0.0
 46
0.0
 47
0.0
 48
0.0
140
0.18
141
0.09
142
0.0
143
25.399999999999999
144
1.0
145
0.0
146
1.0
147
0.09
 71
     0
 72
     0
 73
     1
 74
     1
 75
     0
 76
     0
 77
     0
 78
     0
170
     0
171
     2
172
     0
173
     0
174
     0
175
     0
176
     0
177
     0
178
     0
  0
ENDTAB
  0
ENDSEC
  0
SECTION
  2
BLOCKS
  0
BLOCK
  8
0
  2
$MODEL_SPACE
 70
     0
 10
0.0
 20
0.0
 30
0.0
  3
$MODEL_SPACE
  1

  0
ENDBLK
  5
20D
  8
0
  0
BLOCK
 67
     1
  8
0
  2
$PAPER_SPACE
 70
     0
 10
0.0
 20
0.0
 30
0.0
  3
$PAPER_SPACE
  1

  0
ENDBLK
  5
209
 67
     1
  8
0
  0
ENDSEC
  0
SECTION
  2
ENTITIES
  0
LINE
  5
2D
  8
HIBINO-BASE
  6
CONTINUOUS
 62
     7
 10
-79.999990000000025
 20
403.53181999999993
 30
0.0
 11
279.99999000000003
 21
403.53181999999993
 31
0.0
  0
LINE
  5
2E
  8
HIBINO-BASE
  6
CONTINUOUS
 62
     7
 10
279.99999000000003
 20
-116.46817
 30
0.0
 11
-79.999990000000025
 21
-116.46817
 31
0.0
  0
LINE
  5
2F
  8
HIBINO-BASE
  6
CONTINUOUS
 62
     7
 10
-79.999990000000025
 20
-116.46817
 30
0.0
 11
-79.999990000000025
 21
403.53181999999993
 31
0.0
  0
TEXT
  5
30
  8
HIBINO-BASE
 62
     7
 10
-65.631980000000013
 20
-129.2855084
 30
0.0
 40
7.2000729687499989
  1
Hibino Corporation
 41
0.7
 11
-65.631980000000013
 21
-122.08543543125
 31
0.0
 73
     3
  0
LINE
  5
31
  8
HIBINO-BASE
  6
CONTINUOUS
 62
     7
 10
279.99999000000003
 20
403.53181999999993
 30
0.0
 11
279.99999000000003
 21
-116.46817
 31
0.0
  0
LINE
  5
32
  8
HIBINO-BASE
  6
CONTINUOUS
 62
     7
 10
100.0
 20
-71.468179999999975
 30
0.0
 11
279.99999000000003
 21
-71.468179999999975
 31
0.0
  0
LINE
  5
33
  8
HIBINO-BASE
  6
CONTINUOUS
 62
     7
 10
100.0
 20
-116.46817
 30
0.0
 11
100.0
 21
-71.468179999999975
 31
0.0
  0
TEXT
  5
34
  8
HIBINO-BASE
 62
     7
 10
101.79998000000001
 20
-76.868186399999985
 30
0.0
 40
3.6000518750000001
  1
NOTE
 41
0.7
 11
101.79998000000001
 21
-73.268134524999965
 31
0.0
 73
     3
  0
LINE
  5
35
  8
HIBINO-BASE
  6
CONTINUOUS
 62
     7
 10
170.0
 20
-116.46817
 30
0.0
 11
170.0
 21
-71.468179999999975
 31
0.0
  0
TEXT
  5
36
  8
HIBINO-BASE
 62
     7
 10
171.7999999999999
 20
-76.868186399999985
 30
0.0
 40
3.6000518750000001
  1
TITLE
 41
0.7
 11
171.7999999999999
 21
-73.268134524999965
 31
0.0
 73
     3
  0
TEXT
  5
37
  8
HIBINO-BASE
 62
     7
 10
200.13676000000001
 20
-129.2855084
 30
0.0
 40
7.2000729687499989
  1
ヒビノ株式会社
 41
0.7
 11
200.13676000000001
 21
-122.08543543125
 31
0.0
 73
     3
  0
LINE
  5
38
  8
HIBINO-BASE
  6
CONTINUOUS
 62
     7
 10
100.0
 20
-96.468180000000004
 30
0.0
 11
279.99999000000003
 21
-96.468180000000004
 31
0.0
  0
TEXT
  5
39
  8
HIBINO-BASE
 62
     7
 10
196.80000000000001
 20
-101.75552639999999
 30
0.0
 40
3.6000518750000001
  1
DRAWN
 41
0.7
 11
196.80000000000001
 21
-98.155474525000002
 31
0.0
 73
     3
  0
TEXT
  5
3A
  8
HIBINO-BASE
 62
     7
 10
146.7999999999999
 20
-101.75552639999999
 30
0.0
 40
3.6000518750000001
  1
DATE
 41
0.7
 11
146.7999999999999
 21
-98.155474525000002
 31
0.0
 73
     3
  0
TEXT
  5
3B
  8
HIBINO-BASE
 62
     7
 10
102.19998
 20
-101.7070652
 30
0.0
 40
3.2576720312499998
  1
図面サイズ
 41
0.7
 11
102.19998
 21
-98.449393168750007
 31
0.0
 73
     3
  0
TEXT
  5
3C
  8
HIBINO-BASE
 62
     7
 10
126.79998000000001
 20
-101.75552639999999
 30
0.0
 40
3.6000518750000001
  1
SCALE
 41
0.7
 11
126.79998000000001
 21
-98.155474525000002
 31
0.0
 73
     3
  0
TEXT
  5
3D
  8
HIBINO-BASE
 62
     7
 10
171.7999999999999
 20
-101.75552639999999
 30
0.0
 40
3.6000518750000001
  1
DESIGN
 41
0.7
 11
171.7999999999999
 21
-98.155474525000002
 31
0.0
 73
     3
  0
TEXT
  5
3E
  8
HIBINO-BASE
 62
     7
 10
246.79997999999989
 20
-101.75552639999999
 30
0.0
 40
3.6000518750000001
  1
DRAWING NO.
 41
0.7
 11
246.79997999999989
 21
-98.155474525000002
 31
0.0
 73
     3
  0
TEXT
  5
3F
  8
HIBINO-BASE
 62
     7
 10
221.79999000000001
 20
-101.75552639999999
 30
0.0
 40
3.6000518750000001
  1
CHECK
 41
0.7
 11
221.79999000000001
 21
-98.155474525000002
 31
0.0
 73
     3
  0
LINE
  5
40
  8
HIBINO-BASE
  6
CONTINUOUS
 62
     7
 10
128.74997999999999
 20
-113.96818
 30
0.0
 11
136.25
 21
-106.46818
 31
0.0
  0
TEXT
  5
41
  8
HIBINO-BASE
 62
     7
 10
127.49997999999999
 20
-109.8995983999999
 30
0.0
 40
4.3435729687500002
  1
1
 41
0.7
 11
127.49997999999999
 21
-105.55602543124991
 31
0.0
 73
     3
  0
LINE
  5
42
  8
HIBINO-BASE
  6
CONTINUOUS
 62
     7
 10
124.99997999999999
 20
-116.46817
 30
0.0
 11
124.99997999999999
 21
-96.468180000000004
 31
0.0
  0
LINE
  5
43
  8
HIBINO-BASE
  6
CONTINUOUS
 62
     7
 10
144.99998999999991
 20
-116.46817
 30
0.0
 11
144.99998999999991
 21
-96.468180000000004
 31
0.0
  0
LINE
  5
44
  8
HIBINO-BASE
  6
CONTINUOUS
 62
     7
 10
194.99999
 20
-96.468180000000004
 30
0.0
 11
194.99999
 21
-116.46817
 31
0.0
  0
LINE
  5
45
  8
HIBINO-BASE
  6
CONTINUOUS
 62
     7
 10
245.0
 20
-96.468180000000004
 30
0.0
 11
245.0
 21
-116.46817
 31
0.0
  0
LINE
  5
46
  8
HIBINO-BASE
  6
CONTINUOUS
 62
     7
 10
219.99997999999999
 20
-116.46817
 30
0.0
 11
219.99997999999999
 21
-96.468180000000004
 31
0.0
  0
TEXT
  5
47
  8
HIBINO-BASE
 62
     7
 10
107.82178
 20
-111.4712389999999
 30
0.0
 40
6.5153517578124989
  1
A4
 41
0.7
 11
107.82178
 21
-104.9558872421874
 31
0.0
 73
     3
  0
TEXT
  5
48
  8
HIBINO-BASE
 62
     7
 10
146.71307999999999
 20
-111.1234863999999
 30
0.0
 40
3.6000518750000001
  1
'07.07.
 41
0.7
 11
146.71307999999999
 21
-107.5234345249999
 31
0.0
 73
     3
  0
TEXT
  5
49
  8
HIBINO-BASE
 62
     7
 10
135.0
 20
-113.6495983999999
 30
0.0
 40
4.3435729687500002
  1
2
 41
0.7
 11
135.0
 21
-109.30602543124991
 31
0.0
 73
     3
  0
TEXT
  5
4A
  8
HIBINO-BASE
 62
     7
 10
198.01161002206919
 20
-110.7408816666666
 30
0.0
 40
3.2576822916666659
  1
N.Sasaki
 41
0.7
 11
198.01161002206919
 21
-107.4831993749999
 31
0.0
 73
     3
  0
LINE
  5
4B
  8
PATTERN_FILL
  6
CONTINUOUS
 62
     7
 10
50.055445544854422
 20
180.0
 30
0.0
 11
50.753366998361273
 21
181.85500175800499
 31
0.0
  0
LINE
  5
4C
  8
PATTERN_FILL
  6
CONTINUOUS
 62
     7
 10
50.850000000299993
 20
179.9855263157894
 30
0.0
 11
51.60792079237919
 21
182.0
 31
0.0
  0
LINE
  5
4D
  8
PATTERN_FILL
  6
CONTINUOUS
 62
     7
 10
51.650000000299997
 20
179.98552631578951
 30
0.0
 11
52.407920792379208
 21
182.0
 31
0.0
  0
LINE
  5
4E
  8
PATTERN_FILL
  6
CONTINUOUS
 62
     7
 10
53.250000000300012
 20
179.98552631578951
 30
0.0
 11
52.492079208220808
 21
182.0
 31
0.0
  0
LINE
  5
4F
  8
PATTERN_FILL
  6
CONTINUOUS
 62
     7
 10
52.450000000300001
 20
179.98552631578951
 30
0.0
 11
51.692079208220797
 21
182.0
 31
0.0
  0
LINE
  5
50
  8
PATTERN_FILL
  6
CONTINUOUS
 62
     7
 10
51.650000000299997
 20
179.9855263157894
 30
0.0
 11
50.919655749058762
 21
181.9267044572465
 31
0.0
  0
LINE
  5
51
  8
PATTERN_FILL
  6
CONTINUOUS
 62
     7
 10
50.850000000299993
 20
179.98552631578951
 30
0.0
 11
50.295264239615882
 21
181.45995557444991
 31
0.0
  0
LINE
  5
52
  8
PATTERN_FILL
  6
CONTINUOUS
 62
     7
 10
52.450000000300001
 20
179.98552631578951
 30
0.0
 11
53.207920792379177
 21
182.0
 31
0.0
  0
LINE
  5
53
  8
PATTERN_FILL
  6
CONTINUOUS
 62
     7
 10
53.250000000300012
 20
179.98552631578951
 30
0.0
 11
54.007920792379181
 21
182.0
 31
0.0
  0
LINE
  5
54
  8
PATTERN_FILL
  6
CONTINUOUS
 62
     7
 10
54.050000000300003
 20
179.98552631578951
 30
0.0
 11
54.807920792379178
 21
182.0
 31
0.0
  0
LINE
  5
55
  8
PATTERN_FILL
  6
CONTINUOUS
 62
     7
 10
54.850000000300021
 20
179.98552631578951
 30
0.0
 11
55.607920792379211
 21
182.0
 31
0.0
  0
LINE
  5
56
  8
PATTERN_FILL
  6
CONTINUOUS
 62
     7
 10
55.650000000299997
 20
179.9855263157894
 30
0.0
 11
56.407920792379208
 21
182.0
 31
0.0
  0
LINE
  5
57
  8
PATTERN_FILL
  6
CONTINUOUS
 62
     7
 10
56.450000000300008
 20
179.98552631578951
 30
0.0
 11
57.207920792379198
 21
182.0
 31
0.0
  0
LINE
  5
58
  8
PATTERN_FILL
  6
CONTINUOUS
 62
     7
 10
57.250000000299991
 20
179.98552631578951
 30
0.0
 11
58.007920792379181
 21
182.0
 31
0.0
  0
LINE
  5
59
  8
PATTERN_FILL
  6
CONTINUOUS
 62
     7
 10
58.050000000299988
 20
179.98552631578951
 30
0.0
 11
58.807920792379178
 21
182.0
 31
0.0
  0
LINE
  5
5A
  8
PATTERN_FILL
  6
CONTINUOUS
 62
     7
 10
58.8500000003
 20
179.98552631578951
 30
0.0
 11
59.607920792379183
 21
182.0
 31
0.0
  0
LINE
  5
5B
  8
PATTERN_FILL
  6
CONTINUOUS
 62
     7
 10
59.650000000299997
 20
179.98552631578951
 30
0.0
 11
60.407920792379201
 21
182.0
 31
0.0
  0
LINE
  5
5C
  8
PATTERN_FILL
  6
CONTINUOUS
 62
     7
 10
60.45000000029998
 20
179.9855263157894
 30
0.0
 11
61.207920792379198
 21
182.0
 31
0.0
  0
LINE
  5
5D
  8
PATTERN_FILL
  6
CONTINUOUS
 62
     7
 10
61.250000000299991
 20
179.9855263157894
 30
0.0
 11
62.007920792379203
 21
182.0
 31
0.0
  0
LINE
  5
5E
  8
PATTERN_FILL
  6
CONTINUOUS
 62
     7
 10
62.050000000300017
 20
179.98552631578951
 30
0.0
 11
62.807920792379207
 21
182.0
 31
0.0
  0
LINE
  5
5F
  8
PATTERN_FILL
  6
CONTINUOUS
 62
     7
 10
62.850000000300021
 20
179.98552631578951
 30
0.0
 11
63.60792079237919
 21
182.0
 31
0.0
  0
LINE
  5
60
  8
PATTERN_FILL
  6
CONTINUOUS
 62
     7
 10
63.650000000300011
 20
179.98552631578951
 30
0.0
 11
64.407920792379187
 21
182.0
 31
0.0
  0
LINE
  5
61
  8
PATTERN_FILL
  6
CONTINUOUS
 62
     7
 10
64.450000000300008
 20
179.98552631578951
 30
0.0
 11
65.207920792379213
 21
182.0
 31
0.0
  0
LINE
  5
62
  8
PATTERN_FILL
  6
CONTINUOUS
 62
     7
 10
65.250000000300005
 20
179.98552631578951
 30
0.0
 11
66.00792079237921
 21
182.0
 31
0.0
  0
LINE
  5
63
  8
PATTERN_FILL
  6
CONTINUOUS
 62
     7
 10
66.050000000300031
 20
179.98552631578951
 30
0.0
 11
66.807920792379207
 21
182.0
 31
0.0
  0
LINE
  5
64
  8
PATTERN_FILL
  6
CONTINUOUS
 62
     7
 10
66.850000000300028
 20
179.98552631578951
 30
0.0
 11
67.607920792379204
 21
182.0
 31
0.0
  0
LINE
  5
65
  8
PATTERN_FILL
  6
CONTINUOUS
 62
     7
 10
67.650000000299997
 20
179.98552631578951
 30
0.0
 11
66.892079208220821
 21
182.0
 31
0.0
  0
LINE
  5
66
  8
PATTERN_FILL
  6
CONTINUOUS
 62
     7
 10
66.8500000003
 20
179.98552631578951
 30
0.0
 11
66.09207920822081
 21
182.0
 31
0.0
  0
LINE
  5
67
  8
PATTERN_FILL
  6
CONTINUOUS
 62
     7
 10
66.050000000300003
 20
179.98552631578951
 30
0.0
 11
65.292079208220812
 21
182.0
 31
0.0
  0
LINE
  5
68
  8
PATTERN_FILL
  6
CONTINUOUS
 62
     7
 10
65.250000000299991
 20
179.98552631578951
 30
0.0
 11
64.492079208220801
 21
182.0
 31
0.0
  0
LINE
  5
69
  8
PATTERN_FILL
  6
CONTINUOUS
 62
     7
 10
64.450000000299994
 20
179.98552631578951
 30
0.0
 11
63.692079208220811
 21
182.0
 31
0.0
  0
LINE
  5
6A
  8
PATTERN_FILL
  6
CONTINUOUS
 62
     7
 10
63.650000000299997
 20
179.98552631578951
 30
0.0
 11
62.892079208220807
 21
182.0
 31
0.0
  0
LINE
  5
6B
  8
PATTERN_FILL
  6
CONTINUOUS
 62
     7
 10
62.8500000003
 20
179.98552631578951
 30
0.0
 11
62.09207920822081
 21
182.0
 31
0.0
  0
LINE
  5
6C
  8
PATTERN_FILL
  6
CONTINUOUS
 62
     7
 10
62.050000000300017
 20
179.9855263157894
 30
0.0
 11
61.292079208220812
 21
182.0
 31
0.0
  0
LINE
  5
6D
  8
PATTERN_FILL
  6
CONTINUOUS
 62
     7
 10
61.25000000030002
 20
179.9855263157894
 30
0.0
 11
60.492079208220787
 21
182.0
 31
0.0
  0
LINE
  5
6E
  8
PATTERN_FILL
  6
CONTINUOUS
 62
     7
 10
60.450000000300001
 20
179.98552631578951
 30
0.0
 11
59.692079208220818
 21
182.0
 31
0.0
  0
LINE
  5
6F
  8
PATTERN_FILL
  6
CONTINUOUS
 62
     7
 10
59.65000000029999
 20
179.98552631578951
 30
0.0
 11
58.892079208220807
 21
182.0
 31
0.0
  0
LINE
  5
70
  8
PATTERN_FILL
  6
CONTINUOUS
 62
     7
 10
58.8500000003
 20
179.98552631578951
 30
0.0
 11
58.092079208220817
 21
182.0
 31
0.0
  0
LINE
  5
71
  8
PATTERN_FILL
  6
CONTINUOUS
 62
     7
 10
58.050000000300017
 20
179.9855263157894
 30
0.0
 11
57.292079208220812
 21
182.0
 31
0.0
  0
LINE
  5
72
  8
PATTERN_FILL
  6
CONTINUOUS
 62
     7
 10
57.250000000299998
 20
179.9855263157894
 30
0.0
 11
56.492079208220787
 21
182.0
 31
0.0
  0
LINE
  5
73
  8
PATTERN_FILL
  6
CONTINUOUS
 62
     7
 10
56.450000000299987
 20
179.98552631578951
 30
0.0
 11
55.692079208220818
 21
182.0
 31
0.0
  0
LINE
  5
74
  8
PATTERN_FILL
  6
CONTINUOUS
 62
     7
 10
55.650000000299997
 20
179.98552631578951
 30
0.0
 11
54.892079208220821
 21
182.0
 31
0.0
  0
LINE
  5
75
  8
PATTERN_FILL
  6
CONTINUOUS
 62
     7
 10
54.8500000003
 20
179.98552631578951
 30
0.0
 11
54.092079208220817
 21
182.0
 31
0.0
  0
LINE
  5
76
  8
PATTERN_FILL
  6
CONTINUOUS
 62
     7
 10
54.050000000300017
 20
179.9855263157894
 30
0.0
 11
53.292079208220812
 21
182.0
 31
0.0
  0
LINE
  5
77
  8
PATTERN_FILL
  6
CONTINUOUS
 62
     7
 10
67.650000000300011
 20
179.98552631578951
 30
0.0
 11
68.407920792379187
 21
182.0
 31
0.0
  0
LINE
  5
78
  8
PATTERN_FILL
  6
CONTINUOUS
 62
     7
 10
68.450000000300008
 20
179.98552631578951
 30
0.0
 11
69.180344251540731
 21
181.92670445724511
 31
0.0
  0
LINE
  5
79
  8
PATTERN_FILL
  6
CONTINUOUS
 62
     7
 10
69.250000000300005
 20
179.98552631578951
 30
0.0
 11
69.804735760983675
 21
181.4599555744488
 31
0.0
  0
LINE
  5
7A
  8
PATTERN_FILL
  6
CONTINUOUS
 62
     7
 10
70.050000000300031
 20
179.98552631578951
 30
0.0
 11
69.346633002237979
 21
181.85500175800701
 31
0.0
  0
LINE
  5
7B
  8
PATTERN_FILL
  6
CONTINUOUS
 62
     7
 10
69.25000000030002
 20
179.9855263157894
 30
0.0
 11
68.492079208220815
 21
182.0
 31
0.0
  0
LINE
  5
7C
  8
PATTERN_FILL
  6
CONTINUOUS
 62
     7
 10
68.450000000300008
 20
179.98552631578951
 30
0.0
 11
67.692079208220818
 21
182.0
 31
0.0
  0
LINE
  5
7D
  8
PATTERN_FILL
  6
CONTINUOUS
 62
     7
 10
140.85000000030001
 20
179.9855263157894
 30
0.0
 11
141.60792079237919
 21
182.0
 31
0.0
  0
LINE
  5
7E
  8
PATTERN_FILL
  6
CONTINUOUS
 62
     7
 10
141.6500000003
 20
179.98552631578951
 30
0.0
 11
142.4079207923792
 21
182.0
 31
0.0
  0
LINE
  5
7F
  8
PATTERN_FILL
  6
CONTINUOUS
 62
     7
 10
142.45000000030001
 20
179.98552631578951
 30
0.0
 11
143.20792079237921
 21
182.0
 31
0.0
  0
LINE
  5
80
  8
PATTERN_FILL
  6
CONTINUOUS
 62
     7
 10
143.25000000029999
 20
179.98552631578951
 30
0.0
 11
144.0079207923792
 21
182.0
 31
0.0
  0
LINE
  5
81
  8
PATTERN_FILL
  6
CONTINUOUS
 62
     7
 10
144.0500000003
 20
179.98552631578951
 30
0.0
 11
144.80792079237921
 21
182.0
 31
0.0
  0
LINE
  5
82
  8
PATTERN_FILL
  6
CONTINUOUS
 62
     7
 10
144.85000000030001
 20
179.98552631578951
 30
0.0
 11
145.60792079237919
 21
182.0
 31
0.0
  0
LINE
  5
83
  8
PATTERN_FILL
  6
CONTINUOUS
 62
     7
 10
145.6500000003
 20
179.9855263157894
 30
0.0
 11
146.4079207923792
 21
182.0
 31
0.0
  0
LINE
  5
84
  8
PATTERN_FILL
  6
CONTINUOUS
 62
     7
 10
146.45000000030001
 20
179.98552631578951
 30
0.0
 11
147.20792079237921
 21
182.0
 31
0.0
  0
LINE
  5
85
  8
PATTERN_FILL
  6
CONTINUOUS
 62
     7
 10
147.25000000029999
 20
179.98552631578951
 30
0.0
 11
148.0079207923792
 21
182.0
 31
0.0
  0
LINE
  5
86
  8
PATTERN_FILL
  6
CONTINUOUS
 62
     7
 10
148.0500000003
 20
179.98552631578951
 30
0.0
 11
148.80792079237921
 21
182.0
 31
0.0
  0
LINE
  5
87
  8
PATTERN_FILL
  6
CONTINUOUS
 62
     7
 10
148.85000000030001
 20
179.98552631578951
 30
0.0
 11
149.60792079237919
 21
182.0
 31
0.0
  0
LINE
  5
88
  8
PATTERN_FILL
  6
CONTINUOUS
 62
     7
 10
149.6500000003
 20
179.98552631578951
 30
0.0
 11
150.4079207923792
 21
182.0
 31
0.0
  0
LINE
  5
89
  8
PATTERN_FILL
  6
CONTINUOUS
 62
     7
 10
150.45000000029989
 20
179.9855263157894
 30
0.0
 11
151.20792079237921
 21
182.0
 31
0.0
  0
LINE
  5
8A
  8
PATTERN_FILL
  6
CONTINUOUS
 62
     7
 10
151.25000000029999
 20
179.9855263157894
 30
0.0
 11
152.0079207923792
 21
182.0
 31
0.0
  0
LINE
  5
8B
  8
PATTERN_FILL
  6
CONTINUOUS
 62
     7
 10
152.0500000003
 20
179.98552631578951
 30
0.0
 11
152.80792079237921
 21
182.0
 31
0.0
  0
LINE
  5
8C
  8
PATTERN_FILL
  6
CONTINUOUS
 62
     7
 10
152.85000000030001
 20
179.98552631578951
 30
0.0
 11
153.60792079237919
 21
182.0
 31
0.0
  0
LINE
  5
8D
  8
PATTERN_FILL
  6
CONTINUOUS
 62
     7
 10
153.6500000003
 20
179.98552631578951
 30
0.0
 11
154.40792079237909
 21
182.0
 31
0.0
  0
LINE
  5
8E
  8
PATTERN_FILL
  6
CONTINUOUS
 62
     7
 10
154.45000000030001
 20
179.98552631578951
 30
0.0
 11
155.20792079237921
 21
182.0
 31
0.0
  0
LINE
  5
8F
  8
PATTERN_FILL
  6
CONTINUOUS
 62
     7
 10
155.25000000029999
 20
179.98552631578951
 30
0.0
 11
156.0079207923792
 21
182.0
 31
0.0
  0
LINE
  5
90
  8
PATTERN_FILL
  6
CONTINUOUS
 62
     7
 10
156.0500000003
 20
179.98552631578951
 30
0.0
 11
156.80792079237909
 21
182.0
 31
0.0
  0
LINE
  5
91
  8
PATTERN_FILL
  6
CONTINUOUS
 62
     7
 10
156.85000000030001
 20
179.98552631578951
 30
0.0
 11
157.60792079237919
 21
182.0
 31
0.0
  0
LINE
  5
92
  8
PATTERN_FILL
  6
CONTINUOUS
 62
     7
 10
157.6500000003
 20
179.98552631578951
 30
0.0
 11
158.40792079237909
 21
182.0
 31
0.0
  0
LINE
  5
93
  8
PATTERN_FILL
  6
CONTINUOUS
 62
     7
 10
158.45000000030001
 20
179.98552631578951
 30
0.0
 11
157.6920792082208
 21
182.0
 31
0.0
  0
LINE
  5
94
  8
PATTERN_FILL
  6
CONTINUOUS
 62
     7
 10
157.6500000003
 20
179.98552631578951
 30
0.0
 11
156.89207920822079
 21
182.0
 31
0.0
  0
LINE
  5
95
  8
PATTERN_FILL
  6
CONTINUOUS
 62
     7
 10
156.85000000030001
 20
179.98552631578951
 30
0.0
 11
156.09207920822081
 21
182.0
 31
0.0
  0
LINE
  5
96
  8
PATTERN_FILL
  6
CONTINUOUS
 62
     7
 10
156.0500000003
 20
179.98552631578951
 30
0.0
 11
155.2920792082208
 21
182.0
 31
0.0
  0
LINE
  5
97
  8
PATTERN_FILL
  6
CONTINUOUS
 62
     7
 10
155.25000000029999
 20
179.98552631578951
 30
0.0
 11
154.49207920822079
 21
182.0
 31
0.0
  0
LINE
  5
98
  8
PATTERN_FILL
  6
CONTINUOUS
 62
     7
 10
154.45000000030001
 20
179.98552631578951
 30
0.0
 11
153.6920792082208
 21
182.0
 31
0.0
  0
LINE
  5
99
  8
PATTERN_FILL
  6
CONTINUOUS
 62
     7
 10
153.6500000003
 20
179.98552631578951
 30
0.0
 11
152.89207920822079
 21
182.0
 31
0.0
  0
LINE
  5
9A
  8
PATTERN_FILL
  6
CONTINUOUS
 62
     7
 10
152.85000000030001
 20
179.98552631578951
 30
0.0
 11
152.09207920822081
 21
182.0
 31
0.0
  0
LINE
  5
9B
  8
PATTERN_FILL
  6
CONTINUOUS
 62
     7
 10
152.0500000003
 20
179.9855263157894
 30
0.0
 11
151.2920792082208
 21
182.0
 31
0.0
  0
LINE
  5
9C
  8
PATTERN_FILL
  6
CONTINUOUS
 62
     7
 10
151.25000000029999
 20
179.9855263157894
 30
0.0
 11
150.49207920822079
 21
182.0
 31
0.0
  0
LINE
  5
9D
  8
PATTERN_FILL
  6
CONTINUOUS
 62
     7
 10
150.45000000030001
 20
179.98552631578951
 30
0.0
 11
149.6920792082208
 21
182.0
 31
0.0
  0
LINE
  5
9E
  8
PATTERN_FILL
  6
CONTINUOUS
 62
     7
 10
149.6500000003
 20
179.98552631578951
 30
0.0
 11
148.89207920822079
 21
182.0
 31
0.0
  0
LINE
  5
9F
  8
PATTERN_FILL
  6
CONTINUOUS
 62
     7
 10
148.85000000030001
 20
179.98552631578951
 30
0.0
 11
148.09207920822081
 21
182.0
 31
0.0
  0
LINE
  5
A0
  8
PATTERN_FILL
  6
CONTINUOUS
 62
     7
 10
148.0500000003
 20
179.9855263157894
 30
0.0
 11
147.2920792082208
 21
182.0
 31
0.0
  0
LINE
  5
A1
  8
PATTERN_FILL
  6
CONTINUOUS
 62
     7
 10
147.25000000029999
 20
179.9855263157894
 30
0.0
 11
146.49207920822079
 21
182.0
 31
0.0
  0
LINE
  5
A2
  8
PATTERN_FILL
  6
CONTINUOUS
 62
     7
 10
146.45000000030001
 20
179.98552631578951
 30
0.0
 11
145.6920792082208
 21
182.0
 31
0.0
  0
LINE
  5
A3
  8
PATTERN_FILL
  6
CONTINUOUS
 62
     7
 10
145.6500000003
 20
179.98552631578951
 30
0.0
 11
144.89207920822079
 21
182.0
 31
0.0
  0
LINE
  5
A4
  8
PATTERN_FILL
  6
CONTINUOUS
 62
     7
 10
144.85000000030001
 20
179.98552631578951
 30
0.0
 11
144.09207920822081
 21
182.0
 31
0.0
  0
LINE
  5
A5
  8
PATTERN_FILL
  6
CONTINUOUS
 62
     7
 10
144.0500000003
 20
179.9855263157894
 30
0.0
 11
143.2920792082208
 21
182.0
 31
0.0
  0
LINE
  5
A6
  8
PATTERN_FILL
  6
CONTINUOUS
 62
     7
 10
143.25000000029999
 20
179.98552631578951
 30
0.0
 11
142.49207920822079
 21
182.0
 31
0.0
  0
LINE
  5
A7
  8
PATTERN_FILL
  6
CONTINUOUS
 62
     7
 10
142.45000000030001
 20
179.98552631578951
 30
0.0
 11
141.6920792082208
 21
182.0
 31
0.0
  0
LINE
  5
A8
  8
PATTERN_FILL
  6
CONTINUOUS
 62
     7
 10
141.6500000003
 20
179.9855263157894
 30
0.0
 11
140.89207920822079
 21
182.0
 31
0.0
  0
LINE
  5
A9
  8
PATTERN_FILL
  6
CONTINUOUS
 62
     7
 10
140.05544554485439
 20
180.0
 30
0.0
 11
140.80792079237909
 21
182.0
 31
0.0
  0
LINE
  5
AA
  8
PATTERN_FILL
  6
CONTINUOUS
 62
     7
 10
140.85000000030001
 20
179.98552631578951
 30
0.0
 11
140.16168927282001
 21
181.81498377567041
 31
0.0
  0
LINE
  5
AB
  8
PATTERN_FILL
  6
CONTINUOUS
 62
     7
 10
158.45000000030001
 20
179.98552631578951
 30
0.0
 11
159.20792079237921
 21
182.0
 31
0.0
  0
LINE
  5
AC
  8
PATTERN_FILL
  6
CONTINUOUS
 62
     7
 10
159.25000000029999
 20
179.98552631578951
 30
0.0
 11
159.93831072777411
 21
181.81498377565481
 31
0.0
  0
LINE
  5
AD
  8
PATTERN_FILL
  6
CONTINUOUS
 62
     7
 10
160.0500000003
 20
179.98552631578951
 30
0.0
 11
159.2920792082208
 21
182.0
 31
0.0
  0
LINE
  5
AE
  8
PATTERN_FILL
  6
CONTINUOUS
 62
     7
 10
159.25000000029999
 20
179.9855263157894
 30
0.0
 11
158.49207920822079
 21
182.0
 31
0.0
  0
LINE
  5
AF
  8
SPEC
  6
CONTINUOUS
 62
     7
 10
-64.999990000000011
 20
383.53181999999998
 30
0.0
 11
230.0
 21
383.53181999999998
 31
0.0
  0
LINE
  5
B0
  8
SPEC
  6
CONTINUOUS
 62
     7
 10
0.000009999999989
 20
383.53181999999998
 30
0.0
 11
0.000009999999989
 21
323.53181999999998
 31
0.0
  0
TEXT
  5
B1
  8
SPEC
 62
     7
 10
-62.746438297773032
 20
363.09447797079258
 30
0.0
 40
3.8006293402777769
  1
指向特性
 41
0.7
 11
-62.746438297773032
 21
366.89510731107038
 31
0.0
 73
     3
  0
LINE
  5
B2
  8
SPEC
  6
CONTINUOUS
 62
     7
 10
-64.999990000000011
 20
376.03181999999998
 30
0.0
 11
230.0
 21
376.03181999999998
 31
0.0
  0
TEXT
  5
B3
  8
SPEC
 62
     7
 10
-62.777554063547491
 20
377.9698513703845
 30
0.0
 40
3.8006293402777769
  1
形式
 41
0.7
 11
-62.777554063547491
 21
381.77048071066218
 31
0.0
 73
     3
  0
LINE
  5
B4
  8
SPEC
  6
CONTINUOUS
 62
     7
 10
-64.999990000000011
 20
368.53181999999998
 30
0.0
 11
230.0
 21
368.53181999999998
 31
0.0
  0
TEXT
  5
B5
  8
SPEC
 62
     7
 10
-62.712827365243832
 20
370.46726720385283
 30
0.0
 40
3.8006293402777769
  1
周波数特性
 41
0.7
 11
-62.712827365243832
 21
374.26789654413062
 31
0.0
 73
     3
  0
LINE
  5
B6
  8
SPEC
  6
CONTINUOUS
 62
     7
 10
-64.999990000000011
 20
353.53181999999998
 30
0.0
 11
230.0
 21
353.53181999999998
 31
0.0
  0
TEXT
  5
B7
  8
SPEC
 62
     7
 10
-62.886045636383429
 20
355.4620265173117
 30
0.0
 40
3.8006293402777769
  1
出力レベル(@1kHz)
 41
0.7
 11
-62.886045636383429
 21
359.26265585758949
 31
0.0
 73
     3
  0
LINE
  5
B8
  8
SPEC
  6
CONTINUOUS
 62
     7
 10
-64.999990000000011
 20
346.03181999999998
 30
0.0
 11
230.0
 21
346.03181999999998
 31
0.0
  0
TEXT
  5
B9
  8
SPEC
 62
     7
 10
-62.891037216421651
 20
325.56938876918611
 30
0.0
 40
3.8006293402777769
  1
出力コネクタ 
 41
0.7
 11
-62.891037216421651
 21
329.3700181094639
 31
0.0
 73
     3
  0
LINE
  5
BA
  8
SPEC
  6
CONTINUOUS
 62
     7
 10
-64.999990000000011
 20
338.53181999999998
 30
0.0
 11
230.0
 21
338.53181999999998
 31
0.0
  0
LINE
  5
BB
  8
SPEC
  6
CONTINUOUS
 62
     7
 10
-64.999990000000011
 20
323.53181999999998
 30
0.0
 11
230.0
 21
323.53181999999998
 31
0.0
  0
TEXT
  5
BC
  8
SPEC
 62
     7
 10
-62.853729431431518
 20
347.9084627913046
 30
0.0
 40
3.8006293402777769
  1
インピーダンス
 41
0.7
 11
-62.853729431431518
 21
351.70909213158239
 31
0.0
 73
     3
  0
TEXT
  5
BD
  8
SPEC
 62
     7
 10
-62.499990000000011
 20
386.31833999999998
 30
0.0
 40
4.8865234375000002
  1
仕様
 41
0.7
 11
-62.499990000000011
 21
391.20486343750002
 31
0.0
 73
     3
  0
TEXT
  5
BE
  8
SPEC
 62
     7
 10
-62.876518060867532
 20
318.03999335105863
 30
0.0
 40
3.8006293402777769
  1
寸法
 41
0.7
 11
-62.876518060867532
 21
321.84062269133631
 31
0.0
 73
     3
  0
TEXT
  5
BF
  8
SPEC
 62
     7
 10
-62.868386880889759
 20
310.66301845181999
 30
0.0
 40
3.8006293402777769
  1
質量
 41
0.7
 11
-62.868386880889759
 21
314.46364779209779
 31
0.0
 73
     3
  0
TEXT
  5
C0
  8
SPEC
 62
     7
 10
2.2674106191377201
 20
310.50651353534681
 30
0.0
 40
3.8006293402777769
  1
204g
 41
0.7
 11
2.267410619137721
 21
314.30714287562461
 31
0.0
 73
     3
  0
LINE
  5
C1
  8
SPEC
  6
CONTINUOUS
 62
     7
 10
-64.999990000000011
 20
361.03181999999998
 30
0.0
 11
230.0
 21
361.03181999999998
 31
0.0
  0
LINE
  5
C2
  8
SPEC
  6
CONTINUOUS
 62
     7
 10
-64.999990000000011
 20
331.03181999999998
 30
0.0
 11
230.0
 21
331.03181999999998
 31
0.0
  0
TEXT
  5
C3
  8
SPEC
 62
     7
 10
1.5149658108735189
 20
318.00605526676628
 30
0.0
 40
3.8006293402777769
  1
φ23.6×全長212mm
 41
0.7
 11
1.5149658108735189
 21
321.80668460704408
 31
0.0
 73
     3
  0
LINE
  5
C4
  8
SPEC
  6
CONTINUOUS
 62
     7
 10
-64.999990000000011
 20
316.03181999999998
 30
0.0
 11
230.0
 21
316.03181999999998
 31
0.0
  0
LINE
  5
C5
  8
SPEC
  6
CONTINUOUS
 62
     7
 10
-64.999990000000011
 20
308.53181999999998
 30
0.0
 11
230.0
 21
308.53181999999998
 31
0.0
  0
LINE
  5
C6
  8
SPEC
  6
CONTINUOUS
 62
     7
 10
-64.999990000000011
 20
383.53181999999998
 30
0.0
 11
-64.999990000000011
 21
308.53181999999998
 31
0.0
  0
LINE
  5
C7
  8
SPEC
  6
CONTINUOUS
 62
     7
 10
0.000009999999989
 20
383.53181999999998
 30
0.0
 11
0.000009999999989
 21
308.53181999999998
 31
0.0
  0
LINE
  5
C8
  8
SPEC
  6
CONTINUOUS
 62
     7
 10
230.0
 20
383.53181999999998
 30
0.0
 11
230.0
 21
308.53181999999998
 31
0.0
  0
TEXT
  5
C9
  8
SPEC
 62
     7
 10
-62.691911297646897
 20
340.48265414634699
 30
0.0
 40
3.8006293402777769
  1
外装色
 41
0.7
 11
-62.691911297646897
 21
344.28328348662478
 31
0.0
 73
     3
  0
TEXT
  5
CA
  8
SPEC
 62
     7
 10
1.8177536345140759
 20
340.47829543623652
 30
0.0
 40
3.8006293402777769
  1
シルバー
 41
0.7
 11
1.8177536345140759
 21
344.2789247765142
 31
0.0
 73
     3
  0
TEXT
  5
CB
  8
SPEC
 62
     7
 10
-62.76353055969885
 20
332.86724112791489
 30
0.0
 40
3.8006293402777769
  1
電源
 41
0.7
 11
-62.76353055969885
 21
336.66787046819258
 31
0.0
 73
     3
  0
TEXT
  5
CC
  8
SPEC
 62
     7
 10
1.766867267882432
 20
332.98198526365439
 30
0.0
 40
3.8006293402777769
  1
ファンタムDC11～52/1.2mA
 41
0.7
 11
1.766867267882432
 21
336.78261460393219
 31
0.0
 73
     3
  0
TEXT
  5
CD
  8
SPEC
 62
     7
 10
2.3843906652204789
 20
325.42663245992958
 30
0.0
 40
3.8006293402777769
  1
XLR3ピン、オス
 41
0.7
 11
2.3843906652204789
 21
329.22726180020737
 31
0.0
 73
     3
  0
TEXT
  5
CE
  8
SPEC
 62
     7
 10
2.0165747523754471
 20
377.65130087326008
 30
0.0
 40
3.8006293402777769
  1
エレクトレットコンデンサ型 
 41
0.7
 11
2.016574752375448
 21
381.45193021353788
 31
0.0
 73
     3
  0
TEXT
  5
CF
  8
SPEC
 62
     7
 10
2.3041436880938719
 20
370.29687642947403
 30
0.0
 40
3.8006293402777769
  1
20Hz～20Hz
 41
0.7
 11
2.3041436880938728
 21
374.09750576975182
 31
0.0
 73
     3
  0
TEXT
  5
D0
  8
SPEC
 62
     7
 10
1.858876817257068
 20
362.92069023398602
 30
0.0
 40
3.8006293402777769
  1
カーディオイド
 41
0.7
 11
1.8588768172570691
 21
366.72131957426382
 31
0.0
 73
     3
  0
TEXT
  5
D1
  8
SPEC
 62
     7
 10
2.4850543223433008
 20
355.55930153641867
 30
0.0
 40
3.8006293402777769
  1
-45dB re 1V/Pa*1Pa=94dB
 41
0.7
 11
2.4850543223433021
 21
359.35993087669652
 31
0.0
 73
     3
  0
TEXT
  5
D2
  8
SPEC
 62
     7
 10
1.8216806241196359
 20
347.69013362846789
 30
0.0
 40
3.8006293402777769
  1
150Ω 
 41
0.7
 11
1.8216806241196359
 21
351.49076296874563
 31
0.0
 73
     3
  0
TEXT
  5
D3
  8
DIMNSIONS
 62
     7
 10
60.0
 20
-91.929190000000006
 30
0.0
 40
4.8865234375000002
  1
(単位：mm)
 41
0.7
 11
60.0
 21
-87.042666562500003
 31
0.0
 73
     3
  0
LINE
  5
D4
  8
DIMNSIONS
  6
CONTINUOUS
 62
     7
 10
46.80792080728034
 20
182.0
 30
0.0
 11
-3.9999999850988388
 21
182.0
 31
0.0
  0
LINE
  5
D5
  8
DIMNSIONS
  6
CONTINUOUS
 62
     7
 10
46.80792080728034
 20
-30.0
 30
0.0
 11
-3.9999999850988388
 21
-30.0
 31
0.0
  0
LINE
  5
D6
  8
DIMNSIONS
  6
CONTINUOUS
 62
     7
 10
0.0
 20
182.0
 30
0.0
 11
0.0
 21
-30.0
 31
0.0
  0
LINE
  5
D7
  8
DIMNSIONS
  6
CONTINUOUS
 62
     7
 10
0.0
 20
182.0
 30
0.0
 11
1.701477371937627
 21
175.65000000000001
 31
0.0
  0
LINE
  5
D8
  8
DIMNSIONS
  6
CONTINUOUS
 62
     7
 10
0.0
 20
182.0
 30
0.0
 11
-1.701477371937627
 21
175.65000000000001
 31
0.0
  0
LINE
  5
D9
  8
DIMNSIONS
  6
CONTINUOUS
 62
     7
 10
0.0
 20
-30.0
 30
0.0
 11
-1.701477371937627
 21
-23.650000000000009
 31
0.0
  0
LINE
  5
DA
  8
DIMNSIONS
  6
CONTINUOUS
 62
     7
 10
0.0
 20
-30.0
 30
0.0
 11
1.701477371937627
 21
-23.650000000000009
 31
0.0
  0
TEXT
  5
DB
  8
DIMNSIONS
 62
     7
 10
-2.987777770327201
 20
70.708333333333343
 30
0.0
 40
5.4294704861111107
  1
212
 50
90.0
 41
0.7
 11
-8.4172482564383131
 21
70.708333333333343
 31
0.0
 73
     3
  0
LINE
  5
DC
  8
DIMNSIONS
  6
CONTINUOUS
 62
     7
 10
48.25000000030002
 20
213.9999999850989
 30
0.0
 11
48.25000000030002
 21
243.99999998509881
 31
0.0
  0
LINE
  5
DD
  8
DIMNSIONS
  6
CONTINUOUS
 62
     7
 10
71.850000000300014
 20
213.9999999850989
 30
0.0
 11
71.850000000300014
 21
243.99999998509881
 31
0.0
  0
LINE
  5
DE
  8
DIMNSIONS
  6
CONTINUOUS
 62
     7
 10
48.25000000030002
 20
240.0
 30
0.0
 11
71.850000000300014
 21
240.0
 31
0.0
  0
LINE
  5
DF
  8
DIMNSIONS
  6
CONTINUOUS
 62
     7
 10
48.25000000030002
 20
240.0
 30
0.0
 11
54.600000000300028
 21
241.7014773719377
 31
0.0
  0
LINE
  5
E0
  8
DIMNSIONS
  6
CONTINUOUS
 62
     7
 10
48.25000000030002
 20
240.0
 30
0.0
 11
54.600000000300028
 21
238.29852262806239
 31
0.0
  0
LINE
  5
E1
  8
DIMNSIONS
  6
CONTINUOUS
 62
     7
 10
71.850000000300014
 20
240.0
 30
0.0
 11
65.50000000030002
 21
238.29852262806239
 31
0.0
  0
LINE
  5
E2
  8
DIMNSIONS
  6
CONTINUOUS
 62
     7
 10
71.850000000300014
 20
240.0
 30
0.0
 11
65.50000000030002
 21
241.7014773719377
 31
0.0
  0
TEXT
  5
E3
  8
DIMNSIONS
 62
     7
 10
52.994444444744452
 20
242.9877777703272
 30
0.0
 40
5.4294704861111107
  1
23.6
 41
0.7
 11
52.994444444744452
 21
248.41724825643831
 31
0.0
 73
     3
  0
LINE
  5
E4
  8
DIMNSIONS
  6
CONTINUOUS
 62
     7
 10
46.80792080728034
 20
182.0
 30
0.0
 11
16.000000014901161
 21
182.0
 31
0.0
  0
LINE
  5
E5
  8
DIMNSIONS
  6
CONTINUOUS
 62
     7
 10
46.80792080728034
 20
145.0
 30
0.0
 11
16.000000014901161
 21
145.0
 31
0.0
  0
LINE
  5
E6
  8
DIMNSIONS
  6
CONTINUOUS
 62
     7
 10
20.0
 20
182.0
 30
0.0
 11
20.0
 21
145.0
 31
0.0
  0
LINE
  5
E7
  8
DIMNSIONS
  6
CONTINUOUS
 62
     7
 10
20.0
 20
182.0
 30
0.0
 11
21.701477371937631
 21
175.65000000000001
 31
0.0
  0
LINE
  5
E8
  8
DIMNSIONS
  6
CONTINUOUS
 62
     7
 10
20.0
 20
182.0
 30
0.0
 11
18.298522628062369
 21
175.65000000000001
 31
0.0
  0
LINE
  5
E9
  8
DIMNSIONS
  6
CONTINUOUS
 62
     7
 10
20.0
 20
145.0
 30
0.0
 11
18.298522628062369
 21
151.34999999999999
 31
0.0
  0
LINE
  5
EA
  8
DIMNSIONS
  6
CONTINUOUS
 62
     7
 10
20.0
 20
145.0
 30
0.0
 11
21.701477371937631
 21
151.34999999999999
 31
0.0
  0
TEXT
  5
EB
  8
DIMNSIONS
 62
     7
 10
17.012222229672808
 20
159.9722222222222
 30
0.0
 40
5.4294704861111107
  1
37
 50
90.0
 41
0.7
 11
11.582751743561699
 21
159.9722222222222
 31
0.0
 73
     3
  0
LINE
  5
EC
  8
DIMNSIONS
  6
CONTINUOUS
 62
     7
 10
50.039684540614573
 20
-53.999999985098839
 30
0.0
 11
50.039684540614573
 21
-73.999999985098853
 31
0.0
  0
LINE
  5
ED
  8
DIMNSIONS
  6
CONTINUOUS
 62
     7
 10
70.139684540614553
 20
-53.999999985098839
 30
0.0
 11
70.139684540614553
 21
-73.999999985098853
 31
0.0
  0
LINE
  5
EE
  8
DIMNSIONS
  6
CONTINUOUS
 62
     7
 10
50.039684540614573
 20
-70.0
 30
0.0
 11
70.139684540614553
 21
-70.0
 31
0.0
  0
LINE
  5
EF
  8
DIMNSIONS
  6
CONTINUOUS
 62
     7
 10
50.039684540614573
 20
-70.0
 30
0.0
 11
56.389684540614567
 21
-68.298522628062358
 31
0.0
  0
LINE
  5
F0
  8
DIMNSIONS
  6
CONTINUOUS
 62
     7
 10
50.039684540614573
 20
-70.0
 30
0.0
 11
56.389684540614567
 21
-71.701477371937642
 31
0.0
  0
LINE
  5
F1
  8
DIMNSIONS
  6
CONTINUOUS
 62
     7
 10
70.139684540614553
 20
-70.0
 30
0.0
 11
63.789684540614537
 21
-71.701477371937642
 31
0.0
  0
LINE
  5
F2
  8
DIMNSIONS
  6
CONTINUOUS
 62
     7
 10
70.139684540614553
 20
-70.0
 30
0.0
 11
63.789684540614537
 21
-68.298522628062358
 31
0.0
  0
TEXT
  5
F3
  8
DIMNSIONS
 62
     7
 10
53.034128985058999
 20
-67.01222222967283
 30
0.0
 40
5.4294704861111107
  1
20.1
 41
0.7
 11
53.034128985058999
 21
-61.582751743561708
 31
0.0
 73
     3
  0
TEXT
  5
F4
  8
DATA
 62
     7
 10
189.75533983634591
 20
-94.271671723339637
 30
0.0
 40
4.8865234375000002
  1
SM81-LC
 41
0.7
 11
189.75533983634591
 21
-89.385148285839634
 31
0.0
 73
     3
  0
TEXT
  5
F5
  8
DATA
 62
     7
 10
195.5187953430748
 20
-78.790334532096708
 30
0.0
 40
4.8865234375000002
  1
SHURE
 41
0.7
 11
195.5187953430748
 21
-73.903811094596705
 31
0.0
 73
     3
  0
TEXT
  5
F6
  8
DATA
 62
     7
 10
188.3442567289554
 20
-86.167321337683887
 30
0.0
 40
3.8006293402777769
  1
エレクトレットコンデンサ型 
 41
0.7
 11
188.3442567289554
 21
-82.366691997406093
 31
0.0
 73
     3
  0
LINE
  5
F7
  8
DATA
  6
CONTINUOUS
 62
     7
 10
70.100000000300028
 20
-30.0
 30
0.0
 11
50.000000000299998
 21
-30.0
 31
0.0
  0
LINE
  5
F8
  8
DATA
  6
CONTINUOUS
 62
     7
 10
71.850000000300014
 20
179.5
 30
0.0
 11
71.850000000300014
 21
173.52912163561581
 31
0.0
  0
LINE
  5
F9
  8
DATA
  6
CONTINUOUS
 62
     7
 10
71.850000000300014
 20
171.19087836438419
 30
0.0
 11
71.850000000300014
 21
168.76912163561579
 31
0.0
  0
LINE
  5
FA
  8
DATA
  6
CONTINUOUS
 62
     7
 10
71.850000000300014
 20
166.43087836438411
 30
0.0
 11
71.850000000300014
 21
164.0091216356158
 31
0.0
  0
LINE
  5
FB
  8
DATA
  6
CONTINUOUS
 62
     7
 10
71.850000000300014
 20
161.67087836438409
 30
0.0
 11
71.850000000300014
 21
143.0
 31
0.0
  0
LINE
  5
FC
  8
DATA
  6
CONTINUOUS
 62
     7
 10
48.25000000030002
 20
143.0
 30
0.0
 11
48.25000000030002
 21
161.67087836438409
 31
0.0
  0
LINE
  5
FD
  8
DATA
  6
CONTINUOUS
 62
     7
 10
48.25000000030002
 20
164.0091216356158
 30
0.0
 11
48.25000000030002
 21
166.43087836438411
 31
0.0
  0
LINE
  5
FE
  8
DATA
  6
CONTINUOUS
 62
     7
 10
48.25000000030002
 20
168.76912163561579
 30
0.0
 11
48.25000000030002
 21
171.19087836438419
 31
0.0
  0
LINE
  5
FF
  8
DATA
  6
CONTINUOUS
 62
     7
 10
48.25000000030002
 20
173.52912163561581
 30
0.0
 11
48.25000000030002
 21
179.5
 31
0.0
  0
LINE
  5
100
  8
DATA
  6
CONTINUOUS
 62
     7
 10
51.350000000300028
 20
182.0
 30
0.0
 11
68.75000000030002
 21
182.0
 31
0.0
  0
LINE
  5
101
  8
DATA
  6
CONTINUOUS
 62
     7
 10
48.75000000030002
 20
180.0
 30
0.0
 11
71.350000000300014
 21
180.0
 31
0.0
  0
LINE
  5
102
  8
DATA
  6
CONTINUOUS
 62
     7
 10
70.050000000300031
 20
180.69999999999999
 30
0.0
 11
70.050000000300031
 21
180.0
 31
0.0
  0
LINE
  5
103
  8
DATA
  6
CONTINUOUS
 62
     7
 10
50.050000000300017
 20
180.0
 30
0.0
 11
50.050000000300017
 21
180.69999999999999
 31
0.0
  0
LINE
  5
104
  8
DATA
  6
CONTINUOUS
 62
     7
 10
52.730083333634042
 20
173.55000000000001
 30
0.0
 11
67.360000000300019
 21
173.55000000000001
 31
0.0
  0
LINE
  5
105
  8
DATA
  6
CONTINUOUS
 62
     7
 10
52.730083333634042
 20
171.16999999999999
 30
0.0
 11
67.360000000300019
 21
171.16999999999999
 31
0.0
  0
LINE
  5
106
  8
DATA
  6
CONTINUOUS
 62
     7
 10
48.25000000030002
 20
150.0
 30
0.0
 11
71.850000000300014
 21
150.0
 31
0.0
  0
LINE
  5
107
  8
DATA
  6
CONTINUOUS
 62
     7
 10
48.25000000030002
 20
144.59999999999999
 30
0.0
 11
71.850000000300014
 21
144.59999999999999
 31
0.0
  0
LINE
  5
108
  8
DATA
  6
CONTINUOUS
 62
     7
 10
48.25000000030002
 20
143.0
 30
0.0
 11
71.850000000300014
 21
143.0
 31
0.0
  0
LINE
  5
109
  8
DATA
  6
CONTINUOUS
 62
     7
 10
50.000000000299998
 20
-30.0
 30
0.0
 11
50.000000000299998
 21
135.69999999999999
 31
0.0
  0
LINE
  5
10A
  8
DATA
  6
CONTINUOUS
 62
     7
 10
70.100000000300028
 20
-30.0
 30
0.0
 11
70.100000000300028
 21
135.69999999999999
 31
0.0
  0
LINE
  5
10B
  8
DATA
  6
CONTINUOUS
 62
     7
 10
50.000000000299998
 20
135.69999999999999
 30
0.0
 11
48.25000000030002
 21
143.0
 31
0.0
  0
LINE
  5
10C
  8
DATA
  6
CONTINUOUS
 62
     7
 10
70.100000000300028
 20
135.69999999999999
 30
0.0
 11
71.850000000300014
 21
143.0
 31
0.0
  0
CIRCLE
  5
10D
  8
DATA
  6
CONTINUOUS
 62
     7
 10
60.08968454061457
 20
-50.0
 30
0.0
 40
10.04999999999999
  0
CIRCLE
  5
10E
  8
DATA
  6
CONTINUOUS
 62
     7
 10
55.889684540614567
 20
-50.0
 30
0.0
 40
1.25001106147107
  0
CIRCLE
  5
10F
  8
DATA
  6
CONTINUOUS
 62
     7
 10
60.08968454061457
 20
-45.799999999999997
 30
0.0
 40
1.24999171877256
  0
CIRCLE
  5
110
  8
DATA
  6
CONTINUOUS
 62
     7
 10
64.289674540614556
 20
-50.000009999999982
 30
0.0
 40
1.250003932793843
  0
ARC
  5
111
  8
DATA
  6
CONTINUOUS
 62
     7
 10
60.08968454061457
 20
-50.000000000000021
 30
0.0
 40
7.9499999999999922
 50
230.9326533550279
 51
219.06734664497179
  0
ARC
  5
112
  8
DATA
  6
CONTINUOUS
 62
     7
 10
54.468185630181573
 20
-55.621498910432997
 30
0.0
 40
0.8228097730050297
 50
132.0336733224932
 51
317.96632667750822
  0
CIRCLE
  5
113
  8
DATA
  6
CONTINUOUS
 62
     7
 10
60.050000000299988
 20
96.0
 30
0.0
 40
4.9000000000000048
  0
LINE
  5
114
  8
DATA
  6
CONTINUOUS
 62
     7
 10
61.050000000300031
 20
100.79687398208461
 30
0.0
 11
61.050000000300031
 21
91.203126017915423
 31
0.0
  0
LINE
  5
115
  8
DATA
  6
CONTINUOUS
 62
     7
 10
59.050000000300017
 20
91.203126017915423
 30
0.0
 11
59.050000000300017
 21
100.79687398208461
 31
0.0
  0
LINE
  5
116
  8
DATA
  6
CONTINUOUS
 62
     7
 10
56.396962718589251
 20
102.1005674099671
 30
0.0
 11
54.696962718589248
 21
102.1005674099671
 31
0.0
  0
LINE
  5
117
  8
DATA
  6
CONTINUOUS
 62
     7
 10
60.896962718589251
 20
102.1005674099671
 30
0.0
 11
59.196962718589241
 21
102.1005674099671
 31
0.0
  0
LINE
  5
118
  8
DATA
  6
CONTINUOUS
 62
     7
 10
65.396962718589251
 20
102.1005674099671
 30
0.0
 11
63.696962718589241
 21
102.1005674099671
 31
0.0
  0
LINE
  5
119
  8
DATA
  6
CONTINUOUS
 62
     7
 10
59.196962718589241
 20
102.1005674099671
 30
0.0
 11
58.546962718589242
 21
101.72528973499379
 31
0.0
  0
LINE
  5
11A
  8
DATA
  6
CONTINUOUS
 62
     7
 10
63.696962718589241
 20
102.1005674099671
 30
0.0
 11
63.446962718589219
 21
101.4894846622399
 31
0.0
  0
LINE
  5
11B
  8
DATA
  6
CONTINUOUS
 62
     7
 10
70.050000000300003
 20
179.98552631578951
 30
0.0
 11
70.05544554485445
 21
180.0
 31
0.0
  0
ARC
  5
11C
  8
DATA
  6
CONTINUOUS
 62
     7
 10
48.75000000030002
 20
179.5
 30
0.0
 40
0.5
 50
90.0
 51
180.0
  0
ARC
  5
11D
  8
DATA
  6
CONTINUOUS
 62
     7
 10
71.350000000300014
 20
179.5
 30
0.0
 40
0.5
 50
0.0
 51
90.0
  0
TEXT
  5
11E
  8
DATA
 62
     7
 10
59.912143244909487
 20
143.1074426689346
 30
0.0
 40
1.357367621527777
  1
0
 41
0.7
 11
59.912143244909487
 21
144.4648102904624
 31
0.0
 73
     3
  0
TEXT
  5
11F
  8
DATA
 62
     7
 10
48.759344829711573
 20
143.1074426689346
 30
0.0
 40
1.357367621527777
  1
-10
 41
0.7
 11
48.759344829711573
 21
144.4648102904624
 31
0.0
 73
     3
  0
TEXT
  5
120
  8
DATA
 62
     7
 10
53.788880419131218
 20
129.86285720813061
 30
0.0
 40
3.9092187499999991
  1
SHURE
 41
0.7
 11
53.788880419131218
 21
133.77207595813061
 31
0.0
 73
     3
  0
TEXT
  5
121
  8
DATA
 62
     7
 10
56.699898100524877
 20
125.4452821117242
 30
0.0
 40
2.6061458333333318
  1
SM81
 41
0.7
 11
56.699898100524877
 21
128.0514279450575
 31
0.0
 73
     3
  0
TEXT
  5
122
  8
DATA
 62
     7
 10
54.655207206120778
 20
121.669179068486
 30
0.0
 40
1.954609375
  1
CONDENSER
 41
0.7
 11
54.655207206120778
 21
123.62378844348601
 31
0.0
 73
     3
  0
LINE
  5
123
  8
DATA
  6
CONTINUOUS
 62
     7
 10
60.350000000000009
 20
143.0
 30
0.0
 11
60.350000000000009
 21
141.81999999999999
 31
0.0
  0
ARC
  5
124
  8
DATA
  6
CONTINUOUS
 62
     7
 10
52.740041666966668
 20
172.36000000000001
 30
0.0
 40
1.190041666666664
 50
89.520540207837755
 51
270.47945979216229
  0
ARC
  5
125
  8
DATA
  6
CONTINUOUS
 62
     7
 10
67.360000000300019
 20
172.36000000000001
 30
0.0
 40
1.1900000000000011
 50
270.0
 51
90.0
  0
ARC
  5
126
  8
DATA
  6
CONTINUOUS
 62
     7
 10
53.440041666966678
 20
172.36000000000001
 30
0.0
 40
1.190041666666664
 50
89.520540207837755
 51
270.47945979216229
  0
ARC
  5
127
  8
DATA
  6
CONTINUOUS
 62
     7
 10
66.66000000030003
 20
172.36000000000001
 30
0.0
 40
1.1900000000000011
 50
270.0
 51
90.0
  0
LINE
  5
128
  8
DATA
  6
CONTINUOUS
 62
     7
 10
52.730083333634042
 20
168.78999999999999
 30
0.0
 11
67.360000000300019
 21
168.78999999999999
 31
0.0
  0
LINE
  5
129
  8
DATA
  6
CONTINUOUS
 62
     7
 10
52.730083333634042
 20
166.41
 30
0.0
 11
67.360000000300019
 21
166.41
 31
0.0
  0
ARC
  5
12A
  8
DATA
  6
CONTINUOUS
 62
     7
 10
52.740041666966668
 20
167.59999999999999
 30
0.0
 40
1.190041666666664
 50
89.520540207837755
 51
270.47945979216229
  0
ARC
  5
12B
  8
DATA
  6
CONTINUOUS
 62
     7
 10
67.360000000300019
 20
167.59999999999999
 30
0.0
 40
1.1900000000000039
 50
270.0
 51
90.0
  0
ARC
  5
12C
  8
DATA
  6
CONTINUOUS
 62
     7
 10
53.440041666966678
 20
167.59999999999999
 30
0.0
 40
1.190041666666664
 50
89.520540207837755
 51
270.47945979216229
  0
ARC
  5
12D
  8
DATA
  6
CONTINUOUS
 62
     7
 10
66.66000000030003
 20
167.59999999999999
 30
0.0
 40
1.1900000000000039
 50
270.0
 51
90.0
  0
LINE
  5
12E
  8
DATA
  6
CONTINUOUS
 62
     7
 10
52.730083333634042
 20
164.03
 30
0.0
 11
67.360000000300019
 21
164.03
 31
0.0
  0
LINE
  5
12F
  8
DATA
  6
CONTINUOUS
 62
     7
 10
52.730083333634042
 20
161.65000000000001
 30
0.0
 11
67.360000000300019
 21
161.65000000000001
 31
0.0
  0
ARC
  5
130
  8
DATA
  6
CONTINUOUS
 62
     7
 10
52.740041666966668
 20
162.84
 30
0.0
 40
1.190041666666664
 50
89.520540207837755
 51
270.47945979216229
  0
ARC
  5
131
  8
DATA
  6
CONTINUOUS
 62
     7
 10
67.360000000300019
 20
162.84
 30
0.0
 40
1.1900000000000011
 50
270.0
 51
90.0
  0
ARC
  5
132
  8
DATA
  6
CONTINUOUS
 62
     7
 10
53.440041666966678
 20
162.84
 30
0.0
 40
1.190041666666664
 50
89.520540207837755
 51
270.47945979216229
  0
ARC
  5
133
  8
DATA
  6
CONTINUOUS
 62
     7
 10
66.66000000030003
 20
162.84
 30
0.0
 40
1.1900000000000011
 50
270.0
 51
90.0
  0
ARC
  5
134
  8
DATA
  6
CONTINUOUS
 62
     7
 10
48.028066223837271
 20
172.36000000000001
 30
0.0
 40
1.1900000000000019
 50
280.7485382784692
 51
79.251461721530802
  0
ARC
  5
135
  8
DATA
  6
CONTINUOUS
 62
     7
 10
48.028066223837271
 20
167.59999999999999
 30
0.0
 40
1.1900000000000071
 50
280.74853827846852
 51
79.251461721531541
  0
ARC
  5
136
  8
DATA
  6
CONTINUOUS
 62
     7
 10
48.028066223837271
 20
162.84
 30
0.0
 40
1.1900000000000031
 50
280.74853827846852
 51
79.251461721531484
  0
ARC
  5
137
  8
DATA
  6
CONTINUOUS
 62
     7
 10
72.071933776762762
 20
172.36000000000001
 30
0.0
 40
1.1899999999999991
 50
100.7485382784692
 51
259.25146172153092
  0
ARC
  5
138
  8
DATA
  6
CONTINUOUS
 62
     7
 10
72.071933776762762
 20
167.59999999999999
 30
0.0
 40
1.1900000000000031
 50
100.7485382784685
 51
259.25146172153148
  0
ARC
  5
139
  8
DATA
  6
CONTINUOUS
 62
     7
 10
72.071933776762762
 20
162.84
 30
0.0
 40
1.1899999999999999
 50
100.7485382784685
 51
259.25146172153148
  0
CIRCLE
  5
13A
  8
DATA
  6
CONTINUOUS
 62
     7
 10
60.050000000300017
 20
210.0
 30
0.0
 40
11.79999999999999
  0
CIRCLE
  5
13B
  8
DATA
  6
CONTINUOUS
 62
     7
 10
60.050000000300017
 20
210.0
 30
0.0
 40
10.0
  0
LINE
  5
13C
  8
DATA
  6
CONTINUOUS
 62
     7
 10
53.99376385713731
 20
217.95751241144251
 30
0.0
 11
50.130474029479522
 21
211.26609814557511
 31
0.0
  0
LINE
  5
13D
  8
DATA
  6
CONTINUOUS
 62
     7
 10
55.72510769019231
 20
219.01639099118759
 30
0.0
 11
50.079130196424799
 21
209.2372711135919
 31
0.0
  0
LINE
  5
13E
  8
DATA
  6
CONTINUOUS
 62
     7
 10
57.168031793476679
 20
219.5757119450648
 30
0.0
 11
50.316206093140401
 21
207.70800170747609
 31
0.0
  0
LINE
  5
13F
  8
DATA
  6
CONTINUOUS
 62
     7
 10
58.459501081925197
 20
219.8727054645953
 30
0.0
 11
50.704736804692047
 21
206.44105973570731
 31
0.0
  0
LINE
  5
140
  8
DATA
  6
CONTINUOUS
 62
     7
 10
59.64833541206383
 20
219.9919300217004
 30
0.0
 11
51.195902474552469
 21
205.35188672636201
 31
0.0
  0
LINE
  5
141
  8
DATA
  6
CONTINUOUS
 62
     7
 10
60.758486258452322
 20
219.9748707872337
 30
0.0
 11
51.765751628164693
 21
204.39899750859141
 31
0.0
  0
LINE
  5
142
  8
DATA
  6
CONTINUOUS
 62
     7
 10
61.803537072406378
 20
219.84505498901609
 30
0.0
 11
52.400700814210467
 21
203.55886485457
 31
0.0
  0
LINE
  5
143
  8
DATA
  6
CONTINUOUS
 62
     7
 10
62.791752518799193
 20
219.6167974465157
 30
0.0
 11
53.092485367817957
 21
202.8171739448324
 31
0.0
  0
LINE
  5
144
  8
DATA
  6
CONTINUOUS
 62
     7
 10
63.728244619879717
 20
219.2989524419969
 30
0.0
 11
53.835993266736992
 21
202.1650704971118
 31
0.0
  0
LINE
  5
145
  8
DATA
  6
CONTINUOUS
 62
     7
 10
64.616012474447814
 20
218.8967145669582
 30
0.0
 11
54.628225412169037
 21
201.59735991991229
 31
0.0
  0
LINE
  5
146
  8
DATA
  6
CONTINUOUS
 62
     7
 10
65.45645433375536
 20
218.41250566360941
 30
0.0
 11
55.467783552861682
 21
201.11162037102281
 31
0.0
  0
LINE
  5
147
  8
DATA
  6
CONTINUOUS
 62
     7
 10
66.249582877910399
 20
217.84634769454189
 30
0.0
 11
56.354655008706473
 21
200.7078298878514
 31
0.0
  0
LINE
  5
148
  8
DATA
  6
CONTINUOUS
 62
     7
 10
66.994027101559524
 20
217.1958660088261
 30
0.0
 11
57.290210785057482
 21
200.38836312132881
 31
0.0
  0
LINE
  5
149
  8
DATA
  6
CONTINUOUS
 62
     7
 10
67.68682150223998
 20
216.4559242055268
 30
0.0
 11
58.277416384377197
 21
200.1583564723899
 31
0.0
  0
LINE
  5
14A
  8
DATA
  6
CONTINUOUS
 62
     7
 10
68.322901048668797
 20
215.61774939311971
 30
0.0
 11
59.321336837948053
 21
200.02658283255781
 31
0.0
  0
LINE
  5
14B
  8
DATA
  6
CONTINUOUS
 62
     7
 10
68.894075104689335
 20
214.66715497363541
 30
0.0
 11
60.430162781927677
 21
200.0072287998039
 31
0.0
  0
LINE
  5
14C
  8
DATA
  6
CONTINUOUS
 62
     7
 10
69.386892597430645
 20
213.5808430054449
 30
0.0
 11
61.617345289186026
 21
200.12359231575519
 31
0.0
  0
LINE
  5
14D
  8
DATA
  6
CONTINUOUS
 62
     7
 10
69.77767999438602
 20
212.3178097274521
 30
0.0
 11
62.906557892231277
 21
200.4166771415106
 31
0.0
  0
LINE
  5
14E
  8
DATA
  6
CONTINUOUS
 62
     7
 10
70.018365252709899
 20
210.7947919190247
 30
0.0
 11
64.345872633907533
 21
200.96974649769959
 31
0.0
  0
LINE
  5
14F
  8
DATA
  6
CONTINUOUS
 62
     7
 10
69.975348709493119
 20
208.78038817613009
 30
0.0
 11
66.068889177123353
 21
202.01420178835389
 31
0.0
  0
LINE
  5
150
  8
DATA
  6
CONTINUOUS
 62
     7
 10
66.362873921586768
 20
217.75548985261031
 30
0.0
 11
69.922888192096565
 21
211.58936426041711
 31
0.0
  0
LINE
  5
151
  8
DATA
  6
CONTINUOUS
 62
     7
 10
64.570622139165636
 20
218.9198640952425
 30
0.0
 11
70.03513997451779
 21
209.45504156554631
 31
0.0
  0
LINE
  5
152
  8
DATA
  6
CONTINUOUS
 62
     7
 10
63.102575686063318
 20
219.52269823540979
 30
0.0
 11
69.8231864276203
 21
207.88225897314001
 31
0.0
  0
LINE
  5
153
  8
DATA
  6
CONTINUOUS
 62
     7
 10
61.795654178729201
 20
219.8464557831399
 30
0.0
 11
69.450107934954147
 21
206.58855297317189
 31
0.0
  0
LINE
  5
154
  8
DATA
  6
CONTINUOUS
 62
     7
 10
60.595605215890743
 20
219.98510465386931
 30
0.0
 11
68.970156897792251
 21
205.4799556502044
 31
0.0
  0
LINE
  5
155
  8
DATA
  6
CONTINUOUS
 62
     7
 10
59.476507543590358
 20
219.9835417764485
 30
0.0
 11
68.409254570092969
 21
204.51157007538609
 31
0.0
  0
LINE
  5
156
  8
DATA
  6
CONTINUOUS
 62
     7
 10
58.423852765461653
 20
219.8668964305204
 30
0.0
 11
67.781909348221518
 21
203.6582669690759
 31
0.0
  0
LINE
  5
157
  8
DATA
  6
CONTINUOUS
 62
     7
 10
57.428864182316111
 20
219.6503703050023
 30
0.0
 11
67.096897931367337
 21
202.90484464235499
 31
0.0
  0
LINE
  5
158
  8
DATA
  6
CONTINUOUS
 62
     7
 10
56.486107562456802
 20
219.34337576529339
 30
0.0
 11
66.35965455122637
 21
202.2418907298258
 31
0.0
  0
LINE
  5
159
  8
DATA
  6
CONTINUOUS
 62
     7
 10
55.592355440583532
 20
218.95150294527329
 30
0.0
 11
65.573406673099342
 21
201.66381509760791
 31
0.0
  0
LINE
  5
15A
  8
DATA
  6
CONTINUOUS
 62
     7
 10
54.746026114161339
 20
218.4774914340949
 30
0.0
 11
64.739735999522367
 21
201.16787815654621
 31
0.0
  0
LINE
  5
15B
  8
DATA
  6
CONTINUOUS
 62
     7
 10
53.946937886278342
 20
217.92165594004121
 30
0.0
 11
63.858824227404959
 21
200.753765198362
 31
0.0
  0
LINE
  5
15C
  8
DATA
  6
CONTINUOUS
 62
     7
 10
53.196282028617048
 20
217.28193312003259
 30
0.0
 11
62.929480085066061
 21
200.4235395661324
 31
0.0
  0
LINE
  5
15D
  8
DATA
  6
CONTINUOUS
 62
     7
 10
52.496804513536652
 20
216.55356681042679
 30
0.0
 11
61.948957600146542
 21
200.1819574234994
 31
0.0
  0
LINE
  5
15E
  8
DATA
  6
CONTINUOUS
 62
     7
 10
51.853265964491911
 20
215.72831136952431
 30
0.0
 11
60.912496149191547
 21
200.0372644121629
 31
0.0
  0
LINE
  5
15F
  8
DATA
  6
CONTINUOUS
 62
     7
 10
51.273381522176521
 20
214.79280378165609
 30
0.0
 11
59.812380591507107
 21
200.00282354779219
 31
0.0
  0
LINE
  5
160
  8
DATA
  6
CONTINUOUS
 62
     7
 10
50.76976020080717
 20
213.72520459356571
 30
0.0
 11
58.636001912875358
 21
200.10047428364601
 31
0.0
  0
LINE
  5
161
  8
DATA
  6
CONTINUOUS
 62
     7
 10
50.364330920023079
 20
212.48753180228269
 30
0.0
 11
57.361431193660081
 21
200.36819862268931
 31
0.0
  0
LINE
  5
162
  8
DATA
  6
CONTINUOUS
 62
     7
 10
50.100576067369062
 20
211.00447170334519
 30
0.0
 11
55.945186046314063
 21
200.88131026938839
 31
0.0
  0
LINE
  5
163
  8
DATA
  6
CONTINUOUS
 62
     7
 10
50.0925509768879
 20
209.07847466331671
 30
0.0
 11
54.273211136795553
 21
201.83735885717761
 31
0.0
  0
LINE
  5
164
  8
DATA
  6
CONTINUOUS
 62
     7
 10
50.000000000299998
 20
135.69999999999999
 30
0.0
 11
70.100000000300028
 21
135.69999999999999
 31
0.0
  0
LINE
  5
165
  8
DATA
  6
CONTINUOUS
 62
     7
 10
48.25000000030002
 20
145.0
 30
0.0
 11
71.850000000300014
 21
145.0
 31
0.0
  0
LINE
  5
166
  8
DATA
  6
CONTINUOUS
 62
     7
 10
160.10000000030001
 20
-30.0
 30
0.0
 11
140.00000000029999
 21
-30.0
 31
0.0
  0
LINE
  5
167
  8
DATA
  6
CONTINUOUS
 62
     7
 10
161.85000000030001
 20
179.5
 30
0.0
 11
161.85000000030001
 21
173.52912163561581
 31
0.0
  0
LINE
  5
168
  8
DATA
  6
CONTINUOUS
 62
     7
 10
161.85000000030001
 20
171.19087836438419
 30
0.0
 11
161.85000000030001
 21
168.76912163561579
 31
0.0
  0
LINE
  5
169
  8
DATA
  6
CONTINUOUS
 62
     7
 10
161.85000000030001
 20
166.43087836438411
 30
0.0
 11
161.85000000030001
 21
164.0091216356158
 31
0.0
  0
LINE
  5
16A
  8
DATA
  6
CONTINUOUS
 62
     7
 10
161.85000000030001
 20
161.67087836438409
 30
0.0
 11
161.85000000030001
 21
143.0
 31
0.0
  0
LINE
  5
16B
  8
DATA
  6
CONTINUOUS
 62
     7
 10
138.25000000029999
 20
143.0
 30
0.0
 11
138.25000000029999
 21
161.67087836438409
 31
0.0
  0
LINE
  5
16C
  8
DATA
  6
CONTINUOUS
 62
     7
 10
138.25000000029999
 20
164.0091216356158
 30
0.0
 11
138.25000000029999
 21
166.43087836438411
 31
0.0
  0
LINE
  5
16D
  8
DATA
  6
CONTINUOUS
 62
     7
 10
138.25000000029999
 20
168.76912163561579
 30
0.0
 11
138.25000000029999
 21
171.19087836438419
 31
0.0
  0
LINE
  5
16E
  8
DATA
  6
CONTINUOUS
 62
     7
 10
138.25000000029999
 20
173.52912163561581
 30
0.0
 11
138.25000000029999
 21
179.5
 31
0.0
  0
LINE
  5
16F
  8
DATA
  6
CONTINUOUS
 62
     7
 10
140.5500000003
 20
182.0
 30
0.0
 11
159.5500000003
 21
182.0
 31
0.0
  0
LINE
  5
170
  8
DATA
  6
CONTINUOUS
 62
     7
 10
138.75000000029999
 20
180.0
 30
0.0
 11
161.35000000030001
 21
180.0
 31
0.0
  0
LINE
  5
171
  8
DATA
  6
CONTINUOUS
 62
     7
 10
160.0500000003
 20
181.5
 30
0.0
 11
160.0500000003
 21
180.0
 31
0.0
  0
LINE
  5
172
  8
DATA
  6
CONTINUOUS
 62
     7
 10
140.0500000003
 20
180.0
 30
0.0
 11
140.0500000003
 21
181.5
 31
0.0
  0
LINE
  5
173
  8
DATA
  6
CONTINUOUS
 62
     7
 10
152.73008333363401
 20
173.55000000000001
 30
0.0
 11
161.85000000030001
 21
173.55000000000001
 31
0.0
  0
LINE
  5
174
  8
DATA
  6
CONTINUOUS
 62
     7
 10
152.73008333363401
 20
171.16999999999999
 30
0.0
 11
161.85000000030001
 21
171.16999999999999
 31
0.0
  0
LINE
  5
175
  8
DATA
  6
CONTINUOUS
 62
     7
 10
138.25000000029999
 20
150.0
 30
0.0
 11
161.85000000030001
 21
150.0
 31
0.0
  0
LINE
  5
176
  8
DATA
  6
CONTINUOUS
 62
     7
 10
138.25000000029999
 20
144.59999999999999
 30
0.0
 11
161.85000000030001
 21
144.59999999999999
 31
0.0
  0
LINE
  5
177
  8
DATA
  6
CONTINUOUS
 62
     7
 10
138.25000000029999
 20
143.0
 30
0.0
 11
161.85000000030001
 21
143.0
 31
0.0
  0
LINE
  5
178
  8
DATA
  6
CONTINUOUS
 62
     7
 10
140.00000000029999
 20
-30.0
 30
0.0
 11
140.00000000029999
 21
135.69999999999999
 31
0.0
  0
LINE
  5
179
  8
DATA
  6
CONTINUOUS
 62
     7
 10
160.10000000030001
 20
-30.0
 30
0.0
 11
160.10000000030001
 21
135.69999999999999
 31
0.0
  0
LINE
  5
17A
  8
DATA
  6
CONTINUOUS
 62
     7
 10
140.00000000029999
 20
135.69999999999999
 30
0.0
 11
138.25000000029999
 21
143.0
 31
0.0
  0
LINE
  5
17B
  8
DATA
  6
CONTINUOUS
 62
     7
 10
160.10000000030001
 20
135.69999999999999
 30
0.0
 11
161.85000000030001
 21
143.0
 31
0.0
  0
ARC
  5
17C
  8
DATA
  6
CONTINUOUS
 62
     7
 10
140.5500000003
 20
181.5
 30
0.0
 40
0.5
 50
90.0
 51
180.0
  0
ARC
  5
17D
  8
DATA
  6
CONTINUOUS
 62
     7
 10
159.5500000003
 20
181.5
 30
0.0
 40
0.5
 50
0.0
 51
90.0
  0
LINE
  5
17E
  8
DATA
  6
CONTINUOUS
 62
     7
 10
160.0500000003
 20
179.98552631578951
 30
0.0
 11
160.05544554485439
 21
180.0
 31
0.0
  0
ARC
  5
17F
  8
DATA
  6
CONTINUOUS
 62
     7
 10
138.75000000029999
 20
179.5
 30
0.0
 40
0.5
 50
90.0
 51
180.0
  0
ARC
  5
180
  8
DATA
  6
CONTINUOUS
 62
     7
 10
161.35000000030001
 20
179.5
 30
0.0
 40
0.5
 50
0.0
 51
90.0
  0
ARC
  5
181
  8
DATA
  6
CONTINUOUS
 62
     7
 10
152.7400416669667
 20
172.36000000000001
 30
0.0
 40
1.190041666666664
 50
89.520540207837755
 51
270.47945979216229
  0
ARC
  5
182
  8
DATA
  6
CONTINUOUS
 62
     7
 10
153.44004166696669
 20
172.36000000000001
 30
0.0
 40
1.190041666666664
 50
89.520540207837755
 51
270.47945979216229
  0
LINE
  5
183
  8
DATA
  6
CONTINUOUS
 62
     7
 10
152.73008333363401
 20
168.78999999999999
 30
0.0
 11
161.85000000030001
 21
168.78999999999999
 31
0.0
  0
LINE
  5
184
  8
DATA
  6
CONTINUOUS
 62
     7
 10
152.73008333363401
 20
166.41
 30
0.0
 11
161.85000000030001
 21
166.41
 31
0.0
  0
ARC
  5
185
  8
DATA
  6
CONTINUOUS
 62
     7
 10
152.7400416669667
 20
167.59999999999999
 30
0.0
 40
1.190041666666664
 50
89.520540207837755
 51
270.47945979216229
  0
ARC
  5
186
  8
DATA
  6
CONTINUOUS
 62
     7
 10
153.44004166696669
 20
167.59999999999999
 30
0.0
 40
1.190041666666664
 50
89.520540207837755
 51
270.47945979216229
  0
LINE
  5
187
  8
DATA
  6
CONTINUOUS
 62
     7
 10
152.73008333363401
 20
164.03
 30
0.0
 11
161.85000000030001
 21
164.03
 31
0.0
  0
LINE
  5
188
  8
DATA
  6
CONTINUOUS
 62
     7
 10
152.73008333363401
 20
161.65000000000001
 30
0.0
 11
161.85000000030001
 21
161.65000000000001
 31
0.0
  0
ARC
  5
189
  8
DATA
  6
CONTINUOUS
 62
     7
 10
152.7400416669667
 20
162.84
 30
0.0
 40
1.190041666666664
 50
89.520540207837755
 51
270.47945979216229
  0
ARC
  5
18A
  8
DATA
  6
CONTINUOUS
 62
     7
 10
153.44004166696669
 20
162.84
 30
0.0
 40
1.190041666666664
 50
89.520540207837755
 51
270.47945979216229
  0
ARC
  5
18B
  8
DATA
  6
CONTINUOUS
 62
     7
 10
138.02806622383719
 20
172.36000000000001
 30
0.0
 40
1.1900000000000019
 50
280.7485382784692
 51
79.251461721530802
  0
ARC
  5
18C
  8
DATA
  6
CONTINUOUS
 62
     7
 10
138.02806622383719
 20
167.59999999999999
 30
0.0
 40
1.1900000000000071
 50
280.74853827846852
 51
79.251461721531541
  0
ARC
  5
18D
  8
DATA
  6
CONTINUOUS
 62
     7
 10
138.02806622383719
 20
162.84
 30
0.0
 40
1.1900000000000031
 50
280.74853827846852
 51
79.251461721531484
  0
ARC
  5
18E
  8
DATA
  6
CONTINUOUS
 62
     7
 10
162.07193377676271
 20
172.36000000000001
 30
0.0
 40
1.1899999999999991
 50
100.7485382784692
 51
259.25146172153092
  0
ARC
  5
18F
  8
DATA
  6
CONTINUOUS
 62
     7
 10
162.07193377676271
 20
167.59999999999999
 30
0.0
 40
1.1900000000000031
 50
100.7485382784685
 51
259.25146172153148
  0
ARC
  5
190
  8
DATA
  6
CONTINUOUS
 62
     7
 10
162.07193377676271
 20
162.84
 30
0.0
 40
1.1899999999999999
 50
100.7485382784685
 51
259.25146172153148
  0
LINE
  5
191
  8
DATA
  6
CONTINUOUS
 62
     7
 10
140.00000000029999
 20
135.69999999999999
 30
0.0
 11
160.10000000030001
 21
135.69999999999999
 31
0.0
  0
LINE
  5
192
  8
DATA
  6
CONTINUOUS
 62
     7
 10
138.25000000029999
 20
145.0
 30
0.0
 11
161.85000000030001
 21
145.0
 31
0.0
  0
LINE
  5
193
  8
DATA
  6
CONTINUOUS
 62
     7
 10
138.25000000029999
 20
173.55000000000001
 30
0.0
 11
148.21159614084519
 21
173.55000000000001
 31
0.0
  0
LINE
  5
194
  8
DATA
  6
CONTINUOUS
 62
     7
 10
138.25000000029999
 20
171.16999999999999
 30
0.0
 11
148.21159614084519
 21
171.16999999999999
 31
0.0
  0
ARC
  5
195
  8
DATA
  6
CONTINUOUS
 62
     7
 10
148.21159614084519
 20
172.36000000000001
 30
0.0
 40
1.1900000000000011
 50
270.0
 51
90.0
  0
ARC
  5
196
  8
DATA
  6
CONTINUOUS
 62
     7
 10
147.5115961408452
 20
172.36000000000001
 30
0.0
 40
1.1900000000000011
 50
270.0
 51
90.0
  0
LINE
  5
197
  8
DATA
  6
CONTINUOUS
 62
     7
 10
138.25000000029999
 20
168.78999999999999
 30
0.0
 11
148.21159614084519
 21
168.78999999999999
 31
0.0
  0
LINE
  5
198
  8
DATA
  6
CONTINUOUS
 62
     7
 10
138.25000000029999
 20
166.41
 30
0.0
 11
148.21159614084519
 21
166.41
 31
0.0
  0
ARC
  5
199
  8
DATA
  6
CONTINUOUS
 62
     7
 10
148.21159614084519
 20
167.59999999999999
 30
0.0
 40
1.1900000000000039
 50
270.0
 51
90.0
  0
ARC
  5
19A
  8
DATA
  6
CONTINUOUS
 62
     7
 10
147.5115961408452
 20
167.59999999999999
 30
0.0
 40
1.1900000000000039
 50
270.0
 51
90.0
  0
LINE
  5
19B
  8
DATA
  6
CONTINUOUS
 62
     7
 10
138.25000000029999
 20
164.03
 30
0.0
 11
148.21159614084519
 21
164.03
 31
0.0
  0
LINE
  5
19C
  8
DATA
  6
CONTINUOUS
 62
     7
 10
138.25000000029999
 20
161.65000000000001
 30
0.0
 11
148.21159614084519
 21
161.65000000000001
 31
0.0
  0
ARC
  5
19D
  8
DATA
  6
CONTINUOUS
 62
     7
 10
148.21159614084519
 20
162.84
 30
0.0
 40
1.1900000000000011
 50
270.0
 51
90.0
  0
ARC
  5
19E
  8
DATA
  6
CONTINUOUS
 62
     7
 10
147.5115961408452
 20
162.84
 30
0.0
 40
1.1900000000000011
 50
270.0
 51
90.0
  0
CIRCLE
  5
19F
  8
DATA
  6
CONTINUOUS
 62
     7
 10
150.0500000003
 20
16.0
 30
0.0
 40
1.600000000000001
  0
CIRCLE
  5
1A0
  8
DATA
  6
CONTINUOUS
 62
     7
 10
150.0500000003
 20
-14.0
 30
0.0
 40
1.600000000000001
  0
TEXT
  5
1A1
  8
DATA
 62
     7
 10
143.89252965533919
 20
-22.242744367315641
 30
0.0
 40
1.6288411458333329
  1
PHM 12-48VDC
 41
0.7
 11
143.89252965533919
 21
-20.61390322148231
 31
0.0
 73
     3
  0
TEXT
  5
1A2
  8
DATA
 62
     7
 10
145.24626482796961
 20
-25.01286298867258
 30
0.0
 40
1.6288411458333329
  1
150 OHMS
 41
0.7
 11
145.24626482796961
 21
-23.38402184283925
 31
0.0
 73
     3
  0
TEXT
  5
1A3
  8
DATA
 62
     7
 10
142.63735172330379
 20
-27.664305748377551
 30
0.0
 40
1.6288411458333329
  1
MADE IN U.S.A.
 41
0.7
 11
142.63735172330379
 21
-26.035464602544209
 31
0.0
 73
     3
  0
LINE
  5
1A4
  8
DATA
  6
CONTINUOUS
 62
     7
 10
149.98399293484761
 20
-12.40136212126839
 30
0.0
 11
150.79215514415361
 21
-15.41746454715542
 31
0.0
  0
LINE
  5
1A5
  8
DATA
  6
CONTINUOUS
 62
     7
 10
150.116007065752
 20
-15.5986378787301
 30
0.0
 11
149.307844856446
 21
-12.5825354528431
 31
0.0
  0
POLYLINE
  5
1A6
  8
DATA
  6
CONTINUOUS
 62
     7
 66
     1
 10
0.0
 20
0.0
 30
0.0
  0
VERTEX
  5
22B
  8
DATA
  6
CONTINUOUS
 62
     7
 10
149.85000000030001
 20
16.19999999999996
 30
0.0
  0
VERTEX
  5
22C
  8
DATA
  6
CONTINUOUS
 62
     7
 10
149.85000000030001
 20
17.14999999999997
 30
0.0
  0
VERTEX
  5
22D
  8
DATA
  6
CONTINUOUS
 62
     7
 10
150.25000000029999
 20
17.14999999999997
 30
0.0
  0
VERTEX
  5
22E
  8
DATA
  6
CONTINUOUS
 62
     7
 10
150.25000000029999
 20
16.19999999999996
 30
0.0
  0
SEQEND
  5
22F
  8
DATA
  6
CONTINUOUS
 62
     7
  0
POLYLINE
  5
1AD
  8
DATA
  6
CONTINUOUS
 62
     7
 66
     1
 10
0.0
 20
0.0
 30
0.0
  0
VERTEX
  5
230
  8
DATA
  6
CONTINUOUS
 62
     7
 10
150.25000000029999
 20
15.79999999999996
 30
0.0
  0
VERTEX
  5
231
  8
DATA
  6
CONTINUOUS
 62
     7
 10
150.25000000029999
 20
14.84999999999998
 30
0.0
  0
VERTEX
  5
232
  8
DATA
  6
CONTINUOUS
 62
     7
 10
149.85000000030001
 20
14.84999999999998
 30
0.0
  0
VERTEX
  5
233
  8
DATA
  6
CONTINUOUS
 62
     7
 10
149.85000000030001
 20
15.79999999999996
 30
0.0
  0
SEQEND
  5
234
  8
DATA
  6
CONTINUOUS
 62
     7
  0
POLYLINE
  5
1B4
  8
DATA
  6
CONTINUOUS
 62
     7
 66
     1
 10
0.0
 20
0.0
 30
0.0
  0
VERTEX
  5
235
  8
DATA
  6
CONTINUOUS
 62
     7
 10
150.25000000029999
 20
16.19999999999996
 30
0.0
  0
VERTEX
  5
236
  8
DATA
  6
CONTINUOUS
 62
     7
 10
151.20000000030001
 20
16.19999999999996
 30
0.0
  0
VERTEX
  5
237
  8
DATA
  6
CONTINUOUS
 62
     7
 10
151.20000000030001
 20
15.79999999999996
 30
0.0
  0
VERTEX
  5
238
  8
DATA
  6
CONTINUOUS
 62
     7
 10
150.25000000029999
 20
15.79999999999996
 30
0.0
  0
SEQEND
  5
239
  8
DATA
  6
CONTINUOUS
 62
     7
  0
POLYLINE
  5
1BB
  8
DATA
  6
CONTINUOUS
 62
     7
 66
     1
 10
0.0
 20
0.0
 30
0.0
  0
VERTEX
  5
23A
  8
DATA
  6
CONTINUOUS
 62
     7
 10
149.85000000030001
 20
15.79999999999996
 30
0.0
  0
VERTEX
  5
23B
  8
DATA
  6
CONTINUOUS
 62
     7
 10
148.9000000003
 20
15.79999999999996
 30
0.0
  0
VERTEX
  5
23C
  8
DATA
  6
CONTINUOUS
 62
     7
 10
148.9000000003
 20
16.19999999999996
 30
0.0
  0
VERTEX
  5
23D
  8
DATA
  6
CONTINUOUS
 62
     7
 10
149.85000000030001
 20
16.19999999999996
 30
0.0
  0
SEQEND
  5
23E
  8
DATA
  6
CONTINUOUS
 62
     7
  0
ARC
  5
1C2
  8
DATA
  6
CONTINUOUS
 62
     7
 10
51.350000000300028
 20
180.69999999999999
 30
0.0
 40
1.2999999999999969
 50
90.0
 51
180.0
  0
ARC
  5
1C3
  8
DATA
  6
CONTINUOUS
 62
     7
 10
68.75000000030002
 20
180.69999999999999
 30
0.0
 40
1.2999999999999969
 50
0.0
 51
90.000000000000185
  0
LINE
  5
1C4
  8
DATA
  6
STYLE_01
 62
     7
 10
148.27656591077439
 20
208.0
 30
0.0
 11
151.8234340898255
 21
208.0
 31
0.0
  0
LINE
  5
1C5
  8
DATA
  6
STYLE_01
 62
     7
 10
127.5500000003
 20
186.5000000000021
 30
0.0
 11
127.5500000003
 21
158.9999999999998
 31
0.0
  0
LINE
  5
1C6
  8
DATA
  6
STYLE_01
 62
     7
 10
172.5500000003
 20
186.5000000000021
 30
0.0
 11
172.5500000003
 21
159.00000000000011
 31
0.0
  0
ARC
  5
1C7
  8
DATA
  6
STYLE_01
 62
     7
 10
149.60219869635009
 20
186.4332736165259
 30
0.0
 40
22.052299647436431
 50
130.23510580424019
 51
179.82663277525469
  0
ARC
  5
1C8
  8
DATA
  6
STYLE_01
 62
     7
 10
216.76303826385981
 20
166.76854066575291
 30
0.0
 40
89.550636068600042
 50
184.9766790299563
 51
207.80240163811331
  0
ARC
  5
1C9
  8
DATA
  6
STYLE_01
 62
     7
 10
83.336961736740108
 20
166.76854066575291
 30
0.0
 40
89.550636068600028
 50
332.19759836188678
 51
355.0233209700437
  0
ARC
  5
1CA
  8
DATA
  6
STYLE_01
 62
     7
 10
150.49780130424989
 20
186.4332736165259
 30
0.0
 40
22.052299647436431
 50
0.1733672247452684
 51
49.764894195759808
  0
LINE
  5
1CB
  8
DATA
  6
STYLE_01
 62
     7
 10
137.5500000003
 20
125.0
 30
0.0
 11
162.55000000029989
 21
125.0
 31
0.0
  0
ARC
  5
1CC
  8
DATA
  6
STYLE_01
 62
     7
 10
148.27656591077439
 20
187.99999999999909
 30
0.0
 40
20.000000000000849
 50
90.0
 51
130.2351058042386
  0
ARC
  5
1CD
  8
DATA
  6
STYLE_01
 62
     7
 10
151.8234340898255
 20
187.9999999999992
 30
0.0
 40
20.000000000000831
 50
49.764894195761322
 51
90.0
  0
TEXT
  5
1CE
  8
DATA
 62
     7
 10
192.48318475330481
 20
211.7293072657566
 30
0.0
 40
5.4294704861111107
  1
ウインドスクリーン
 41
0.7
 11
192.48318475330481
 21
217.1587777518678
 31
0.0
 73
     3
  0
LINE
  5
1CF
  8
DATA
  6
CONTINUOUS
 62
     7
 10
170.3669146725928
 20
196.0
 30
0.0
 11
189.5
 21
210.0
 31
0.0
  0
LINE
  5
1D0
  8
DATA
  6
CONTINUOUS
 62
     7
 10
170.3669146725928
 20
196.0
 30
0.0
 11
174.50406928053951
 21
201.10896046149921
 31
0.0
  0
LINE
  5
1D1
  8
DATA
  6
CONTINUOUS
 62
     7
 10
170.3669146725928
 20
196.0
 30
0.0
 11
176.50427589320799
 21
198.3559122426152
 31
0.0
  0
LINE
  5
1D2
  8
DATA
  6
CONTINUOUS
 62
     7
 10
189.5
 20
210.0
 30
0.0
 11
259.5
 21
210.0
 31
0.0
  0
TEXT
  5
1D3
  8
DATA
 62
     7
 10
-60.000009999999989
 20
-107.992175
 30
0.0
 40
3.2576822916666659
  1
仕様および外観は予告なく変更されることがありますので、ご了承ください。
 41
0.7
 11
-60.000009999999989
 21
-104.73449270833331
 31
0.0
 73
     3
  0
ENDSEC
  0
EOF
