  0
SECTION
  2
HEADER
  9
$ACADVER
  1
AC1009
  9
$INSBASE
 10
0.0
 20
0.0
 30
0.0
  9
$EXTMIN
 10
29.989015033921529
 20
7.1438617575261096
 30
-0.0015258207003583
  9
$EXTMAX
 10
570.01739634668616
 20
810.02472112423811
 30
0.0000000349246037
  9
$LIMMIN
 10
0.0
 20
0.0
  9
$LIMMAX
 10
0.0
 20
0.0
  9
$ORTHOMODE
 70
     0
  9
$REGENMODE
 70
     1
  9
$FILLMODE
 70
     1
  9
$QTEXTMODE
 70
     0
  9
$MIRRTEXT
 70
     1
  9
$DRAGMODE
 70
     2
  9
$LTSCALE
 40
15.24
  9
$OSMODE
 70
   231
  9
$ATTMODE
 70
     1
  9
$TEXTSIZE
 40
0.0
  9
$TRACEWID
 40
1.0
  9
$TEXTSTYLE
  7
STANDARD
  9
$CLAYER
  8
DATA
  9
$CELTYPE
  6
BYLAYER
  9
$CECOLOR
 62
   256
  9
$DIMSCALE
 40
1.0
  9
$DIMASZ
 40
0.18
  9
$DIMEXO
 40
0.0625
  9
$DIMDLI
 40
0.38
  9
$DIMRND
 40
0.0
  9
$DIMDLE
 40
0.0
  9
$DIMEXE
 40
0.18
  9
$DIMTP
 40
0.0
  9
$DIMTM
 40
0.0
  9
$DIMTXT
 40
0.18
  9
$DIMCEN
 40
0.09
  9
$DIMTSZ
 40
0.0
  9
$DIMTOL
 70
     0
  9
$DIMLIM
 70
     0
  9
$DIMTIH
 70
     1
  9
$DIMTOH
 70
     1
  9
$DIMSE1
 70
     0
  9
$DIMSE2
 70
     0
  9
$DIMTAD
 70
     0
  9
$DIMZIN
 70
     0
  9
$DIMBLK
  1

  9
$DIMASO
 70
     1
  9
$DIMSHO
 70
     1
  9
$DIMPOST
  1

  9
$DIMAPOST
  1

  9
$DIMALT
 70
     0
  9
$DIMALTD
 70
     2
  9
$DIMALTF
 40
25.399999999999999
  9
$DIMLFAC
 40
1.0
  9
$DIMTOFL
 70
     0
  9
$DIMTVP
 40
0.0
  9
$DIMTIX
 70
     0
  9
$DIMSOXD
 70
     0
  9
$DIMSAH
 70
     0
  9
$DIMBLK1
  1

  9
$DIMBLK2
  1

  9
$DIMSTYLE
  2
STANDARD
  9
$DIMCLRD
 70
     0
  9
$DIMCLRE
 70
     0
  9
$DIMCLRT
 70
     0
  9
$DIMTFAC
 40
1.0
  9
$DIMGAP
 40
0.09
  9
$LUNITS
 70
     2
  9
$LUPREC
 70
     4
  9
$SKETCHINC
 40
0.1
  9
$FILLETRAD
 40
0.0
  9
$AUNITS
 70
     0
  9
$AUPREC
 70
     0
  9
$MENU
  1
acad
  9
$ELEVATION
 40
0.0
  9
$PELEVATION
 40
0.0
  9
$THICKNESS
 40
0.0
  9
$LIMCHECK
 70
     0
  9
$BLIPMODE
 70
     0
  9
$CHAMFERA
 40
0.0
  9
$CHAMFERB
 40
0.0
  9
$SKPOLY
 70
     0
  9
$TDCREATE
 40
2455225.829861111
  9
$TDUPDATE
 40
2455225.8303090972
  9
$TDINDWG
 40
0.0003506713
  9
$TDUSRTIMER
 40
0.0003504861
  9
$USRTIMER
 70
     1
  9
$ANGBASE
 50
0.0
  9
$ANGDIR
 70
     0
  9
$PDMODE
 70
     1
  9
$PDSIZE
 40
-2.0
  9
$PLINEWID
 40
0.0
  9
$COORDS
 70
     0
  9
$SPLFRAME
 70
     0
  9
$SPLINETYPE
 70
     6
  9
$SPLINESEGS
 70
     8
  9
$ATTDIA
 70
     0
  9
$ATTREQ
 70
     1
  9
$HANDLING
 70
     1
  9
$HANDSEED
  5
255
  9
$SURFTAB1
 70
     6
  9
$SURFTAB2
 70
     6
  9
$SURFTYPE
 70
     6
  9
$SURFU
 70
     6
  9
$SURFV
 70
     6
  9
$UCSNAME
  2

  9
$UCSORG
 10
0.0
 20
0.0
 30
0.0
  9
$UCSXDIR
 10
1.0
 20
0.0
 30
0.0
  9
$UCSYDIR
 10
0.0
 20
1.0
 30
0.0
  9
$PUCSNAME
  2

  9
$PUCSORG
 10
0.0
 20
0.0
 30
0.0
  9
$PUCSXDIR
 10
1.0
 20
0.0
 30
0.0
  9
$PUCSYDIR
 10
0.0
 20
1.0
 30
0.0
  9
$USERI1
 70
     0
  9
$USERI2
 70
     0
  9
$USERI3
 70
     0
  9
$USERI4
 70
     0
  9
$USERI5
 70
     0
  9
$USERR1
 40
0.0
  9
$USERR2
 40
0.0
  9
$USERR3
 40
0.0
  9
$USERR4
 40
0.0
  9
$USERR5
 40
0.0
  9
$WORLDVIEW
 70
     1
  9
$SHADEDGE
 70
     3
  9
$SHADEDIF
 70
    70
  9
$TILEMODE
 70
     1
  9
$MAXACTVP
 70
    64
  9
$PLIMCHECK
 70
     0
  9
$PEXTMIN
 10
1.0000000000000000E+020
 20
1.0000000000000000E+020
 30
1.0000000000000000E+020
  9
$PEXTMAX
 10
-1.0000000000000000E+020
 20
-1.0000000000000000E+020
 30
-1.0000000000000000E+020
  9
$PLIMMIN
 10
0.0
 20
0.0
  9
$PLIMMAX
 10
12.0
 20
9.0
  9
$UNITMODE
 70
     0
  9
$VISRETAIN
 70
     0
  9
$PLINEGEN
 70
     1
  9
$PSLTSCALE
 70
     0
  0
ENDSEC
  0
SECTION
  2
TABLES
  0
TABLE
  2
VPORT
 70
     1
  0
VPORT
  2
*ACTIVE
 70
     0
 10
0.0
 20
0.0
 11
1.0
 21
1.0
 12
300.00320569030379
 22
408.584291440882
 13
0.0
 23
0.0
 14
1.0
 24
1.0
 15
0.0
 25
0.0
 16
0.0
 26
0.0
 36
1.0
 17
0.0
 27
0.0
 37
0.0
 40
808.7989000991447
 41
1.964329643296433
 42
50.0
 43
0.0
 44
0.0
 50
0.0
 51
0.0
 71
     0
 72
  2000
 73
     1
 74
     1
 75
     0
 76
     0
 77
     0
 78
     0
  0
ENDTAB
  0
TABLE
  2
LTYPE
 70
    11
  0
LTYPE
  2
CONTINUOUS
 70
     0
  3
Solid line
 72
    65
 73
     0
 40
0.0
  0
ENDTAB
  0
TABLE
  2
LAYER
 70
     6
  0
LAYER
  2
0
 70
     0
 62
     7
  6
CONTINUOUS
  0
LAYER
  2
DATA
 70
     0
 62
     7
  6
CONTINUOUS
  0
LAYER
  2
HIBINO-BASE
 70
     0
 62
     7
  6
CONTINUOUS
  0
LAYER
  2
PATTERN_FILL
 70
     0
 62
     7
  6
CONTINUOUS
  0
LAYER
  2
SPEC
 70
     0
 62
     7
  6
CONTINUOUS
  0
LAYER
  2
DIMNSIONS
 70
     0
 62
     7
  6
CONTINUOUS
  0
ENDTAB
  0
TABLE
  2
STYLE
 70
     3
  0
STYLE
  2
STANDARD
 70
     0
 40
0.0
 41
1.0
 50
0.0
 71
     0
 42
0.0
  3
txt
  4
BIGFONT.SHX
  0
ENDTAB
  0
TABLE
  2
VIEW
 70
     0
  0
ENDTAB
  0
TABLE
  2
UCS
 70
     0
  0
ENDTAB
  0
TABLE
  2
APPID
 70
     3
  0
APPID
  2
ACAD
 70
     0
  0
APPID
  2
ACADANNOTATIVE
 70
     0
  0
APPID
  2
ACAD_MLEADERVER
 70
     0
  0
ENDTAB
  0
TABLE
  2
DIMSTYLE
 70
     2
  0
DIMSTYLE
  2
STANDARD
 70
     0
  3

  4

  5

  6

  7

 40
1.0
 41
0.18
 42
0.0625
 43
0.38
 44
0.18
 45
0.0
 46
0.0
 47
0.0
 48
0.0
140
0.18
141
0.09
142
0.0
143
25.399999999999999
144
1.0
145
0.0
146
1.0
147
0.09
 71
     0
 72
     0
 73
     1
 74
     1
 75
     0
 76
     0
 77
     0
 78
     0
170
     0
171
     2
172
     0
173
     0
174
     0
175
     0
176
     0
177
     0
178
     0
  0
ENDTAB
  0
ENDSEC
  0
SECTION
  2
BLOCKS
  0
BLOCK
  8
0
  2
$MODEL_SPACE
 70
     0
 10
0.0
 20
0.0
 30
0.0
  3
$MODEL_SPACE
  1

  0
ENDBLK
  5
1EE
  8
0
  0
BLOCK
 67
     1
  8
0
  2
$PAPER_SPACE
 70
     0
 10
0.0
 20
0.0
 30
0.0
  3
$PAPER_SPACE
  1

  0
ENDBLK
  5
1EA
 67
     1
  8
0
  0
ENDSEC
  0
SECTION
  2
ENTITIES
  0
LINE
  5
2D
  8
HIBINO-BASE
  6
CONTINUOUS
 62
     7
 10
30.0
 20
810.0
 30
0.0
 11
569.99999999999989
 21
810.0
 31
0.0
  0
LINE
  5
2E
  8
HIBINO-BASE
  6
CONTINUOUS
 62
     7
 10
569.99999999999989
 20
30.0
 30
0.0
 11
30.0
 21
30.0
 31
0.0
  0
LINE
  5
2F
  8
HIBINO-BASE
  6
CONTINUOUS
 62
     7
 10
30.0
 20
30.0
 30
0.0
 11
30.0
 21
810.0
 31
0.0
  0
LINE
  5
30
  8
HIBINO-BASE
  6
CONTINUOUS
 62
     7
 10
569.99999999999989
 20
810.0
 30
0.0
 11
569.99999999999989
 21
30.0
 31
0.0
  0
LINE
  5
31
  8
HIBINO-BASE
  6
CONTINUOUS
 62
     7
 10
300.0
 20
97.500000000000057
 30
0.0
 11
569.99999999999989
 21
97.500000000000057
 31
0.0
  0
LINE
  5
32
  8
HIBINO-BASE
  6
CONTINUOUS
 62
     7
 10
300.0
 20
30.0
 30
0.0
 11
300.0
 21
97.500000000000057
 31
0.0
  0
TEXT
  5
33
  8
HIBINO-BASE
 62
     7
 10
302.69999999999987
 20
89.973919999999993
 30
0.0
 40
4.8865234374999993
  1
NOTE
 41
0.7
 11
302.69999999999987
 21
94.860443437499995
 31
0.0
 73
     3
  0
LINE
  5
34
  8
HIBINO-BASE
  6
CONTINUOUS
 62
     7
 10
405.0
 20
30.0
 30
0.0
 11
405.0
 21
97.500000000000057
 31
0.0
  0
TEXT
  5
35
  8
HIBINO-BASE
 62
     7
 10
407.69999999999987
 20
89.973919999999993
 30
0.0
 40
4.8865234374999993
  1
TITLE
 41
0.7
 11
407.69999999999987
 21
94.860443437499995
 31
0.0
 73
     3
  0
LINE
  5
36
  8
HIBINO-BASE
  6
CONTINUOUS
 62
     7
 10
300.0
 20
60.000000000000071
 30
0.0
 11
569.99999999999989
 21
60.000000000000071
 31
0.0
  0
TEXT
  5
37
  8
HIBINO-BASE
 62
     7
 10
445.19999999999987
 20
52.64287999999997
 30
0.0
 40
4.8865234374999993
  1
DRAWN
 41
0.7
 11
445.19999999999987
 21
57.529403437499973
 31
0.0
 73
     3
  0
TEXT
  5
38
  8
HIBINO-BASE
 62
     7
 10
370.19999999999987
 20
52.64287999999997
 30
0.0
 40
4.8865234374999993
  1
DATE
 41
0.7
 11
370.19999999999987
 21
57.529403437499973
 31
0.0
 73
     3
  0
TEXT
  5
39
  8
HIBINO-BASE
 62
     7
 10
340.19999999999987
 20
52.64287999999997
 30
0.0
 40
4.8865234374999993
  1
SCALE
 41
0.7
 11
340.19999999999987
 21
57.529403437499973
 31
0.0
 73
     3
  0
TEXT
  5
3A
  8
HIBINO-BASE
 62
     7
 10
407.69999999999987
 20
52.64287999999997
 30
0.0
 40
4.8865234374999993
  1
DESIGN
 41
0.7
 11
407.69999999999987
 21
57.529403437499973
 31
0.0
 73
     3
  0
TEXT
  5
3B
  8
HIBINO-BASE
 62
     7
 10
520.19999999999993
 20
52.64287999999997
 30
0.0
 40
4.8865234374999993
  1
DRAWING NO.
 41
0.7
 11
520.19999999999993
 21
57.529403437499973
 31
0.0
 73
     3
  0
TEXT
  5
3C
  8
HIBINO-BASE
 62
     7
 10
482.69999999999987
 20
52.64287999999997
 30
0.0
 40
4.8865234374999993
  1
CHECK
 41
0.7
 11
482.69999999999987
 21
57.529403437499973
 31
0.0
 73
     3
  0
LINE
  5
3D
  8
HIBINO-BASE
  6
CONTINUOUS
 62
     7
 10
343.12499999999989
 20
33.75
 30
0.0
 11
354.37499999999989
 21
45.000000000000057
 31
0.0
  0
TEXT
  5
3E
  8
HIBINO-BASE
 62
     7
 10
341.25
 20
41.673170000000013
 30
0.0
 40
4.8865234374999993
  1
1
 41
0.7
 11
341.25
 21
46.559693437500009
 31
0.0
 73
     3
  0
LINE
  5
3F
  8
HIBINO-BASE
  6
CONTINUOUS
 62
     7
 10
337.5
 20
30.0
 30
0.0
 11
337.5
 21
60.000000000000071
 31
0.0
  0
LINE
  5
40
  8
HIBINO-BASE
  6
CONTINUOUS
 62
     7
 10
367.5
 20
30.0
 30
0.0
 11
367.5
 21
60.000000000000071
 31
0.0
  0
LINE
  5
41
  8
HIBINO-BASE
  6
CONTINUOUS
 62
     7
 10
442.49999999999989
 20
60.000000000000071
 30
0.0
 11
442.49999999999989
 21
30.0
 31
0.0
  0
LINE
  5
42
  8
HIBINO-BASE
  6
CONTINUOUS
 62
     7
 10
517.49999999999989
 20
60.000000000000071
 30
0.0
 11
517.49999999999989
 21
30.0
 31
0.0
  0
LINE
  5
43
  8
HIBINO-BASE
  6
CONTINUOUS
 62
     7
 10
479.99999999999989
 20
30.0
 30
0.0
 11
479.99999999999989
 21
60.000000000000071
 31
0.0
  0
TEXT
  5
44
  8
HIBINO-BASE
 62
     7
 10
370.06961999999987
 20
38.590939999999982
 30
0.0
 40
4.8865234374999993
  1
'10.01.
 41
0.7
 11
370.06961999999987
 21
43.477463437499978
 31
0.0
 73
     3
  0
TEXT
  5
45
  8
HIBINO-BASE
 62
     7
 10
352.49999999999989
 20
36.048170000000013
 30
0.0
 40
4.8865234374999993
  1
3
 41
0.7
 11
352.49999999999989
 21
40.934693437500009
 31
0.0
 73
     3
  0
TEXT
  5
46
  8
HIBINO-BASE
 62
     7
 10
447.01743003310372
 20
38.590939999999982
 30
0.0
 40
4.8865234374999993
  1
N.Sasaki
 41
0.7
 11
447.01743003310372
 21
43.477463437499978
 31
0.0
 73
     3
  0
TEXT
  5
47
  8
HIBINO-BASE
 62
     7
 10
311.64999999999998
 20
35.928000000000033
 30
0.0
 40
9.7730468749999986
  1
A4
 41
0.7
 11
311.64999999999998
 21
45.701046875000031
 31
0.0
 73
     3
  0
TEXT
  5
48
  8
HIBINO-BASE
 62
     7
 10
302.875
 20
52.141635000000051
 30
0.0
 40
4.8865234374999993
  1
PAPER SIZE
 41
0.7
 11
302.875
 21
57.028158437500053
 31
0.0
 73
     3
  0
TEXT
  5
49
  8
HIBINO-BASE
 62
     7
 10
38.278905770670526
 20
10.72427929747122
 30
0.0
 40
10.58746744791666
  1
Hibino-Intersound Corporation
 41
0.7
 11
38.278905770670526
 21
21.311746745387889
 31
0.0
 73
     3
  0
TEXT
  5
4A
  8
HIBINO-BASE
 62
     7
 10
360.54182904064157
 20
11.77754405733951
 30
0.0
 40
10.58746744791666
  1
ヒビノインターサウンド株式会社
 41
0.7
 11
360.54182904064157
 21
22.365011505256181
 31
0.0
 73
     3
  0
LINE
  5
4B
  8
PATTERN_FILL
  6
CONTINUOUS
 62
     7
 10
246.28388218141501
 20
490.71611781858491
 30
0.0
 11
240.71611781858491
 21
496.28388218141509
 31
0.0
  0
LINE
  5
4C
  8
PATTERN_FILL
  6
CONTINUOUS
 62
     7
 10
248.36551940828861
 20
490.13448059171128
 30
0.0
 11
240.13448059171139
 21
498.36551940828861
 31
0.0
  0
LINE
  5
4D
  8
PATTERN_FILL
  6
CONTINUOUS
 62
     7
 10
250.0
 20
490.0
 30
0.0
 11
240.0
 21
500.0
 31
0.0
  0
LINE
  5
4E
  8
PATTERN_FILL
  6
CONTINUOUS
 62
     7
 10
251.40132727772871
 20
490.0986727222712
 30
0.0
 11
240.09867272227129
 21
501.40132727772868
 31
0.0
  0
LINE
  5
4F
  8
PATTERN_FILL
  6
CONTINUOUS
 62
     7
 10
252.6441028637222
 20
490.35589713627769
 30
0.0
 11
240.3558971362778
 21
502.64410286372231
 31
0.0
  0
LINE
  5
50
  8
PATTERN_FILL
  6
CONTINUOUS
 62
     7
 10
253.76440711039771
 20
490.73559288960229
 30
0.0
 11
240.73559288960229
 21
503.76440711039771
 31
0.0
  0
LINE
  5
51
  8
PATTERN_FILL
  6
CONTINUOUS
 62
     7
 10
254.78232998312529
 20
491.21767001687471
 30
0.0
 11
241.21767001687471
 21
504.78232998312518
 31
0.0
  0
LINE
  5
52
  8
PATTERN_FILL
  6
CONTINUOUS
 62
     7
 10
255.70970545353751
 20
491.79029454646241
 30
0.0
 11
241.79029454646249
 21
505.70970545353748
 31
0.0
  0
LINE
  5
53
  8
PATTERN_FILL
  6
CONTINUOUS
 62
     7
 10
256.55336798983291
 20
492.44663201016709
 30
0.0
 11
242.44663201016701
 21
506.55336798983291
 31
0.0
  0
LINE
  5
54
  8
PATTERN_FILL
  6
CONTINUOUS
 62
     7
 10
257.31664701255119
 20
493.18335298744881
 30
0.0
 11
243.1833529874487
 21
507.3166470125513
 31
0.0
  0
LINE
  5
55
  8
PATTERN_FILL
  6
CONTINUOUS
 62
     7
 10
258.0
 20
494.0
 30
0.0
 11
244.0
 21
508.0
 31
0.0
  0
LINE
  5
56
  8
PATTERN_FILL
  6
CONTINUOUS
 62
     7
 10
258.60109480302242
 20
494.89890519697758
 30
0.0
 11
244.89890519697761
 21
508.60109480302242
 31
0.0
  0
LINE
  5
57
  8
PATTERN_FILL
  6
CONTINUOUS
 62
     7
 10
259.11437827766139
 20
495.8856217223385
 30
0.0
 11
245.8856217223385
 21
509.11437827766139
 31
0.0
  0
LINE
  5
58
  8
PATTERN_FILL
  6
CONTINUOUS
 62
     7
 10
259.52992834354029
 20
496.97007165645971
 30
0.0
 11
246.97007165645971
 21
509.52992834354018
 31
0.0
  0
LINE
  5
59
  8
PATTERN_FILL
  6
CONTINUOUS
 62
     7
 10
259.83095189484533
 20
498.16904810515462
 30
0.0
 11
248.1690481051547
 21
509.83095189484521
 31
0.0
  0
LINE
  5
5A
  8
PATTERN_FILL
  6
CONTINUOUS
 62
     7
 10
259.98808170993931
 20
499.51191829006081
 30
0.0
 11
249.51191829006069
 21
509.98808170993919
 31
0.0
  0
LINE
  5
5B
  8
PATTERN_FILL
  6
CONTINUOUS
 62
     7
 10
259.94409720865781
 20
501.05590279134219
 30
0.0
 11
251.05590279134219
 21
509.94409720865769
 31
0.0
  0
LINE
  5
5C
  8
PATTERN_FILL
  6
CONTINUOUS
 62
     7
 10
259.55718913883072
 20
502.94281086116928
 30
0.0
 11
252.94281086116931
 21
509.55718913883072
 31
0.0
  0
LINE
  5
5D
  8
PATTERN_FILL
  6
CONTINUOUS
 62
     7
 10
240.44281086116919
 20
502.94281086116922
 30
0.0
 11
247.05718913883081
 21
509.55718913883072
 31
0.0
  0
LINE
  5
5E
  8
PATTERN_FILL
  6
CONTINUOUS
 62
     7
 10
240.05590279134219
 20
501.05590279134219
 30
0.0
 11
248.94409720865781
 21
509.94409720865769
 31
0.0
  0
LINE
  5
5F
  8
PATTERN_FILL
  6
CONTINUOUS
 62
     7
 10
240.01191829006069
 20
499.51191829006081
 30
0.0
 11
250.48808170993931
 21
509.98808170993919
 31
0.0
  0
LINE
  5
60
  8
PATTERN_FILL
  6
CONTINUOUS
 62
     7
 10
240.1690481051547
 20
498.16904810515467
 30
0.0
 11
251.8309518948453
 21
509.83095189484521
 31
0.0
  0
LINE
  5
61
  8
PATTERN_FILL
  6
CONTINUOUS
 62
     7
 10
240.47007165645971
 20
496.97007165645971
 30
0.0
 11
253.02992834354029
 21
509.52992834354018
 31
0.0
  0
LINE
  5
62
  8
PATTERN_FILL
  6
CONTINUOUS
 62
     7
 10
240.8856217223385
 20
495.88562172233839
 30
0.0
 11
254.1143782776615
 21
509.11437827766139
 31
0.0
  0
LINE
  5
63
  8
PATTERN_FILL
  6
CONTINUOUS
 62
     7
 10
241.39890519697761
 20
494.89890519697758
 30
0.0
 11
255.10109480302239
 21
508.60109480302242
 31
0.0
  0
LINE
  5
64
  8
PATTERN_FILL
  6
CONTINUOUS
 62
     7
 10
242.0
 20
494.0
 30
0.0
 11
256.0
 21
508.0
 31
0.0
  0
LINE
  5
65
  8
PATTERN_FILL
  6
CONTINUOUS
 62
     7
 10
242.6833529874487
 20
493.18335298744859
 30
0.0
 11
256.8166470125513
 21
507.3166470125513
 31
0.0
  0
LINE
  5
66
  8
PATTERN_FILL
  6
CONTINUOUS
 62
     7
 10
243.44663201016701
 20
492.44663201016709
 30
0.0
 11
257.55336798983302
 21
506.55336798983291
 31
0.0
  0
LINE
  5
67
  8
PATTERN_FILL
  6
CONTINUOUS
 62
     7
 10
244.29029454646241
 20
491.79029454646241
 30
0.0
 11
258.20970545353748
 21
505.70970545353748
 31
0.0
  0
LINE
  5
68
  8
PATTERN_FILL
  6
CONTINUOUS
 62
     7
 10
245.21767001687479
 20
491.21767001687482
 30
0.0
 11
258.78232998312529
 21
504.78232998312518
 31
0.0
  0
LINE
  5
69
  8
PATTERN_FILL
  6
CONTINUOUS
 62
     7
 10
246.23559288960229
 20
490.73559288960229
 30
0.0
 11
259.2644071103976
 21
503.76440711039771
 31
0.0
  0
LINE
  5
6A
  8
PATTERN_FILL
  6
CONTINUOUS
 62
     7
 10
247.35589713627769
 20
490.35589713627769
 30
0.0
 11
259.6441028637222
 21
502.64410286372231
 31
0.0
  0
LINE
  5
6B
  8
PATTERN_FILL
  6
CONTINUOUS
 62
     7
 10
248.59867272227129
 20
490.0986727222712
 30
0.0
 11
259.90132727772868
 21
501.40132727772868
 31
0.0
  0
LINE
  5
6C
  8
PATTERN_FILL
  6
CONTINUOUS
 62
     7
 10
250.0
 20
490.0
 30
0.0
 11
260.0
 21
500.0
 31
0.0
  0
LINE
  5
6D
  8
PATTERN_FILL
  6
CONTINUOUS
 62
     7
 10
251.63448059171139
 20
490.13448059171128
 30
0.0
 11
259.86551940828861
 21
498.36551940828861
 31
0.0
  0
LINE
  5
6E
  8
PATTERN_FILL
  6
CONTINUOUS
 62
     7
 10
253.71611781858499
 20
490.71611781858508
 30
0.0
 11
259.28388218141492
 21
496.28388218141481
 31
0.0
  0
LINE
  5
6F
  8
PATTERN_FILL
  6
CONTINUOUS
 62
     7
 10
238.55000000000001
 20
435.80000000000001
 30
0.0
 11
237.5
 21
434.75
 31
0.0
  0
LINE
  5
70
  8
PATTERN_FILL
  6
CONTINUOUS
 62
     7
 10
240.05000000000001
 20
435.80000000000001
 30
0.0
 11
237.5
 21
433.25
 31
0.0
  0
LINE
  5
71
  8
PATTERN_FILL
  6
CONTINUOUS
 62
     7
 10
241.55000000000001
 20
435.80000000000001
 30
0.0
 11
238.55000000000001
 21
432.80000000000001
 31
0.0
  0
LINE
  5
72
  8
PATTERN_FILL
  6
CONTINUOUS
 62
     7
 10
243.05000000000001
 20
435.80000000000001
 30
0.0
 11
240.05000000000001
 21
432.80000000000001
 31
0.0
  0
LINE
  5
73
  8
PATTERN_FILL
  6
CONTINUOUS
 62
     7
 10
244.55000000000001
 20
435.80000000000001
 30
0.0
 11
241.55000000000001
 21
432.80000000000001
 31
0.0
  0
LINE
  5
74
  8
PATTERN_FILL
  6
CONTINUOUS
 62
     7
 10
238.94999999999999
 20
430.19999999999987
 30
0.0
 11
237.5
 21
428.75
 31
0.0
  0
LINE
  5
75
  8
PATTERN_FILL
  6
CONTINUOUS
 62
     7
 10
246.05000000000001
 20
435.80000000000001
 30
0.0
 11
243.05000000000001
 21
432.80000000000001
 31
0.0
  0
LINE
  5
76
  8
PATTERN_FILL
  6
CONTINUOUS
 62
     7
 10
240.44999999999999
 20
430.19999999999987
 30
0.0
 11
237.44999999999999
 21
427.19999999999999
 31
0.0
  0
LINE
  5
77
  8
PATTERN_FILL
  6
CONTINUOUS
 62
     7
 10
247.0
 20
435.25
 30
0.0
 11
244.55000000000001
 21
432.80000000000001
 31
0.0
  0
LINE
  5
78
  8
PATTERN_FILL
  6
CONTINUOUS
 62
     7
 10
241.94999999999999
 20
430.19999999999987
 30
0.0
 11
238.94999999999999
 21
427.19999999999999
 31
0.0
  0
LINE
  5
79
  8
PATTERN_FILL
  6
CONTINUOUS
 62
     7
 10
247.0
 20
433.75
 30
0.0
 11
246.05000000000001
 21
432.80000000000001
 31
0.0
  0
LINE
  5
7A
  8
PATTERN_FILL
  6
CONTINUOUS
 62
     7
 10
243.44999999999999
 20
430.19999999999987
 30
0.0
 11
240.44999999999999
 21
427.19999999999999
 31
0.0
  0
LINE
  5
7B
  8
PATTERN_FILL
  6
CONTINUOUS
 62
     7
 10
237.84999999999999
 20
424.60000000000002
 30
0.0
 11
237.5
 21
424.24999999999989
 31
0.0
  0
LINE
  5
7C
  8
PATTERN_FILL
  6
CONTINUOUS
 62
     7
 10
244.94999999999999
 20
430.19999999999987
 30
0.0
 11
241.94999999999999
 21
427.19999999999999
 31
0.0
  0
LINE
  5
7D
  8
PATTERN_FILL
  6
CONTINUOUS
 62
     7
 10
239.34999999999999
 20
424.60000000000002
 30
0.0
 11
237.5
 21
422.75
 31
0.0
  0
LINE
  5
7E
  8
PATTERN_FILL
  6
CONTINUOUS
 62
     7
 10
253.55000000000001
 20
435.80000000000001
 30
0.0
 11
253.0
 21
435.25
 31
0.0
  0
LINE
  5
7F
  8
PATTERN_FILL
  6
CONTINUOUS
 62
     7
 10
247.0
 20
429.25
 30
0.0
 11
244.94999999999999
 21
427.19999999999999
 31
0.0
  0
LINE
  5
80
  8
PATTERN_FILL
  6
CONTINUOUS
 62
     7
 10
242.34999999999999
 20
424.60000000000002
 30
0.0
 11
239.34999999999999
 21
421.60000000000002
 31
0.0
  0
LINE
  5
81
  8
PATTERN_FILL
  6
CONTINUOUS
 62
     7
 10
255.05000000000001
 20
435.80000000000001
 30
0.0
 11
253.0
 21
433.75
 31
0.0
  0
LINE
  5
82
  8
PATTERN_FILL
  6
CONTINUOUS
 62
     7
 10
247.0
 20
427.74999999999989
 30
0.0
 11
246.44999999999999
 21
427.19999999999999
 31
0.0
  0
LINE
  5
83
  8
PATTERN_FILL
  6
CONTINUOUS
 62
     7
 10
243.84999999999999
 20
424.60000000000002
 30
0.0
 11
240.84999999999999
 21
421.60000000000002
 31
0.0
  0
LINE
  5
84
  8
PATTERN_FILL
  6
CONTINUOUS
 62
     7
 10
238.25
 20
419.0
 30
0.0
 11
237.5
 21
418.25
 31
0.0
  0
LINE
  5
85
  8
PATTERN_FILL
  6
CONTINUOUS
 62
     7
 10
256.55000000000001
 20
435.80000000000001
 30
0.0
 11
253.55000000000001
 21
432.80000000000001
 31
0.0
  0
LINE
  5
86
  8
PATTERN_FILL
  6
CONTINUOUS
 62
     7
 10
245.34999999999999
 20
424.60000000000002
 30
0.0
 11
242.34999999999999
 21
421.60000000000002
 31
0.0
  0
LINE
  5
87
  8
PATTERN_FILL
  6
CONTINUOUS
 62
     7
 10
239.75
 20
419.0
 30
0.0
 11
237.5
 21
416.75
 31
0.0
  0
LINE
  5
88
  8
PATTERN_FILL
  6
CONTINUOUS
 62
     7
 10
258.05000000000001
 20
435.80000000000001
 30
0.0
 11
255.05000000000001
 21
432.80000000000001
 31
0.0
  0
LINE
  5
89
  8
PATTERN_FILL
  6
CONTINUOUS
 62
     7
 10
246.84999999999999
 20
424.60000000000002
 30
0.0
 11
243.84999999999999
 21
421.60000000000002
 31
0.0
  0
LINE
  5
8A
  8
PATTERN_FILL
  6
CONTINUOUS
 62
     7
 10
241.25
 20
419.0
 30
0.0
 11
238.25
 21
416.0
 31
0.0
  0
LINE
  5
8B
  8
PATTERN_FILL
  6
CONTINUOUS
 62
     7
 10
259.55000000000001
 20
435.80000000000001
 30
0.0
 11
256.55000000000001
 21
432.80000000000001
 31
0.0
  0
LINE
  5
8C
  8
PATTERN_FILL
  6
CONTINUOUS
 62
     7
 10
253.94999999999999
 20
430.19999999999987
 30
0.0
 11
253.0
 21
429.25
 31
0.0
  0
LINE
  5
8D
  8
PATTERN_FILL
  6
CONTINUOUS
 62
     7
 10
247.0
 20
423.24999999999989
 30
0.0
 11
245.34999999999999
 21
421.60000000000002
 31
0.0
  0
LINE
  5
8E
  8
PATTERN_FILL
  6
CONTINUOUS
 62
     7
 10
242.75
 20
419.0
 30
0.0
 11
239.75
 21
416.0
 31
0.0
  0
LINE
  5
8F
  8
PATTERN_FILL
  6
CONTINUOUS
 62
     7
 10
261.05000000000001
 20
435.80000000000001
 30
0.0
 11
258.05000000000001
 21
432.80000000000001
 31
0.0
  0
LINE
  5
90
  8
PATTERN_FILL
  6
CONTINUOUS
 62
     7
 10
255.44999999999999
 20
430.19999999999987
 30
0.0
 11
253.0
 21
427.74999999999989
 31
0.0
  0
LINE
  5
91
  8
PATTERN_FILL
  6
CONTINUOUS
 62
     7
 10
247.0
 20
421.75
 30
0.0
 11
246.84999999999999
 21
421.60000000000002
 31
0.0
  0
LINE
  5
92
  8
PATTERN_FILL
  6
CONTINUOUS
 62
     7
 10
244.25
 20
419.0
 30
0.0
 11
241.25
 21
416.0
 31
0.0
  0
LINE
  5
93
  8
PATTERN_FILL
  6
CONTINUOUS
 62
     7
 10
262.55000000000001
 20
435.80000000000001
 30
0.0
 11
259.55000000000001
 21
432.80000000000001
 31
0.0
  0
LINE
  5
94
  8
PATTERN_FILL
  6
CONTINUOUS
 62
     7
 10
256.94999999999999
 20
430.19999999999987
 30
0.0
 11
253.94999999999999
 21
427.19999999999999
 31
0.0
  0
LINE
  5
95
  8
PATTERN_FILL
  6
CONTINUOUS
 62
     7
 10
245.75
 20
419.0
 30
0.0
 11
242.75
 21
416.0
 31
0.0
  0
LINE
  5
96
  8
PATTERN_FILL
  6
CONTINUOUS
 62
     7
 10
262.5
 20
434.25
 30
0.0
 11
261.05000000000001
 21
432.80000000000001
 31
0.0
  0
LINE
  5
97
  8
PATTERN_FILL
  6
CONTINUOUS
 62
     7
 10
258.44999999999999
 20
430.19999999999987
 30
0.0
 11
255.44999999999999
 21
427.19999999999999
 31
0.0
  0
LINE
  5
98
  8
PATTERN_FILL
  6
CONTINUOUS
 62
     7
 10
247.0
 20
418.75
 30
0.0
 11
244.25
 21
416.0
 31
0.0
  0
LINE
  5
99
  8
PATTERN_FILL
  6
CONTINUOUS
 62
     7
 10
259.94999999999999
 20
430.19999999999987
 30
0.0
 11
256.94999999999999
 21
427.19999999999999
 31
0.0
  0
LINE
  5
9A
  8
PATTERN_FILL
  6
CONTINUOUS
 62
     7
 10
254.34999999999999
 20
424.60000000000002
 30
0.0
 11
253.0
 21
423.24999999999989
 31
0.0
  0
LINE
  5
9B
  8
PATTERN_FILL
  6
CONTINUOUS
 62
     7
 10
247.0
 20
417.25
 30
0.0
 11
245.75
 21
416.0
 31
0.0
  0
LINE
  5
9C
  8
PATTERN_FILL
  6
CONTINUOUS
 62
     7
 10
261.44999999999999
 20
430.19999999999987
 30
0.0
 11
258.44999999999999
 21
427.19999999999999
 31
0.0
  0
LINE
  5
9D
  8
PATTERN_FILL
  6
CONTINUOUS
 62
     7
 10
255.84999999999999
 20
424.60000000000002
 30
0.0
 11
253.0
 21
421.75
 31
0.0
  0
LINE
  5
9E
  8
PATTERN_FILL
  6
CONTINUOUS
 62
     7
 10
262.5
 20
429.75
 30
0.0
 11
259.94999999999999
 21
427.19999999999999
 31
0.0
  0
LINE
  5
9F
  8
PATTERN_FILL
  6
CONTINUOUS
 62
     7
 10
257.35000000000002
 20
424.60000000000002
 30
0.0
 11
254.34999999999999
 21
421.60000000000002
 31
0.0
  0
LINE
  5
A0
  8
PATTERN_FILL
  6
CONTINUOUS
 62
     7
 10
262.5
 20
428.24999999999989
 30
0.0
 11
261.44999999999999
 21
427.19999999999999
 31
0.0
  0
LINE
  5
A1
  8
PATTERN_FILL
  6
CONTINUOUS
 62
     7
 10
258.85000000000002
 20
424.60000000000002
 30
0.0
 11
255.84999999999999
 21
421.60000000000002
 31
0.0
  0
LINE
  5
A2
  8
PATTERN_FILL
  6
CONTINUOUS
 62
     7
 10
253.25
 20
419.0
 30
0.0
 11
253.0
 21
418.75
 31
0.0
  0
LINE
  5
A3
  8
PATTERN_FILL
  6
CONTINUOUS
 62
     7
 10
260.35000000000002
 20
424.60000000000002
 30
0.0
 11
257.35000000000002
 21
421.60000000000002
 31
0.0
  0
LINE
  5
A4
  8
PATTERN_FILL
  6
CONTINUOUS
 62
     7
 10
254.75
 20
419.0
 30
0.0
 11
253.0
 21
417.25
 31
0.0
  0
LINE
  5
A5
  8
PATTERN_FILL
  6
CONTINUOUS
 62
     7
 10
261.85000000000002
 20
424.60000000000002
 30
0.0
 11
258.85000000000002
 21
421.60000000000002
 31
0.0
  0
LINE
  5
A6
  8
PATTERN_FILL
  6
CONTINUOUS
 62
     7
 10
256.25
 20
419.0
 30
0.0
 11
253.25
 21
416.0
 31
0.0
  0
LINE
  5
A7
  8
PATTERN_FILL
  6
CONTINUOUS
 62
     7
 10
262.5
 20
423.74999999999989
 30
0.0
 11
260.35000000000002
 21
421.60000000000002
 31
0.0
  0
LINE
  5
A8
  8
PATTERN_FILL
  6
CONTINUOUS
 62
     7
 10
257.75
 20
419.0
 30
0.0
 11
254.75
 21
416.0
 31
0.0
  0
LINE
  5
A9
  8
PATTERN_FILL
  6
CONTINUOUS
 62
     7
 10
262.5
 20
422.25
 30
0.0
 11
261.85000000000002
 21
421.60000000000002
 31
0.0
  0
LINE
  5
AA
  8
PATTERN_FILL
  6
CONTINUOUS
 62
     7
 10
259.25
 20
419.0
 30
0.0
 11
256.25
 21
416.0
 31
0.0
  0
LINE
  5
AB
  8
PATTERN_FILL
  6
CONTINUOUS
 62
     7
 10
260.75
 20
419.0
 30
0.0
 11
257.75
 21
416.0
 31
0.0
  0
LINE
  5
AC
  8
PATTERN_FILL
  6
CONTINUOUS
 62
     7
 10
262.25
 20
419.0
 30
0.0
 11
259.25
 21
416.0
 31
0.0
  0
LINE
  5
AD
  8
PATTERN_FILL
  6
CONTINUOUS
 62
     7
 10
262.5
 20
417.75
 30
0.0
 11
260.75
 21
416.0
 31
0.0
  0
LINE
  5
AE
  8
PATTERN_FILL
  6
CONTINUOUS
 62
     7
 10
262.5
 20
416.24999999999989
 30
0.0
 11
262.25
 21
416.0
 31
0.0
  0
LINE
  5
AF
  8
PATTERN_FILL
  6
CONTINUOUS
 62
     7
 10
262.5
 20
434.7825550371424
 30
0.0
 11
261.48255503714239
 21
435.80000000000001
 31
0.0
  0
LINE
  5
B0
  8
PATTERN_FILL
  6
CONTINUOUS
 62
     7
 10
262.5
 20
433.28255503714229
 30
0.0
 11
259.98255503714239
 21
435.80000000000001
 31
0.0
  0
LINE
  5
B1
  8
PATTERN_FILL
  6
CONTINUOUS
 62
     7
 10
261.48255503714239
 20
432.80000000000001
 30
0.0
 11
258.48255503714239
 21
435.80000000000001
 31
0.0
  0
LINE
  5
B2
  8
PATTERN_FILL
  6
CONTINUOUS
 62
     7
 10
259.98255503714239
 20
432.80000000000001
 30
0.0
 11
256.98255503714239
 21
435.80000000000001
 31
0.0
  0
LINE
  5
B3
  8
PATTERN_FILL
  6
CONTINUOUS
 62
     7
 10
262.5
 20
428.78255503714229
 30
0.0
 11
261.08255503714241
 21
430.19999999999987
 31
0.0
  0
LINE
  5
B4
  8
PATTERN_FILL
  6
CONTINUOUS
 62
     7
 10
258.48255503714239
 20
432.80000000000001
 30
0.0
 11
255.48255503714239
 21
435.80000000000001
 31
0.0
  0
LINE
  5
B5
  8
PATTERN_FILL
  6
CONTINUOUS
 62
     7
 10
262.5
 20
427.2825550371424
 30
0.0
 11
259.58255503714241
 21
430.19999999999987
 31
0.0
  0
LINE
  5
B6
  8
PATTERN_FILL
  6
CONTINUOUS
 62
     7
 10
256.98255503714239
 20
432.80000000000001
 30
0.0
 11
253.98255503714239
 21
435.80000000000001
 31
0.0
  0
LINE
  5
B7
  8
PATTERN_FILL
  6
CONTINUOUS
 62
     7
 10
261.08255503714241
 20
427.19999999999999
 30
0.0
 11
258.08255503714241
 21
430.19999999999987
 31
0.0
  0
LINE
  5
B8
  8
PATTERN_FILL
  6
CONTINUOUS
 62
     7
 10
255.48255503714239
 20
432.80000000000001
 30
0.0
 11
253.0
 21
435.2825550371424
 31
0.0
  0
LINE
  5
B9
  8
PATTERN_FILL
  6
CONTINUOUS
 62
     7
 10
262.5
 20
424.28255503714229
 30
0.0
 11
262.18255503714238
 21
424.60000000000002
 31
0.0
  0
LINE
  5
BA
  8
PATTERN_FILL
  6
CONTINUOUS
 62
     7
 10
259.58255503714241
 20
427.19999999999999
 30
0.0
 11
256.58255503714241
 21
430.19999999999987
 31
0.0
  0
LINE
  5
BB
  8
PATTERN_FILL
  6
CONTINUOUS
 62
     7
 10
253.98255503714239
 20
432.80000000000001
 30
0.0
 11
253.0
 21
433.7825550371424
 31
0.0
  0
LINE
  5
BC
  8
PATTERN_FILL
  6
CONTINUOUS
 62
     7
 10
262.5
 20
422.7825550371424
 30
0.0
 11
260.68255503714249
 21
424.60000000000002
 31
0.0
  0
LINE
  5
BD
  8
PATTERN_FILL
  6
CONTINUOUS
 62
     7
 10
258.08255503714241
 20
427.19999999999999
 30
0.0
 11
255.08255503714241
 21
430.19999999999987
 31
0.0
  0
LINE
  5
BE
  8
PATTERN_FILL
  6
CONTINUOUS
 62
     7
 10
262.18255503714238
 20
421.60000000000002
 30
0.0
 11
259.18255503714238
 21
424.60000000000002
 31
0.0
  0
LINE
  5
BF
  8
PATTERN_FILL
  6
CONTINUOUS
 62
     7
 10
256.58255503714241
 20
427.19999999999999
 30
0.0
 11
253.58255503714241
 21
430.19999999999987
 31
0.0
  0
LINE
  5
C0
  8
PATTERN_FILL
  6
CONTINUOUS
 62
     7
 10
260.68255503714249
 20
421.60000000000002
 30
0.0
 11
257.68255503714238
 21
424.60000000000002
 31
0.0
  0
LINE
  5
C1
  8
PATTERN_FILL
  6
CONTINUOUS
 62
     7
 10
255.08255503714241
 20
427.19999999999999
 30
0.0
 11
253.0
 21
429.2825550371424
 31
0.0
  0
LINE
  5
C2
  8
PATTERN_FILL
  6
CONTINUOUS
 62
     7
 10
247.0
 20
435.2825550371424
 30
0.0
 11
246.48255503714239
 21
435.80000000000001
 31
0.0
  0
LINE
  5
C3
  8
PATTERN_FILL
  6
CONTINUOUS
 62
     7
 10
262.5
 20
418.2825550371424
 30
0.0
 11
261.7825550371424
 21
419.0
 31
0.0
  0
LINE
  5
C4
  8
PATTERN_FILL
  6
CONTINUOUS
 62
     7
 10
259.18255503714238
 20
421.60000000000002
 30
0.0
 11
256.18255503714238
 21
424.60000000000002
 31
0.0
  0
LINE
  5
C5
  8
PATTERN_FILL
  6
CONTINUOUS
 62
     7
 10
253.58255503714241
 20
427.19999999999999
 30
0.0
 11
253.0
 21
427.78255503714229
 31
0.0
  0
LINE
  5
C6
  8
PATTERN_FILL
  6
CONTINUOUS
 62
     7
 10
247.0
 20
433.7825550371424
 30
0.0
 11
244.98255503714239
 21
435.80000000000001
 31
0.0
  0
LINE
  5
C7
  8
PATTERN_FILL
  6
CONTINUOUS
 62
     7
 10
262.5
 20
416.78255503714229
 30
0.0
 11
260.2825550371424
 21
419.0
 31
0.0
  0
LINE
  5
C8
  8
PATTERN_FILL
  6
CONTINUOUS
 62
     7
 10
257.68255503714238
 20
421.60000000000002
 30
0.0
 11
254.68255503714241
 21
424.60000000000002
 31
0.0
  0
LINE
  5
C9
  8
PATTERN_FILL
  6
CONTINUOUS
 62
     7
 10
246.48255503714239
 20
432.80000000000001
 30
0.0
 11
243.48255503714239
 21
435.80000000000001
 31
0.0
  0
LINE
  5
CA
  8
PATTERN_FILL
  6
CONTINUOUS
 62
     7
 10
261.7825550371424
 20
416.0
 30
0.0
 11
258.7825550371424
 21
419.0
 31
0.0
  0
LINE
  5
CB
  8
PATTERN_FILL
  6
CONTINUOUS
 62
     7
 10
256.18255503714238
 20
421.60000000000002
 30
0.0
 11
253.18255503714241
 21
424.60000000000002
 31
0.0
  0
LINE
  5
CC
  8
PATTERN_FILL
  6
CONTINUOUS
 62
     7
 10
244.98255503714239
 20
432.80000000000001
 30
0.0
 11
241.98255503714239
 21
435.80000000000001
 31
0.0
  0
LINE
  5
CD
  8
PATTERN_FILL
  6
CONTINUOUS
 62
     7
 10
260.28255503714252
 20
416.0
 30
0.0
 11
257.28255503714252
 21
419.0
 31
0.0
  0
LINE
  5
CE
  8
PATTERN_FILL
  6
CONTINUOUS
 62
     7
 10
254.68255503714241
 20
421.60000000000002
 30
0.0
 11
253.0
 21
423.2825550371424
 31
0.0
  0
LINE
  5
CF
  8
PATTERN_FILL
  6
CONTINUOUS
 62
     7
 10
247.0
 20
429.2825550371424
 30
0.0
 11
246.08255503714241
 21
430.19999999999987
 31
0.0
  0
LINE
  5
D0
  8
PATTERN_FILL
  6
CONTINUOUS
 62
     7
 10
243.48255503714239
 20
432.80000000000001
 30
0.0
 11
240.48255503714239
 21
435.80000000000001
 31
0.0
  0
LINE
  5
D1
  8
PATTERN_FILL
  6
CONTINUOUS
 62
     7
 10
258.7825550371424
 20
416.0
 30
0.0
 11
255.78255503714249
 21
419.0
 31
0.0
  0
LINE
  5
D2
  8
PATTERN_FILL
  6
CONTINUOUS
 62
     7
 10
253.18255503714241
 20
421.60000000000002
 30
0.0
 11
253.0
 21
421.7825550371424
 31
0.0
  0
LINE
  5
D3
  8
PATTERN_FILL
  6
CONTINUOUS
 62
     7
 10
247.0
 20
427.78255503714229
 30
0.0
 11
244.58255503714241
 21
430.19999999999987
 31
0.0
  0
LINE
  5
D4
  8
PATTERN_FILL
  6
CONTINUOUS
 62
     7
 10
241.98255503714239
 20
432.80000000000001
 30
0.0
 11
238.98255503714239
 21
435.80000000000001
 31
0.0
  0
LINE
  5
D5
  8
PATTERN_FILL
  6
CONTINUOUS
 62
     7
 10
257.28255503714252
 20
416.0
 30
0.0
 11
254.28255503714249
 21
419.0
 31
0.0
  0
LINE
  5
D6
  8
PATTERN_FILL
  6
CONTINUOUS
 62
     7
 10
246.08255503714241
 20
427.19999999999999
 30
0.0
 11
243.08255503714241
 21
430.19999999999987
 31
0.0
  0
LINE
  5
D7
  8
PATTERN_FILL
  6
CONTINUOUS
 62
     7
 10
240.48255503714239
 20
432.80000000000001
 30
0.0
 11
237.5
 21
435.7825550371424
 31
0.0
  0
LINE
  5
D8
  8
PATTERN_FILL
  6
CONTINUOUS
 62
     7
 10
255.78255503714249
 20
416.0
 30
0.0
 11
253.0
 21
418.78255503714252
 31
0.0
  0
LINE
  5
D9
  8
PATTERN_FILL
  6
CONTINUOUS
 62
     7
 10
244.5825550371425
 20
427.19999999999999
 30
0.0
 11
241.58255503714241
 21
430.19999999999987
 31
0.0
  0
LINE
  5
DA
  8
PATTERN_FILL
  6
CONTINUOUS
 62
     7
 10
238.98255503714239
 20
432.80000000000001
 30
0.0
 11
237.5
 21
434.2825550371424
 31
0.0
  0
LINE
  5
DB
  8
PATTERN_FILL
  6
CONTINUOUS
 62
     7
 10
254.28255503714249
 20
416.0
 30
0.0
 11
253.0
 21
417.2825550371424
 31
0.0
  0
LINE
  5
DC
  8
PATTERN_FILL
  6
CONTINUOUS
 62
     7
 10
247.0
 20
423.2825550371424
 30
0.0
 11
245.68255503714249
 21
424.60000000000002
 31
0.0
  0
LINE
  5
DD
  8
PATTERN_FILL
  6
CONTINUOUS
 62
     7
 10
243.0825550371425
 20
427.19999999999999
 30
0.0
 11
240.0825550371425
 21
430.19999999999987
 31
0.0
  0
LINE
  5
DE
  8
PATTERN_FILL
  6
CONTINUOUS
 62
     7
 10
247.0
 20
421.7825550371424
 30
0.0
 11
244.18255503714249
 21
424.60000000000002
 31
0.0
  0
LINE
  5
DF
  8
PATTERN_FILL
  6
CONTINUOUS
 62
     7
 10
241.5825550371425
 20
427.19999999999999
 30
0.0
 11
238.58255503714241
 21
430.19999999999987
 31
0.0
  0
LINE
  5
E0
  8
PATTERN_FILL
  6
CONTINUOUS
 62
     7
 10
245.68255503714249
 20
421.60000000000002
 30
0.0
 11
242.68255503714249
 21
424.60000000000002
 31
0.0
  0
LINE
  5
E1
  8
PATTERN_FILL
  6
CONTINUOUS
 62
     7
 10
240.0825550371425
 20
427.19999999999999
 30
0.0
 11
237.5
 21
429.7825550371424
 31
0.0
  0
LINE
  5
E2
  8
PATTERN_FILL
  6
CONTINUOUS
 62
     7
 10
244.18255503714249
 20
421.60000000000002
 30
0.0
 11
241.18255503714249
 21
424.60000000000002
 31
0.0
  0
LINE
  5
E3
  8
PATTERN_FILL
  6
CONTINUOUS
 62
     7
 10
238.5825550371425
 20
427.19999999999999
 30
0.0
 11
237.5
 21
428.2825550371424
 31
0.0
  0
LINE
  5
E4
  8
PATTERN_FILL
  6
CONTINUOUS
 62
     7
 10
247.0
 20
417.2825550371424
 30
0.0
 11
245.28255503714249
 21
419.0
 31
0.0
  0
LINE
  5
E5
  8
PATTERN_FILL
  6
CONTINUOUS
 62
     7
 10
242.68255503714249
 20
421.60000000000002
 30
0.0
 11
239.68255503714249
 21
424.60000000000002
 31
0.0
  0
LINE
  5
E6
  8
PATTERN_FILL
  6
CONTINUOUS
 62
     7
 10
246.78255503714249
 20
416.0
 30
0.0
 11
243.78255503714249
 21
419.0
 31
0.0
  0
LINE
  5
E7
  8
PATTERN_FILL
  6
CONTINUOUS
 62
     7
 10
241.18255503714249
 20
421.60000000000002
 30
0.0
 11
238.18255503714249
 21
424.60000000000002
 31
0.0
  0
LINE
  5
E8
  8
PATTERN_FILL
  6
CONTINUOUS
 62
     7
 10
245.28255503714249
 20
416.0
 30
0.0
 11
242.28255503714249
 21
419.0
 31
0.0
  0
LINE
  5
E9
  8
PATTERN_FILL
  6
CONTINUOUS
 62
     7
 10
239.68255503714249
 20
421.60000000000002
 30
0.0
 11
237.5
 21
423.7825550371424
 31
0.0
  0
LINE
  5
EA
  8
PATTERN_FILL
  6
CONTINUOUS
 62
     7
 10
243.78255503714249
 20
416.0
 30
0.0
 11
240.78255503714249
 21
419.0
 31
0.0
  0
LINE
  5
EB
  8
PATTERN_FILL
  6
CONTINUOUS
 62
     7
 10
238.18255503714249
 20
421.60000000000002
 30
0.0
 11
237.5
 21
422.2825550371424
 31
0.0
  0
LINE
  5
EC
  8
PATTERN_FILL
  6
CONTINUOUS
 62
     7
 10
242.28255503714249
 20
416.0
 30
0.0
 11
239.28255503714249
 21
419.0
 31
0.0
  0
LINE
  5
ED
  8
PATTERN_FILL
  6
CONTINUOUS
 62
     7
 10
240.78255503714249
 20
416.0
 30
0.0
 11
237.78255503714249
 21
419.0
 31
0.0
  0
LINE
  5
EE
  8
PATTERN_FILL
  6
CONTINUOUS
 62
     7
 10
239.28255503714249
 20
416.0
 30
0.0
 11
237.5
 21
417.7825550371424
 31
0.0
  0
LINE
  5
EF
  8
PATTERN_FILL
  6
CONTINUOUS
 62
     7
 10
237.78255503714249
 20
416.0
 30
0.0
 11
237.5
 21
416.2825550371424
 31
0.0
  0
LINE
  5
F0
  8
PATTERN_FILL
  6
CONTINUOUS
 62
     7
 10
246.44999999999999
 20
430.19999999999987
 30
0.0
 11
243.44999999999999
 21
427.19999999999999
 31
0.0
  0
LINE
  5
F1
  8
PATTERN_FILL
  6
CONTINUOUS
 62
     7
 10
240.84999999999999
 20
424.60000000000002
 30
0.0
 11
237.84999999999999
 21
421.60000000000002
 31
0.0
  0
LINE
  5
F2
  8
SPEC
  6
CONTINUOUS
 62
     7
 10
52.5
 20
780.0
 30
0.0
 11
495.0
 21
780.0
 31
0.0
  0
LINE
  5
F3
  8
SPEC
  6
CONTINUOUS
 62
     7
 10
52.5
 20
768.75
 30
0.0
 11
495.0
 21
768.75
 31
0.0
  0
LINE
  5
F4
  8
SPEC
  6
CONTINUOUS
 62
     7
 10
52.5
 20
746.25
 30
0.0
 11
495.0
 21
746.25
 31
0.0
  0
LINE
  5
F5
  8
SPEC
  6
CONTINUOUS
 62
     7
 10
52.5
 20
757.5
 30
0.0
 11
495.0
 21
757.5
 31
0.0
  0
LINE
  5
F6
  8
SPEC
  6
CONTINUOUS
 62
     7
 10
52.5
 20
780.0
 30
0.0
 11
52.5
 21
667.49999999999989
 31
0.0
  0
TEXT
  5
F7
  8
SPEC
 62
     7
 10
56.25
 20
784.17980999999986
 30
0.0
 40
7.3297851562499989
  1
仕様
 41
0.7
 11
56.25
 21
791.50959515624982
 31
0.0
 73
     3
  0
LINE
  5
F8
  8
SPEC
  6
CONTINUOUS
 62
     7
 10
150.0
 20
780.0
 30
0.0
 11
149.99999999999989
 21
667.49999999999989
 31
0.0
  0
LINE
  5
F9
  8
SPEC
  6
CONTINUOUS
 62
     7
 10
495.0
 20
780.0
 30
0.0
 11
495.0
 21
667.49999999999989
 31
0.0
  0
LINE
  5
FA
  8
SPEC
  6
CONTINUOUS
 62
     7
 10
52.5
 20
735.0
 30
0.0
 11
495.0
 21
735.0
 31
0.0
  0
LINE
  5
FB
  8
SPEC
  6
CONTINUOUS
 62
     7
 10
52.5
 20
723.74999999999989
 30
0.0
 11
495.0
 21
723.74999999999989
 31
0.0
  0
LINE
  5
FC
  8
SPEC
  6
CONTINUOUS
 62
     7
 10
52.5
 20
712.5
 30
0.0
 11
495.0
 21
712.5
 31
0.0
  0
LINE
  5
FD
  8
SPEC
  6
CONTINUOUS
 62
     7
 10
52.5
 20
701.25
 30
0.0
 11
495.0
 21
701.25
 31
0.0
  0
LINE
  5
FE
  8
SPEC
  6
CONTINUOUS
 62
     7
 10
52.5
 20
690.0
 30
0.0
 11
495.0
 21
690.0
 31
0.0
  0
LINE
  5
FF
  8
SPEC
  6
CONTINUOUS
 62
     7
 10
52.5
 20
678.75
 30
0.0
 11
495.0
 21
678.75
 31
0.0
  0
LINE
  5
100
  8
SPEC
  6
CONTINUOUS
 62
     7
 10
52.5
 20
667.49999999999989
 30
0.0
 11
495.0
 21
667.49999999999989
 31
0.0
  0
TEXT
  5
101
  8
SPEC
 62
     7
 10
54.917767113049223
 20
681.89210343895445
 30
0.0
 40
5.7009440104166673
  1
寸法
 41
0.7
 11
54.917767113049223
 21
687.59304744937128
 31
0.0
 73
     3
  0
TEXT
  5
102
  8
SPEC
 62
     7
 10
152.70118072042689
 20
670.58678550957484
 30
0.0
 40
5.7009440104166673
  1
約280g
 41
0.7
 11
152.70118072042689
 21
676.28772951999144
 31
0.0
 73
     3
  0
TEXT
  5
103
  8
SPEC
 62
     7
 10
55.058088789692761
 20
670.56441788957409
 30
0.0
 40
5.7009440104166673
  1
重量
 41
0.7
 11
55.058088789692761
 21
676.26536189999081
 31
0.0
 73
     3
  0
TEXT
  5
104
  8
SPEC
 62
     7
 10
55.021384964519207
 20
771.36224943015941
 30
0.0
 40
5.7009440104166673
  1
形式
 41
0.7
 11
55.021384964519207
 21
777.06319344057613
 31
0.0
 73
     3
  0
TEXT
  5
105
  8
SPEC
 62
     7
 10
152.173281673632
 20
771.27158458902431
 30
0.0
 40
5.7009440104166673
  1
エレクトレットコンデンサ型 
 41
0.7
 11
152.173281673632
 21
776.97252859944103
 31
0.0
 73
     3
  0
TEXT
  5
106
  8
SPEC
 62
     7
 10
55.271476299452971
 20
760.21794648046261
 30
0.0
 40
5.7009440104166673
  1
周波数特性
 41
0.7
 11
55.271476299452971
 21
765.91889049087933
 31
0.0
 73
     3
  0
TEXT
  5
107
  8
SPEC
 62
     7
 10
152.8488012782696
 20
760.16533969790203
 30
0.0
 40
5.7009440104166673
  1
40Hz～16kHz
 41
0.7
 11
152.8488012782696
 21
765.86628370831875
 31
0.0
 73
     3
  0
TEXT
  5
108
  8
SPEC
 62
     7
 10
55.228396405226349
 20
748.90197618709055
 30
0.0
 40
5.7009440104166673
  1
指向特性
 41
0.7
 11
55.228396405226349
 21
754.60292019750716
 31
0.0
 73
     3
  0
TEXT
  5
109
  8
SPEC
 62
     7
 10
152.13596160962319
 20
748.94147655554332
 30
0.0
 40
5.7009440104166673
  1
カーディオイド
 41
0.7
 11
152.13596160962319
 21
754.64242056596004
 31
0.0
 73
     3
  0
TEXT
  5
10A
  8
SPEC
 62
     7
 10
54.816535604515302
 20
737.82708538131362
 30
0.0
 40
5.7009440104166673
  1
出力レベル(@1kHz)
 41
0.7
 11
54.816535604515302
 21
743.52802939173034
 31
0.0
 73
     3
  0
TEXT
  5
10B
  8
SPEC
 62
     7
 10
152.9189758263748
 20
737.36145461114268
 30
0.0
 40
5.7009440104166673
  1
-49dB re 1V/Pa(ファンタ ム電源)、-50dB re 1V/Pa(乾電池) *1Pa=94dB
 41
0.7
 11
152.9189758263748
 21
743.0623986215594
 31
0.0
 73
     3
  0
TEXT
  5
10C
  8
SPEC
 62
     7
 10
54.816101090710362
 20
726.66025174428728
 30
0.0
 40
5.7009440104166673
  1
インピーダンス
 41
0.7
 11
54.816101090710362
 21
732.361195754704
 31
0.0
 73
     3
  0
TEXT
  5
10D
  8
SPEC
 62
     7
 10
152.31237538471211
 20
726.21196004491446
 30
0.0
 40
5.7009440104166673
  1
150\U+03A9
 41
0.7
 11
152.31237538471211
 21
731.91290405533118
 31
0.0
 73
     3
  0
TEXT
  5
10E
  8
SPEC
 62
     7
 10
55.155854745819639
 20
715.51116494933933
 30
0.0
 40
5.7009440104166673
  1
外装色
 41
0.7
 11
55.155854745819639
 21
721.21210895975605
 31
0.0
 73
     3
  0
TEXT
  5
10F
  8
SPEC
 62
     7
 10
151.78469622156399
 20
715.19074640377721
 30
0.0
 40
5.7009440104166673
  1
ブラック
 41
0.7
 11
151.78469622156399
 21
720.89169041419393
 31
0.0
 73
     3
  0
TEXT
  5
110
  8
SPEC
 62
     7
 10
54.976234918444959
 20
704.24649142957355
 30
0.0
 40
5.7009440104166673
  1
電源
 41
0.7
 11
54.976234918444959
 21
709.94743543999027
 31
0.0
 73
     3
  0
TEXT
  5
111
  8
SPEC
 62
     7
 10
151.7929738535648
 20
704.46003883593153
 30
0.0
 40
5.7009440104166673
  1
ファンタムDC11～52V/1.0～1.2mAまたは単3形アルカリ乾電池x1
 41
0.7
 11
151.7929738535648
 21
710.16098284634825
 31
0.0
 73
     3
  0
TEXT
  5
112
  8
SPEC
 62
     7
 10
54.720228942201921
 20
692.80929495794101
 30
0.0
 40
5.7009440104166673
  1
出力コネクタ 
 41
0.7
 11
54.720228942201921
 21
698.51023896835773
 31
0.0
 73
     3
  0
TEXT
  5
113
  8
SPEC
 62
     7
 10
152.7630809442482
 20
692.60251323586442
 30
0.0
 40
5.7009440104166673
  1
XLR3ピン、オス
 41
0.7
 11
152.7630809442482
 21
698.30345724628114
 31
0.0
 73
     3
  0
TEXT
  5
114
  8
SPEC
 62
     7
 10
151.53809062584469
 20
681.63083406777434
 30
0.0
 40
5.7009440104166673
  1
\U+03C628\U+00D7全長191mm
 41
0.7
 11
151.53809062584469
 21
687.33177807819118
 31
0.0
 73
     3
  0
TEXT
  5
115
  8
DIMNSIONS
 62
     7
 10
240.0
 20
66.808470000000028
 30
0.0
 40
7.3297851562499989
  1
(単位：mm)
 41
0.7
 11
240.0
 21
74.138255156250025
 31
0.0
 73
     3
  0
LINE
  5
116
  8
DIMNSIONS
  6
CONTINUOUS
 62
     7
 10
257.20294057598539
 20
512.00490095997554
 30
0.0
 11
268.75
 21
531.25
 31
0.0
  0
LINE
  5
117
  8
DIMNSIONS
  6
CONTINUOUS
 62
     7
 10
257.20294057598539
 20
512.00490095997554
 30
0.0
 11
259.34367945423378
 21
519.47054464447126
 31
0.0
  0
LINE
  5
118
  8
DIMNSIONS
  6
CONTINUOUS
 62
     7
 10
257.20294057598539
 20
512.00490095997554
 30
0.0
 11
262.78969666966537
 21
517.39996860722761
 31
0.0
  0
LINE
  5
119
  8
DIMNSIONS
  6
CONTINUOUS
 62
     7
 10
268.75
 20
531.25
 30
0.0
 11
295.91666666666657
 21
531.25
 31
0.0
  0
TEXT
  5
11A
  8
DIMNSIONS
 62
     7
 10
274.75
 20
534.23166666666668
 30
0.0
 40
8.1442057291666661
  1
\U+03C628
 41
0.7
 11
274.75
 21
542.37587239583331
 31
0.0
 73
     3
  0
LINE
  5
11B
  8
DIMNSIONS
  6
CONTINUOUS
 62
     7
 10
231.90000000000001
 20
399.0
 30
0.0
 11
212.75
 21
399.0
 31
0.0
  0
LINE
  5
11C
  8
DIMNSIONS
  6
CONTINUOUS
 62
     7
 10
233.0
 20
250.0
 30
0.0
 11
212.75
 21
250.0
 31
0.0
  0
LINE
  5
11D
  8
DIMNSIONS
  6
CONTINUOUS
 62
     7
 10
218.75
 20
399.0
 30
0.0
 11
218.75
 21
250.0
 31
0.0
  0
LINE
  5
11E
  8
DIMNSIONS
  6
CONTINUOUS
 62
     7
 10
218.75
 20
399.0
 30
0.0
 11
220.76011938545071
 21
391.49813232421877
 31
0.0
  0
LINE
  5
11F
  8
DIMNSIONS
  6
CONTINUOUS
 62
     7
 10
218.75
 20
399.0
 30
0.0
 11
216.73988061454929
 21
391.49813232421877
 31
0.0
  0
LINE
  5
120
  8
DIMNSIONS
  6
CONTINUOUS
 62
     7
 10
218.75
 20
250.0
 30
0.0
 11
216.73988061454929
 21
257.50186767578123
 31
0.0
  0
LINE
  5
121
  8
DIMNSIONS
  6
CONTINUOUS
 62
     7
 10
218.75
 20
250.0
 30
0.0
 11
220.76011938545071
 21
257.50186767578123
 31
0.0
  0
TEXT
  5
122
  8
DIMNSIONS
 62
     7
 10
215.76833333333329
 20
316.5625
 30
0.0
 40
8.1442057291666661
  1
149
 50
90.0
 41
0.7
 11
207.6241276041666
 21
316.5625
 31
0.0
 73
     3
  0
LINE
  5
123
  8
DIMNSIONS
  6
CONTINUOUS
 62
     7
 10
233.0
 20
250.0
 30
0.0
 11
194.0
 21
250.0
 31
0.0
  0
LINE
  5
124
  8
DIMNSIONS
  6
CONTINUOUS
 62
     7
 10
234.0
 20
441.0
 30
0.0
 11
194.0
 21
441.0
 31
0.0
  0
LINE
  5
125
  8
DIMNSIONS
  6
CONTINUOUS
 62
     7
 10
200.0
 20
250.0
 30
0.0
 11
200.0
 21
441.0
 31
0.0
  0
LINE
  5
126
  8
DIMNSIONS
  6
CONTINUOUS
 62
     7
 10
200.0
 20
250.0
 30
0.0
 11
197.98988061454929
 21
257.50186767578123
 31
0.0
  0
LINE
  5
127
  8
DIMNSIONS
  6
CONTINUOUS
 62
     7
 10
200.0
 20
250.0
 30
0.0
 11
202.01011938545071
 21
257.50186767578123
 31
0.0
  0
LINE
  5
128
  8
DIMNSIONS
  6
CONTINUOUS
 62
     7
 10
200.0
 20
441.0
 30
0.0
 11
202.01011938545071
 21
433.49813232421877
 31
0.0
  0
LINE
  5
129
  8
DIMNSIONS
  6
CONTINUOUS
 62
     7
 10
200.0
 20
441.0
 30
0.0
 11
197.98988061454929
 21
433.49813232421877
 31
0.0
  0
TEXT
  5
12A
  8
DIMNSIONS
 62
     7
 10
197.01833333333329
 20
337.5625
 30
0.0
 40
8.1442057291666661
  1
191
 50
90.0
 41
0.7
 11
188.8741276041666
 21
337.5625
 31
0.0
 73
     3
  0
LINE
  5
12B
  8
DIMNSIONS
  6
CONTINUOUS
 62
     7
 10
257.19999999999999
 20
209.59999999999999
 30
0.0
 11
268.75
 21
225.0
 31
0.0
  0
LINE
  5
12C
  8
DIMNSIONS
  6
CONTINUOUS
 62
     7
 10
257.19999999999999
 20
209.59999999999999
 30
0.0
 11
260.10938394832851
 21
216.80097796204819
 31
0.0
  0
LINE
  5
12D
  8
DIMNSIONS
  6
CONTINUOUS
 62
     7
 10
257.19999999999999
 20
209.59999999999999
 30
0.0
 11
263.32008938963929
 21
214.3815378730614
 31
0.0
  0
LINE
  5
12E
  8
DIMNSIONS
  6
CONTINUOUS
 62
     7
 10
268.75
 20
225.0
 30
0.0
 11
295.91666666666669
 21
225.0
 31
0.0
  0
TEXT
  5
12F
  8
DIMNSIONS
 62
     7
 10
274.75
 20
227.98166666666671
 30
0.0
 40
8.1442057291666661
  1
\U+03C624
 41
0.7
 11
274.75
 21
236.12587239583331
 31
0.0
 73
     3
  0
TEXT
  5
130
  8
DATA
 62
     7
 10
449.99999999999989
 20
62.64445777100714
 30
0.0
 40
7.3297851562499989
  1
SM94-LC
 41
0.7
 11
449.99999999999989
 21
69.974242927257137
 31
0.0
 73
     3
  0
TEXT
  5
131
  8
DATA
 62
     7
 10
449.99999999999989
 20
85.142670000000024
 30
0.0
 40
7.3297851562499989
  1
SHURE
 41
0.7
 11
449.99999999999989
 21
92.472455156250007
 31
0.0
 73
     3
  0
TEXT
  5
132
  8
DATA
 62
     7
 10
443.95755282335023
 20
74.768407285196801
 30
0.0
 40
4.8865311328124994
  1
エレクトレットコンデンサー型 
 41
0.7
 11
443.95755282335023
 21
79.654938418009294
 31
0.0
 73
     3
  0
TEXT
  5
133
  8
DATA
 62
     7
 10
60.0
 20
42.713999999999977
 30
0.0
 40
4.8865234374999993
  1
仕様および外観は予告なく変更されることがありますので、ご了承ください。
 41
0.7
 11
60.0
 21
47.600523437499987
 31
0.0
 73
     3
  0
CIRCLE
  5
134
  8
DATA
  6
CONTINUOUS
 62
     7
 10
250.0
 20
500.0
 30
0.0
 40
14.0
  0
LINE
  5
135
  8
DATA
  6
CONTINUOUS
 62
     7
 10
237.90000000000001
 20
252.0
 30
0.0
 11
237.90000000000001
 21
399.0
 31
0.0
  0
LINE
  5
136
  8
DATA
  6
CONTINUOUS
 62
     7
 10
261.0
 20
250.0
 30
0.0
 11
239.0
 21
250.0
 31
0.0
  0
LINE
  5
137
  8
DATA
  6
CONTINUOUS
 62
     7
 10
262.10000000000002
 20
399.0
 30
0.0
 11
262.10000000000002
 21
252.0
 31
0.0
  0
LINE
  5
138
  8
DATA
  6
CONTINUOUS
 62
     7
 10
237.90000000000001
 20
399.0
 30
0.0
 11
262.10000000000002
 21
399.0
 31
0.0
  0
LINE
  5
139
  8
DATA
  6
CONTINUOUS
 62
     7
 10
240.0
 20
441.0
 30
0.0
 11
260.0
 21
441.0
 31
0.0
  0
LINE
  5
13A
  8
DATA
  6
CONTINUOUS
 62
     7
 10
236.0
 20
411.0
 30
0.0
 11
264.0
 21
411.0
 31
0.0
  0
LINE
  5
13B
  8
DATA
  6
CONTINUOUS
 62
     7
 10
236.0
 20
438.7999999999999
 30
0.0
 11
236.0
 21
411.0
 31
0.0
  0
LINE
  5
13C
  8
DATA
  6
CONTINUOUS
 62
     7
 10
264.0
 20
438.7999999999999
 30
0.0
 11
264.0
 21
411.0
 31
0.0
  0
LINE
  5
13D
  8
DATA
  6
CONTINUOUS
 62
     7
 10
238.5
 20
440.80000000000001
 30
0.0
 11
261.5
 21
440.80000000000001
 31
0.0
  0
LINE
  5
13E
  8
DATA
  6
CONTINUOUS
 62
     7
 10
236.0
 20
438.7999999999999
 30
0.0
 11
264.0
 21
438.7999999999999
 31
0.0
  0
LINE
  5
13F
  8
DATA
  6
CONTINUOUS
 62
     7
 10
236.0
 20
438.7999999999999
 30
0.0
 11
238.5
 21
440.80000000000001
 31
0.0
  0
LINE
  5
140
  8
DATA
  6
CONTINUOUS
 62
     7
 10
264.0
 20
438.7999999999999
 30
0.0
 11
261.5
 21
440.80000000000001
 31
0.0
  0
LINE
  5
141
  8
DATA
  6
CONTINUOUS
 62
     7
 10
240.0
 20
440.80000000000001
 30
0.0
 11
240.0
 21
441.0
 31
0.0
  0
LINE
  5
142
  8
DATA
  6
CONTINUOUS
 62
     7
 10
260.0
 20
441.0
 30
0.0
 11
260.0
 21
440.80000000000001
 31
0.0
  0
LINE
  5
143
  8
DATA
  6
CONTINUOUS
 62
     7
 10
237.90000000000001
 20
399.0
 30
0.0
 11
236.0
 21
411.0
 31
0.0
  0
LINE
  5
144
  8
DATA
  6
CONTINUOUS
 62
     7
 10
262.10000000000002
 20
399.0
 30
0.0
 11
264.0
 21
411.0
 31
0.0
  0
LINE
  5
145
  8
DATA
  6
CONTINUOUS
 62
     7
 10
236.0
 20
416.0
 30
0.0
 11
264.0
 21
416.0
 31
0.0
  0
LINE
  5
146
  8
DATA
  6
CONTINUOUS
 62
     7
 10
236.0
 20
419.0
 30
0.0
 11
264.0
 21
419.0
 31
0.0
  0
LINE
  5
147
  8
DATA
  6
CONTINUOUS
 62
     7
 10
236.0
 20
421.60000000000002
 30
0.0
 11
264.0
 21
421.60000000000002
 31
0.0
  0
LINE
  5
148
  8
DATA
  6
CONTINUOUS
 62
     7
 10
236.0
 20
424.60000000000002
 30
0.0
 11
264.0
 21
424.60000000000002
 31
0.0
  0
LINE
  5
149
  8
DATA
  6
CONTINUOUS
 62
     7
 10
236.0
 20
427.19999999999999
 30
0.0
 11
264.0
 21
427.19999999999999
 31
0.0
  0
LINE
  5
14A
  8
DATA
  6
CONTINUOUS
 62
     7
 10
236.0
 20
430.19999999999987
 30
0.0
 11
264.0
 21
430.19999999999987
 31
0.0
  0
LINE
  5
14B
  8
DATA
  6
CONTINUOUS
 62
     7
 10
236.0
 20
432.80000000000001
 30
0.0
 11
264.0
 21
432.80000000000001
 31
0.0
  0
LINE
  5
14C
  8
DATA
  6
CONTINUOUS
 62
     7
 10
236.0
 20
435.80000000000001
 30
0.0
 11
264.0
 21
435.80000000000001
 31
0.0
  0
CIRCLE
  5
14D
  8
DATA
  6
CONTINUOUS
 62
     7
 10
250.0
 20
385.0
 30
0.0
 40
2.5
  0
LINE
  5
14E
  8
DATA
  6
CONTINUOUS
 62
     7
 10
248.7625631329235
 20
383.76256313292367
 30
0.0
 11
251.2374368670765
 21
386.2374368670765
 31
0.0
  0
LINE
  5
14F
  8
DATA
  6
CONTINUOUS
 62
     7
 10
251.2374368670765
 20
383.76256313292367
 30
0.0
 11
248.7625631329235
 21
386.2374368670765
 31
0.0
  0
LINE
  5
150
  8
DATA
  6
CONTINUOUS
 62
     7
 10
262.10000000000002
 20
252.0
 30
0.0
 11
237.90000000000001
 21
252.0
 31
0.0
  0
LINE
  5
151
  8
DATA
  6
CONTINUOUS
 62
     7
 10
239.0
 20
250.0
 30
0.0
 11
237.90000000000001
 21
252.0
 31
0.0
  0
LINE
  5
152
  8
DATA
  6
CONTINUOUS
 62
     7
 10
261.0
 20
250.0
 30
0.0
 11
262.10000000000002
 21
252.0
 31
0.0
  0
LINE
  5
153
  8
DATA
  6
CONTINUOUS
 62
     7
 10
262.10000000000002
 20
364.0
 30
0.0
 11
237.90000000000001
 21
364.0
 31
0.0
  0
LINE
  5
154
  8
DATA
  6
CONTINUOUS
 62
     7
 10
262.10000000000002
 20
371.0
 30
0.0
 11
237.90000000000001
 21
371.0
 31
0.0
  0
TEXT
  5
155
  8
DATA
 62
     7
 10
238.4405539490902
 20
365.78816067232339
 30
0.0
 40
3.7041666666666648
  1
SHURE SM94
 41
0.7
 11
238.4405539490902
 21
369.49232733898998
 31
0.0
 73
     3
  0
LINE
  5
156
  8
DATA
  6
CONTINUOUS
 62
     7
 10
247.0
 20
416.0
 30
0.0
 11
247.0
 21
419.0
 31
0.0
  0
LINE
  5
157
  8
DATA
  6
CONTINUOUS
 62
     7
 10
247.0
 20
421.60000000000002
 30
0.0
 11
247.0
 21
424.60000000000002
 31
0.0
  0
LINE
  5
158
  8
DATA
  6
CONTINUOUS
 62
     7
 10
247.0
 20
427.19999999999999
 30
0.0
 11
247.0
 21
430.19999999999987
 31
0.0
  0
LINE
  5
159
  8
DATA
  6
CONTINUOUS
 62
     7
 10
247.0
 20
432.80000000000001
 30
0.0
 11
247.0
 21
435.80000000000001
 31
0.0
  0
LINE
  5
15A
  8
DATA
  6
CONTINUOUS
 62
     7
 10
253.0
 20
435.80000000000001
 30
0.0
 11
253.0
 21
432.80000000000001
 31
0.0
  0
LINE
  5
15B
  8
DATA
  6
CONTINUOUS
 62
     7
 10
253.0
 20
430.19999999999987
 30
0.0
 11
253.0
 21
427.19999999999999
 31
0.0
  0
LINE
  5
15C
  8
DATA
  6
CONTINUOUS
 62
     7
 10
253.0
 20
424.60000000000002
 30
0.0
 11
253.0
 21
421.60000000000002
 31
0.0
  0
LINE
  5
15D
  8
DATA
  6
CONTINUOUS
 62
     7
 10
253.0
 20
419.0
 30
0.0
 11
253.0
 21
416.0
 31
0.0
  0
LINE
  5
15E
  8
DATA
  6
CONTINUOUS
 62
     7
 10
237.5
 20
416.0
 30
0.0
 11
237.5
 21
419.0
 31
0.0
  0
LINE
  5
15F
  8
DATA
  6
CONTINUOUS
 62
     7
 10
237.5
 20
421.60000000000002
 30
0.0
 11
237.5
 21
424.60000000000002
 31
0.0
  0
LINE
  5
160
  8
DATA
  6
CONTINUOUS
 62
     7
 10
237.5
 20
427.19999999999999
 30
0.0
 11
237.5
 21
430.19999999999987
 31
0.0
  0
LINE
  5
161
  8
DATA
  6
CONTINUOUS
 62
     7
 10
237.5
 20
432.80000000000001
 30
0.0
 11
237.5
 21
435.80000000000001
 31
0.0
  0
LINE
  5
162
  8
DATA
  6
CONTINUOUS
 62
     7
 10
262.5
 20
416.0
 30
0.0
 11
262.5
 21
419.0
 31
0.0
  0
LINE
  5
163
  8
DATA
  6
CONTINUOUS
 62
     7
 10
262.5
 20
421.60000000000002
 30
0.0
 11
262.5
 21
424.60000000000002
 31
0.0
  0
LINE
  5
164
  8
DATA
  6
CONTINUOUS
 62
     7
 10
262.5
 20
427.19999999999999
 30
0.0
 11
262.5
 21
430.19999999999987
 31
0.0
  0
LINE
  5
165
  8
DATA
  6
CONTINUOUS
 62
     7
 10
262.5
 20
432.80000000000001
 30
0.0
 11
262.5
 21
435.80000000000001
 31
0.0
  0
CIRCLE
  5
166
  8
DATA
  6
CONTINUOUS
 62
     7
 10
250.0
 20
200.0
 30
0.0
 40
12.0
  0
CIRCLE
  5
167
  8
DATA
  6
CONTINUOUS
 62
     7
 10
250.0
 20
200.0
 30
0.0
 40
10.999999999999989
  0
ARC
  5
168
  8
DATA
  6
CONTINUOUS
 62
     7
 10
250.0
 20
200.0
 30
0.0
 40
8.0000000000000657
 50
65.349552524639861
 51
57.116300776708933
  0
CIRCLE
  5
169
  8
DATA
  6
CONTINUOUS
 62
     7
 10
250.0
 20
196.0
 30
0.0
 40
1.200000000000002
  0
CIRCLE
  5
16A
  8
DATA
  6
CONTINUOUS
 62
     7
 10
246.0
 20
200.0
 30
0.0
 40
1.200000000000002
  0
CIRCLE
  5
16B
  8
DATA
  6
CONTINUOUS
 62
     7
 10
254.0
 20
200.0
 30
0.0
 40
1.200000000000002
  0
ARC
  5
16C
  8
DATA
  6
CONTINUOUS
 62
     7
 10
253.84999999999999
 20
207.0126671103082
 30
0.0
 40
0.5746657793836871
 50
329.17461371370092
 51
153.2912395876474
  0
POLYLINE
  5
16D
  8
DATA
  6
CONTINUOUS
 62
     7
 66
     1
 10
0.0
 20
0.0
 30
0.0
 70
     1
  0
VERTEX
  5
21D
  8
DATA
  6
CONTINUOUS
 62
     7
 10
247.0
 20
205.48021523547411
 30
0.0
  0
VERTEX
  5
21E
  8
DATA
  6
CONTINUOUS
 62
     7
 10
253.0
 20
205.48021523547411
 30
0.0
  0
VERTEX
  5
21F
  8
DATA
  6
CONTINUOUS
 62
     7
 10
253.0
 20
204.48021523547411
 30
0.0
  0
VERTEX
  5
220
  8
DATA
  6
CONTINUOUS
 62
     7
 10
247.0
 20
204.48021523547411
 30
0.0
  0
SEQEND
  5
221
  8
DATA
  6
CONTINUOUS
 62
     7
  0
CIRCLE
  5
174
  8
DATA
  6
CONTINUOUS
 62
     7
 10
250.0
 20
500.0
 30
0.0
 40
10.0
  0
ENDSEC
  0
EOF
