  0
SECTION
  2
HEADER
  9
$ACADVER
  1
AC1009
  9
$INSBASE
 10
0.0
 20
0.0
 30
0.0
  9
$EXTMIN
 10
-260.02196097928459
 20
-399.89217451641349
 30
-0.0015258207003583
  9
$EXTMAX
 10
460.0219643320458
 20
670.62806302742274
 30
0.0000000349246037
  9
$LIMMIN
 10
0.0
 20
0.0
  9
$LIMMAX
 10
0.0
 20
0.0
  9
$ORTHOMODE
 70
     0
  9
$REGENMODE
 70
     1
  9
$FILLMODE
 70
     1
  9
$QTEXTMODE
 70
     0
  9
$MIRRTEXT
 70
     1
  9
$DRAGMODE
 70
     2
  9
$LTSCALE
 40
20.32
  9
$OSMODE
 70
   231
  9
$ATTMODE
 70
     1
  9
$TEXTSIZE
 40
0.0
  9
$TRACEWID
 40
1.0
  9
$TEXTSTYLE
  7
STANDARD
  9
$CLAYER
  8
DATA
  9
$CELTYPE
  6
CONTINUOUS
  9
$CECOLOR
 62
   256
  9
$DIMSCALE
 40
1.0
  9
$DIMASZ
 40
0.18
  9
$DIMEXO
 40
0.0625
  9
$DIMDLI
 40
0.38
  9
$DIMRND
 40
0.0
  9
$DIMDLE
 40
0.0
  9
$DIMEXE
 40
0.18
  9
$DIMTP
 40
0.0
  9
$DIMTM
 40
0.0
  9
$DIMTXT
 40
0.18
  9
$DIMCEN
 40
0.09
  9
$DIMTSZ
 40
0.0
  9
$DIMTOL
 70
     0
  9
$DIMLIM
 70
     0
  9
$DIMTIH
 70
     1
  9
$DIMTOH
 70
     1
  9
$DIMSE1
 70
     0
  9
$DIMSE2
 70
     0
  9
$DIMTAD
 70
     0
  9
$DIMZIN
 70
     0
  9
$DIMBLK
  1

  9
$DIMASO
 70
     1
  9
$DIMSHO
 70
     1
  9
$DIMPOST
  1

  9
$DIMAPOST
  1

  9
$DIMALT
 70
     0
  9
$DIMALTD
 70
     2
  9
$DIMALTF
 40
25.399999999999999
  9
$DIMLFAC
 40
1.0
  9
$DIMTOFL
 70
     0
  9
$DIMTVP
 40
0.0
  9
$DIMTIX
 70
     0
  9
$DIMSOXD
 70
     0
  9
$DIMSAH
 70
     0
  9
$DIMBLK1
  1

  9
$DIMBLK2
  1

  9
$DIMSTYLE
  2
STANDARD
  9
$DIMCLRD
 70
     0
  9
$DIMCLRE
 70
     0
  9
$DIMCLRT
 70
     0
  9
$DIMTFAC
 40
1.0
  9
$DIMGAP
 40
0.09
  9
$LUNITS
 70
     2
  9
$LUPREC
 70
     4
  9
$SKETCHINC
 40
0.1
  9
$FILLETRAD
 40
0.0
  9
$AUNITS
 70
     0
  9
$AUPREC
 70
     0
  9
$MENU
  1
acad
  9
$ELEVATION
 40
0.0
  9
$PELEVATION
 40
0.0
  9
$THICKNESS
 40
0.0
  9
$LIMCHECK
 70
     0
  9
$BLIPMODE
 70
     0
  9
$CHAMFERA
 40
0.0
  9
$CHAMFERB
 40
0.0
  9
$SKPOLY
 70
     0
  9
$TDCREATE
 40
2453875.5984259262
  9
$TDUPDATE
 40
2453875.5992737389
  9
$TDINDWG
 40
0.0002738194
  9
$TDUSRTIMER
 40
0.0002718403
  9
$USRTIMER
 70
     1
  9
$ANGBASE
 50
0.0
  9
$ANGDIR
 70
     0
  9
$PDMODE
 70
     1
  9
$PDSIZE
 40
-2.0
  9
$PLINEWID
 40
0.0
  9
$COORDS
 70
     1
  9
$SPLFRAME
 70
     0
  9
$SPLINETYPE
 70
     6
  9
$SPLINESEGS
 70
     8
  9
$ATTDIA
 70
     0
  9
$ATTREQ
 70
     1
  9
$HANDLING
 70
     1
  9
$HANDSEED
  5
6AC
  9
$SURFTAB1
 70
     6
  9
$SURFTAB2
 70
     6
  9
$SURFTYPE
 70
     6
  9
$SURFU
 70
     6
  9
$SURFV
 70
     6
  9
$UCSNAME
  2

  9
$UCSORG
 10
0.0
 20
0.0
 30
0.0
  9
$UCSXDIR
 10
1.0
 20
0.0
 30
0.0
  9
$UCSYDIR
 10
0.0
 20
1.0
 30
0.0
  9
$PUCSNAME
  2

  9
$PUCSORG
 10
0.0
 20
0.0
 30
0.0
  9
$PUCSXDIR
 10
1.0
 20
0.0
 30
0.0
  9
$PUCSYDIR
 10
0.0
 20
1.0
 30
0.0
  9
$USERI1
 70
     0
  9
$USERI2
 70
     0
  9
$USERI3
 70
     0
  9
$USERI4
 70
     0
  9
$USERI5
 70
     0
  9
$USERR1
 40
0.0
  9
$USERR2
 40
0.0
  9
$USERR3
 40
0.0
  9
$USERR4
 40
0.0
  9
$USERR5
 40
0.0
  9
$WORLDVIEW
 70
     1
  9
$SHADEDGE
 70
     3
  9
$SHADEDIF
 70
    70
  9
$TILEMODE
 70
     1
  9
$MAXACTVP
 70
    64
  9
$PLIMCHECK
 70
     0
  9
$PEXTMIN
 10
1.0000000000000000E+020
 20
1.0000000000000000E+020
 30
1.0000000000000000E+020
  9
$PEXTMAX
 10
-1.0000000000000000E+020
 20
-1.0000000000000000E+020
 30
-1.0000000000000000E+020
  9
$PLIMMIN
 10
0.0
 20
0.0
  9
$PLIMMAX
 10
12.0
 20
9.0
  9
$UNITMODE
 70
     0
  9
$VISRETAIN
 70
     0
  9
$PLINEGEN
 70
     1
  9
$PSLTSCALE
 70
     0
  0
ENDSEC
  0
SECTION
  2
TABLES
  0
TABLE
  2
VPORT
 70
     1
  0
VPORT
  2
*ACTIVE
 70
     0
 10
0.0
 20
0.0
 11
1.0
 21
1.0
 12
100.00000167638061
 22
135.3679442555046
 13
0.0
 23
0.0
 14
1.0
 24
1.0
 15
0.0
 25
0.0
 16
0.0
 26
0.0
 36
1.0
 17
0.0
 27
0.0
 37
0.0
 40
1079.4042229176439
 41
1.6703601108033239
 42
50.0
 43
0.0
 44
0.0
 50
0.0
 51
0.0
 71
     0
 72
  2000
 73
     1
 74
     1
 75
     0
 76
     0
 77
     0
 78
     0
  0
ENDTAB
  0
TABLE
  2
LTYPE
 70
    11
  0
LTYPE
  2
CONTINUOUS
 70
     0
  3
Solid line
 72
    65
 73
     0
 40
0.0
  0
ENDTAB
  0
TABLE
  2
LAYER
 70
     5
  0
LAYER
  2
0
 70
     0
 62
     7
  6
CONTINUOUS
  0
LAYER
  2
DATA
 70
     0
 62
     7
  6
CONTINUOUS
  0
LAYER
  2
HIBINO-BASE
 70
     0
 62
     7
  6
CONTINUOUS
  0
LAYER
  2
SPEC
 70
     0
 62
     7
  6
CONTINUOUS
  0
LAYER
  2
DIMNSIONS
 70
     0
 62
     7
  6
CONTINUOUS
  0
ENDTAB
  0
TABLE
  2
STYLE
 70
     2
  0
STYLE
  2
STANDARD
 70
     0
 40
0.0
 41
1.0
 50
0.0
 71
     0
 42
0.0
  3
txt
  4
BIGFONT.SHX
  0
ENDTAB
  0
TABLE
  2
VIEW
 70
     0
  0
ENDTAB
  0
TABLE
  2
UCS
 70
     0
  0
ENDTAB
  0
TABLE
  2
APPID
 70
     1
  0
APPID
  2
ACAD
 70
     0
  0
ENDTAB
  0
TABLE
  2
DIMSTYLE
 70
     1
  0
DIMSTYLE
  2
STANDARD
 70
     0
  3

  4

  5

  6

  7

 40
1.0
 41
0.18
 42
0.0625
 43
0.38
 44
0.18
 45
0.0
 46
0.0
 47
0.0
 48
0.0
140
0.18
141
0.09
142
0.0
143
25.399999999999999
144
1.0
145
0.0
146
1.0
147
0.09
 71
     0
 72
     0
 73
     1
 74
     1
 75
     0
 76
     0
 77
     0
 78
     0
170
     0
171
     2
172
     0
173
     0
174
     0
175
     0
176
     0
177
     0
178
     0
  0
ENDTAB
  0
ENDSEC
  0
SECTION
  2
BLOCKS
  0
BLOCK
  8
0
  2
$MODEL_SPACE
 70
     0
 10
0.0
 20
0.0
 30
0.0
  3
$MODEL_SPACE
  1

  0
ENDBLK
  5
4B9
  8
0
  0
BLOCK
 67
     1
  8
0
  2
$PAPER_SPACE
 70
     0
 10
0.0
 20
0.0
 30
0.0
  3
$PAPER_SPACE
  1

  0
ENDBLK
  5
4B5
 67
     1
  8
0
  0
ENDSEC
  0
SECTION
  2
ENTITIES
  0
LINE
  5
2C
  8
HIBINO-BASE
  6
CONTINUOUS
 62
     7
 10
-259.99999000000003
 20
670.59546
 30
0.0
 11
459.99999000000003
 21
670.59546
 31
0.0
  0
LINE
  5
2D
  8
HIBINO-BASE
  6
CONTINUOUS
 62
     7
 10
459.99999000000003
 20
-369.40453000000002
 30
0.0
 11
-259.99999000000003
 21
-369.40453000000002
 31
0.0
  0
LINE
  5
2E
  8
HIBINO-BASE
  6
CONTINUOUS
 62
     7
 10
-259.99999000000003
 20
-369.40453000000002
 30
0.0
 11
-259.99999000000003
 21
670.59546
 31
0.0
  0
TEXT
  5
2F
  8
HIBINO-BASE
 62
     7
 10
-231.26399000000001
 20
-395.03923259999988
 30
0.0
 40
14.400169023437501
  1
Hibino Corporation
 41
0.8
 11
-231.26399000000001
 21
-380.63906357656231
 31
0.0
 73
     3
  0
LINE
  5
30
  8
HIBINO-BASE
  6
CONTINUOUS
 62
     7
 10
459.99999000000003
 20
670.59546
 30
0.0
 11
459.99999000000003
 21
-369.40453000000002
 31
0.0
  0
LINE
  5
31
  8
HIBINO-BASE
  6
CONTINUOUS
 62
     7
 10
100.0
 20
-279.40453000000002
 30
0.0
 11
459.99999000000003
 21
-279.40453000000002
 31
0.0
  0
LINE
  5
32
  8
HIBINO-BASE
  6
CONTINUOUS
 62
     7
 10
100.0
 20
-369.40453000000002
 30
0.0
 11
100.0
 21
-279.40453000000002
 31
0.0
  0
TEXT
  5
33
  8
HIBINO-BASE
 62
     7
 10
103.59999000000001
 20
-290.20454280000001
 30
0.0
 40
7.2001037500000002
  1
NOTE
 41
0.8
 11
103.59999000000001
 21
-283.00443904999997
 31
0.0
 73
     3
  0
LINE
  5
34
  8
HIBINO-BASE
  6
CONTINUOUS
 62
     7
 10
240.0
 20
-369.40453000000002
 30
0.0
 11
240.0
 21
-279.40453000000002
 31
0.0
  0
TEXT
  5
35
  8
HIBINO-BASE
 62
     7
 10
243.59999999999999
 20
-290.20454280000001
 30
0.0
 40
7.2001037500000002
  1
TITLE
 41
0.8
 11
243.59999999999999
 21
-283.00443904999997
 31
0.0
 73
     3
  0
TEXT
  5
36
  8
HIBINO-BASE
 62
     7
 10
300.27355
 20
-395.03923259999988
 30
0.0
 40
14.400169023437501
  1
ヒビノ株式会社
 41
0.8
 11
300.27355
 21
-380.63906357656231
 31
0.0
 73
     3
  0
LINE
  5
37
  8
HIBINO-BASE
  6
CONTINUOUS
 62
     7
 10
100.0
 20
-329.40453000000002
 30
0.0
 11
459.99999000000003
 21
-329.40453000000002
 31
0.0
  0
TEXT
  5
38
  8
HIBINO-BASE
 62
     7
 10
293.60000000000002
 20
-339.97926280000001
 30
0.0
 40
7.2001037500000002
  1
DRAWN
 41
0.8
 11
293.60000000000002
 21
-332.77915904999998
 31
0.0
 73
     3
  0
TEXT
  5
39
  8
HIBINO-BASE
 62
     7
 10
193.59999999999999
 20
-339.97926280000001
 30
0.0
 40
7.2001037500000002
  1
DATE
 41
0.8
 11
193.59999999999999
 21
-332.77915904999998
 31
0.0
 73
     3
  0
TEXT
  5
3A
  8
HIBINO-BASE
 62
     7
 10
104.39999
 20
-339.88234619999992
 30
0.0
 40
6.5153671484374991
  1
図面サイズ
 41
0.8
 11
104.39999
 21
-333.3669790515624
 31
0.0
 73
     3
  0
TEXT
  5
3B
  8
HIBINO-BASE
 62
     7
 10
153.59998999999999
 20
-339.97926280000001
 30
0.0
 40
7.2001037500000002
  1
SCALE
 41
0.8
 11
153.59998999999999
 21
-332.77915904999998
 31
0.0
 73
     3
  0
TEXT
  5
3C
  8
HIBINO-BASE
 62
     7
 10
243.59999999999999
 20
-339.97926280000001
 30
0.0
 40
7.2001037500000002
  1
DESIGN
 41
0.8
 11
243.59999999999999
 21
-332.77915904999998
 31
0.0
 73
     3
  0
TEXT
  5
3D
  8
HIBINO-BASE
 62
     7
 10
393.59998999999999
 20
-339.97926280000001
 30
0.0
 40
7.2001037500000002
  1
DRAWING NO.
 41
0.8
 11
393.59998999999999
 21
-332.77915904999998
 31
0.0
 73
     3
  0
TEXT
  5
3E
  8
HIBINO-BASE
 62
     7
 10
343.59998999999999
 20
-339.97926280000001
 30
0.0
 40
7.2001037500000002
  1
CHECK
 41
0.8
 11
343.59998999999999
 21
-332.77915904999998
 31
0.0
 73
     3
  0
LINE
  5
3F
  8
HIBINO-BASE
  6
CONTINUOUS
 62
     7
 10
157.49998999999991
 20
-364.40453000000002
 30
0.0
 11
172.5
 21
-349.40453000000002
 31
0.0
  0
TEXT
  5
40
  8
HIBINO-BASE
 62
     7
 10
154.99998999999991
 20
-356.2674068
 30
0.0
 40
8.6871459375000004
  1
1
 41
0.8
 11
154.99998999999991
 21
-347.58026086249993
 31
0.0
 73
     3
  0
LINE
  5
41
  8
HIBINO-BASE
  6
CONTINUOUS
 62
     7
 10
149.99998999999991
 20
-369.40453000000002
 30
0.0
 11
149.99998999999991
 21
-329.40453000000002
 31
0.0
  0
LINE
  5
42
  8
HIBINO-BASE
  6
CONTINUOUS
 62
     7
 10
189.99999
 20
-369.40453000000002
 30
0.0
 11
189.99999
 21
-329.40453000000002
 31
0.0
  0
LINE
  5
43
  8
HIBINO-BASE
  6
CONTINUOUS
 62
     7
 10
289.99999000000003
 20
-329.40453000000002
 30
0.0
 11
289.99999000000003
 21
-369.40453000000002
 31
0.0
  0
LINE
  5
44
  8
HIBINO-BASE
  6
CONTINUOUS
 62
     7
 10
390.0
 20
-329.40453000000002
 30
0.0
 11
390.0
 21
-369.40453000000002
 31
0.0
  0
LINE
  5
45
  8
HIBINO-BASE
  6
CONTINUOUS
 62
     7
 10
339.99999000000003
 20
-369.40453000000002
 30
0.0
 11
339.99999000000003
 21
-329.40453000000002
 31
0.0
  0
TEXT
  5
46
  8
HIBINO-BASE
 62
     7
 10
115.64355999999999
 20
-360.89513105599468
 30
0.0
 40
13.030711210937501
  1
A4
 41
0.8
 11
115.64355999999999
 21
-347.86441984505723
 31
0.0
 73
     3
  0
TEXT
  5
47
  8
HIBINO-BASE
 62
     7
 10
193.42616000000001
 20
-358.7151927999999
 30
0.0
 40
7.2001037500000002
  1
'06.05.
 41
0.8
 11
193.42616000000001
 21
-351.51508904999997
 31
0.0
 73
     3
  0
TEXT
  5
48
  8
HIBINO-BASE
 62
     7
 10
170.0
 20
-363.76740679999989
 30
0.0
 40
8.6871459375000004
  1
4
 41
0.8
 11
170.0
 21
-355.08026086249993
 31
0.0
 73
     3
  0
TEXT
  5
49
  8
HIBINO-BASE
 62
     7
 10
296.02323004413847
 20
-357.94994333333329
 30
0.0
 40
6.5153645833333318
  1
N.Sasaki
 41
0.8
 11
296.02323004413847
 21
-351.43457875000001
 31
0.0
 73
     3
  0
TEXT
  5
4A
  8
SPEC
 62
     7
 10
-224.99999
 20
636.16853999999989
 30
0.0
 40
9.7730468750000004
  1
仕様
 41
0.8
 11
-224.99999
 21
645.94158687499987
 31
0.0
 73
     3
  0
LINE
  5
4B
  8
SPEC
  6
CONTINUOUS
 62
     7
 10
-230.00216758222231
 20
630.60000000000002
 30
0.0
 11
359.99782241778422
 21
630.60000000000002
 31
0.0
  0
LINE
  5
4C
  8
SPEC
  6
CONTINUOUS
 62
     7
 10
-230.00216758222231
 20
615.60000000000002
 30
0.0
 11
359.99782241778422
 21
615.60000000000002
 31
0.0
  0
LINE
  5
4D
  8
SPEC
  6
CONTINUOUS
 62
     7
 10
-230.00216758222231
 20
630.60000000000002
 30
0.0
 11
-230.00216758222231
 21
450.60000000000002
 31
0.0
  0
LINE
  5
4E
  8
SPEC
  6
CONTINUOUS
 62
     7
 10
-100.0021675822198
 20
630.60000000000002
 30
0.0
 11
-100.0021675822198
 21
450.60000000000002
 31
0.0
  0
LINE
  5
4F
  8
SPEC
  6
CONTINUOUS
 62
     7
 10
359.99782241778422
 20
630.60000000000002
 30
0.0
 11
359.99782241778422
 21
450.60000000000002
 31
0.0
  0
TEXT
  5
50
  8
SPEC
 62
     7
 10
-226.0112809056765
 20
619.41781270017589
 30
0.0
 40
7.6012373046874986
  1
形式
 41
0.8
 11
-226.0112809056765
 21
627.01905000486329
 31
0.0
 73
     3
  0
TEXT
  5
51
  8
SPEC
 62
     7
 10
-226.0689643152439
 20
604.57390370688211
 30
0.0
 40
7.6012373046874986
  1
入力
 41
0.8
 11
-226.0689643152439
 21
612.17514101156962
 31
0.0
 73
     3
  0
TEXT
  5
52
  8
SPEC
 62
     7
 10
-96.617022441974513
 20
604.20852951558663
 30
0.0
 40
7.6012373046874986
  1
チャンネル数 1
 41
0.8
 11
-96.617022441974513
 21
611.80976682027415
 31
0.0
 73
     3
  0
TEXT
  5
53
  8
SPEC
 62
     7
 10
-97.225714527025076
 20
574.74437925375435
 30
0.0
 40
7.6012373046874986
  1
インピーダンス 47kΩ
 41
0.8
 11
-97.225714527025076
 21
582.34561655844198
 31
0.0
 73
     3
  0
TEXT
  5
54
  8
SPEC
 62
     7
 10
-226.1429659627137
 20
544.61232809665057
 30
0.0
 40
7.6012373046874986
  1
出力
 41
0.8
 11
-226.1429659627137
 21
552.21356540133809
 31
0.0
 73
     3
  0
TEXT
  5
55
  8
SPEC
 62
     7
 10
-223.60603134646649
 20
454.55972624146881
 30
0.0
 40
7.6012373046874986
  1
THD
 41
0.8
 11
-223.60603134646649
 21
462.16096354615638
 31
0.0
 73
     3
  0
TEXT
  5
56
  8
SPEC
 62
     7
 10
-226.043776331446
 20
394.78290810527471
 30
0.0
 40
7.6012373046874986
  1
質量
 41
0.8
 11
-226.043776331446
 21
402.38414540996212
 31
0.0
 73
     3
  0
TEXT
  5
57
  8
SPEC
 62
     7
 10
-94.447679481437717
 20
409.47554143372452
 30
0.0
 40
7.6012373046874986
  1
219×44×139mm
 41
0.8
 11
-94.447679481437717
 21
417.07677873841197
 31
0.0
 73
     3
  0
TEXT
  5
58
  8
SPEC
 62
     7
 10
-94.246730652761727
 20
394.77838957201271
 30
0.0
 40
7.6012373046874986
  1
930g
 41
0.8
 11
-94.246730652761727
 21
402.37962687670017
 31
0.0
 73
     3
  0
TEXT
  5
59
  8
SPEC
 62
     7
 10
-226.2014017493297
 20
409.47138140803128
 30
0.0
 40
7.6012373046874986
  1
寸法(W+H+D)
 41
0.8
 11
-226.2014017493297
 21
417.07261871271891
 31
0.0
 73
     3
  0
TEXT
  5
5A
  8
SPEC
 62
     7
 10
-226.1193924674331
 20
424.5587818473951
 30
0.0
 40
7.6012373046874986
  1
電源 
 41
0.8
 11
-226.1193924674331
 21
432.1600191520825
 31
0.0
 73
     3
  0
LINE
  5
5B
  8
SPEC
  6
CONTINUOUS
 62
     7
 10
-230.00216758222231
 20
585.60000000000002
 30
0.0
 11
359.99782241778422
 21
585.60000000000002
 31
0.0
  0
LINE
  5
5C
  8
SPEC
  6
CONTINUOUS
 62
     7
 10
-230.00216758222231
 20
570.60000000000002
 30
0.0
 11
359.99782241778422
 21
570.60000000000002
 31
0.0
  0
LINE
  5
5D
  8
SPEC
  6
CONTINUOUS
 62
     7
 10
-230.00216758222231
 20
555.60000000000002
 30
0.0
 11
359.99782241778422
 21
555.60000000000002
 31
0.0
  0
LINE
  5
5E
  8
SPEC
  6
CONTINUOUS
 62
     7
 10
-230.00216758222231
 20
540.60000000000002
 30
0.0
 11
359.99782241778422
 21
540.60000000000002
 31
0.0
  0
LINE
  5
5F
  8
SPEC
  6
CONTINUOUS
 62
     7
 10
-181.0021775822222
 20
525.60000000000002
 30
0.0
 11
359.99782241778422
 21
525.60000000000002
 31
0.0
  0
LINE
  5
60
  8
SPEC
  6
CONTINUOUS
 62
     7
 10
-181.0021775822222
 20
510.60000000000002
 30
0.0
 11
359.99782241778428
 21
510.60000000000002
 31
0.0
  0
LINE
  5
61
  8
SPEC
  6
CONTINUOUS
 62
     7
 10
-100.0021675822198
 20
495.60000000000002
 30
0.0
 11
359.99782241778428
 21
495.60000000000002
 31
0.0
  0
LINE
  5
62
  8
SPEC
  6
CONTINUOUS
 62
     7
 10
-100.0021675822198
 20
495.60000000000002
 30
0.0
 11
359.99782241778428
 21
495.60000000000002
 31
0.0
  0
LINE
  5
63
  8
SPEC
  6
CONTINUOUS
 62
     7
 10
-230.00216758222231
 20
480.60000000000002
 30
0.0
 11
359.99782241778422
 21
480.60000000000002
 31
0.0
  0
LINE
  5
64
  8
SPEC
  6
CONTINUOUS
 62
     7
 10
-230.00216758222231
 20
480.60000000000002
 30
0.0
 11
359.99782241778422
 21
480.60000000000002
 31
0.0
  0
LINE
  5
65
  8
SPEC
  6
CONTINUOUS
 62
     7
 10
-230.00216758222231
 20
450.60000000000002
 30
0.0
 11
359.99782241778422
 21
450.60000000000002
 31
0.0
  0
TEXT
  5
66
  8
SPEC
 62
     7
 10
-96.086256923817501
 20
589.34986148144719
 30
0.0
 40
7.6012373046874986
  1
端子・形式 XLR/フォーンジャック一体型 、アクティブバランス
 41
0.8
 11
-96.086256923817501
 21
596.95109878613471
 31
0.0
 73
     3
  0
TEXT
  5
67
  8
SPEC
 62
     7
 10
-96.910156905595315
 20
559.35008210407329
 30
0.0
 40
7.6012373046874986
  1
クリックレベル +18dBu
 41
0.8
 11
-96.910156905595315
 21
566.95131940876092
 31
0.0
 73
     3
  0
TEXT
  5
68
  8
SPEC
 62
     7
 10
-223.7041083327739
 20
484.56891258023131
 30
0.0
 40
7.6012373046874986
  1
A/D-D/Aコンバータ ー
 41
0.8
 11
-223.7041083327739
 21
492.17014988491889
 31
0.0
 73
     3
  0
LINE
  5
69
  8
SPEC
  6
CONTINUOUS
 62
     7
 10
-230.00216758222231
 20
465.60000000000002
 30
0.0
 11
359.99782241778422
 21
465.60000000000002
 31
0.0
  0
LINE
  5
6A
  8
SPEC
  6
CONTINUOUS
 62
     7
 10
-230.00216758222231
 20
435.60000000000002
 30
0.0
 11
359.99782241778422
 21
435.60000000000002
 31
0.0
  0
TEXT
  5
6B
  8
SPEC
 62
     7
 10
-226.2947410892935
 20
469.43109096001621
 30
0.0
 40
7.6012373046874986
  1
周波数特性
 41
0.8
 11
-226.2947410892935
 21
477.03232826470372
 31
0.0
 73
     3
  0
LINE
  5
6C
  8
SPEC
  6
CONTINUOUS
 62
     7
 10
-230.00216758222231
 20
450.60000000000002
 30
0.0
 11
-230.00216758222231
 21
420.60000000000002
 31
0.0
  0
LINE
  5
6D
  8
SPEC
  6
CONTINUOUS
 62
     7
 10
-100.0021675822198
 20
450.60000000000002
 30
0.0
 11
-100.0021675822198
 21
420.60000000000002
 31
0.0
  0
LINE
  5
6E
  8
SPEC
  6
CONTINUOUS
 62
     7
 10
359.99782241778422
 20
420.60000000000002
 30
0.0
 11
359.99782241778422
 21
450.60000000000002
 31
0.0
  0
LINE
  5
6F
  8
SPEC
  6
CONTINUOUS
 62
     7
 10
-230.00216758222231
 20
420.60000000000002
 30
0.0
 11
359.99782241778422
 21
420.60000000000002
 31
0.0
  0
LINE
  5
70
  8
SPEC
  6
CONTINUOUS
 62
     7
 10
-230.00216758222231
 20
600.60000000000002
 30
0.0
 11
359.99782241778422
 21
600.60000000000002
 31
0.0
  0
LINE
  5
71
  8
SPEC
  6
CONTINUOUS
 62
     7
 10
-230.00216758222231
 20
405.60000000000002
 30
0.0
 11
359.99782241778422
 21
405.60000000000002
 31
0.0
  0
LINE
  5
72
  8
SPEC
  6
CONTINUOUS
 62
     7
 10
-230.00216758222231
 20
390.60000000000002
 30
0.0
 11
359.99782241778422
 21
390.60000000000002
 31
0.0
  0
TEXT
  5
73
  8
SPEC
 62
     7
 10
-96.725803701470952
 20
544.51081977711306
 30
0.0
 40
7.6012373046874986
  1
チャンネル数 1
 41
0.8
 11
-96.725803701470952
 21
552.11205708180057
 31
0.0
 73
     3
  0
TEXT
  5
74
  8
SPEC
 62
     7
 10
-96.029120672564105
 20
514.38596744679285
 30
0.0
 40
7.6012373046874986
  1
インピーダンス 120Ω
 41
0.8
 11
-96.029120672564105
 21
521.98720475148048
 31
0.0
 73
     3
  0
TEXT
  5
75
  8
SPEC
 62
     7
 10
-96.086256923817501
 20
529.3258079644844
 30
0.0
 40
7.6012373046874986
  1
端子・形式 XLR/フォーンジャック一、アクティブバランス
 41
0.8
 11
-96.086256923817501
 21
536.9270452691718
 31
0.0
 73
     3
  0
TEXT
  5
76
  8
SPEC
 62
     7
 10
-95.604781791637876
 20
499.41878082358812
 30
0.0
 40
7.6012373046874986
  1
クリックレベル +18dBu
 41
0.8
 11
-95.604781791637876
 21
507.02001812827558
 31
0.0
 73
     3
  0
TEXT
  5
77
  8
SPEC
 62
     7
 10
-96.609729622039197
 20
619.63656117881305
 30
0.0
 40
7.6012586805555546
  1
モノ・シグナル・プロセッサ
 41
0.8
 11
-96.609729622039197
 21
627.23781985936876
 31
0.0
 73
     3
  0
LINE
  5
78
  8
SPEC
  6
CONTINUOUS
 62
     7
 10
-100.0021675822198
 20
495.60000000000002
 30
0.0
 11
-230.00216758222231
 21
495.60000000000002
 31
0.0
  0
TEXT
  5
79
  8
SPEC
 62
     7
 10
-226.16640653395629
 20
439.97612609378501
 30
0.0
 40
7.6012373046874986
  1
ダイナミックレンジ
 41
0.8
 11
-226.16640653395629
 21
447.57736339847258
 31
0.0
 73
     3
  0
LINE
  5
7A
  8
SPEC
  6
CONTINUOUS
 62
     7
 10
-230.00216758222231
 20
390.60000000000002
 30
0.0
 11
-230.00216758222231
 21
422.0
 31
0.0
  0
LINE
  5
7B
  8
SPEC
  6
CONTINUOUS
 62
     7
 10
-100.0021675822198
 20
420.60000000000002
 30
0.0
 11
-100.0021675822198
 21
390.60000000000002
 31
0.0
  0
LINE
  5
7C
  8
SPEC
  6
CONTINUOUS
 62
     7
 10
-181.0021775822222
 20
525.60000000000002
 30
0.0
 11
-230.00216758222231
 21
525.60000000000002
 31
0.0
  0
LINE
  5
7D
  8
SPEC
  6
CONTINUOUS
 62
     7
 10
-181.0021775822222
 20
510.60000000000002
 30
0.0
 11
-230.00216758222231
 21
510.60000000000002
 31
0.0
  0
TEXT
  5
7E
  8
SPEC
 62
     7
 10
-94.378005956945998
 20
484.43431613525831
 30
0.0
 40
7.6012373046874986
  1
20bit、48kHz
 41
0.8
 11
-94.378005956945998
 21
492.03555343994577
 31
0.0
 73
     3
  0
TEXT
  5
7F
  8
SPEC
 62
     7
 10
-94.608781259496453
 20
469.54501015283847
 30
0.0
 40
7.6012586805555546
  1
20Hz～20kHz(±1dB)
 41
0.8
 11
-94.608781259496453
 21
477.146268833394
 31
0.0
 73
     3
  0
TEXT
  5
80
  8
SPEC
 62
     7
 10
-94.500000000000014
 20
454.41526022880993
 30
0.0
 40
7.6012586805555546
  1
0.05%%%(+4dBu、20Hz～20kHz)
 41
0.8
 11
-94.500000000000014
 21
462.0165189093654
 31
0.0
 73
     3
  0
TEXT
  5
81
  8
SPEC
 62
     7
 10
-94.32634377848936
 20
439.47612793506931
 30
0.0
 40
7.6012586805555546
  1
104dB以上(Aウェイト)
 41
0.8
 11
-94.32634377848936
 21
447.0773866156249
 31
0.0
 73
     3
  0
TEXT
  5
82
  8
SPEC
 62
     7
 10
-94.431117782231084
 20
424.50511111111098
 30
0.0
 40
7.6012586805555546
  1
AC100V、50/60Hz、7.5W
 41
0.8
 11
-94.431117782231084
 21
432.10636979166662
 31
0.0
 73
     3
  0
LINE
  5
83
  8
SPEC
  6
CONTINUOUS
 62
     7
 10
359.99782241778422
 20
390.60000000000002
 30
0.0
 11
359.99782241778422
 21
420.60000000000002
 31
0.0
  0
TEXT
  5
84
  8
DIMNSIONS
 62
     7
 10
19.999999999999979
 20
-320.32657
 30
0.0
 40
9.7730468750000004
  1
(単位：mm)
 41
0.8
 11
19.999999999999979
 21
-310.55352312500003
 31
0.0
 73
     3
  0
LINE
  5
85
  8
DIMNSIONS
  6
CONTINUOUS
 62
     7
 10
-157.99999997019771
 20
-200.0
 30
0.0
 11
-207.99999997019771
 21
-200.0
 31
0.0
  0
LINE
  5
86
  8
DIMNSIONS
  6
CONTINUOUS
 62
     7
 10
-157.99999997019771
 20
-156.0
 30
0.0
 11
-207.99999997019771
 21
-156.0
 31
0.0
  0
LINE
  5
87
  8
DIMNSIONS
  6
CONTINUOUS
 62
     7
 10
-200.0
 20
-200.0
 30
0.0
 11
-200.0
 21
-156.0
 31
0.0
  0
LINE
  5
88
  8
DIMNSIONS
  6
CONTINUOUS
 62
     7
 10
-200.0
 20
-200.0
 30
0.0
 11
-203.40295474387531
 21
-187.30000000000001
 31
0.0
  0
LINE
  5
89
  8
DIMNSIONS
  6
CONTINUOUS
 62
     7
 10
-200.0
 20
-200.0
 30
0.0
 11
-196.59704525612469
 21
-187.30000000000001
 31
0.0
  0
LINE
  5
8A
  8
DIMNSIONS
  6
CONTINUOUS
 62
     7
 10
-200.0
 20
-156.0
 30
0.0
 11
-196.59704525612469
 21
-168.69999999999999
 31
0.0
  0
LINE
  5
8B
  8
DIMNSIONS
  6
CONTINUOUS
 62
     7
 10
-200.0
 20
-156.0
 30
0.0
 11
-203.40295474387531
 21
-168.69999999999999
 31
0.0
  0
TEXT
  5
8C
  8
DIMNSIONS
 62
     7
 10
-205.97555554065431
 20
-185.05555555555549
 30
0.0
 40
10.85894097222222
  1
44
 50
90.0
 41
0.8
 11
-216.8344965128766
 21
-185.05555555555549
 31
0.0
 73
     3
  0
LINE
  5
8D
  8
DIMNSIONS
  6
CONTINUOUS
 62
     7
 10
-150.0
 20
-207.99999997019771
 30
0.0
 11
-150.0
 21
-257.99999997019768
 31
0.0
  0
LINE
  5
8E
  8
DIMNSIONS
  6
CONTINUOUS
 62
     7
 10
68.999999999999986
 20
-207.99999997019771
 30
0.0
 11
68.999999999999986
 21
-257.99999997019768
 31
0.0
  0
LINE
  5
8F
  8
DIMNSIONS
  6
CONTINUOUS
 62
     7
 10
-150.0
 20
-250.0
 30
0.0
 11
68.999999999999986
 21
-250.0
 31
0.0
  0
LINE
  5
90
  8
DIMNSIONS
  6
CONTINUOUS
 62
     7
 10
-150.0
 20
-250.0
 30
0.0
 11
-137.30000000000001
 21
-246.59704525612469
 31
0.0
  0
LINE
  5
91
  8
DIMNSIONS
  6
CONTINUOUS
 62
     7
 10
-150.0
 20
-250.0
 30
0.0
 11
-137.30000000000001
 21
-253.40295474387531
 31
0.0
  0
LINE
  5
92
  8
DIMNSIONS
  6
CONTINUOUS
 62
     7
 10
68.999999999999986
 20
-250.0
 30
0.0
 11
56.29999999999999
 21
-253.40295474387531
 31
0.0
  0
LINE
  5
93
  8
DIMNSIONS
  6
CONTINUOUS
 62
     7
 10
68.999999999999986
 20
-250.0
 30
0.0
 11
56.29999999999999
 21
-246.59704525612469
 31
0.0
  0
TEXT
  5
94
  8
DIMNSIONS
 62
     7
 10
-51.083333333333357
 20
-244.02444445934569
 30
0.0
 40
10.85894097222222
  1
219
 41
0.8
 11
-51.083333333333357
 21
-233.16550348712349
 31
0.0
 73
     3
  0
LINE
  5
95
  8
DIMNSIONS
  6
CONTINUOUS
 62
     7
 10
-137.99999997019771
 20
38.0
 30
0.0
 11
-208.0641764503653
 21
38.0
 31
0.0
  0
LINE
  5
96
  8
DIMNSIONS
  6
CONTINUOUS
 62
     7
 10
-157.99999997019771
 20
29.0
 30
0.0
 11
-208.0641764503653
 21
29.0
 31
0.0
  0
LINE
  5
97
  8
DIMNSIONS
  6
CONTINUOUS
 62
     7
 10
-200.06417648016759
 20
29.0
 30
0.0
 11
-200.06417648016759
 21
38.0
 31
0.0
  0
LINE
  5
98
  8
DIMNSIONS
  6
CONTINUOUS
 62
     7
 10
-200.06417648016759
 20
38.0
 30
0.0
 11
-200.06417648016759
 21
57.055555555555557
 31
0.0
  0
LINE
  5
99
  8
DIMNSIONS
  6
CONTINUOUS
 62
     7
 10
-200.06417648016759
 20
38.0
 30
0.0
 11
-203.4671312240429
 21
50.700000000000003
 31
0.0
  0
LINE
  5
9A
  8
DIMNSIONS
  6
CONTINUOUS
 62
     7
 10
-200.06417648016759
 20
38.0
 30
0.0
 11
-196.6612217362923
 21
50.700000000000003
 31
0.0
  0
LINE
  5
9B
  8
DIMNSIONS
  6
CONTINUOUS
 62
     7
 10
-200.06417648016759
 20
29.0
 30
0.0
 11
-200.06417648016759
 21
8.9999999798834232
 31
0.0
  0
LINE
  5
9C
  8
DIMNSIONS
  6
CONTINUOUS
 62
     7
 10
-200.06417648016759
 20
29.0
 30
0.0
 11
-196.6612217362923
 21
16.29999999999999
 31
0.0
  0
LINE
  5
9D
  8
DIMNSIONS
  6
CONTINUOUS
 62
     7
 10
-200.06417648016759
 20
29.0
 30
0.0
 11
-203.4671312240429
 21
16.29999999999999
 31
0.0
  0
TEXT
  5
9E
  8
DIMNSIONS
 62
     7
 10
-206.0397320208219
 20
50.0
 30
0.0
 40
10.85894097222222
  1
9
 50
90.0
 41
0.8
 11
-216.89867299304419
 21
50.0
 31
0.0
 73
     3
  0
LINE
  5
9F
  8
DIMNSIONS
  6
CONTINUOUS
 62
     7
 10
-157.99999997019771
 20
-110.0
 30
0.0
 11
-207.99999997019771
 21
-110.0
 31
0.0
  0
LINE
  5
A0
  8
DIMNSIONS
  6
CONTINUOUS
 62
     7
 10
-157.99999997019771
 20
29.0
 30
0.0
 11
-207.99999997019771
 21
29.0
 31
0.0
  0
LINE
  5
A1
  8
DIMNSIONS
  6
CONTINUOUS
 62
     7
 10
-200.0
 20
-110.0
 30
0.0
 11
-200.0
 21
29.0
 31
0.0
  0
LINE
  5
A2
  8
DIMNSIONS
  6
CONTINUOUS
 62
     7
 10
-200.0
 20
-110.0
 30
0.0
 11
-203.40295474387531
 21
-97.299999999999997
 31
0.0
  0
LINE
  5
A3
  8
DIMNSIONS
  6
CONTINUOUS
 62
     7
 10
-200.0
 20
-110.0
 30
0.0
 11
-196.59704525612469
 21
-97.299999999999997
 31
0.0
  0
LINE
  5
A4
  8
DIMNSIONS
  6
CONTINUOUS
 62
     7
 10
-200.0
 20
29.0
 30
0.0
 11
-196.59704525612469
 21
16.29999999999999
 31
0.0
  0
LINE
  5
A5
  8
DIMNSIONS
  6
CONTINUOUS
 62
     7
 10
-200.0
 20
29.0
 30
0.0
 11
-203.40295474387531
 21
16.29999999999999
 31
0.0
  0
TEXT
  5
A6
  8
DIMNSIONS
 62
     7
 10
-205.97555554065431
 20
-51.083333333333307
 30
0.0
 40
10.85894097222222
  1
139
 50
90.0
 41
0.8
 11
-216.8344965128766
 21
-51.083333333333307
 31
0.0
 73
     3
  0
LINE
  5
A7
  8
DIMNSIONS
  6
CONTINUOUS
 62
     7
 10
-155.3499999701977
 20
-111.0
 30
0.0
 11
-182.99999997019771
 21
-111.0
 31
0.0
  0
LINE
  5
A8
  8
DIMNSIONS
  6
CONTINUOUS
 62
     7
 10
-157.99999997019771
 20
-110.0
 30
0.0
 11
-182.99999997019771
 21
-110.0
 31
0.0
  0
LINE
  5
A9
  8
DIMNSIONS
  6
CONTINUOUS
 62
     7
 10
-175.0
 20
-110.0
 30
0.0
 11
-175.0
 21
-111.0
 31
0.0
  0
LINE
  5
AA
  8
DIMNSIONS
  6
CONTINUOUS
 62
     7
 10
-175.0
 20
-111.0
 30
0.0
 11
-175.0
 21
-131.00000002011649
 31
0.0
  0
LINE
  5
AB
  8
DIMNSIONS
  6
CONTINUOUS
 62
     7
 10
-175.0
 20
-111.0
 30
0.0
 11
-171.59704525612469
 21
-123.7
 31
0.0
  0
LINE
  5
AC
  8
DIMNSIONS
  6
CONTINUOUS
 62
     7
 10
-175.0
 20
-111.0
 30
0.0
 11
-178.40295474387531
 21
-123.7
 31
0.0
  0
LINE
  5
AD
  8
DIMNSIONS
  6
CONTINUOUS
 62
     7
 10
-175.0
 20
-110.0
 30
0.0
 11
-175.0
 21
-92.944444444444443
 31
0.0
  0
LINE
  5
AE
  8
DIMNSIONS
  6
CONTINUOUS
 62
     7
 10
-175.0
 20
-110.0
 30
0.0
 11
-178.40295474387531
 21
-97.299999999999997
 31
0.0
  0
LINE
  5
AF
  8
DIMNSIONS
  6
CONTINUOUS
 62
     7
 10
-175.0
 20
-110.0
 30
0.0
 11
-171.59704525612469
 21
-97.299999999999997
 31
0.0
  0
TEXT
  5
B0
  8
DIMNSIONS
 62
     7
 10
-180.97555554065431
 20
-100.0
 30
0.0
 40
10.85894097222222
  1
1
 50
90.0
 41
0.8
 11
-191.83449651287651
 21
-100.0
 31
0.0
 73
     3
  0
TEXT
  5
B1
  8
DATA
 62
     7
 10
283.2507761587969
 20
-324.92869920352621
 30
0.0
 40
9.7730468750000004
  1
DFR11EQ
 41
0.8
 11
283.2507761587969
 21
-315.15565232852629
 31
0.0
 73
     3
  0
TEXT
  5
B2
  8
DATA
 62
     7
 10
288.50977837495861
 20
-294.52918039705401
 30
0.0
 40
9.7730468750000004
  1
SHURE
 41
0.8
 11
288.50977837495861
 21
-284.75613352205409
 31
0.0
 73
     3
  0
TEXT
  5
B3
  8
DATA
 62
     7
 10
280.57069907029722
 20
-307.76928264354348
 30
0.0
 40
7.6012586805555546
  1
モノ・シグナル・プロセッサ
 41
0.8
 11
280.57069907029722
 21
-300.16802396298789
 31
0.0
 73
     3
  0
POLYLINE
  5
B4
  8
DATA
  6
CONTINUOUS
 62
     7
 66
     1
 10
0.0
 20
0.0
 30
0.0
 70
     1
  0
VERTEX
  5
4D6
  8
DATA
  6
CONTINUOUS
 62
     7
 10
-150.0
 20
-156.0
 30
0.0
  0
VERTEX
  5
4D7
  8
DATA
  6
CONTINUOUS
 62
     7
 10
68.999999999999986
 20
-156.0
 30
0.0
  0
VERTEX
  5
4D8
  8
DATA
  6
CONTINUOUS
 62
     7
 10
68.999999999999986
 20
-200.0
 30
0.0
  0
VERTEX
  5
4D9
  8
DATA
  6
CONTINUOUS
 62
     7
 10
-150.0
 20
-200.0
 30
0.0
  0
SEQEND
  5
4DA
  8
DATA
  6
CONTINUOUS
 62
     7
  0
CIRCLE
  5
BB
  8
DATA
  6
CONTINUOUS
 62
     7
 10
-145.0
 20
-164.0
 30
0.0
 40
3.3499999999999939
  0
POLYLINE
  5
BC
  8
DATA
  6
CONTINUOUS
 62
     7
 66
     1
 10
0.0
 20
0.0
 30
0.0
  0
VERTEX
  5
4DB
  8
DATA
  6
CONTINUOUS
 62
     7
 10
-145.5
 20
-163.5
 30
0.0
  0
VERTEX
  5
4DC
  8
DATA
  6
CONTINUOUS
 62
     7
 10
-145.5
 20
-161.5
 30
0.0
  0
VERTEX
  5
4DD
  8
DATA
  6
CONTINUOUS
 62
     7
 10
-144.5
 20
-161.5
 30
0.0
  0
VERTEX
  5
4DE
  8
DATA
  6
CONTINUOUS
 62
     7
 10
-144.5
 20
-163.5
 30
0.0
  0
SEQEND
  5
4DF
  8
DATA
  6
CONTINUOUS
 62
     7
  0
POLYLINE
  5
C3
  8
DATA
  6
CONTINUOUS
 62
     7
 66
     1
 10
0.0
 20
0.0
 30
0.0
  0
VERTEX
  5
4E0
  8
DATA
  6
CONTINUOUS
 62
     7
 10
-144.5
 20
-164.5
 30
0.0
  0
VERTEX
  5
4E1
  8
DATA
  6
CONTINUOUS
 62
     7
 10
-144.5
 20
-166.5
 30
0.0
  0
VERTEX
  5
4E2
  8
DATA
  6
CONTINUOUS
 62
     7
 10
-145.5
 20
-166.5
 30
0.0
  0
VERTEX
  5
4E3
  8
DATA
  6
CONTINUOUS
 62
     7
 10
-145.5
 20
-164.5
 30
0.0
  0
SEQEND
  5
4E4
  8
DATA
  6
CONTINUOUS
 62
     7
  0
POLYLINE
  5
CA
  8
DATA
  6
CONTINUOUS
 62
     7
 66
     1
 10
0.0
 20
0.0
 30
0.0
  0
VERTEX
  5
4E5
  8
DATA
  6
CONTINUOUS
 62
     7
 10
-144.5
 20
-163.5
 30
0.0
  0
VERTEX
  5
4E6
  8
DATA
  6
CONTINUOUS
 62
     7
 10
-142.5
 20
-163.5
 30
0.0
  0
VERTEX
  5
4E7
  8
DATA
  6
CONTINUOUS
 62
     7
 10
-142.5
 20
-164.5
 30
0.0
  0
VERTEX
  5
4E8
  8
DATA
  6
CONTINUOUS
 62
     7
 10
-144.5
 20
-164.5
 30
0.0
  0
SEQEND
  5
4E9
  8
DATA
  6
CONTINUOUS
 62
     7
  0
POLYLINE
  5
D1
  8
DATA
  6
CONTINUOUS
 62
     7
 66
     1
 10
0.0
 20
0.0
 30
0.0
  0
VERTEX
  5
4EA
  8
DATA
  6
CONTINUOUS
 62
     7
 10
-145.5
 20
-164.5
 30
0.0
  0
VERTEX
  5
4EB
  8
DATA
  6
CONTINUOUS
 62
     7
 10
-147.5
 20
-164.5
 30
0.0
  0
VERTEX
  5
4EC
  8
DATA
  6
CONTINUOUS
 62
     7
 10
-147.5
 20
-163.5
 30
0.0
  0
VERTEX
  5
4ED
  8
DATA
  6
CONTINUOUS
 62
     7
 10
-145.5
 20
-163.5
 30
0.0
  0
SEQEND
  5
4EE
  8
DATA
  6
CONTINUOUS
 62
     7
  0
CIRCLE
  5
D8
  8
DATA
  6
CONTINUOUS
 62
     7
 10
-145.0
 20
-192.0
 30
0.0
 40
3.3499999999999939
  0
POLYLINE
  5
D9
  8
DATA
  6
CONTINUOUS
 62
     7
 66
     1
 10
0.0
 20
0.0
 30
0.0
  0
VERTEX
  5
4EF
  8
DATA
  6
CONTINUOUS
 62
     7
 10
-145.5
 20
-191.5
 30
0.0
  0
VERTEX
  5
4F0
  8
DATA
  6
CONTINUOUS
 62
     7
 10
-145.5
 20
-189.5
 30
0.0
  0
VERTEX
  5
4F1
  8
DATA
  6
CONTINUOUS
 62
     7
 10
-144.5
 20
-189.5
 30
0.0
  0
VERTEX
  5
4F2
  8
DATA
  6
CONTINUOUS
 62
     7
 10
-144.5
 20
-191.5
 30
0.0
  0
SEQEND
  5
4F3
  8
DATA
  6
CONTINUOUS
 62
     7
  0
POLYLINE
  5
E0
  8
DATA
  6
CONTINUOUS
 62
     7
 66
     1
 10
0.0
 20
0.0
 30
0.0
  0
VERTEX
  5
4F4
  8
DATA
  6
CONTINUOUS
 62
     7
 10
-144.5
 20
-192.5
 30
0.0
  0
VERTEX
  5
4F5
  8
DATA
  6
CONTINUOUS
 62
     7
 10
-144.5
 20
-194.5
 30
0.0
  0
VERTEX
  5
4F6
  8
DATA
  6
CONTINUOUS
 62
     7
 10
-145.5
 20
-194.5
 30
0.0
  0
VERTEX
  5
4F7
  8
DATA
  6
CONTINUOUS
 62
     7
 10
-145.5
 20
-192.5
 30
0.0
  0
SEQEND
  5
4F8
  8
DATA
  6
CONTINUOUS
 62
     7
  0
POLYLINE
  5
E7
  8
DATA
  6
CONTINUOUS
 62
     7
 66
     1
 10
0.0
 20
0.0
 30
0.0
  0
VERTEX
  5
4F9
  8
DATA
  6
CONTINUOUS
 62
     7
 10
-144.5
 20
-191.5
 30
0.0
  0
VERTEX
  5
4FA
  8
DATA
  6
CONTINUOUS
 62
     7
 10
-142.5
 20
-191.5
 30
0.0
  0
VERTEX
  5
4FB
  8
DATA
  6
CONTINUOUS
 62
     7
 10
-142.5
 20
-192.5
 30
0.0
  0
VERTEX
  5
4FC
  8
DATA
  6
CONTINUOUS
 62
     7
 10
-144.5
 20
-192.5
 30
0.0
  0
SEQEND
  5
4FD
  8
DATA
  6
CONTINUOUS
 62
     7
  0
POLYLINE
  5
EE
  8
DATA
  6
CONTINUOUS
 62
     7
 66
     1
 10
0.0
 20
0.0
 30
0.0
  0
VERTEX
  5
4FE
  8
DATA
  6
CONTINUOUS
 62
     7
 10
-145.5
 20
-192.5
 30
0.0
  0
VERTEX
  5
4FF
  8
DATA
  6
CONTINUOUS
 62
     7
 10
-147.5
 20
-192.5
 30
0.0
  0
VERTEX
  5
500
  8
DATA
  6
CONTINUOUS
 62
     7
 10
-147.5
 20
-191.5
 30
0.0
  0
VERTEX
  5
501
  8
DATA
  6
CONTINUOUS
 62
     7
 10
-145.5
 20
-191.5
 30
0.0
  0
SEQEND
  5
502
  8
DATA
  6
CONTINUOUS
 62
     7
  0
CIRCLE
  5
F5
  8
DATA
  6
CONTINUOUS
 62
     7
 10
63.999999999999993
 20
-164.0
 30
0.0
 40
3.3499999999999939
  0
POLYLINE
  5
F6
  8
DATA
  6
CONTINUOUS
 62
     7
 66
     1
 10
0.0
 20
0.0
 30
0.0
  0
VERTEX
  5
503
  8
DATA
  6
CONTINUOUS
 62
     7
 10
63.499999999999993
 20
-163.5
 30
0.0
  0
VERTEX
  5
504
  8
DATA
  6
CONTINUOUS
 62
     7
 10
63.499999999999993
 20
-161.5
 30
0.0
  0
VERTEX
  5
505
  8
DATA
  6
CONTINUOUS
 62
     7
 10
64.499999999999986
 20
-161.5
 30
0.0
  0
VERTEX
  5
506
  8
DATA
  6
CONTINUOUS
 62
     7
 10
64.499999999999986
 20
-163.5
 30
0.0
  0
SEQEND
  5
507
  8
DATA
  6
CONTINUOUS
 62
     7
  0
POLYLINE
  5
FD
  8
DATA
  6
CONTINUOUS
 62
     7
 66
     1
 10
0.0
 20
0.0
 30
0.0
  0
VERTEX
  5
508
  8
DATA
  6
CONTINUOUS
 62
     7
 10
64.499999999999986
 20
-164.5
 30
0.0
  0
VERTEX
  5
509
  8
DATA
  6
CONTINUOUS
 62
     7
 10
64.499999999999986
 20
-166.5
 30
0.0
  0
VERTEX
  5
50A
  8
DATA
  6
CONTINUOUS
 62
     7
 10
63.499999999999993
 20
-166.5
 30
0.0
  0
VERTEX
  5
50B
  8
DATA
  6
CONTINUOUS
 62
     7
 10
63.499999999999993
 20
-164.5
 30
0.0
  0
SEQEND
  5
50C
  8
DATA
  6
CONTINUOUS
 62
     7
  0
POLYLINE
  5
104
  8
DATA
  6
CONTINUOUS
 62
     7
 66
     1
 10
0.0
 20
0.0
 30
0.0
  0
VERTEX
  5
50D
  8
DATA
  6
CONTINUOUS
 62
     7
 10
64.499999999999986
 20
-163.5
 30
0.0
  0
VERTEX
  5
50E
  8
DATA
  6
CONTINUOUS
 62
     7
 10
66.499999999999986
 20
-163.5
 30
0.0
  0
VERTEX
  5
50F
  8
DATA
  6
CONTINUOUS
 62
     7
 10
66.499999999999986
 20
-164.5
 30
0.0
  0
VERTEX
  5
510
  8
DATA
  6
CONTINUOUS
 62
     7
 10
64.499999999999986
 20
-164.5
 30
0.0
  0
SEQEND
  5
511
  8
DATA
  6
CONTINUOUS
 62
     7
  0
POLYLINE
  5
10B
  8
DATA
  6
CONTINUOUS
 62
     7
 66
     1
 10
0.0
 20
0.0
 30
0.0
  0
VERTEX
  5
512
  8
DATA
  6
CONTINUOUS
 62
     7
 10
63.499999999999993
 20
-164.5
 30
0.0
  0
VERTEX
  5
513
  8
DATA
  6
CONTINUOUS
 62
     7
 10
61.499999999999993
 20
-164.5
 30
0.0
  0
VERTEX
  5
514
  8
DATA
  6
CONTINUOUS
 62
     7
 10
61.499999999999993
 20
-163.5
 30
0.0
  0
VERTEX
  5
515
  8
DATA
  6
CONTINUOUS
 62
     7
 10
63.499999999999993
 20
-163.5
 30
0.0
  0
SEQEND
  5
516
  8
DATA
  6
CONTINUOUS
 62
     7
  0
CIRCLE
  5
112
  8
DATA
  6
CONTINUOUS
 62
     7
 10
63.999999999999993
 20
-192.0
 30
0.0
 40
3.3499999999999939
  0
POLYLINE
  5
113
  8
DATA
  6
CONTINUOUS
 62
     7
 66
     1
 10
0.0
 20
0.0
 30
0.0
  0
VERTEX
  5
517
  8
DATA
  6
CONTINUOUS
 62
     7
 10
63.499999999999993
 20
-191.5
 30
0.0
  0
VERTEX
  5
518
  8
DATA
  6
CONTINUOUS
 62
     7
 10
63.499999999999993
 20
-189.5
 30
0.0
  0
VERTEX
  5
519
  8
DATA
  6
CONTINUOUS
 62
     7
 10
64.499999999999986
 20
-189.5
 30
0.0
  0
VERTEX
  5
51A
  8
DATA
  6
CONTINUOUS
 62
     7
 10
64.499999999999986
 20
-191.5
 30
0.0
  0
SEQEND
  5
51B
  8
DATA
  6
CONTINUOUS
 62
     7
  0
POLYLINE
  5
11A
  8
DATA
  6
CONTINUOUS
 62
     7
 66
     1
 10
0.0
 20
0.0
 30
0.0
  0
VERTEX
  5
51C
  8
DATA
  6
CONTINUOUS
 62
     7
 10
64.499999999999986
 20
-192.5
 30
0.0
  0
VERTEX
  5
51D
  8
DATA
  6
CONTINUOUS
 62
     7
 10
64.499999999999986
 20
-194.5
 30
0.0
  0
VERTEX
  5
51E
  8
DATA
  6
CONTINUOUS
 62
     7
 10
63.499999999999993
 20
-194.5
 30
0.0
  0
VERTEX
  5
51F
  8
DATA
  6
CONTINUOUS
 62
     7
 10
63.499999999999993
 20
-192.5
 30
0.0
  0
SEQEND
  5
520
  8
DATA
  6
CONTINUOUS
 62
     7
  0
POLYLINE
  5
121
  8
DATA
  6
CONTINUOUS
 62
     7
 66
     1
 10
0.0
 20
0.0
 30
0.0
  0
VERTEX
  5
521
  8
DATA
  6
CONTINUOUS
 62
     7
 10
64.499999999999986
 20
-191.5
 30
0.0
  0
VERTEX
  5
522
  8
DATA
  6
CONTINUOUS
 62
     7
 10
66.499999999999986
 20
-191.5
 30
0.0
  0
VERTEX
  5
523
  8
DATA
  6
CONTINUOUS
 62
     7
 10
66.499999999999986
 20
-192.5
 30
0.0
  0
VERTEX
  5
524
  8
DATA
  6
CONTINUOUS
 62
     7
 10
64.499999999999986
 20
-192.5
 30
0.0
  0
SEQEND
  5
525
  8
DATA
  6
CONTINUOUS
 62
     7
  0
POLYLINE
  5
128
  8
DATA
  6
CONTINUOUS
 62
     7
 66
     1
 10
0.0
 20
0.0
 30
0.0
  0
VERTEX
  5
526
  8
DATA
  6
CONTINUOUS
 62
     7
 10
63.499999999999993
 20
-192.5
 30
0.0
  0
VERTEX
  5
527
  8
DATA
  6
CONTINUOUS
 62
     7
 10
61.499999999999993
 20
-192.5
 30
0.0
  0
VERTEX
  5
528
  8
DATA
  6
CONTINUOUS
 62
     7
 10
61.499999999999993
 20
-191.5
 30
0.0
  0
VERTEX
  5
529
  8
DATA
  6
CONTINUOUS
 62
     7
 10
63.499999999999993
 20
-191.5
 30
0.0
  0
SEQEND
  5
52A
  8
DATA
  6
CONTINUOUS
 62
     7
  0
CIRCLE
  5
12F
  8
DATA
  6
CONTINUOUS
 62
     7
 10
-134.5
 20
-187.49999
 30
0.0
 40
1.5999999999999941
  0
CIRCLE
  5
130
  8
DATA
  6
CONTINUOUS
 62
     7
 10
-115.5
 20
-187.49999
 30
0.0
 40
1.5999999999999941
  0
CIRCLE
  5
131
  8
DATA
  6
CONTINUOUS
 62
     7
 10
-110.0
 20
-187.49999
 30
0.0
 40
1.5999999999999941
  0
CIRCLE
  5
132
  8
DATA
  6
CONTINUOUS
 62
     7
 10
-98.200000000000003
 20
-187.49999
 30
0.0
 40
1.5999999999999941
  0
CIRCLE
  5
133
  8
DATA
  6
CONTINUOUS
 62
     7
 10
-83.200000000000003
 20
-187.49999
 30
0.0
 40
1.5999999999999941
  0
CIRCLE
  5
134
  8
DATA
  6
CONTINUOUS
 62
     7
 10
-69.000000000000014
 20
-187.49999
 30
0.0
 40
1.5999999999999941
  0
CIRCLE
  5
135
  8
DATA
  6
CONTINUOUS
 62
     7
 10
-54.000000000000021
 20
-187.49999
 30
0.0
 40
1.5999999999999941
  0
CIRCLE
  5
136
  8
DATA
  6
CONTINUOUS
 62
     7
 10
25.439260738626551
 20
-187.49999
 30
0.0
 40
1.5999999999999941
  0
CIRCLE
  5
137
  8
DATA
  6
CONTINUOUS
 62
     7
 10
35.999999999999993
 20
-187.49999
 30
0.0
 40
1.600000000000001
  0
CIRCLE
  5
138
  8
DATA
  6
CONTINUOUS
 62
     7
 10
-35.000000000000007
 20
-187.49999
 30
0.0
 40
1.5999999999999941
  0
CIRCLE
  5
139
  8
DATA
  6
CONTINUOUS
 62
     7
 10
-29.65000000000002
 20
-187.49999
 30
0.0
 40
1.5999999999999941
  0
CIRCLE
  5
13A
  8
DATA
  6
CONTINUOUS
 62
     7
 10
-24.300000000000011
 20
-187.49999
 30
0.0
 40
1.5999999999999941
  0
CIRCLE
  5
13B
  8
DATA
  6
CONTINUOUS
 62
     7
 10
-18.950000000000021
 20
-187.49999
 30
0.0
 40
1.5999999999999941
  0
CIRCLE
  5
13C
  8
DATA
  6
CONTINUOUS
 62
     7
 10
-13.6
 20
-187.49999
 30
0.0
 40
1.5999999999999941
  0
CIRCLE
  5
13D
  8
DATA
  6
CONTINUOUS
 62
     7
 10
-8.2500000000000142
 20
-187.49999
 30
0.0
 40
1.5999999999999941
  0
CIRCLE
  5
13E
  8
DATA
  6
CONTINUOUS
 62
     7
 10
-2.900000000000019
 20
-187.49999
 30
0.0
 40
1.5999999999999941
  0
CIRCLE
  5
13F
  8
DATA
  6
CONTINUOUS
 62
     7
 10
2.4499999999999882
 20
-187.49999
 30
0.0
 40
1.5999999999999941
  0
CIRCLE
  5
140
  8
DATA
  6
CONTINUOUS
 62
     7
 10
7.7999999999999972
 20
-187.49999
 30
0.0
 40
1.5999999999999941
  0
CIRCLE
  5
141
  8
DATA
  6
CONTINUOUS
 62
     7
 10
13.14999999999999
 20
-187.49999
 30
0.0
 40
1.5999999999999941
  0
CIRCLE
  5
142
  8
DATA
  6
CONTINUOUS
 62
     7
 10
-127.09999999999999
 20
-185.49999
 30
0.0
 40
1.5
  0
CIRCLE
  5
143
  8
DATA
  6
CONTINUOUS
 62
     7
 10
-91.0
 20
-185.49999
 30
0.0
 40
1.5
  0
CIRCLE
  5
144
  8
DATA
  6
CONTINUOUS
 62
     7
 10
-76.000000000000014
 20
-185.49999
 30
0.0
 40
1.5
  0
CIRCLE
  5
145
  8
DATA
  6
CONTINUOUS
 62
     7
 10
-61.000000000000021
 20
-185.49999
 30
0.0
 40
1.5
  0
CIRCLE
  5
146
  8
DATA
  6
CONTINUOUS
 62
     7
 10
-47.000000000000007
 20
-185.49999
 30
0.0
 40
1.5
  0
CIRCLE
  5
147
  8
DATA
  6
CONTINUOUS
 62
     7
 10
-127.09999999999999
 20
-185.49999
 30
0.0
 40
1.650000000000005
  0
CIRCLE
  5
148
  8
DATA
  6
CONTINUOUS
 62
     7
 10
-91.0
 20
-185.49999
 30
0.0
 40
1.650000000000005
  0
CIRCLE
  5
149
  8
DATA
  6
CONTINUOUS
 62
     7
 10
-76.000000000000014
 20
-185.49999
 30
0.0
 40
1.650000000000005
  0
CIRCLE
  5
14A
  8
DATA
  6
CONTINUOUS
 62
     7
 10
-61.000000000000021
 20
-185.49999
 30
0.0
 40
1.650000000000005
  0
CIRCLE
  5
14B
  8
DATA
  6
CONTINUOUS
 62
     7
 10
-47.000000000000007
 20
-185.49999
 30
0.0
 40
1.650000000000005
  0
LINE
  5
14C
  8
DATA
  6
CONTINUOUS
 62
     7
 10
-121.0
 20
-172.99998999999991
 30
0.0
 11
-121.0
 21
-191.99999
 31
0.0
  0
LINE
  5
14D
  8
DATA
  6
CONTINUOUS
 62
     5
 10
-121.0
 20
-199.99999
 30
0.0
 11
-121.0
 21
-200.0
 31
0.0
  0
LINE
  5
14E
  8
DATA
  6
CONTINUOUS
 62
     7
 10
-104.0
 20
-174.99998999999991
 30
0.0
 11
-104.0
 21
-191.99999
 31
0.0
  0
LINE
  5
14F
  8
DATA
  6
CONTINUOUS
 62
     7
 10
-57.500000000000021
 20
-172.99998999999991
 30
0.0
 11
-57.500000000000021
 21
-191.99999
 31
0.0
  0
LINE
  5
150
  8
DATA
  6
CONTINUOUS
 62
     5
 10
-57.500000000000021
 20
-199.99999
 30
0.0
 11
-57.500000000000021
 21
-200.0
 31
0.0
  0
LINE
  5
151
  8
DATA
  6
CONTINUOUS
 62
     7
 10
30.999999999999989
 20
-191.99999
 30
0.0
 11
30.999999999999989
 21
-172.99998999999991
 31
0.0
  0
LINE
  5
152
  8
DATA
  6
CONTINUOUS
 62
     7
 10
19.499999999999979
 20
-191.99999
 30
0.0
 11
19.499999999999979
 21
-179.99998999999991
 31
0.0
  0
TEXT
  5
153
  8
DATA
 62
     7
 10
-138.96429394813771
 20
-180.9999835643913
 30
0.0
 40
1.6288411458333329
  1
   BYPASS
 41
0.8
 11
-138.96429394813771
 21
-179.37114241855801
 31
0.0
 73
     3
  0
TEXT
  5
154
  8
DATA
 62
     7
 10
-138.96429394813771
 20
-183.11665023105789
 30
0.0
 40
1.6288411458333329
  1
DFR FILTERS
 41
0.8
 11
-138.96429394813771
 21
-181.4878090852246
 31
0.0
 73
     3
  0
TEXT
  5
155
  8
DATA
 62
     7
 10
-95.105258369654521
 20
-182.98664337691861
 30
0.0
 40
1.6288411458333329
  1
1
 41
0.8
 11
-95.105258369654521
 21
-181.35780223108529
 31
0.0
 73
     3
  0
TEXT
  5
156
  8
DATA
 62
     7
 10
-80.061051673930905
 20
-183.0813850072642
 30
0.0
 40
1.6288411458333329
  1
2
 41
0.8
 11
-80.061051673930905
 21
-181.45254386143091
 31
0.0
 73
     3
  0
TEXT
  5
157
  8
DATA
 62
     7
 10
-65.677896652138173
 20
-183.05928165940239
 30
0.0
 40
1.6288411458333329
  1
3
 41
0.8
 11
-65.677896652138173
 21
-181.4304405135691
 31
0.0
 73
     3
  0
TEXT
  5
158
  8
DATA
 62
     7
 10
-54.855793304276389
 20
-180.86872852946701
 30
0.0
 40
1.6288411458333329
  1
 PRESS
 41
0.8
 11
-54.855793304276389
 21
-179.23988738363369
 31
0.0
 73
     3
  0
TEXT
  5
159
  8
DATA
 62
     7
 10
-54.855793304276389
 20
-182.98539519613371
 30
0.0
 40
1.6288411458333329
  1
TO LOCK
 41
0.8
 11
-54.855793304276389
 21
-181.35655405030039
 31
0.0
 73
     3
  0
TEXT
  5
15A
  8
DATA
 62
     7
 10
-16.48422489103643
 20
-183.0255917029877
 30
0.0
 40
1.6288411458333329
  1
DFR FILTERS
 41
0.8
 11
-16.48422489103643
 21
-181.39675055715429
 31
0.0
 73
     3
  0
TEXT
  5
15B
  8
DATA
 62
     7
 10
23.231786394615611
 20
-182.92780767734419
 30
0.0
 40
1.6288411458333329
  1
DATA
 41
0.8
 11
23.231786394615611
 21
-181.2989665315109
 31
0.0
 73
     3
  0
TEXT
  5
15C
  8
DATA
 62
     7
 10
33.596262827994522
 20
-182.98949144800361
 30
0.0
 40
1.6288411458333329
  1
POWER
 41
0.8
 11
33.596262827994522
 21
-181.3606503021702
 31
0.0
 73
     3
  0
TEXT
  5
15D
  8
DATA
 62
     7
 10
33.495318318708598
 20
-197.2427563653662
 30
0.0
 40
1.6288411458333329
  1
DSP・20 BIT・48KHz　 
 41
0.8
 11
33.495318318708598
 21
-195.6139152195328
 31
0.0
 73
     3
  0
TEXT
  5
15E
  8
DATA
 62
     7
 10
-54.449527745357017
 20
-192.03528202135519
 30
0.0
 40
1.6288411458333329
  1
HOLD TO
 41
0.8
 11
-54.449527745357017
 21
-190.40644087552189
 31
0.0
 73
     3
  0
TEXT
  5
15F
  8
DATA
 62
     7
 10
-54.449527745357017
 20
-194.1519486880218
 30
0.0
 40
1.6288411458333329
  1
 CLEAR
 41
0.8
 11
-54.449527745357017
 21
-192.52310754218851
 31
0.0
 73
     3
  0
TEXT
  5
160
  8
DATA
 62
     7
 10
-82.672895286675782
 20
-193.0969657920146
 30
0.0
 40
1.6288411458333329
  1
SCENES
 41
0.8
 11
-82.672895286675782
 21
-191.4681246461812
 31
0.0
 73
     3
  0
TEXT
  5
161
  8
DATA
 62
     7
 10
-111.9897329932695
 20
-194.41285898932239
 30
0.0
 40
1.6288411458333329
  1
CLIP
 41
0.8
 11
-111.9897329932695
 21
-192.78401784348901
 31
0.0
 73
     3
  0
TEXT
  5
162
  8
DATA
 62
     7
 10
-121.325
 20
-194.37866666666659
 30
0.0
 40
1.6288411458333329
  1
SIGNAL
 41
0.8
 11
-121.325
 21
-192.7498255208333
 31
0.0
 73
     3
  0
LINE
  5
163
  8
DATA
  6
CONTINUOUS
 62
     7
 10
-115.59999999999999
 20
-189.59999999999999
 30
0.0
 11
-115.59999999999999
 21
-191.59999999999999
 31
0.0
  0
LINE
  5
164
  8
DATA
  6
CONTINUOUS
 62
     7
 10
-109.9457905733515
 20
-189.59999999999999
 30
0.0
 11
-109.9457905733515
 21
-191.59999999999999
 31
0.0
  0
TEXT
  5
165
  8
DATA
 62
     7
 10
17.74020524791214
 20
-166.28690586319871
 30
0.0
 40
2.1717881944444439
  1
DIGITAL EQ + FEEDBACK REDUCER
 41
0.8
 11
17.74020524791214
 21
-164.11511766875421
 31
0.0
 73
     3
  0
TEXT
  5
166
  8
DATA
 62
     7
 10
38.132730903901148
 20
-163.43625618193829
 30
0.0
 40
3.8006293402777769
  1
DFR
 41
0.8
 11
38.132730903901148
 21
-159.63562684166061
 31
0.0
 73
     3
  0
TEXT
  5
167
  8
DATA
 62
     7
 10
45.762085390280788
 20
-163.4621597857325
 30
0.0
 40
2.7147352430555549
  1
11EQ
 41
0.8
 11
45.762085390280788
 21
-160.7474245426769
 31
0.0
 73
     3
  0
TEXT
  5
168
  8
DATA
 62
     7
 10
-99.083333333333314
 20
-167.5573834134841
 30
0.0
 40
6.5153645833333318
  1
SHURE
 41
0.8
 11
-99.083333333333314
 21
-161.04201883015071
 31
0.0
 73
     3
  0
LINE
  5
169
  8
DATA
  6
CONTINUOUS
 62
     7
 10
-147.0
 20
-167.9486241012093
 30
0.0
 11
-130.44202160378259
 21
-167.9486241012093
 31
0.0
  0
LINE
  5
16A
  8
DATA
  6
CONTINUOUS
 62
     7
 10
-48.057978396217393
 20
-167.9486241012093
 30
0.0
 11
65.999999999999986
 21
-167.9486241012093
 31
0.0
  0
ARC
  5
16B
  8
DATA
  6
CONTINUOUS
 62
     7
 10
-89.250000000000014
 20
-61.725534037268972
 30
0.0
 40
110.7244659627311
 50
257.5271714504359
 51
282.47282854956399
  0
ARC
  5
16C
  8
DATA
  6
CONTINUOUS
 62
     7
 10
-48.057978396217393
 20
-247.9486241012057
 30
0.0
 40
79.999999999996334
 50
90.0
 51
102.4728285495646
  0
ARC
  5
16D
  8
DATA
  6
CONTINUOUS
 62
     7
 10
-130.44202160378259
 20
-247.94862410120601
 30
0.0
 40
79.999999999996575
 50
77.527171450435432
 51
90.0
  0
LINE
  5
16E
  8
DATA
  6
CONTINUOUS
 62
     7
 10
68.999999999999986
 20
-110.0
 30
0.0
 11
68.999999999999986
 21
29.000000000000028
 31
0.0
  0
LINE
  5
16F
  8
DATA
  6
CONTINUOUS
 62
     7
 10
-150.0
 20
-110.0
 30
0.0
 11
-148.34999999999999
 21
-110.0
 31
0.0
  0
LINE
  5
170
  8
DATA
  6
CONTINUOUS
 62
     7
 10
-141.65000000000001
 20
-110.0
 30
0.0
 11
60.649999999999991
 21
-110.0
 31
0.0
  0
LINE
  5
171
  8
DATA
  6
CONTINUOUS
 62
     7
 10
67.34999999999998
 20
-110.0
 30
0.0
 11
68.999999999999943
 21
-110.0
 31
0.0
  0
LINE
  5
172
  8
DATA
  6
CONTINUOUS
 62
     7
 10
-150.0
 20
-110.0
 30
0.0
 11
-150.0
 21
29.0
 31
0.0
  0
LINE
  5
173
  8
DATA
  6
CONTINUOUS
 62
     7
 10
-150.0
 20
29.0
 30
0.0
 11
68.999999999999986
 21
29.0
 31
0.0
  0
LINE
  5
174
  8
DATA
  6
CONTINUOUS
 62
     7
 10
-150.0
 20
-108.0
 30
0.0
 11
68.999999999999986
 21
-108.0
 31
0.0
  0
LINE
  5
175
  8
DATA
  6
CONTINUOUS
 62
     7
 10
-150.0
 20
-106.40000000000001
 30
0.0
 11
68.999999999999986
 21
-106.40000000000001
 31
0.0
  0
LINE
  5
176
  8
DATA
  6
CONTINUOUS
 62
     7
 10
-150.0
 20
27.5
 30
0.0
 11
68.999999999999986
 21
27.5
 31
0.0
  0
LINE
  5
177
  8
DATA
  6
CONTINUOUS
 62
     7
 10
-140.5
 20
-106.40000000000001
 30
0.0
 11
-140.5
 21
27.5
 31
0.0
  0
LINE
  5
178
  8
DATA
  6
CONTINUOUS
 62
     7
 10
59.499999999999993
 20
-106.40000000000001
 30
0.0
 11
59.499999999999993
 21
27.5
 31
0.0
  0
CIRCLE
  5
179
  8
DATA
  6
CONTINUOUS
 62
     7
 10
-145.0
 20
10.5
 30
0.0
 40
1.400000000000005
  0
CIRCLE
  5
17A
  8
DATA
  6
CONTINUOUS
 62
     7
 10
-145.0
 20
10.5
 30
0.0
 40
2.75
  0
CIRCLE
  5
17B
  8
DATA
  6
CONTINUOUS
 62
     7
 10
-145.0
 20
-89.400000000000006
 30
0.0
 40
1.400000000000005
  0
CIRCLE
  5
17C
  8
DATA
  6
CONTINUOUS
 62
     7
 10
-145.0
 20
-89.400000000000006
 30
0.0
 40
2.75
  0
CIRCLE
  5
17D
  8
DATA
  6
CONTINUOUS
 62
     7
 10
63.999999999999993
 20
10.5
 30
0.0
 40
1.400000000000005
  0
CIRCLE
  5
17E
  8
DATA
  6
CONTINUOUS
 62
     7
 10
63.999999999999993
 20
10.5
 30
0.0
 40
2.75
  0
CIRCLE
  5
17F
  8
DATA
  6
CONTINUOUS
 62
     7
 10
63.999999999999993
 20
-89.400000000000006
 30
0.0
 40
1.400000000000005
  0
CIRCLE
  5
180
  8
DATA
  6
CONTINUOUS
 62
     7
 10
63.999999999999993
 20
-89.400000000000006
 30
0.0
 40
2.75
  0
LINE
  5
181
  8
DATA
  6
CONTINUOUS
 62
     7
 10
-147.34999999999999
 20
-111.0
 30
0.0
 11
-142.65000000000001
 21
-111.0
 31
0.0
  0
LINE
  5
182
  8
DATA
  6
CONTINUOUS
 62
     7
 10
61.649999999999991
 20
-111.0
 30
0.0
 11
66.34999999999998
 21
-111.0
 31
0.0
  0
LINE
  5
183
  8
DATA
  6
CONTINUOUS
 62
     7
 10
60.649999999999991
 20
-110.0
 30
0.0
 11
60.649999999999991
 21
-108.0
 31
0.0
  0
LINE
  5
184
  8
DATA
  6
CONTINUOUS
 62
     7
 10
67.34999999999998
 20
-110.0
 30
0.0
 11
67.34999999999998
 21
-108.0
 31
0.0
  0
LINE
  5
185
  8
DATA
  6
CONTINUOUS
 62
     7
 10
-148.34999999999999
 20
-110.0
 30
0.0
 11
-148.34999999999999
 21
-108.0
 31
0.0
  0
LINE
  5
186
  8
DATA
  6
CONTINUOUS
 62
     7
 10
-141.65000000000001
 20
-110.0
 30
0.0
 11
-141.65000000000001
 21
-108.0
 31
0.0
  0
ARC
  5
187
  8
DATA
  6
CONTINUOUS
 62
     7
 10
-147.34999999999999
 20
-110.0
 30
0.0
 40
1.0
 50
180.0
 51
270.0
  0
ARC
  5
188
  8
DATA
  6
CONTINUOUS
 62
     7
 10
-142.65000000000001
 20
-110.0
 30
0.0
 40
1.0
 50
270.0
 51
0.0
  0
ARC
  5
189
  8
DATA
  6
CONTINUOUS
 62
     7
 10
61.649999999999991
 20
-110.0
 30
0.0
 40
1.0
 50
180.0
 51
270.0
  0
ARC
  5
18A
  8
DATA
  6
CONTINUOUS
 62
     7
 10
66.34999999999998
 20
-110.0
 30
0.0
 40
1.0
 50
270.0
 51
0.0
  0
LINE
  5
18B
  8
DATA
  6
CONTINUOUS
 62
     7
 10
-128.59999999999999
 20
-110.0
 30
0.0
 11
-128.59999999999999
 21
-110.5
 31
0.0
  0
LINE
  5
18C
  8
DATA
  6
CONTINUOUS
 62
     7
 10
-125.59999999999999
 20
-110.0
 30
0.0
 11
-125.59999999999999
 21
-110.5
 31
0.0
  0
LINE
  5
18D
  8
DATA
  6
CONTINUOUS
 62
     7
 10
-92.5
 20
-110.5
 30
0.0
 11
-92.5
 21
-110.0
 31
0.0
  0
LINE
  5
18E
  8
DATA
  6
CONTINUOUS
 62
     7
 10
-89.500000000000014
 20
-110.5
 30
0.0
 11
-89.500000000000014
 21
-110.0
 31
0.0
  0
LINE
  5
18F
  8
DATA
  6
CONTINUOUS
 62
     7
 10
-77.500000000000014
 20
-110.5
 30
0.0
 11
-77.500000000000014
 21
-110.0
 31
0.0
  0
LINE
  5
190
  8
DATA
  6
CONTINUOUS
 62
     7
 10
-74.500000000000014
 20
-110.5
 30
0.0
 11
-74.500000000000014
 21
-110.0
 31
0.0
  0
LINE
  5
191
  8
DATA
  6
CONTINUOUS
 62
     7
 10
-62.500000000000021
 20
-110.5
 30
0.0
 11
-62.500000000000021
 21
-110.0
 31
0.0
  0
LINE
  5
192
  8
DATA
  6
CONTINUOUS
 62
     7
 10
-59.500000000000021
 20
-110.5
 30
0.0
 11
-59.500000000000021
 21
-110.0
 31
0.0
  0
LINE
  5
193
  8
DATA
  6
CONTINUOUS
 62
     7
 10
-62.500000000000021
 20
-110.5
 30
0.0
 11
-59.479999999999983
 21
-110.5
 31
0.0
  0
LINE
  5
194
  8
DATA
  6
CONTINUOUS
 62
     7
 10
-77.500000000000014
 20
-110.5
 30
0.0
 11
-74.499999999999986
 21
-110.5
 31
0.0
  0
LINE
  5
195
  8
DATA
  6
CONTINUOUS
 62
     7
 10
-89.500000000000014
 20
-110.5
 30
0.0
 11
-92.499999999999986
 21
-110.5
 31
0.0
  0
LINE
  5
196
  8
DATA
  6
CONTINUOUS
 62
     7
 10
-125.59999999999999
 20
-110.5
 30
0.0
 11
-128.59999999999999
 21
-110.5
 31
0.0
  0
POLYLINE
  5
197
  8
DATA
  6
CONTINUOUS
 62
     7
 66
     1
 10
0.0
 20
0.0
 30
0.0
 70
   129
  0
VERTEX
  5
52B
  8
DATA
  6
CONTINUOUS
 62
     7
 10
68.999999999999986
 20
102.0
 30
0.0
 42
-0.4142135623730951
  0
VERTEX
  5
52C
  8
DATA
  6
CONTINUOUS
 62
     7
 10
66.999999999999986
 20
100.0
 30
0.0
  0
VERTEX
  5
52D
  8
DATA
  6
CONTINUOUS
 62
     7
 10
-148.0
 20
100.0
 30
0.0
 42
-0.4142135623730951
  0
VERTEX
  5
52E
  8
DATA
  6
CONTINUOUS
 62
     7
 10
-150.0
 20
102.0
 30
0.0
  0
VERTEX
  5
52F
  8
DATA
  6
CONTINUOUS
 62
     7
 10
-150.0
 20
142.0
 30
0.0
 42
-0.4142135623730951
  0
VERTEX
  5
530
  8
DATA
  6
CONTINUOUS
 62
     7
 10
-148.0
 20
144.0
 30
0.0
  0
VERTEX
  5
531
  8
DATA
  6
CONTINUOUS
 62
     7
 10
66.999999999999986
 20
144.0
 30
0.0
 42
-0.4142135623730951
  0
VERTEX
  5
532
  8
DATA
  6
CONTINUOUS
 62
     7
 10
68.999999999999986
 20
142.0
 30
0.0
  0
SEQEND
  5
533
  8
DATA
  6
CONTINUOUS
 62
     7
  0
CIRCLE
  5
1A1
  8
DATA
  6
CONTINUOUS
 62
     7
 10
63.999999999999993
 20
108.0
 30
0.0
 40
3.3499999999999939
  0
POLYLINE
  5
1A2
  8
DATA
  6
CONTINUOUS
 62
     7
 66
     1
 10
0.0
 20
0.0
 30
0.0
  0
VERTEX
  5
534
  8
DATA
  6
CONTINUOUS
 62
     7
 10
64.499999999999986
 20
107.5
 30
0.0
  0
VERTEX
  5
535
  8
DATA
  6
CONTINUOUS
 62
     7
 10
64.499999999999986
 20
105.5
 30
0.0
  0
VERTEX
  5
536
  8
DATA
  6
CONTINUOUS
 62
     7
 10
63.499999999999993
 20
105.5
 30
0.0
  0
VERTEX
  5
537
  8
DATA
  6
CONTINUOUS
 62
     7
 10
63.499999999999993
 20
107.5
 30
0.0
  0
SEQEND
  5
538
  8
DATA
  6
CONTINUOUS
 62
     7
  0
POLYLINE
  5
1A9
  8
DATA
  6
CONTINUOUS
 62
     7
 66
     1
 10
0.0
 20
0.0
 30
0.0
  0
VERTEX
  5
539
  8
DATA
  6
CONTINUOUS
 62
     7
 10
63.499999999999993
 20
108.5
 30
0.0
  0
VERTEX
  5
53A
  8
DATA
  6
CONTINUOUS
 62
     7
 10
63.499999999999993
 20
110.5
 30
0.0
  0
VERTEX
  5
53B
  8
DATA
  6
CONTINUOUS
 62
     7
 10
64.499999999999986
 20
110.5
 30
0.0
  0
VERTEX
  5
53C
  8
DATA
  6
CONTINUOUS
 62
     7
 10
64.499999999999986
 20
108.5
 30
0.0
  0
SEQEND
  5
53D
  8
DATA
  6
CONTINUOUS
 62
     7
  0
POLYLINE
  5
1B0
  8
DATA
  6
CONTINUOUS
 62
     7
 66
     1
 10
0.0
 20
0.0
 30
0.0
  0
VERTEX
  5
53E
  8
DATA
  6
CONTINUOUS
 62
     7
 10
63.499999999999993
 20
107.5
 30
0.0
  0
VERTEX
  5
53F
  8
DATA
  6
CONTINUOUS
 62
     7
 10
61.499999999999993
 20
107.5
 30
0.0
  0
VERTEX
  5
540
  8
DATA
  6
CONTINUOUS
 62
     7
 10
61.499999999999993
 20
108.5
 30
0.0
  0
VERTEX
  5
541
  8
DATA
  6
CONTINUOUS
 62
     7
 10
63.499999999999993
 20
108.5
 30
0.0
  0
SEQEND
  5
542
  8
DATA
  6
CONTINUOUS
 62
     7
  0
POLYLINE
  5
1B7
  8
DATA
  6
CONTINUOUS
 62
     7
 66
     1
 10
0.0
 20
0.0
 30
0.0
  0
VERTEX
  5
543
  8
DATA
  6
CONTINUOUS
 62
     7
 10
64.499999999999986
 20
108.5
 30
0.0
  0
VERTEX
  5
544
  8
DATA
  6
CONTINUOUS
 62
     7
 10
66.499999999999986
 20
108.5
 30
0.0
  0
VERTEX
  5
545
  8
DATA
  6
CONTINUOUS
 62
     7
 10
66.499999999999986
 20
107.5
 30
0.0
  0
VERTEX
  5
546
  8
DATA
  6
CONTINUOUS
 62
     7
 10
64.499999999999986
 20
107.5
 30
0.0
  0
SEQEND
  5
547
  8
DATA
  6
CONTINUOUS
 62
     7
  0
CIRCLE
  5
1BE
  8
DATA
  6
CONTINUOUS
 62
     7
 10
63.999999999999993
 20
136.0
 30
0.0
 40
3.3499999999999939
  0
POLYLINE
  5
1BF
  8
DATA
  6
CONTINUOUS
 62
     7
 66
     1
 10
0.0
 20
0.0
 30
0.0
  0
VERTEX
  5
548
  8
DATA
  6
CONTINUOUS
 62
     7
 10
64.499999999999986
 20
135.5
 30
0.0
  0
VERTEX
  5
549
  8
DATA
  6
CONTINUOUS
 62
     7
 10
64.499999999999986
 20
133.5
 30
0.0
  0
VERTEX
  5
54A
  8
DATA
  6
CONTINUOUS
 62
     7
 10
63.499999999999993
 20
133.5
 30
0.0
  0
VERTEX
  5
54B
  8
DATA
  6
CONTINUOUS
 62
     7
 10
63.499999999999993
 20
135.5
 30
0.0
  0
SEQEND
  5
54C
  8
DATA
  6
CONTINUOUS
 62
     7
  0
POLYLINE
  5
1C6
  8
DATA
  6
CONTINUOUS
 62
     7
 66
     1
 10
0.0
 20
0.0
 30
0.0
  0
VERTEX
  5
54D
  8
DATA
  6
CONTINUOUS
 62
     7
 10
63.499999999999993
 20
136.5
 30
0.0
  0
VERTEX
  5
54E
  8
DATA
  6
CONTINUOUS
 62
     7
 10
63.499999999999993
 20
138.5
 30
0.0
  0
VERTEX
  5
54F
  8
DATA
  6
CONTINUOUS
 62
     7
 10
64.499999999999986
 20
138.5
 30
0.0
  0
VERTEX
  5
550
  8
DATA
  6
CONTINUOUS
 62
     7
 10
64.499999999999986
 20
136.5
 30
0.0
  0
SEQEND
  5
551
  8
DATA
  6
CONTINUOUS
 62
     7
  0
POLYLINE
  5
1CD
  8
DATA
  6
CONTINUOUS
 62
     7
 66
     1
 10
0.0
 20
0.0
 30
0.0
  0
VERTEX
  5
552
  8
DATA
  6
CONTINUOUS
 62
     7
 10
63.499999999999993
 20
135.5
 30
0.0
  0
VERTEX
  5
553
  8
DATA
  6
CONTINUOUS
 62
     7
 10
61.499999999999993
 20
135.5
 30
0.0
  0
VERTEX
  5
554
  8
DATA
  6
CONTINUOUS
 62
     7
 10
61.499999999999993
 20
136.5
 30
0.0
  0
VERTEX
  5
555
  8
DATA
  6
CONTINUOUS
 62
     7
 10
63.499999999999993
 20
136.5
 30
0.0
  0
SEQEND
  5
556
  8
DATA
  6
CONTINUOUS
 62
     7
  0
POLYLINE
  5
1D4
  8
DATA
  6
CONTINUOUS
 62
     7
 66
     1
 10
0.0
 20
0.0
 30
0.0
  0
VERTEX
  5
557
  8
DATA
  6
CONTINUOUS
 62
     7
 10
64.499999999999986
 20
136.5
 30
0.0
  0
VERTEX
  5
558
  8
DATA
  6
CONTINUOUS
 62
     7
 10
66.499999999999986
 20
136.5
 30
0.0
  0
VERTEX
  5
559
  8
DATA
  6
CONTINUOUS
 62
     7
 10
66.499999999999986
 20
135.5
 30
0.0
  0
VERTEX
  5
55A
  8
DATA
  6
CONTINUOUS
 62
     7
 10
64.499999999999986
 20
135.5
 30
0.0
  0
SEQEND
  5
55B
  8
DATA
  6
CONTINUOUS
 62
     7
  0
CIRCLE
  5
1DB
  8
DATA
  6
CONTINUOUS
 62
     7
 10
-145.0
 20
108.0
 30
0.0
 40
3.3499999999999939
  0
POLYLINE
  5
1DC
  8
DATA
  6
CONTINUOUS
 62
     7
 66
     1
 10
0.0
 20
0.0
 30
0.0
  0
VERTEX
  5
55C
  8
DATA
  6
CONTINUOUS
 62
     7
 10
-144.5
 20
107.5
 30
0.0
  0
VERTEX
  5
55D
  8
DATA
  6
CONTINUOUS
 62
     7
 10
-144.5
 20
105.5
 30
0.0
  0
VERTEX
  5
55E
  8
DATA
  6
CONTINUOUS
 62
     7
 10
-145.5
 20
105.5
 30
0.0
  0
VERTEX
  5
55F
  8
DATA
  6
CONTINUOUS
 62
     7
 10
-145.5
 20
107.5
 30
0.0
  0
SEQEND
  5
560
  8
DATA
  6
CONTINUOUS
 62
     7
  0
POLYLINE
  5
1E3
  8
DATA
  6
CONTINUOUS
 62
     7
 66
     1
 10
0.0
 20
0.0
 30
0.0
  0
VERTEX
  5
561
  8
DATA
  6
CONTINUOUS
 62
     7
 10
-145.5
 20
108.5
 30
0.0
  0
VERTEX
  5
562
  8
DATA
  6
CONTINUOUS
 62
     7
 10
-145.5
 20
110.5
 30
0.0
  0
VERTEX
  5
563
  8
DATA
  6
CONTINUOUS
 62
     7
 10
-144.5
 20
110.5
 30
0.0
  0
VERTEX
  5
564
  8
DATA
  6
CONTINUOUS
 62
     7
 10
-144.5
 20
108.5
 30
0.0
  0
SEQEND
  5
565
  8
DATA
  6
CONTINUOUS
 62
     7
  0
POLYLINE
  5
1EA
  8
DATA
  6
CONTINUOUS
 62
     7
 66
     1
 10
0.0
 20
0.0
 30
0.0
  0
VERTEX
  5
566
  8
DATA
  6
CONTINUOUS
 62
     7
 10
-145.5
 20
107.5
 30
0.0
  0
VERTEX
  5
567
  8
DATA
  6
CONTINUOUS
 62
     7
 10
-147.5
 20
107.5
 30
0.0
  0
VERTEX
  5
568
  8
DATA
  6
CONTINUOUS
 62
     7
 10
-147.5
 20
108.5
 30
0.0
  0
VERTEX
  5
569
  8
DATA
  6
CONTINUOUS
 62
     7
 10
-145.5
 20
108.5
 30
0.0
  0
SEQEND
  5
56A
  8
DATA
  6
CONTINUOUS
 62
     7
  0
POLYLINE
  5
1F1
  8
DATA
  6
CONTINUOUS
 62
     7
 66
     1
 10
0.0
 20
0.0
 30
0.0
  0
VERTEX
  5
56B
  8
DATA
  6
CONTINUOUS
 62
     7
 10
-144.5
 20
108.5
 30
0.0
  0
VERTEX
  5
56C
  8
DATA
  6
CONTINUOUS
 62
     7
 10
-142.5
 20
108.5
 30
0.0
  0
VERTEX
  5
56D
  8
DATA
  6
CONTINUOUS
 62
     7
 10
-142.5
 20
107.5
 30
0.0
  0
VERTEX
  5
56E
  8
DATA
  6
CONTINUOUS
 62
     7
 10
-144.5
 20
107.5
 30
0.0
  0
SEQEND
  5
56F
  8
DATA
  6
CONTINUOUS
 62
     7
  0
CIRCLE
  5
1F8
  8
DATA
  6
CONTINUOUS
 62
     7
 10
-145.0
 20
136.0
 30
0.0
 40
3.3499999999999939
  0
POLYLINE
  5
1F9
  8
DATA
  6
CONTINUOUS
 62
     7
 66
     1
 10
0.0
 20
0.0
 30
0.0
  0
VERTEX
  5
570
  8
DATA
  6
CONTINUOUS
 62
     7
 10
-144.5
 20
135.5
 30
0.0
  0
VERTEX
  5
571
  8
DATA
  6
CONTINUOUS
 62
     7
 10
-144.5
 20
133.5
 30
0.0
  0
VERTEX
  5
572
  8
DATA
  6
CONTINUOUS
 62
     7
 10
-145.5
 20
133.5
 30
0.0
  0
VERTEX
  5
573
  8
DATA
  6
CONTINUOUS
 62
     7
 10
-145.5
 20
135.5
 30
0.0
  0
SEQEND
  5
574
  8
DATA
  6
CONTINUOUS
 62
     7
  0
POLYLINE
  5
200
  8
DATA
  6
CONTINUOUS
 62
     7
 66
     1
 10
0.0
 20
0.0
 30
0.0
  0
VERTEX
  5
575
  8
DATA
  6
CONTINUOUS
 62
     7
 10
-145.5
 20
136.5
 30
0.0
  0
VERTEX
  5
576
  8
DATA
  6
CONTINUOUS
 62
     7
 10
-145.5
 20
138.5
 30
0.0
  0
VERTEX
  5
577
  8
DATA
  6
CONTINUOUS
 62
     7
 10
-144.5
 20
138.5
 30
0.0
  0
VERTEX
  5
578
  8
DATA
  6
CONTINUOUS
 62
     7
 10
-144.5
 20
136.5
 30
0.0
  0
SEQEND
  5
579
  8
DATA
  6
CONTINUOUS
 62
     7
  0
POLYLINE
  5
207
  8
DATA
  6
CONTINUOUS
 62
     7
 66
     1
 10
0.0
 20
0.0
 30
0.0
  0
VERTEX
  5
57A
  8
DATA
  6
CONTINUOUS
 62
     7
 10
-145.5
 20
135.5
 30
0.0
  0
VERTEX
  5
57B
  8
DATA
  6
CONTINUOUS
 62
     7
 10
-147.5
 20
135.5
 30
0.0
  0
VERTEX
  5
57C
  8
DATA
  6
CONTINUOUS
 62
     7
 10
-147.5
 20
136.5
 30
0.0
  0
VERTEX
  5
57D
  8
DATA
  6
CONTINUOUS
 62
     7
 10
-145.5
 20
136.5
 30
0.0
  0
SEQEND
  5
57E
  8
DATA
  6
CONTINUOUS
 62
     7
  0
POLYLINE
  5
20E
  8
DATA
  6
CONTINUOUS
 62
     7
 66
     1
 10
0.0
 20
0.0
 30
0.0
  0
VERTEX
  5
57F
  8
DATA
  6
CONTINUOUS
 62
     7
 10
-144.5
 20
136.5
 30
0.0
  0
VERTEX
  5
580
  8
DATA
  6
CONTINUOUS
 62
     7
 10
-142.5
 20
136.5
 30
0.0
  0
VERTEX
  5
581
  8
DATA
  6
CONTINUOUS
 62
     7
 10
-142.5
 20
135.5
 30
0.0
  0
VERTEX
  5
582
  8
DATA
  6
CONTINUOUS
 62
     7
 10
-144.5
 20
135.5
 30
0.0
  0
SEQEND
  5
583
  8
DATA
  6
CONTINUOUS
 62
     7
  0
LINE
  5
215
  8
DATA
  6
CONTINUOUS
 62
     5
 10
40.0
 20
143.99998999999991
 30
0.0
 11
40.0
 21
144.0
 31
0.0
  0
LINE
  5
216
  8
DATA
  6
CONTINUOUS
 62
     7
 10
-23.500000000000011
 20
143.99998999999991
 30
0.0
 11
-23.500000000000011
 21
144.0
 31
0.0
  0
LINE
  5
217
  8
DATA
  6
CONTINUOUS
 62
     7
 10
29.199999999999971
 20
136.5
 30
0.0
 11
29.199999999999971
 21
105.5
 31
0.0
  0
LINE
  5
218
  8
DATA
  6
CONTINUOUS
 62
     7
 10
59.199999999999982
 20
136.5
 30
0.0
 11
59.199999999999982
 21
105.5
 31
0.0
  0
LINE
  5
219
  8
DATA
  6
CONTINUOUS
 62
     7
 10
57.699999999999967
 20
104.0
 30
0.0
 11
30.699999999999971
 21
104.0
 31
0.0
  0
LINE
  5
21A
  8
DATA
  6
CONTINUOUS
 62
     7
 10
57.699999999999967
 20
138.0
 30
0.0
 11
30.699999999999971
 21
138.0
 31
0.0
  0
LINE
  5
21B
  8
DATA
  6
CONTINUOUS
 62
     7
 10
51.199999999999967
 20
107.0
 30
0.0
 11
37.199999999999967
 21
107.0
 31
0.0
  0
LINE
  5
21C
  8
DATA
  6
CONTINUOUS
 62
     7
 10
56.449999999999967
 20
123.3
 30
0.0
 11
31.949999999999971
 21
123.3
 31
0.0
  0
LINE
  5
21D
  8
DATA
  6
CONTINUOUS
 62
     7
 10
56.449999999999967
 20
135.0
 30
0.0
 11
31.949999999999971
 21
135.0
 31
0.0
  0
LINE
  5
21E
  8
DATA
  6
CONTINUOUS
 62
     7
 10
56.449999999999967
 20
135.0
 30
0.0
 11
56.449999999999967
 21
112.25
 31
0.0
  0
LINE
  5
21F
  8
DATA
  6
CONTINUOUS
 62
     7
 10
31.949999999999971
 20
135.0
 30
0.0
 11
31.949999999999971
 21
112.25
 31
0.0
  0
LINE
  5
220
  8
DATA
  6
CONTINUOUS
 62
     7
 10
56.449999999999967
 20
112.25
 30
0.0
 11
51.199999999999967
 21
107.0
 31
0.0
  0
LINE
  5
221
  8
DATA
  6
CONTINUOUS
 62
     7
 10
31.949999999999971
 20
112.25
 30
0.0
 11
37.199999999999967
 21
107.0
 31
0.0
  0
LINE
  5
222
  8
DATA
  6
CONTINUOUS
 62
     7
 10
56.449999999999967
 20
123.5292691149279
 30
0.0
 11
31.949999999999971
 21
123.5292691149279
 31
0.0
  0
POLYLINE
  5
223
  8
DATA
  6
CONTINUOUS
 62
     7
 66
     1
 10
0.0
 20
0.0
 30
0.0
 70
     1
  0
VERTEX
  5
584
  8
DATA
  6
CONTINUOUS
 62
     7
 10
43.199999999999967
 20
115.0
 30
0.0
  0
VERTEX
  5
585
  8
DATA
  6
CONTINUOUS
 62
     7
 10
45.199999999999967
 20
115.0
 30
0.0
  0
VERTEX
  5
586
  8
DATA
  6
CONTINUOUS
 62
     7
 10
45.199999999999967
 20
111.0
 30
0.0
  0
VERTEX
  5
587
  8
DATA
  6
CONTINUOUS
 62
     7
 10
43.199999999999967
 20
111.0
 30
0.0
  0
SEQEND
  5
588
  8
DATA
  6
CONTINUOUS
 62
     7
  0
POLYLINE
  5
22A
  8
DATA
  6
CONTINUOUS
 62
     7
 66
     1
 10
0.0
 20
0.0
 30
0.0
 70
     1
  0
VERTEX
  5
589
  8
DATA
  6
CONTINUOUS
 62
     7
 10
49.699999999999967
 20
119.3071490248733
 30
0.0
  0
VERTEX
  5
58A
  8
DATA
  6
CONTINUOUS
 62
     7
 10
51.699999999999982
 20
119.3071490248733
 30
0.0
  0
VERTEX
  5
58B
  8
DATA
  6
CONTINUOUS
 62
     7
 10
51.699999999999982
 20
115.3071490248733
 30
0.0
  0
VERTEX
  5
58C
  8
DATA
  6
CONTINUOUS
 62
     7
 10
49.699999999999967
 20
115.3071490248733
 30
0.0
  0
SEQEND
  5
58D
  8
DATA
  6
CONTINUOUS
 62
     7
  0
POLYLINE
  5
231
  8
DATA
  6
CONTINUOUS
 62
     7
 66
     1
 10
0.0
 20
0.0
 30
0.0
 70
     1
  0
VERTEX
  5
58E
  8
DATA
  6
CONTINUOUS
 62
     7
 10
36.699999999999967
 20
119.3071490248733
 30
0.0
  0
VERTEX
  5
58F
  8
DATA
  6
CONTINUOUS
 62
     7
 10
38.699999999999967
 20
119.3071490248733
 30
0.0
  0
VERTEX
  5
590
  8
DATA
  6
CONTINUOUS
 62
     7
 10
38.699999999999967
 20
115.3071490248733
 30
0.0
  0
VERTEX
  5
591
  8
DATA
  6
CONTINUOUS
 62
     7
 10
36.699999999999967
 20
115.3071490248733
 30
0.0
  0
SEQEND
  5
592
  8
DATA
  6
CONTINUOUS
 62
     7
  0
ARC
  5
238
  8
DATA
  6
CONTINUOUS
 62
     7
 10
57.699999999999967
 20
105.5
 30
0.0
 40
1.5
 50
270.0
 51
0.0
  0
ARC
  5
239
  8
DATA
  6
CONTINUOUS
 62
     7
 10
30.699999999999971
 20
105.5
 30
0.0
 40
1.5
 50
180.0
 51
270.0
  0
ARC
  5
23A
  8
DATA
  6
CONTINUOUS
 62
     7
 10
57.699999999999967
 20
136.5
 30
0.0
 40
1.5
 50
0.0
 51
90.0
  0
ARC
  5
23B
  8
DATA
  6
CONTINUOUS
 62
     7
 10
30.699999999999971
 20
136.5
 30
0.0
 40
1.5
 50
90.0
 51
180.0
  0
CIRCLE
  5
23C
  8
DATA
  6
CONTINUOUS
 62
     7
 10
-125.0
 20
117.5
 30
0.0
 40
11.5
  0
ARC
  5
23D
  8
DATA
  6
CONTINUOUS
 62
     7
 10
-97.999999999999986
 20
117.5
 30
0.0
 40
11.50000000000003
 50
282.55585779858581
 51
257.44414220141391
  0
CIRCLE
  5
23E
  8
DATA
  6
CONTINUOUS
 62
     7
 10
-125.0
 20
117.5
 30
0.0
 40
9.9000000000000021
  0
CIRCLE
  5
23F
  8
DATA
  6
CONTINUOUS
 62
     7
 10
-125.0
 20
117.5
 30
0.0
 40
7.5
  0
CIRCLE
  5
240
  8
DATA
  6
CONTINUOUS
 62
     7
 10
-98.0
 20
117.5
 30
0.0
 40
8.0
  0
ARC
  5
241
  8
DATA
  6
CONTINUOUS
 62
     7
 10
-125.0
 20
117.5
 30
0.0
 40
3.3499999999999921
 50
355.36370577694538
 51
70.767416383380905
  0
ARC
  5
242
  8
DATA
  6
CONTINUOUS
 62
     7
 10
-125.0
 20
117.5
 30
0.0
 40
3.350000000000013
 50
109.2325836166185
 51
184.63629422305439
  0
ARC
  5
243
  8
DATA
  6
CONTINUOUS
 62
     7
 10
-125.0
 20
117.5
 30
0.0
 40
3.3500000000000201
 50
212.707082981985
 51
327.2929170180152
  0
ARC
  5
244
  8
DATA
  6
CONTINUOUS
 62
     7
 10
-121.15000000000001
 20
116.19896688676241
 30
0.0
 40
1.150000000000011
 50
206.27713712764299
 51
116.3794856673168
  0
ARC
  5
245
  8
DATA
  6
CONTINUOUS
 62
     7
 10
-128.84999999999999
 20
116.19896688676241
 30
0.0
 40
1.150000000000015
 50
63.620514332687819
 51
333.72286287235562
  0
ARC
  5
246
  8
DATA
  6
CONTINUOUS
 62
     7
 10
-125.0
 20
120.98673554088251
 30
0.0
 40
1.150000000000049
 50
343.65145782747771
 51
196.3485421725224
  0
CIRCLE
  5
247
  8
DATA
  6
CONTINUOUS
 62
     7
 10
-94.150000000000006
 20
116.19896688676241
 30
0.0
 40
1.1500000000000341
  0
CIRCLE
  5
248
  8
DATA
  6
CONTINUOUS
 62
     7
 10
-101.84999999999999
 20
116.19896688676241
 30
0.0
 40
1.150000000000005
  0
CIRCLE
  5
249
  8
DATA
  6
CONTINUOUS
 62
     7
 10
-98.0
 20
120.98673554088251
 30
0.0
 40
1.150000000000005
  0
LINE
  5
24A
  8
DATA
  6
CONTINUOUS
 62
     7
 10
-95.5
 20
109.90065792321469
 30
0.0
 11
-95.5
 21
106.2750278396782
 31
0.0
  0
LINE
  5
24B
  8
DATA
  6
CONTINUOUS
 62
     7
 10
-100.5
 20
109.90065792321469
 30
0.0
 11
-100.5
 21
106.2750278396781
 31
0.0
  0
ARC
  5
24C
  8
DATA
  6
CONTINUOUS
 62
     7
 10
-98.0
 20
117.5
 30
0.0
 40
9.0
 50
253.87237978683919
 51
286.1276202131607
  0
LINE
  5
24D
  8
DATA
  6
CONTINUOUS
 62
     7
 10
-120.0
 20
108.90000000000001
 30
0.0
 11
-120.0
 21
107.14384241139599
 31
0.0
  0
LINE
  5
24E
  8
DATA
  6
CONTINUOUS
 62
     7
 10
-130.0
 20
108.90000000000001
 30
0.0
 11
-130.0
 21
107.14384241139599
 31
0.0
  0
ARC
  5
24F
  8
DATA
  6
CONTINUOUS
 62
     7
 10
-125.0
 20
108.94889832436
 30
0.0
 40
8.6421622055574137
 50
243.1497523502417
 51
296.85024764975839
  0
LINE
  5
250
  8
DATA
  6
CONTINUOUS
 62
     7
 10
-122.0
 20
105.9067361188025
 30
0.0
 11
-128.0
 21
105.9067361188025
 31
0.0
  0
LINE
  5
251
  8
DATA
  6
CONTINUOUS
 62
     7
 10
-120.0
 20
103.9067361188025
 30
0.0
 11
-120.0
 21
103.02282721738401
 31
0.0
  0
LINE
  5
252
  8
DATA
  6
CONTINUOUS
 62
     7
 10
-130.0
 20
103.9067361188025
 30
0.0
 11
-130.0
 21
103.02282721738401
 31
0.0
  0
ARC
  5
253
  8
DATA
  6
CONTINUOUS
 62
     7
 10
-122.0
 20
103.02282721738401
 30
0.0
 40
1.9999999999999969
 50
296.85024764975788
 51
0.0
  0
ARC
  5
254
  8
DATA
  6
CONTINUOUS
 62
     7
 10
-122.0
 20
103.9067361188025
 30
0.0
 40
2.0
 50
0.0
 51
90.0
  0
ARC
  5
255
  8
DATA
  6
CONTINUOUS
 62
     7
 10
-128.0
 20
103.02282721738401
 30
0.0
 40
2.0
 50
180.0
 51
243.14975235024201
  0
ARC
  5
256
  8
DATA
  6
CONTINUOUS
 62
     7
 10
-128.0
 20
103.9067361188025
 30
0.0
 40
2.0
 50
90.0
 51
180.0
  0
LINE
  5
257
  8
DATA
  6
CONTINUOUS
 62
     7
 10
-122.5
 20
106.2750278396781
 30
0.0
 11
-122.5
 21
105.9067361188025
 31
0.0
  0
LINE
  5
258
  8
DATA
  6
CONTINUOUS
 62
     7
 10
-127.5
 20
106.2750278396781
 30
0.0
 11
-127.5
 21
105.9067361188025
 31
0.0
  0
CIRCLE
  5
259
  8
DATA
  6
CONTINUOUS
 62
     7
 10
-87.393398282201716
 20
106.9933982822017
 30
0.0
 40
2.8500000000000218
  0
CIRCLE
  5
25A
  8
DATA
  6
CONTINUOUS
 62
     7
 10
-108.6066017177981
 20
128.20660171779809
 30
0.0
 40
2.849999999999965
  0
POLYLINE
  5
25B
  8
DATA
  6
CONTINUOUS
 62
     7
 66
     1
 10
0.0
 20
0.0
 30
0.0
  0
VERTEX
  5
593
  8
DATA
  6
CONTINUOUS
 62
     7
 10
-86.893398282201716
 20
106.4933982822017
 30
0.0
  0
VERTEX
  5
594
  8
DATA
  6
CONTINUOUS
 62
     7
 10
-86.893398282201716
 20
104.9933982822017
 30
0.0
  0
VERTEX
  5
595
  8
DATA
  6
CONTINUOUS
 62
     7
 10
-87.893398282201716
 20
104.9933982822017
 30
0.0
  0
VERTEX
  5
596
  8
DATA
  6
CONTINUOUS
 62
     7
 10
-87.893398282201716
 20
106.4933982822017
 30
0.0
  0
SEQEND
  5
597
  8
DATA
  6
CONTINUOUS
 62
     7
  0
POLYLINE
  5
262
  8
DATA
  6
CONTINUOUS
 62
     7
 66
     1
 10
0.0
 20
0.0
 30
0.0
  0
VERTEX
  5
598
  8
DATA
  6
CONTINUOUS
 62
     7
 10
-87.893398282201716
 20
107.4933982822017
 30
0.0
  0
VERTEX
  5
599
  8
DATA
  6
CONTINUOUS
 62
     7
 10
-87.893398282201716
 20
108.9933982822017
 30
0.0
  0
VERTEX
  5
59A
  8
DATA
  6
CONTINUOUS
 62
     7
 10
-86.893398282201716
 20
108.9933982822017
 30
0.0
  0
VERTEX
  5
59B
  8
DATA
  6
CONTINUOUS
 62
     7
 10
-86.893398282201716
 20
107.4933982822017
 30
0.0
  0
SEQEND
  5
59C
  8
DATA
  6
CONTINUOUS
 62
     7
  0
POLYLINE
  5
269
  8
DATA
  6
CONTINUOUS
 62
     7
 66
     1
 10
0.0
 20
0.0
 30
0.0
  0
VERTEX
  5
59D
  8
DATA
  6
CONTINUOUS
 62
     7
 10
-87.893398282201716
 20
106.4933982822017
 30
0.0
  0
VERTEX
  5
59E
  8
DATA
  6
CONTINUOUS
 62
     7
 10
-89.393398282201716
 20
106.4933982822017
 30
0.0
  0
VERTEX
  5
59F
  8
DATA
  6
CONTINUOUS
 62
     7
 10
-89.393398282201716
 20
107.4933982822017
 30
0.0
  0
VERTEX
  5
5A0
  8
DATA
  6
CONTINUOUS
 62
     7
 10
-87.893398282201716
 20
107.4933982822017
 30
0.0
  0
SEQEND
  5
5A1
  8
DATA
  6
CONTINUOUS
 62
     7
  0
POLYLINE
  5
270
  8
DATA
  6
CONTINUOUS
 62
     7
 66
     1
 10
0.0
 20
0.0
 30
0.0
  0
VERTEX
  5
5A2
  8
DATA
  6
CONTINUOUS
 62
     7
 10
-86.893398282201716
 20
107.4933982822017
 30
0.0
  0
VERTEX
  5
5A3
  8
DATA
  6
CONTINUOUS
 62
     7
 10
-85.393398282201687
 20
107.4933982822017
 30
0.0
  0
VERTEX
  5
5A4
  8
DATA
  6
CONTINUOUS
 62
     7
 10
-85.393398282201687
 20
106.4933982822017
 30
0.0
  0
VERTEX
  5
5A5
  8
DATA
  6
CONTINUOUS
 62
     7
 10
-86.893398282201716
 20
106.4933982822017
 30
0.0
  0
SEQEND
  5
5A6
  8
DATA
  6
CONTINUOUS
 62
     7
  0
POLYLINE
  5
277
  8
DATA
  6
CONTINUOUS
 62
     7
 66
     1
 10
0.0
 20
0.0
 30
0.0
  0
VERTEX
  5
5A7
  8
DATA
  6
CONTINUOUS
 62
     7
 10
-109.1066017177981
 20
127.70660171779809
 30
0.0
  0
VERTEX
  5
5A8
  8
DATA
  6
CONTINUOUS
 62
     7
 10
-110.6066017177981
 20
127.70660171779809
 30
0.0
  0
VERTEX
  5
5A9
  8
DATA
  6
CONTINUOUS
 62
     7
 10
-110.6066017177981
 20
128.70660171779809
 30
0.0
  0
VERTEX
  5
5AA
  8
DATA
  6
CONTINUOUS
 62
     7
 10
-109.1066017177981
 20
128.70660171779809
 30
0.0
  0
SEQEND
  5
5AB
  8
DATA
  6
CONTINUOUS
 62
     7
  0
POLYLINE
  5
27E
  8
DATA
  6
CONTINUOUS
 62
     7
 66
     1
 10
0.0
 20
0.0
 30
0.0
  0
VERTEX
  5
5AC
  8
DATA
  6
CONTINUOUS
 62
     7
 10
-108.1066017177981
 20
128.70660171779809
 30
0.0
  0
VERTEX
  5
5AD
  8
DATA
  6
CONTINUOUS
 62
     7
 10
-106.6066017177981
 20
128.70660171779809
 30
0.0
  0
VERTEX
  5
5AE
  8
DATA
  6
CONTINUOUS
 62
     7
 10
-106.6066017177981
 20
127.70660171779809
 30
0.0
  0
VERTEX
  5
5AF
  8
DATA
  6
CONTINUOUS
 62
     7
 10
-108.1066017177981
 20
127.70660171779809
 30
0.0
  0
SEQEND
  5
5B0
  8
DATA
  6
CONTINUOUS
 62
     7
  0
POLYLINE
  5
285
  8
DATA
  6
CONTINUOUS
 62
     7
 66
     1
 10
0.0
 20
0.0
 30
0.0
  0
VERTEX
  5
5B1
  8
DATA
  6
CONTINUOUS
 62
     7
 10
-108.1066017177981
 20
127.70660171779809
 30
0.0
  0
VERTEX
  5
5B2
  8
DATA
  6
CONTINUOUS
 62
     7
 10
-108.1066017177981
 20
126.20660171779809
 30
0.0
  0
VERTEX
  5
5B3
  8
DATA
  6
CONTINUOUS
 62
     7
 10
-109.1066017177981
 20
126.20660171779809
 30
0.0
  0
VERTEX
  5
5B4
  8
DATA
  6
CONTINUOUS
 62
     7
 10
-109.1066017177981
 20
127.70660171779809
 30
0.0
  0
SEQEND
  5
5B5
  8
DATA
  6
CONTINUOUS
 62
     7
  0
POLYLINE
  5
28C
  8
DATA
  6
CONTINUOUS
 62
     7
 66
     1
 10
0.0
 20
0.0
 30
0.0
  0
VERTEX
  5
5B6
  8
DATA
  6
CONTINUOUS
 62
     7
 10
-109.1066017177981
 20
128.70660171779809
 30
0.0
  0
VERTEX
  5
5B7
  8
DATA
  6
CONTINUOUS
 62
     7
 10
-109.1066017177981
 20
130.20660171779809
 30
0.0
  0
VERTEX
  5
5B8
  8
DATA
  6
CONTINUOUS
 62
     7
 10
-108.1066017177981
 20
130.20660171779809
 30
0.0
  0
VERTEX
  5
5B9
  8
DATA
  6
CONTINUOUS
 62
     7
 10
-108.1066017177981
 20
128.70660171779809
 30
0.0
  0
SEQEND
  5
5BA
  8
DATA
  6
CONTINUOUS
 62
     7
  0
CIRCLE
  5
293
  8
DATA
  6
CONTINUOUS
 62
     7
 10
-114.3933982822017
 20
106.9933982822017
 30
0.0
 40
2.8500000000000218
  0
CIRCLE
  5
294
  8
DATA
  6
CONTINUOUS
 62
     7
 10
-135.6066017177981
 20
128.20660171779809
 30
0.0
 40
2.849999999999965
  0
POLYLINE
  5
295
  8
DATA
  6
CONTINUOUS
 62
     7
 66
     1
 10
0.0
 20
0.0
 30
0.0
  0
VERTEX
  5
5BB
  8
DATA
  6
CONTINUOUS
 62
     7
 10
-113.8933982822017
 20
106.4933982822017
 30
0.0
  0
VERTEX
  5
5BC
  8
DATA
  6
CONTINUOUS
 62
     7
 10
-113.8933982822017
 20
104.9933982822017
 30
0.0
  0
VERTEX
  5
5BD
  8
DATA
  6
CONTINUOUS
 62
     7
 10
-114.8933982822017
 20
104.9933982822017
 30
0.0
  0
VERTEX
  5
5BE
  8
DATA
  6
CONTINUOUS
 62
     7
 10
-114.8933982822017
 20
106.4933982822017
 30
0.0
  0
SEQEND
  5
5BF
  8
DATA
  6
CONTINUOUS
 62
     7
  0
POLYLINE
  5
29C
  8
DATA
  6
CONTINUOUS
 62
     7
 66
     1
 10
0.0
 20
0.0
 30
0.0
  0
VERTEX
  5
5C0
  8
DATA
  6
CONTINUOUS
 62
     7
 10
-114.8933982822017
 20
107.4933982822017
 30
0.0
  0
VERTEX
  5
5C1
  8
DATA
  6
CONTINUOUS
 62
     7
 10
-114.8933982822017
 20
108.9933982822017
 30
0.0
  0
VERTEX
  5
5C2
  8
DATA
  6
CONTINUOUS
 62
     7
 10
-113.8933982822017
 20
108.9933982822017
 30
0.0
  0
VERTEX
  5
5C3
  8
DATA
  6
CONTINUOUS
 62
     7
 10
-113.8933982822017
 20
107.4933982822017
 30
0.0
  0
SEQEND
  5
5C4
  8
DATA
  6
CONTINUOUS
 62
     7
  0
POLYLINE
  5
2A3
  8
DATA
  6
CONTINUOUS
 62
     7
 66
     1
 10
0.0
 20
0.0
 30
0.0
  0
VERTEX
  5
5C5
  8
DATA
  6
CONTINUOUS
 62
     7
 10
-114.8933982822017
 20
106.4933982822017
 30
0.0
  0
VERTEX
  5
5C6
  8
DATA
  6
CONTINUOUS
 62
     7
 10
-116.3933982822017
 20
106.4933982822017
 30
0.0
  0
VERTEX
  5
5C7
  8
DATA
  6
CONTINUOUS
 62
     7
 10
-116.3933982822017
 20
107.4933982822017
 30
0.0
  0
VERTEX
  5
5C8
  8
DATA
  6
CONTINUOUS
 62
     7
 10
-114.8933982822017
 20
107.4933982822017
 30
0.0
  0
SEQEND
  5
5C9
  8
DATA
  6
CONTINUOUS
 62
     7
  0
POLYLINE
  5
2AA
  8
DATA
  6
CONTINUOUS
 62
     7
 66
     1
 10
0.0
 20
0.0
 30
0.0
  0
VERTEX
  5
5CA
  8
DATA
  6
CONTINUOUS
 62
     7
 10
-113.8933982822017
 20
107.4933982822017
 30
0.0
  0
VERTEX
  5
5CB
  8
DATA
  6
CONTINUOUS
 62
     7
 10
-112.3933982822017
 20
107.4933982822017
 30
0.0
  0
VERTEX
  5
5CC
  8
DATA
  6
CONTINUOUS
 62
     7
 10
-112.3933982822017
 20
106.4933982822017
 30
0.0
  0
VERTEX
  5
5CD
  8
DATA
  6
CONTINUOUS
 62
     7
 10
-113.8933982822017
 20
106.4933982822017
 30
0.0
  0
SEQEND
  5
5CE
  8
DATA
  6
CONTINUOUS
 62
     7
  0
POLYLINE
  5
2B1
  8
DATA
  6
CONTINUOUS
 62
     7
 66
     1
 10
0.0
 20
0.0
 30
0.0
  0
VERTEX
  5
5CF
  8
DATA
  6
CONTINUOUS
 62
     7
 10
-136.1066017177981
 20
127.70660171779809
 30
0.0
  0
VERTEX
  5
5D0
  8
DATA
  6
CONTINUOUS
 62
     7
 10
-137.6066017177981
 20
127.70660171779809
 30
0.0
  0
VERTEX
  5
5D1
  8
DATA
  6
CONTINUOUS
 62
     7
 10
-137.6066017177981
 20
128.70660171779809
 30
0.0
  0
VERTEX
  5
5D2
  8
DATA
  6
CONTINUOUS
 62
     7
 10
-136.1066017177981
 20
128.70660171779809
 30
0.0
  0
SEQEND
  5
5D3
  8
DATA
  6
CONTINUOUS
 62
     7
  0
POLYLINE
  5
2B8
  8
DATA
  6
CONTINUOUS
 62
     7
 66
     1
 10
0.0
 20
0.0
 30
0.0
  0
VERTEX
  5
5D4
  8
DATA
  6
CONTINUOUS
 62
     7
 10
-135.1066017177981
 20
128.70660171779809
 30
0.0
  0
VERTEX
  5
5D5
  8
DATA
  6
CONTINUOUS
 62
     7
 10
-133.6066017177981
 20
128.70660171779809
 30
0.0
  0
VERTEX
  5
5D6
  8
DATA
  6
CONTINUOUS
 62
     7
 10
-133.6066017177981
 20
127.70660171779809
 30
0.0
  0
VERTEX
  5
5D7
  8
DATA
  6
CONTINUOUS
 62
     7
 10
-135.1066017177981
 20
127.70660171779809
 30
0.0
  0
SEQEND
  5
5D8
  8
DATA
  6
CONTINUOUS
 62
     7
  0
POLYLINE
  5
2BF
  8
DATA
  6
CONTINUOUS
 62
     7
 66
     1
 10
0.0
 20
0.0
 30
0.0
  0
VERTEX
  5
5D9
  8
DATA
  6
CONTINUOUS
 62
     7
 10
-135.1066017177981
 20
127.70660171779809
 30
0.0
  0
VERTEX
  5
5DA
  8
DATA
  6
CONTINUOUS
 62
     7
 10
-135.1066017177981
 20
126.20660171779809
 30
0.0
  0
VERTEX
  5
5DB
  8
DATA
  6
CONTINUOUS
 62
     7
 10
-136.1066017177981
 20
126.20660171779809
 30
0.0
  0
VERTEX
  5
5DC
  8
DATA
  6
CONTINUOUS
 62
     7
 10
-136.1066017177981
 20
127.70660171779809
 30
0.0
  0
SEQEND
  5
5DD
  8
DATA
  6
CONTINUOUS
 62
     7
  0
POLYLINE
  5
2C6
  8
DATA
  6
CONTINUOUS
 62
     7
 66
     1
 10
0.0
 20
0.0
 30
0.0
  0
VERTEX
  5
5DE
  8
DATA
  6
CONTINUOUS
 62
     7
 10
-136.1066017177981
 20
128.70660171779809
 30
0.0
  0
VERTEX
  5
5DF
  8
DATA
  6
CONTINUOUS
 62
     7
 10
-136.1066017177981
 20
130.20660171779809
 30
0.0
  0
VERTEX
  5
5E0
  8
DATA
  6
CONTINUOUS
 62
     7
 10
-135.1066017177981
 20
130.20660171779809
 30
0.0
  0
VERTEX
  5
5E1
  8
DATA
  6
CONTINUOUS
 62
     7
 10
-135.1066017177981
 20
128.70660171779809
 30
0.0
  0
SEQEND
  5
5E2
  8
DATA
  6
CONTINUOUS
 62
     7
  0
TEXT
  5
2CD
  8
DATA
 62
     7
 10
-112.9262260836351
 20
141.4844460426809
 30
0.0
 40
2.7147352430555549
  1
INPUT
 50
180.0
 41
0.8
 11
-112.9262260836351
 21
138.76971079962539
 31
0.0
 73
     3
  0
TEXT
  5
2CE
  8
DATA
 62
     7
 10
-81.993056326335164
 20
141.36736912651159
 30
0.0
 40
2.7147352430555549
  1
OUTPUT
 50
180.0
 41
0.8
 11
-81.993056326335164
 21
138.6526338834561
 31
0.0
 73
     3
  0
LINE
  5
2CF
  8
DATA
  6
CONTINUOUS
 62
     7
 10
-125.0
 20
129.0
 30
0.0
 11
-125.0
 21
138.21444604268089
 31
0.0
  0
CIRCLE
  5
2D0
  8
DATA
  6
CONTINUOUS
 62
     7
 10
-77.000000000000014
 20
127.0
 30
0.0
 40
4.4499999999999877
  0
CIRCLE
  5
2D1
  8
DATA
  6
CONTINUOUS
 62
     7
 10
-77.000000000000014
 20
127.0
 30
0.0
 40
3.16500000000002
  0
CIRCLE
  5
2D2
  8
DATA
  6
CONTINUOUS
 62
     7
 10
-77.000000000000014
 20
127.0
 30
0.0
 40
7.4000000000000039
  0
POLYLINE
  5
2D3
  8
DATA
  6
CONTINUOUS
 62
     7
 66
     1
 10
0.0
 20
0.0
 30
0.0
 70
     1
  0
VERTEX
  5
5E3
  8
DATA
  6
CONTINUOUS
 62
     7
 10
-75.271715845908105
 20
120.8888325815726
 30
0.0
  0
VERTEX
  5
5E4
  8
DATA
  6
CONTINUOUS
 62
     7
 10
-70.843431691816207
 20
125.441154273188
 30
0.0
  0
VERTEX
  5
5E5
  8
DATA
  6
CONTINUOUS
 62
     7
 10
-72.571715845908102
 20
131.5523216916153
 30
0.0
  0
VERTEX
  5
5E6
  8
DATA
  6
CONTINUOUS
 62
     7
 10
-78.728284154091924
 20
133.1111674184273
 30
0.0
  0
VERTEX
  5
5E7
  8
DATA
  6
CONTINUOUS
 62
     7
 10
-83.156568308183807
 20
128.558845726812
 30
0.0
  0
VERTEX
  5
5E8
  8
DATA
  6
CONTINUOUS
 62
     7
 10
-81.428284154091884
 20
122.4476783083846
 30
0.0
  0
SEQEND
  5
5E9
  8
DATA
  6
CONTINUOUS
 62
     7
  0
LINE
  5
2DC
  8
DATA
  6
CONTINUOUS
 62
     7
 10
-80.900000000000006
 20
139.80000000000001
 30
0.0
 11
-79.000000000000014
 21
139.80000000000001
 31
0.0
  0
LINE
  5
2DD
  8
DATA
  6
CONTINUOUS
 62
     7
 10
-93.200000000000003
 20
139.80000000000001
 30
0.0
 11
-95.800000000000026
 21
139.80000000000001
 31
0.0
  0
LINE
  5
2DE
  8
DATA
  6
CONTINUOUS
 62
     7
 10
-77.000000000000014
 20
137.80000000000001
 30
0.0
 11
-77.000000000000014
 21
134.40000000000001
 31
0.0
  0
LINE
  5
2DF
  8
DATA
  6
CONTINUOUS
 62
     7
 10
-97.800000000000026
 20
137.80000000000001
 30
0.0
 11
-97.800000000000026
 21
128.93721994192649
 31
0.0
  0
LINE
  5
2E0
  8
DATA
  6
CONTINUOUS
 62
     7
 10
-121.7456705280796
 20
140.21444604268089
 30
0.0
 11
-123.0
 21
140.21444604268089
 31
0.0
  0
ARC
  5
2E1
  8
DATA
  6
CONTINUOUS
 62
     7
 10
-79.000000000000014
 20
137.80000000000001
 30
0.0
 40
2.0
 50
0.0
 51
90.0
  0
ARC
  5
2E2
  8
DATA
  6
CONTINUOUS
 62
     7
 10
-95.800000000000026
 20
137.80000000000001
 30
0.0
 40
2.0
 50
90.0
 51
180.0
  0
ARC
  5
2E3
  8
DATA
  6
CONTINUOUS
 62
     7
 10
-123.0
 20
138.21444604268089
 30
0.0
 40
2.0
 50
90.0
 51
180.0
  0
LINE
  5
2E4
  8
DATA
  6
CONTINUOUS
 62
     7
 10
-69.080994083711659
 20
130.19999999999999
 30
0.0
 11
-43.080994083711651
 21
130.19999999999999
 31
0.0
  0
LINE
  5
2E5
  8
DATA
  6
CONTINUOUS
 62
     7
 10
-69.080994083711659
 20
123.95999999999999
 30
0.0
 11
-43.080994083711651
 21
123.95999999999999
 31
0.0
  0
LINE
  5
2E6
  8
DATA
  6
CONTINUOUS
 62
     7
 10
-43.080994083711651
 20
130.19999999999999
 30
0.0
 11
-43.080994083711651
 21
123.90000000000001
 31
0.0
  0
LINE
  5
2E7
  8
DATA
  6
CONTINUOUS
 62
     7
 10
-69.080994083711659
 20
130.19999999999999
 30
0.0
 11
-69.080994083711659
 21
123.95999999999999
 31
0.0
  0
CIRCLE
  5
2E8
  8
DATA
  6
CONTINUOUS
 62
     7
 10
-12.95644060824675
 20
123.86617121900331
 30
0.0
 40
8.2500000000000853
  0
CIRCLE
  5
2E9
  8
DATA
  6
CONTINUOUS
 62
     7
 10
-12.953037144566091
 20
124.0016970798909
 30
0.0
 40
6.9000000000000021
  0
CIRCLE
  5
2EA
  8
DATA
  6
CONTINUOUS
 62
     7
 10
-10.365953918691829
 20
124.0462348420693
 30
0.0
 40
0.5519621081381896
  0
CIRCLE
  5
2EB
  8
DATA
  6
CONTINUOUS
 62
     7
 10
-11.38473717809536
 20
125.79941716371781
 30
0.0
 40
0.5522307728991206
  0
CIRCLE
  5
2EC
  8
DATA
  6
CONTINUOUS
 62
     7
 10
-13.203999472107011
 20
126.7852708962336
 30
0.0
 40
0.5505590016105373
  0
CIRCLE
  5
2ED
  8
DATA
  6
CONTINUOUS
 62
     7
 10
-15.06290022848885
 20
125.7950675240651
 30
0.0
 40
0.5526399569132444
  0
CIRCLE
  5
2EE
  8
DATA
  6
CONTINUOUS
 62
     7
 10
-16.109223811240032
 20
124.0585251572074
 30
0.0
 40
0.5441980039814637
  0
POLYLINE
  5
2EF
  8
DATA
  6
CONTINUOUS
 62
     7
 66
     1
 10
0.0
 20
0.0
 30
0.0
  0
VERTEX
  5
5EA
  8
DATA
  6
CONTINUOUS
 62
     7
 10
-13.53396041361229
 20
126.3445430989071
 30
0.0
  0
VERTEX
  5
5EB
  8
DATA
  6
CONTINUOUS
 62
     7
 10
-13.53396041361229
 20
125.4651738261131
 30
0.0
  0
VERTEX
  5
5EC
  8
DATA
  6
CONTINUOUS
 62
     7
 10
-12.8519820683701
 20
125.4651738261131
 30
0.0
  0
VERTEX
  5
5ED
  8
DATA
  6
CONTINUOUS
 62
     7
 10
-12.8519820683701
 20
126.361951912816
 30
0.0
  0
SEQEND
  5
5EE
  8
DATA
  6
CONTINUOUS
 62
     7
  0
POLYLINE
  5
2F6
  8
DATA
  6
CONTINUOUS
 62
     7
 66
     1
 10
0.0
 20
0.0
 30
0.0
  0
VERTEX
  5
5EF
  8
DATA
  6
CONTINUOUS
 62
     7
 10
-13.53396041361229
 20
127.2259986935599
 30
0.0
  0
VERTEX
  5
5F0
  8
DATA
  6
CONTINUOUS
 62
     7
 10
-13.53396041361229
 20
128.08312920217119
 30
0.0
  0
VERTEX
  5
5F1
  8
DATA
  6
CONTINUOUS
 62
     7
 10
-12.8519820683701
 20
128.08312920217119
 30
0.0
  0
VERTEX
  5
5F2
  8
DATA
  6
CONTINUOUS
 62
     7
 10
-12.8519820683701
 20
127.2085898796511
 30
0.0
  0
SEQEND
  5
5F3
  8
DATA
  6
CONTINUOUS
 62
     7
  0
POLYLINE
  5
2FD
  8
DATA
  6
CONTINUOUS
 62
     7
 66
     1
 10
0.0
 20
0.0
 30
0.0
  0
VERTEX
  5
5F4
  8
DATA
  6
CONTINUOUS
 62
     7
 10
-15.00793432168372
 20
125.2451678322205
 30
0.0
  0
VERTEX
  5
5F5
  8
DATA
  6
CONTINUOUS
 62
     7
 10
-14.39199092411037
 20
124.6292244346473
 30
0.0
  0
VERTEX
  5
5F6
  8
DATA
  6
CONTINUOUS
 62
     7
 10
-13.90799666640625
 20
125.1132186923515
 30
0.0
  0
VERTEX
  5
5F7
  8
DATA
  6
CONTINUOUS
 62
     7
 10
-14.515309740296839
 20
125.72053176624181
 30
0.0
  0
SEQEND
  5
5F8
  8
DATA
  6
CONTINUOUS
 62
     7
  0
POLYLINE
  5
304
  8
DATA
  6
CONTINUOUS
 62
     7
 66
     1
 10
0.0
 20
0.0
 30
0.0
  0
VERTEX
  5
5F9
  8
DATA
  6
CONTINUOUS
 62
     7
 10
-15.612799920290581
 20
125.8500334308272
 30
0.0
  0
VERTEX
  5
5FA
  8
DATA
  6
CONTINUOUS
 62
     7
 10
-16.239941872298239
 20
126.4771753828347
 30
0.0
  0
VERTEX
  5
5FB
  8
DATA
  6
CONTINUOUS
 62
     7
 10
-15.75594761459412
 20
126.9611696405388
 30
0.0
  0
VERTEX
  5
5FC
  8
DATA
  6
CONTINUOUS
 62
     7
 10
-15.13743598629843
 20
126.34265801224331
 30
0.0
  0
SEQEND
  5
5FD
  8
DATA
  6
CONTINUOUS
 62
     7
  0
POLYLINE
  5
30B
  8
DATA
  6
CONTINUOUS
 62
     7
 66
     1
 10
0.0
 20
0.0
 30
0.0
  0
VERTEX
  5
5FE
  8
DATA
  6
CONTINUOUS
 62
     7
 10
-11.330193048172029
 20
126.3489476582817
 30
0.0
  0
VERTEX
  5
5FF
  8
DATA
  6
CONTINUOUS
 62
     7
 10
-10.7179463516414
 20
126.9611696405388
 30
0.0
  0
VERTEX
  5
600
  8
DATA
  6
CONTINUOUS
 62
     7
 10
-10.233952093937299
 20
126.4771753828347
 30
0.0
  0
VERTEX
  5
601
  8
DATA
  6
CONTINUOUS
 62
     7
 10
-10.837516485359041
 20
125.8736353552119
 30
0.0
  0
SEQEND
  5
602
  8
DATA
  6
CONTINUOUS
 62
     7
  0
POLYLINE
  5
312
  8
DATA
  6
CONTINUOUS
 62
     7
 66
     1
 10
0.0
 20
0.0
 30
0.0
  0
VERTEX
  5
603
  8
DATA
  6
CONTINUOUS
 62
     7
 10
-11.934269874013021
 20
125.7448952169249
 30
0.0
  0
VERTEX
  5
604
  8
DATA
  6
CONTINUOUS
 62
     7
 10
-12.56597189820407
 20
125.1132186923515
 30
0.0
  0
VERTEX
  5
605
  8
DATA
  6
CONTINUOUS
 62
     7
 10
-12.08197764049997
 20
124.6292244346473
 30
0.0
  0
VERTEX
  5
606
  8
DATA
  6
CONTINUOUS
 62
     7
 10
-11.45897745937442
 20
125.25219946741851
 30
0.0
  0
SEQEND
  5
607
  8
DATA
  6
CONTINUOUS
 62
     7
  0
POLYLINE
  5
319
  8
DATA
  6
CONTINUOUS
 62
     7
 66
     1
 10
0.0
 20
0.0
 30
0.0
  0
VERTEX
  5
608
  8
DATA
  6
CONTINUOUS
 62
     7
 10
-16.04527674547877
 20
123.5180973264048
 30
0.0
  0
VERTEX
  5
609
  8
DATA
  6
CONTINUOUS
 62
     7
 10
-15.40399248083194
 20
122.8691503723371
 30
0.0
  0
VERTEX
  5
60A
  8
DATA
  6
CONTINUOUS
 62
     7
 10
-14.91999822312844
 20
123.3531446300413
 30
0.0
  0
VERTEX
  5
60B
  8
DATA
  6
CONTINUOUS
 62
     7
 10
-15.56881924392764
 20
123.9943817932152
 30
0.0
  0
SEQEND
  5
60C
  8
DATA
  6
CONTINUOUS
 62
     7
  0
POLYLINE
  5
320
  8
DATA
  6
CONTINUOUS
 62
     7
 66
     1
 10
0.0
 20
0.0
 30
0.0
  0
VERTEX
  5
60D
  8
DATA
  6
CONTINUOUS
 62
     7
 10
-16.648853982628289
 20
124.12888669265951
 30
0.0
  0
VERTEX
  5
60E
  8
DATA
  6
CONTINUOUS
 62
     7
 10
-17.251943429019871
 20
124.7391824395569
 30
0.0
  0
VERTEX
  5
60F
  8
DATA
  6
CONTINUOUS
 62
     7
 10
-16.789955691973329
 20
125.2012447749794
 30
0.0
  0
VERTEX
  5
610
  8
DATA
  6
CONTINUOUS
 62
     7
 10
-16.179716268804651
 20
124.5981382417053
 30
0.0
  0
SEQEND
  5
611
  8
DATA
  6
CONTINUOUS
 62
     7
  0
POLYLINE
  5
327
  8
DATA
  6
CONTINUOUS
 62
     7
 66
     1
 10
0.0
 20
0.0
 30
0.0
  0
VERTEX
  5
612
  8
DATA
  6
CONTINUOUS
 62
     7
 10
-10.29194565227685
 20
124.5932128538178
 30
0.0
  0
VERTEX
  5
613
  8
DATA
  6
CONTINUOUS
 62
     7
 10
-9.6839382742622462
 20
125.2012447749794
 30
0.0
  0
VERTEX
  5
614
  8
DATA
  6
CONTINUOUS
 62
     7
 10
-9.1999440165581206
 20
124.7391824395569
 30
0.0
  0
VERTEX
  5
615
  8
DATA
  6
CONTINUOUS
 62
     7
 10
-9.8181232317376281
 20
124.1136418685273
 30
0.0
  0
SEQEND
  5
616
  8
DATA
  6
CONTINUOUS
 62
     7
  0
POLYLINE
  5
32E
  8
DATA
  6
CONTINUOUS
 62
     7
 66
     1
 10
0.0
 20
0.0
 30
0.0
  0
VERTEX
  5
617
  8
DATA
  6
CONTINUOUS
 62
     7
 10
-10.91292894259824
 20
123.9722044965568
 30
0.0
  0
VERTEX
  5
618
  8
DATA
  6
CONTINUOUS
 62
     7
 10
-11.531963820824879
 20
123.3531446300413
 30
0.0
  0
VERTEX
  5
619
  8
DATA
  6
CONTINUOUS
 62
     7
 10
-11.047969563121409
 20
122.8691503723371
 30
0.0
  0
VERTEX
  5
61A
  8
DATA
  6
CONTINUOUS
 62
     7
 10
-10.42687142517094
 20
123.4976446250371
 30
0.0
  0
SEQEND
  5
61B
  8
DATA
  6
CONTINUOUS
 62
     7
  0
POLYLINE
  5
335
  8
DATA
  6
CONTINUOUS
 62
     7
 66
     1
 10
0.0
 20
0.0
 30
0.0
  0
VERTEX
  5
61C
  8
DATA
  6
CONTINUOUS
 62
     7
 10
-14.383904862705499
 20
118.4564872069358
 30
0.0
  0
VERTEX
  5
61D
  8
DATA
  6
CONTINUOUS
 62
     7
 10
-14.383904862705499
 20
120.1177610837419
 30
0.0
  0
VERTEX
  5
61E
  8
DATA
  6
CONTINUOUS
 62
     7
 10
-11.983904862705501
 20
120.1177610837419
 30
0.0
  0
VERTEX
  5
61F
  8
DATA
  6
CONTINUOUS
 62
     7
 10
-11.983904862705501
 20
118.4564872069358
 30
0.0
  0
SEQEND
  5
620
  8
DATA
  6
CONTINUOUS
 62
     7
  0
ARC
  5
33C
  8
DATA
  6
CONTINUOUS
 62
     7
 10
-13.183904862705511
 20
123.5772064703021
 30
0.0
 40
5.2594453865602571
 50
283.18882270300412
 51
256.81117729699622
  0
CIRCLE
  5
33D
  8
DATA
  6
CONTINUOUS
 62
     7
 10
-32.956440608246751
 20
123.86617121900331
 30
0.0
 40
8.2500000000000853
  0
CIRCLE
  5
33E
  8
DATA
  6
CONTINUOUS
 62
     7
 10
-32.953037144566089
 20
124.0016970798909
 30
0.0
 40
6.9000000000000021
  0
CIRCLE
  5
33F
  8
DATA
  6
CONTINUOUS
 62
     7
 10
-30.365953918691829
 20
124.0462348420693
 30
0.0
 40
0.5519621081381896
  0
CIRCLE
  5
340
  8
DATA
  6
CONTINUOUS
 62
     7
 10
-31.38473717809536
 20
125.79941716371781
 30
0.0
 40
0.5522307728991206
  0
CIRCLE
  5
341
  8
DATA
  6
CONTINUOUS
 62
     7
 10
-33.203999472107007
 20
126.7852708962336
 30
0.0
 40
0.5505590016105373
  0
CIRCLE
  5
342
  8
DATA
  6
CONTINUOUS
 62
     7
 10
-35.062900228488857
 20
125.7950675240651
 30
0.0
 40
0.5526399569132444
  0
CIRCLE
  5
343
  8
DATA
  6
CONTINUOUS
 62
     7
 10
-36.109223811240028
 20
124.0585251572074
 30
0.0
 40
0.5441980039814637
  0
POLYLINE
  5
344
  8
DATA
  6
CONTINUOUS
 62
     7
 66
     1
 10
0.0
 20
0.0
 30
0.0
  0
VERTEX
  5
621
  8
DATA
  6
CONTINUOUS
 62
     7
 10
-33.533960413612292
 20
126.3445430989071
 30
0.0
  0
VERTEX
  5
622
  8
DATA
  6
CONTINUOUS
 62
     7
 10
-33.533960413612292
 20
125.4651738261131
 30
0.0
  0
VERTEX
  5
623
  8
DATA
  6
CONTINUOUS
 62
     7
 10
-32.851982068370113
 20
125.4651738261131
 30
0.0
  0
VERTEX
  5
624
  8
DATA
  6
CONTINUOUS
 62
     7
 10
-32.851982068370113
 20
126.361951912816
 30
0.0
  0
SEQEND
  5
625
  8
DATA
  6
CONTINUOUS
 62
     7
  0
POLYLINE
  5
34B
  8
DATA
  6
CONTINUOUS
 62
     7
 66
     1
 10
0.0
 20
0.0
 30
0.0
  0
VERTEX
  5
626
  8
DATA
  6
CONTINUOUS
 62
     7
 10
-33.533960413612292
 20
127.2259986935599
 30
0.0
  0
VERTEX
  5
627
  8
DATA
  6
CONTINUOUS
 62
     7
 10
-33.533960413612292
 20
128.08312920217119
 30
0.0
  0
VERTEX
  5
628
  8
DATA
  6
CONTINUOUS
 62
     7
 10
-32.851982068370113
 20
128.08312920217119
 30
0.0
  0
VERTEX
  5
629
  8
DATA
  6
CONTINUOUS
 62
     7
 10
-32.851982068370113
 20
127.2085898796511
 30
0.0
  0
SEQEND
  5
62A
  8
DATA
  6
CONTINUOUS
 62
     7
  0
POLYLINE
  5
352
  8
DATA
  6
CONTINUOUS
 62
     7
 66
     1
 10
0.0
 20
0.0
 30
0.0
  0
VERTEX
  5
62B
  8
DATA
  6
CONTINUOUS
 62
     7
 10
-35.00793432168372
 20
125.2451678322205
 30
0.0
  0
VERTEX
  5
62C
  8
DATA
  6
CONTINUOUS
 62
     7
 10
-34.391990924110367
 20
124.6292244346473
 30
0.0
  0
VERTEX
  5
62D
  8
DATA
  6
CONTINUOUS
 62
     7
 10
-33.907996666406248
 20
125.1132186923515
 30
0.0
  0
VERTEX
  5
62E
  8
DATA
  6
CONTINUOUS
 62
     7
 10
-34.515309740296843
 20
125.72053176624181
 30
0.0
  0
SEQEND
  5
62F
  8
DATA
  6
CONTINUOUS
 62
     7
  0
POLYLINE
  5
359
  8
DATA
  6
CONTINUOUS
 62
     7
 66
     1
 10
0.0
 20
0.0
 30
0.0
  0
VERTEX
  5
630
  8
DATA
  6
CONTINUOUS
 62
     7
 10
-35.612799920290591
 20
125.8500334308272
 30
0.0
  0
VERTEX
  5
631
  8
DATA
  6
CONTINUOUS
 62
     7
 10
-36.23994187229826
 20
126.4771753828347
 30
0.0
  0
VERTEX
  5
632
  8
DATA
  6
CONTINUOUS
 62
     7
 10
-35.75594761459412
 20
126.9611696405388
 30
0.0
  0
VERTEX
  5
633
  8
DATA
  6
CONTINUOUS
 62
     7
 10
-35.137435986298428
 20
126.34265801224331
 30
0.0
  0
SEQEND
  5
634
  8
DATA
  6
CONTINUOUS
 62
     7
  0
POLYLINE
  5
360
  8
DATA
  6
CONTINUOUS
 62
     7
 66
     1
 10
0.0
 20
0.0
 30
0.0
  0
VERTEX
  5
635
  8
DATA
  6
CONTINUOUS
 62
     7
 10
-31.330193048172031
 20
126.3489476582817
 30
0.0
  0
VERTEX
  5
636
  8
DATA
  6
CONTINUOUS
 62
     7
 10
-30.717946351641402
 20
126.9611696405388
 30
0.0
  0
VERTEX
  5
637
  8
DATA
  6
CONTINUOUS
 62
     7
 10
-30.233952093937312
 20
126.4771753828347
 30
0.0
  0
VERTEX
  5
638
  8
DATA
  6
CONTINUOUS
 62
     7
 10
-30.83751648535905
 20
125.8736353552119
 30
0.0
  0
SEQEND
  5
639
  8
DATA
  6
CONTINUOUS
 62
     7
  0
POLYLINE
  5
367
  8
DATA
  6
CONTINUOUS
 62
     7
 66
     1
 10
0.0
 20
0.0
 30
0.0
  0
VERTEX
  5
63A
  8
DATA
  6
CONTINUOUS
 62
     7
 10
-31.93426987401303
 20
125.7448952169249
 30
0.0
  0
VERTEX
  5
63B
  8
DATA
  6
CONTINUOUS
 62
     7
 10
-32.565971898204069
 20
125.1132186923515
 30
0.0
  0
VERTEX
  5
63C
  8
DATA
  6
CONTINUOUS
 62
     7
 10
-32.081977640499971
 20
124.6292244346473
 30
0.0
  0
VERTEX
  5
63D
  8
DATA
  6
CONTINUOUS
 62
     7
 10
-31.458977459374431
 20
125.25219946741851
 30
0.0
  0
SEQEND
  5
63E
  8
DATA
  6
CONTINUOUS
 62
     7
  0
POLYLINE
  5
36E
  8
DATA
  6
CONTINUOUS
 62
     7
 66
     1
 10
0.0
 20
0.0
 30
0.0
  0
VERTEX
  5
63F
  8
DATA
  6
CONTINUOUS
 62
     7
 10
-36.04527674547878
 20
123.5180973264048
 30
0.0
  0
VERTEX
  5
640
  8
DATA
  6
CONTINUOUS
 62
     7
 10
-35.403992480831953
 20
122.8691503723371
 30
0.0
  0
VERTEX
  5
641
  8
DATA
  6
CONTINUOUS
 62
     7
 10
-34.919998223128452
 20
123.3531446300413
 30
0.0
  0
VERTEX
  5
642
  8
DATA
  6
CONTINUOUS
 62
     7
 10
-35.568819243927649
 20
123.9943817932152
 30
0.0
  0
SEQEND
  5
643
  8
DATA
  6
CONTINUOUS
 62
     7
  0
POLYLINE
  5
375
  8
DATA
  6
CONTINUOUS
 62
     7
 66
     1
 10
0.0
 20
0.0
 30
0.0
  0
VERTEX
  5
644
  8
DATA
  6
CONTINUOUS
 62
     7
 10
-36.648853982628303
 20
124.12888669265951
 30
0.0
  0
VERTEX
  5
645
  8
DATA
  6
CONTINUOUS
 62
     7
 10
-37.251943429019882
 20
124.7391824395569
 30
0.0
  0
VERTEX
  5
646
  8
DATA
  6
CONTINUOUS
 62
     7
 10
-36.789955691973333
 20
125.2012447749794
 30
0.0
  0
VERTEX
  5
647
  8
DATA
  6
CONTINUOUS
 62
     7
 10
-36.179716268804661
 20
124.5981382417053
 30
0.0
  0
SEQEND
  5
648
  8
DATA
  6
CONTINUOUS
 62
     7
  0
POLYLINE
  5
37C
  8
DATA
  6
CONTINUOUS
 62
     7
 66
     1
 10
0.0
 20
0.0
 30
0.0
  0
VERTEX
  5
649
  8
DATA
  6
CONTINUOUS
 62
     7
 10
-30.291945652276851
 20
124.5932128538178
 30
0.0
  0
VERTEX
  5
64A
  8
DATA
  6
CONTINUOUS
 62
     7
 10
-29.68393827426226
 20
125.2012447749794
 30
0.0
  0
VERTEX
  5
64B
  8
DATA
  6
CONTINUOUS
 62
     7
 10
-29.199944016558131
 20
124.7391824395569
 30
0.0
  0
VERTEX
  5
64C
  8
DATA
  6
CONTINUOUS
 62
     7
 10
-29.81812323173763
 20
124.1136418685273
 30
0.0
  0
SEQEND
  5
64D
  8
DATA
  6
CONTINUOUS
 62
     7
  0
POLYLINE
  5
383
  8
DATA
  6
CONTINUOUS
 62
     7
 66
     1
 10
0.0
 20
0.0
 30
0.0
  0
VERTEX
  5
64E
  8
DATA
  6
CONTINUOUS
 62
     7
 10
-30.912928942598239
 20
123.9722044965568
 30
0.0
  0
VERTEX
  5
64F
  8
DATA
  6
CONTINUOUS
 62
     7
 10
-31.531963820824888
 20
123.3531446300413
 30
0.0
  0
VERTEX
  5
650
  8
DATA
  6
CONTINUOUS
 62
     7
 10
-31.047969563121409
 20
122.8691503723371
 30
0.0
  0
VERTEX
  5
651
  8
DATA
  6
CONTINUOUS
 62
     7
 10
-30.426871425170951
 20
123.4976446250371
 30
0.0
  0
SEQEND
  5
652
  8
DATA
  6
CONTINUOUS
 62
     7
  0
POLYLINE
  5
38A
  8
DATA
  6
CONTINUOUS
 62
     7
 66
     1
 10
0.0
 20
0.0
 30
0.0
  0
VERTEX
  5
653
  8
DATA
  6
CONTINUOUS
 62
     7
 10
-34.383904862705499
 20
118.4564872069358
 30
0.0
  0
VERTEX
  5
654
  8
DATA
  6
CONTINUOUS
 62
     7
 10
-34.383904862705499
 20
120.1177610837419
 30
0.0
  0
VERTEX
  5
655
  8
DATA
  6
CONTINUOUS
 62
     7
 10
-31.983904862705501
 20
120.1177610837419
 30
0.0
  0
VERTEX
  5
656
  8
DATA
  6
CONTINUOUS
 62
     7
 10
-31.983904862705501
 20
118.4564872069358
 30
0.0
  0
SEQEND
  5
657
  8
DATA
  6
CONTINUOUS
 62
     7
  0
ARC
  5
391
  8
DATA
  6
CONTINUOUS
 62
     7
 10
-33.183904862705532
 20
123.5772064703021
 30
0.0
 40
5.2594453865602571
 50
283.18882270300412
 51
256.81117729699622
  0
POLYLINE
  5
392
  8
DATA
  6
CONTINUOUS
 62
     7
 66
     1
 10
0.0
 20
0.0
 30
0.0
 70
   129
  0
VERTEX
  5
658
  8
DATA
  6
CONTINUOUS
 62
     7
 10
6.2519282384656796
 20
126.3536119948503
 30
0.0
 42
-0.4142135623730951
  0
VERTEX
  5
659
  8
DATA
  6
CONTINUOUS
 62
     7
 10
6.7519282384656796
 20
126.8536119948503
 30
0.0
 42
-0.4142135623730951
  0
VERTEX
  5
65A
  8
DATA
  6
CONTINUOUS
 62
     7
 10
7.2519282384656787
 20
126.3536119948503
 30
0.0
 42
-0.4142135623730951
  0
VERTEX
  5
65B
  8
DATA
  6
CONTINUOUS
 62
     7
 10
6.7519282384656796
 20
125.8536119948503
 30
0.0
 42
-0.4142135623730951
  0
VERTEX
  5
65C
  8
DATA
  6
CONTINUOUS
 62
     7
 10
6.2519282384656796
 20
126.3536119948503
 30
0.0
  0
SEQEND
  5
65D
  8
DATA
  6
CONTINUOUS
 62
     7
  0
LINE
  5
399
  8
DATA
  6
CONTINUOUS
 62
     7
 10
18.691928238465671
 20
123.3335507603083
 30
0.0
 11
5.7919282384657
 21
123.3335507603083
 31
0.0
  0
LINE
  5
39A
  8
DATA
  6
CONTINUOUS
 62
     7
 10
18.315358238465659
 20
131.67355076030839
 30
0.0
 11
6.1684882384656836
 21
131.67355076030839
 31
0.0
  0
POLYLINE
  5
39B
  8
DATA
  6
CONTINUOUS
 62
     7
 66
     1
 10
0.0
 20
0.0
 30
0.0
 70
   129
  0
VERTEX
  5
65E
  8
DATA
  6
CONTINUOUS
 62
     7
 10
7.6319282384656759
 20
129.1936119948503
 30
0.0
 42
-0.4142135623730951
  0
VERTEX
  5
65F
  8
DATA
  6
CONTINUOUS
 62
     7
 10
8.1319282384656741
 20
129.6936119948503
 30
0.0
 42
-0.4142135623730951
  0
VERTEX
  5
660
  8
DATA
  6
CONTINUOUS
 62
     7
 10
8.6319282384656741
 20
129.1936119948503
 30
0.0
 42
-0.4142135623730951
  0
VERTEX
  5
661
  8
DATA
  6
CONTINUOUS
 62
     7
 10
8.1319282384656741
 20
128.6936119948503
 30
0.0
 42
-0.4142135623730951
  0
VERTEX
  5
662
  8
DATA
  6
CONTINUOUS
 62
     7
 10
7.6319282384656759
 20
129.1936119948503
 30
0.0
  0
SEQEND
  5
663
  8
DATA
  6
CONTINUOUS
 62
     7
  0
POLYLINE
  5
3A2
  8
DATA
  6
CONTINUOUS
 62
     7
 66
     1
 10
0.0
 20
0.0
 30
0.0
 70
   129
  0
VERTEX
  5
664
  8
DATA
  6
CONTINUOUS
 62
     7
 10
10.37192823846568
 20
129.1936119948503
 30
0.0
 42
-0.4142135623730951
  0
VERTEX
  5
665
  8
DATA
  6
CONTINUOUS
 62
     7
 10
10.87192823846568
 20
129.6936119948503
 30
0.0
 42
-0.4142135623730951
  0
VERTEX
  5
666
  8
DATA
  6
CONTINUOUS
 62
     7
 10
11.37192823846568
 20
129.1936119948503
 30
0.0
 42
-0.4142135623730951
  0
VERTEX
  5
667
  8
DATA
  6
CONTINUOUS
 62
     7
 10
10.87192823846568
 20
128.6936119948503
 30
0.0
 42
-0.4142135623730951
  0
VERTEX
  5
668
  8
DATA
  6
CONTINUOUS
 62
     7
 10
10.37192823846568
 20
129.1936119948503
 30
0.0
  0
SEQEND
  5
669
  8
DATA
  6
CONTINUOUS
 62
     7
  0
POLYLINE
  5
3A9
  8
DATA
  6
CONTINUOUS
 62
     7
 66
     1
 10
0.0
 20
0.0
 30
0.0
 70
   129
  0
VERTEX
  5
66A
  8
DATA
  6
CONTINUOUS
 62
     7
 10
15.8519282384657
 20
129.1936119948503
 30
0.0
 42
-0.4142135623730951
  0
VERTEX
  5
66B
  8
DATA
  6
CONTINUOUS
 62
     7
 10
16.3519282384657
 20
129.6936119948503
 30
0.0
 42
-0.4142135623730951
  0
VERTEX
  5
66C
  8
DATA
  6
CONTINUOUS
 62
     7
 10
16.8519282384657
 20
129.1936119948503
 30
0.0
 42
-0.4142135623730951
  0
VERTEX
  5
66D
  8
DATA
  6
CONTINUOUS
 62
     7
 10
16.3519282384657
 20
128.6936119948503
 30
0.0
 42
-0.4142135623730951
  0
VERTEX
  5
66E
  8
DATA
  6
CONTINUOUS
 62
     7
 10
15.8519282384657
 20
129.1936119948503
 30
0.0
  0
SEQEND
  5
66F
  8
DATA
  6
CONTINUOUS
 62
     7
  0
POLYLINE
  5
3B0
  8
DATA
  6
CONTINUOUS
 62
     7
 66
     1
 10
0.0
 20
0.0
 30
0.0
 70
   129
  0
VERTEX
  5
670
  8
DATA
  6
CONTINUOUS
 62
     7
 10
14.4819282384657
 20
126.3536119948503
 30
0.0
 42
-0.4142135623730951
  0
VERTEX
  5
671
  8
DATA
  6
CONTINUOUS
 62
     7
 10
14.9819282384657
 20
126.8536119948503
 30
0.0
 42
-0.4142135623730951
  0
VERTEX
  5
672
  8
DATA
  6
CONTINUOUS
 62
     7
 10
15.4819282384657
 20
126.3536119948503
 30
0.0
 42
-0.4142135623730951
  0
VERTEX
  5
673
  8
DATA
  6
CONTINUOUS
 62
     7
 10
14.9819282384657
 20
125.8536119948503
 30
0.0
 42
-0.4142135623730951
  0
VERTEX
  5
674
  8
DATA
  6
CONTINUOUS
 62
     7
 10
14.4819282384657
 20
126.3536119948503
 30
0.0
  0
SEQEND
  5
675
  8
DATA
  6
CONTINUOUS
 62
     7
  0
POLYLINE
  5
3B7
  8
DATA
  6
CONTINUOUS
 62
     7
 66
     1
 10
0.0
 20
0.0
 30
0.0
 70
   129
  0
VERTEX
  5
676
  8
DATA
  6
CONTINUOUS
 62
     7
 10
17.231928238465699
 20
126.3536119948503
 30
0.0
 42
-0.4142135623730951
  0
VERTEX
  5
677
  8
DATA
  6
CONTINUOUS
 62
     7
 10
17.731928238465699
 20
126.8536119948503
 30
0.0
 42
-0.4142135623730951
  0
VERTEX
  5
678
  8
DATA
  6
CONTINUOUS
 62
     7
 10
18.231928238465692
 20
126.3536119948503
 30
0.0
 42
-0.4142135623730951
  0
VERTEX
  5
679
  8
DATA
  6
CONTINUOUS
 62
     7
 10
17.731928238465699
 20
125.8536119948503
 30
0.0
 42
-0.4142135623730951
  0
VERTEX
  5
67A
  8
DATA
  6
CONTINUOUS
 62
     7
 10
17.231928238465699
 20
126.3536119948503
 30
0.0
  0
SEQEND
  5
67B
  8
DATA
  6
CONTINUOUS
 62
     7
  0
POLYLINE
  5
3BE
  8
DATA
  6
CONTINUOUS
 62
     7
 66
     1
 10
0.0
 20
0.0
 30
0.0
 70
   129
  0
VERTEX
  5
67C
  8
DATA
  6
CONTINUOUS
 62
     7
 10
9.0019282384656805
 20
126.3536119948503
 30
0.0
 42
-0.4142135623730951
  0
VERTEX
  5
67D
  8
DATA
  6
CONTINUOUS
 62
     7
 10
9.5019282384656805
 20
126.8536119948503
 30
0.0
 42
-0.4142135623730951
  0
VERTEX
  5
67E
  8
DATA
  6
CONTINUOUS
 62
     7
 10
10.00192823846568
 20
126.3536119948503
 30
0.0
 42
-0.4142135623730951
  0
VERTEX
  5
67F
  8
DATA
  6
CONTINUOUS
 62
     7
 10
9.5019282384656805
 20
125.8536119948503
 30
0.0
 42
-0.4142135623730951
  0
VERTEX
  5
680
  8
DATA
  6
CONTINUOUS
 62
     7
 10
9.0019282384656805
 20
126.3536119948503
 30
0.0
  0
SEQEND
  5
681
  8
DATA
  6
CONTINUOUS
 62
     7
  0
POLYLINE
  5
3C5
  8
DATA
  6
CONTINUOUS
 62
     7
 66
     1
 10
0.0
 20
0.0
 30
0.0
 70
   129
  0
VERTEX
  5
682
  8
DATA
  6
CONTINUOUS
 62
     7
 10
13.111928238465691
 20
129.1936119948503
 30
0.0
 42
-0.4142135623730951
  0
VERTEX
  5
683
  8
DATA
  6
CONTINUOUS
 62
     7
 10
13.611928238465691
 20
129.6936119948503
 30
0.0
 42
-0.4142135623730951
  0
VERTEX
  5
684
  8
DATA
  6
CONTINUOUS
 62
     7
 10
14.111928238465691
 20
129.1936119948503
 30
0.0
 42
-0.4142135623730951
  0
VERTEX
  5
685
  8
DATA
  6
CONTINUOUS
 62
     7
 10
13.611928238465691
 20
128.6936119948503
 30
0.0
 42
-0.4142135623730951
  0
VERTEX
  5
686
  8
DATA
  6
CONTINUOUS
 62
     7
 10
13.111928238465691
 20
129.1936119948503
 30
0.0
  0
SEQEND
  5
687
  8
DATA
  6
CONTINUOUS
 62
     7
  0
POLYLINE
  5
3CC
  8
DATA
  6
CONTINUOUS
 62
     7
 66
     1
 10
0.0
 20
0.0
 30
0.0
 70
   129
  0
VERTEX
  5
688
  8
DATA
  6
CONTINUOUS
 62
     7
 10
11.74192823846569
 20
126.3536119948503
 30
0.0
 42
-0.4142135623730951
  0
VERTEX
  5
689
  8
DATA
  6
CONTINUOUS
 62
     7
 10
12.24192823846569
 20
126.8536119948503
 30
0.0
 42
-0.4142135623730951
  0
VERTEX
  5
68A
  8
DATA
  6
CONTINUOUS
 62
     7
 10
12.74192823846569
 20
126.3536119948503
 30
0.0
 42
-0.4142135623730951
  0
VERTEX
  5
68B
  8
DATA
  6
CONTINUOUS
 62
     7
 10
12.24192823846569
 20
125.8536119948503
 30
0.0
 42
-0.4142135623730951
  0
VERTEX
  5
68C
  8
DATA
  6
CONTINUOUS
 62
     7
 10
11.74192823846569
 20
126.3536119948503
 30
0.0
  0
SEQEND
  5
68D
  8
DATA
  6
CONTINUOUS
 62
     7
  0
ARC
  5
3D3
  8
DATA
  6
CONTINUOUS
 62
     7
 10
18.691928238465671
 20
125.3335507603084
 30
0.0
 40
2.0000000000001128
 50
270.0
 51
0.0
  0
LINE
  5
3D4
  8
DATA
  6
CONTINUOUS
 62
     7
 10
20.691928238465682
 20
125.3335507603084
 30
0.0
 11
19.792578238465708
 21
130.4340207603085
 31
0.0
  0
ARC
  5
3D5
  8
DATA
  6
CONTINUOUS
 62
     7
 10
18.315358238465659
 20
130.17355076030839
 30
0.0
 40
1.499998001665358
 50
9.9999255496035442
 51
90.0
  0
ARC
  5
3D6
  8
DATA
  6
CONTINUOUS
 62
     7
 10
5.7919282384657
 20
125.3335507603084
 30
0.0
 40
2.0
 50
180.0
 51
270.0
  0
LINE
  5
3D7
  8
DATA
  6
CONTINUOUS
 62
     7
 10
3.7919282384657
 20
125.3335507603084
 30
0.0
 11
4.6912782384656699
 21
130.4340207603085
 31
0.0
  0
ARC
  5
3D8
  8
DATA
  6
CONTINUOUS
 62
     7
 10
6.1684882384656836
 20
130.17355076030839
 30
0.0
 40
1.5
 50
90.0
 51
170.00007445039569
  0
POLYLINE
  5
3D9
  8
DATA
  6
CONTINUOUS
 62
     7
 66
     1
 10
0.0
 20
0.0
 30
0.0
 70
     1
  0
VERTEX
  5
68E
  8
DATA
  6
CONTINUOUS
 62
     7
 10
23.49916115059121
 20
125.3517078213856
 30
0.0
  0
VERTEX
  5
68F
  8
DATA
  6
CONTINUOUS
 62
     7
 10
26.214944927591109
 20
125.49041599334051
 30
0.0
  0
VERTEX
  5
690
  8
DATA
  6
CONTINUOUS
 62
     7
 10
27.4527120154656
 20
127.91170782138551
 30
0.0
  0
VERTEX
  5
691
  8
DATA
  6
CONTINUOUS
 62
     7
 10
25.974695326340189
 20
130.19429147747559
 30
0.0
  0
VERTEX
  5
692
  8
DATA
  6
CONTINUOUS
 62
     7
 10
23.25891154934029
 20
130.05558330552071
 30
0.0
  0
VERTEX
  5
693
  8
DATA
  6
CONTINUOUS
 62
     7
 10
22.021144461465799
 20
127.6342914774757
 30
0.0
  0
SEQEND
  5
694
  8
DATA
  6
CONTINUOUS
 62
     7
  0
CIRCLE
  5
3E2
  8
DATA
  6
CONTINUOUS
 62
     7
 10
24.736928238465691
 20
127.7729996494306
 30
0.0
 40
1.149999999999977
  0
CIRCLE
  5
3E3
  8
DATA
  6
CONTINUOUS
 62
     7
 10
24.736928238465691
 20
127.7729996494306
 30
0.0
 40
1.759905868717949
  0
POLYLINE
  5
3E4
  8
DATA
  6
CONTINUOUS
 62
     7
 66
     1
 10
0.0
 20
0.0
 30
0.0
 70
     1
  0
VERTEX
  5
695
  8
DATA
  6
CONTINUOUS
 62
     7
 10
-1.490838849408803
 20
125.3517078213856
 30
0.0
  0
VERTEX
  5
696
  8
DATA
  6
CONTINUOUS
 62
     7
 10
1.224944927591096
 20
125.49041599334051
 30
0.0
  0
VERTEX
  5
697
  8
DATA
  6
CONTINUOUS
 62
     7
 10
2.4627120154655842
 20
127.91170782138551
 30
0.0
  0
VERTEX
  5
698
  8
DATA
  6
CONTINUOUS
 62
     7
 10
0.9846953263401729
 20
130.19429147747559
 30
0.0
  0
VERTEX
  5
699
  8
DATA
  6
CONTINUOUS
 62
     7
 10
-1.7310884506597259
 20
130.05558330552071
 30
0.0
  0
VERTEX
  5
69A
  8
DATA
  6
CONTINUOUS
 62
     7
 10
-2.9688555385342141
 20
127.6342914774757
 30
0.0
  0
SEQEND
  5
69B
  8
DATA
  6
CONTINUOUS
 62
     7
  0
CIRCLE
  5
3ED
  8
DATA
  6
CONTINUOUS
 62
     7
 10
-0.253071761534315
 20
127.7729996494306
 30
0.0
 40
1.149999999999977
  0
CIRCLE
  5
3EE
  8
DATA
  6
CONTINUOUS
 62
     7
 10
-0.253071761534315
 20
127.7729996494306
 30
0.0
 40
1.759905868717949
  0
LINE
  5
3EF
  8
DATA
  6
CONTINUOUS
 62
     7
 10
19.659428238465711
 20
122.7080507603083
 30
0.0
 11
4.8244282384657282
 21
122.7080507603083
 31
0.0
  0
LINE
  5
3F0
  8
DATA
  6
CONTINUOUS
 62
     7
 10
19.226372738465681
 20
132.2990507603084
 30
0.0
 11
5.2574722384657244
 21
132.2990507603084
 31
0.0
  0
ARC
  5
3F1
  8
DATA
  6
CONTINUOUS
 62
     7
 10
19.659428238465711
 20
125.00805076030829
 30
0.0
 40
2.3000000000000682
 50
270.0
 51
0.0
  0
LINE
  5
3F2
  8
DATA
  6
CONTINUOUS
 62
     7
 10
21.959428238465659
 20
125.00805076030829
 30
0.0
 11
20.92517573846574
 21
130.87359126030839
 31
0.0
  0
ARC
  5
3F3
  8
DATA
  6
CONTINUOUS
 62
     7
 10
19.226372738465681
 20
130.5740507603085
 30
0.0
 40
1.7249977019151479
 50
9.9999255495988262
 51
90.0
  0
ARC
  5
3F4
  8
DATA
  6
CONTINUOUS
 62
     7
 10
4.8244282384657282
 20
125.00805076030829
 30
0.0
 40
2.3000000000000109
 50
180.0
 51
270.0
  0
LINE
  5
3F5
  8
DATA
  6
CONTINUOUS
 62
     7
 10
2.524428238465716
 20
125.00805076030829
 30
0.0
 11
3.558680738465696
 21
130.87359126030839
 31
0.0
  0
ARC
  5
3F6
  8
DATA
  6
CONTINUOUS
 62
     7
 10
5.2574722384657244
 20
130.5740507603085
 30
0.0
 40
1.724999999999965
 50
90.0
 51
170.00007445039961
  0
TEXT
  5
3F7
  8
DATA
 62
     7
 10
62.886023688143801
 20
130.93333333333331
 30
0.0
 40
1.954609375
  1
T100mA L, 250V
 50
270.0
 41
0.8
 11
64.840633063143784
 21
130.93333333333331
 31
0.0
 73
     3
  0
TEXT
  5
3F8
  8
DATA
 62
     7
 10
57.636016920102733
 20
141.59753479925499
 30
0.0
 40
2.1717881944444439
  1
100V～100mA 50/60Hz
 50
180.0
 41
0.8
 11
57.636016920102733
 21
139.42574660481051
 31
0.0
 73
     3
  0
TEXT
  5
3F9
  8
DATA
 62
     7
 10
15.691949239691681
 20
121.3023652554399
 30
0.0
 40
2.1717881944444439
  1
RS 232
 50
180.0
 41
0.8
 11
15.691949239691681
 21
119.13057706099551
 31
0.0
 73
     3
  0
TEXT
  5
3FA
  8
DATA
 62
     7
 10
-19.141803804805399
 20
132.9441089114475
 30
0.0
 40
2.1717881944444439
  1
SHURE
 50
180.0
 41
0.8
 11
-19.141803804805399
 21
130.77232071700311
 31
0.0
 73
     3
  0
TEXT
  5
3FB
  8
DATA
 62
     7
 10
-19.141803804805399
 20
135.76633113366969
 30
0.0
 40
2.1717881944444439
  1
 
 50
180.0
 41
0.8
 11
-19.141803804805399
 21
133.59454293922531
 31
0.0
 73
     3
  0
TEXT
  5
3FC
  8
DATA
 62
     7
 10
-19.93893451925247
 20
135.46913362981309
 30
0.0
 40
1.954609375
  1
LINK
 50
180.0
 41
0.8
 11
-19.93893451925247
 21
133.5145242548131
 31
0.0
 73
     3
  0
TEXT
  5
3FD
  8
DATA
 62
     7
 10
-16.532069927944299
 20
141.8660456303636
 30
0.0
 40
2.1717881944444439
  1
OUT
 50
180.0
 41
0.8
 11
-16.532069927944299
 21
139.6942574359191
 31
0.0
 73
     3
  0
TEXT
  5
3FE
  8
DATA
 62
     7
 10
-26.965677043459081
 20
141.8339757024192
 30
0.0
 40
2.1717881944444439
  1
IN
 50
180.0
 41
0.8
 11
-26.965677043459081
 21
139.66218750797481
 31
0.0
 73
     3
  0
LINE
  5
3FF
  8
DATA
  6
CONTINUOUS
 62
     7
 10
-13.000000000000011
 20
139.08473362981309
 30
0.0
 11
-13.000000000000011
 21
133.09999999999999
 31
0.0
  0
LINE
  5
400
  8
DATA
  6
CONTINUOUS
 62
     7
 10
-33.000000000000007
 20
139.08473362981309
 30
0.0
 11
-33.000000000000007
 21
133.09999999999999
 31
0.0
  0
LINE
  5
401
  8
DATA
  6
CONTINUOUS
 62
     7
 10
-14.500000000000011
 20
140.58473362981309
 30
0.0
 11
-15.80000000000002
 21
140.58473362981309
 31
0.0
  0
LINE
  5
402
  8
DATA
  6
CONTINUOUS
 62
     7
 10
-31.500000000000011
 20
140.58473362981309
 30
0.0
 11
-30.600000000000041
 21
140.58473362981309
 31
0.0
  0
ARC
  5
403
  8
DATA
  6
CONTINUOUS
 62
     7
 10
-14.500000000000011
 20
139.08473362981309
 30
0.0
 40
1.5
 50
0.0
 51
90.0
  0
ARC
  5
404
  8
DATA
  6
CONTINUOUS
 62
     7
 10
-31.500000000000011
 20
139.08473362981309
 30
0.0
 40
1.5
 50
90.0
 51
180.0
  0
TEXT
  5
405
  8
DATA
 62
     7
 10
-42.372524854407843
 20
131.7649174003906
 30
0.0
 40
1.085894097222222
  1
DN
 50
180.0
 41
0.8
 11
-42.372524854407843
 21
130.67902330316829
 31
0.0
 73
     3
  0
TEXT
  5
406
  8
DATA
 62
     7
 10
-45.204950291184389
 20
131.79734283716721
 30
0.0
 40
1.085894097222222
  1
1
 50
180.0
 41
0.8
 11
-45.204950291184389
 21
130.71144873994501
 31
0.0
 73
     3
  0
TEXT
  5
407
  8
DATA
 62
     7
 10
-47.671163009572709
 20
131.79239254598281
 30
0.0
 40
1.085894097222222
  1
2
 50
180.0
 41
0.8
 11
-47.671163009572709
 21
130.7064984487605
 31
0.0
 73
     3
  0
TEXT
  5
408
  8
DATA
 62
     7
 10
-50.222524854407837
 20
131.78188669924279
 30
0.0
 40
1.085894097222222
  1
3
 50
180.0
 41
0.8
 11
-50.222524854407837
 21
130.69599260202051
 31
0.0
 73
     3
  0
TEXT
  5
409
  8
DATA
 62
     7
 10
-52.648638155164882
 20
131.79734283716721
 30
0.0
 40
1.085894097222222
  1
4
 50
180.0
 41
0.8
 11
-52.648638155164882
 21
130.71144873994501
 31
0.0
 73
     3
  0
TEXT
  5
40A
  8
DATA
 62
     7
 10
-56.090825296947251
 20
134.6726652222701
 30
0.0
 40
1.085894097222222
  1
LOW Q
 50
270.0
 41
0.8
 11
-55.004931199725029
 21
134.6726652222701
 31
0.0
 73
     3
  0
TEXT
  5
40B
  8
DATA
 62
     7
 10
-58.642997810353918
 20
134.04154754222071
 30
0.0
 40
1.085894097222222
  1
HOLD
 50
270.0
 41
0.8
 11
-57.557103713131703
 21
134.04154754222071
 31
0.0
 73
     3
  0
TEXT
  5
40C
  8
DATA
 62
     7
 10
-61.121834800781173
 20
134.12619958051181
 30
0.0
 40
1.085894097222222
  1
LOCK
 50
270.0
 41
0.8
 11
-60.035940703558943
 21
134.12619958051181
 31
0.0
 73
     3
  0
TEXT
  5
40D
  8
DATA
 62
     7
 10
-63.66253948278343
 20
135.44969736781439
 30
0.0
 40
1.085894097222222
  1
UNUSED
 50
270.0
 41
0.8
 11
-62.5766453855612
 21
135.44969736781439
 31
0.0
 73
     3
  0
TEXT
  5
40E
  8
DATA
 62
     7
 10
-66.129752853821643
 20
133.252626461685
 30
0.0
 40
1.085894097222222
  1
-10
 50
270.0
 41
0.8
 11
-65.043858756599406
 21
133.252626461685
 31
0.0
 73
     3
  0
TEXT
  5
40F
  8
DATA
 62
     7
 10
-68.647029256751253
 20
133.26933626822901
 30
0.0
 40
1.085894097222222
  1
-10
 50
270.0
 41
0.8
 11
-67.56113515952903
 21
133.26933626822901
 31
0.0
 73
     3
  0
TEXT
  5
410
  8
DATA
 62
     7
 10
-45.243687863980497
 20
123.4630584673999
 30
0.0
 40
1.085894097222222
  1
1
 50
180.0
 41
0.8
 11
-45.243687863980497
 21
122.3771643701777
 31
0.0
 73
     3
  0
TEXT
  5
411
  8
DATA
 62
     7
 10
-47.709900582368789
 20
123.4581081762154
 30
0.0
 40
1.085894097222222
  1
2
 50
180.0
 41
0.8
 11
-47.709900582368789
 21
122.3722140789932
 31
0.0
 73
     3
  0
TEXT
  5
412
  8
DATA
 62
     7
 10
-50.261262427203931
 20
123.4476023294754
 30
0.0
 40
1.085894097222222
  1
3
 50
180.0
 41
0.8
 11
-50.261262427203931
 21
122.36170823225321
 31
0.0
 73
     3
  0
TEXT
  5
413
  8
DATA
 62
     7
 10
-52.687375727960969
 20
123.4630584673999
 30
0.0
 40
1.085894097222222
  1
4
 50
180.0
 41
0.8
 11
-52.687375727960969
 21
122.3771643701777
 31
0.0
 73
     3
  0
TEXT
  5
414
  8
DATA
 62
     7
 10
-42.461262427203948
 20
123.4869451666427
 30
0.0
 40
1.085894097222222
  1
UP
 50
180.0
 41
0.8
 11
-42.461262427203948
 21
122.4010510694205
 31
0.0
 73
     3
  0
TEXT
  5
415
  8
DATA
 62
     7
 10
-56.123801909987343
 20
123.5862083390961
 30
0.0
 40
1.085894097222222
  1
HIGH Q
 50
270.0
 41
0.8
 11
-55.037907812765113
 21
123.5862083390961
 31
0.0
 73
     3
  0
TEXT
  5
416
  8
DATA
 62
     7
 10
-58.631475890841799
 20
123.5614568831739
 30
0.0
 40
1.085894097222222
  1
UPDATA
 50
270.0
 41
0.8
 11
-57.545581793619569
 21
123.5614568831739
 31
0.0
 73
     3
  0
TEXT
  5
417
  8
DATA
 62
     7
 10
-61.096737572796123
 20
123.61050584674
 30
0.0
 40
1.085894097222222
  1
UNLOCK FORNT PANEL
 50
270.0
 41
0.8
 11
-60.0108434755739
 21
123.61050584674
 31
0.0
 73
     3
  0
TEXT
  5
418
  8
DATA
 62
     7
 10
-63.583135895970528
 20
123.6159100862028
 30
0.0
 40
1.085894097222222
  1
UNUSED
 50
270.0
 41
0.8
 11
-62.497241798748313
 21
123.6159100862028
 31
0.0
 73
     3
  0
TEXT
  5
419
  8
DATA
 62
     7
 10
-66.078049708815584
 20
123.5692931283516
 30
0.0
 40
1.085894097222222
  1
+4 OUTPUT
 50
270.0
 41
0.8
 11
-64.992155611593361
 21
123.5692931283516
 31
0.0
 73
     3
  0
TEXT
  5
41A
  8
DATA
 62
     7
 10
-68.580222222222247
 20
123.55525292336991
 30
0.0
 40
1.085894097222222
  1
+4 INPUT
 50
270.0
 41
0.8
 11
-67.494328125000024
 21
123.55525292336991
 31
0.0
 73
     3
  0
TEXT
  5
41B
  8
DATA
 62
     7
 10
-49.958756580463941
 20
120.8904561379244
 30
0.0
 40
1.085894097222222
  1
DEVICE ID
 50
270.0
 41
0.8
 11
-48.872862483241718
 21
120.8904561379244
 31
0.0
 73
     3
  0
LINE
  5
41C
  8
DATA
  6
CONTINUOUS
 62
     7
 10
-53.080994083711651
 20
121.4436878639805
 30
0.0
 11
-45.580994083711651
 21
121.4436878639805
 31
0.0
  0
LINE
  5
41D
  8
DATA
  6
CONTINUOUS
 62
     7
 10
-49.330994083711651
 20
121.4436878639805
 30
0.0
 11
-49.330994083711651
 21
121.05
 31
0.0
  0
LINE
  5
41E
  8
DATA
  6
CONTINUOUS
 62
     7
 10
-45.580994083711651
 20
121.4436878639805
 30
0.0
 11
-45.580994083711651
 21
122.10495029118439
 31
0.0
  0
LINE
  5
41F
  8
DATA
  6
CONTINUOUS
 62
     7
 10
-53.080994083711651
 20
121.4436878639805
 30
0.0
 11
-53.080994083711651
 21
122.10495029118439
 31
0.0
  0
LINE
  5
420
  8
DATA
  6
CONTINUOUS
 62
     7
 10
29.199999999999971
 20
32.0
 30
0.0
 11
59.199999999999982
 21
32.0
 31
0.0
  0
LINE
  5
421
  8
DATA
  6
CONTINUOUS
 62
     7
 10
29.199999999999971
 20
32.0
 30
0.0
 11
29.199999999999971
 21
29.0
 31
0.0
  0
LINE
  5
422
  8
DATA
  6
CONTINUOUS
 62
     7
 10
59.199999999999982
 20
32.0
 30
0.0
 11
59.199999999999982
 21
29.0
 31
0.0
  0
LINE
  5
423
  8
DATA
  6
CONTINUOUS
 62
     7
 10
60.649999999999991
 20
32.0
 30
0.0
 11
67.34999999999998
 21
32.0
 31
0.0
  0
LINE
  5
424
  8
DATA
  6
CONTINUOUS
 62
     7
 10
60.649999999999991
 20
32.0
 30
0.0
 11
60.649999999999991
 21
29.0
 31
0.0
  0
LINE
  5
425
  8
DATA
  6
CONTINUOUS
 62
     7
 10
67.34999999999998
 20
32.0
 30
0.0
 11
67.34999999999998
 21
29.0
 31
0.0
  0
LINE
  5
426
  8
DATA
  6
CONTINUOUS
 62
     7
 10
2.4627120154655842
 20
33.5
 30
0.0
 11
22.021144461465799
 21
33.5
 31
0.0
  0
LINE
  5
427
  8
DATA
  6
CONTINUOUS
 62
     7
 10
2.4627120154655842
 20
33.5
 30
0.0
 11
2.4627120154655842
 21
29.0
 31
0.0
  0
LINE
  5
428
  8
DATA
  6
CONTINUOUS
 62
     7
 10
22.021144461465799
 20
33.5
 30
0.0
 11
22.021144461465799
 21
29.0
 31
0.0
  0
LINE
  5
429
  8
DATA
  6
CONTINUOUS
 62
     7
 10
2.1346002029165021
 20
33.5
 30
0.0
 11
-2.9688555385342141
 21
33.5
 31
0.0
  0
LINE
  5
42A
  8
DATA
  6
CONTINUOUS
 62
     7
 10
22.26722832087761
 20
33.5
 30
0.0
 11
27.4527120154656
 21
33.5
 31
0.0
  0
LINE
  5
42B
  8
DATA
  6
CONTINUOUS
 62
     7
 10
-2.9688555385342141
 20
33.5
 30
0.0
 11
-2.9688555385342141
 21
29.0
 31
0.0
  0
LINE
  5
42C
  8
DATA
  6
CONTINUOUS
 62
     7
 10
2.1346002029165021
 20
33.5
 30
0.0
 11
2.1346002029165021
 21
29.0
 31
0.0
  0
LINE
  5
42D
  8
DATA
  6
CONTINUOUS
 62
     7
 10
22.26722832087761
 20
33.5
 30
0.0
 11
22.26722832087761
 21
29.0
 31
0.0
  0
LINE
  5
42E
  8
DATA
  6
CONTINUOUS
 62
     7
 10
27.4527120154656
 20
33.5
 30
0.0
 11
27.4527120154656
 21
29.0
 31
0.0
  0
LINE
  5
42F
  8
DATA
  6
CONTINUOUS
 62
     7
 10
-1.490838849408803
 20
29.0
 30
0.0
 11
-1.490838849408803
 21
33.5
 31
0.0
  0
LINE
  5
430
  8
DATA
  6
CONTINUOUS
 62
     7
 10
23.49916115059121
 20
29.0
 30
0.0
 11
23.49916115059121
 21
33.5
 31
0.0
  0
LINE
  5
431
  8
DATA
  6
CONTINUOUS
 62
     7
 10
-141.65000000000001
 20
32.0
 30
0.0
 11
-148.34999999999999
 21
32.0
 31
0.0
  0
LINE
  5
432
  8
DATA
  6
CONTINUOUS
 62
     7
 10
-148.34999999999999
 20
32.0
 30
0.0
 11
-148.34999999999999
 21
29.0
 31
0.0
  0
LINE
  5
433
  8
DATA
  6
CONTINUOUS
 62
     7
 10
-141.65000000000001
 20
32.0
 30
0.0
 11
-141.65000000000001
 21
29.0
 31
0.0
  0
LINE
  5
434
  8
DATA
  6
CONTINUOUS
 62
     7
 10
-80.165000000000035
 20
37.0
 30
0.0
 11
-73.834999999999965
 21
37.0
 31
0.0
  0
LINE
  5
435
  8
DATA
  6
CONTINUOUS
 62
     7
 10
-80.165000000000035
 20
37.0
 30
0.0
 11
-80.165000000000035
 21
31.0
 31
0.0
  0
LINE
  5
436
  8
DATA
  6
CONTINUOUS
 62
     7
 10
-73.834999999999965
 20
37.0
 30
0.0
 11
-73.834999999999965
 21
31.0
 31
0.0
  0
LINE
  5
437
  8
DATA
  6
CONTINUOUS
 62
     7
 10
-83.156568308183807
 20
31.0
 30
0.0
 11
-83.156568308183807
 21
29.0
 31
0.0
  0
LINE
  5
438
  8
DATA
  6
CONTINUOUS
 62
     7
 10
-83.156568308183807
 20
31.0
 30
0.0
 11
-70.850000000000023
 21
31.0
 31
0.0
  0
LINE
  5
439
  8
DATA
  6
CONTINUOUS
 62
     7
 10
-70.850000000000023
 20
31.0
 30
0.0
 11
-70.850000000000023
 21
29.0
 31
0.0
  0
LINE
  5
43A
  8
DATA
  6
CONTINUOUS
 62
     7
 10
-81.428284154091884
 20
31.0
 30
0.0
 11
-81.428284154091884
 21
29.0
 31
0.0
  0
LINE
  5
43B
  8
DATA
  6
CONTINUOUS
 62
     7
 10
-75.271715845908105
 20
31.0
 30
0.0
 11
-75.271715845908105
 21
29.0
 31
0.0
  0
LINE
  5
43C
  8
DATA
  6
CONTINUOUS
 62
     7
 10
-113.5
 20
34.0
 30
0.0
 11
-113.5
 21
31.0
 31
0.0
  0
LINE
  5
43D
  8
DATA
  6
CONTINUOUS
 62
     7
 10
-136.5
 20
34.0
 30
0.0
 11
-136.5
 21
29.0
 31
0.0
  0
LINE
  5
43E
  8
DATA
  6
CONTINUOUS
 62
     7
 10
-109.43103625756891
 20
30.20000000000001
 30
0.0
 11
-90.24339828220171
 21
30.20000000000001
 31
0.0
  0
LINE
  5
43F
  8
DATA
  6
CONTINUOUS
 62
     7
 10
-90.24339828220171
 20
31.0
 30
0.0
 11
-84.543398282201693
 21
31.0
 31
0.0
  0
LINE
  5
440
  8
DATA
  6
CONTINUOUS
 62
     7
 10
-84.543398282201693
 20
31.0
 30
0.0
 11
-84.543398282201693
 21
29.0
 31
0.0
  0
LINE
  5
441
  8
DATA
  6
CONTINUOUS
 62
     7
 10
-90.24339828220171
 20
31.0
 30
0.0
 11
-90.24339828220171
 21
29.0
 31
0.0
  0
LINE
  5
442
  8
DATA
  6
CONTINUOUS
 62
     7
 10
-111.45660171779809
 20
31.0
 30
0.0
 11
-111.45660171779809
 21
29.0
 31
0.0
  0
LINE
  5
443
  8
DATA
  6
CONTINUOUS
 62
     7
 10
-87.393398282201716
 20
31.0
 30
0.0
 11
-111.45660171779809
 21
31.0
 31
0.0
  0
LINE
  5
444
  8
DATA
  6
CONTINUOUS
 62
     7
 10
-105.7566017177982
 20
31.0
 30
0.0
 11
-105.7566017177982
 21
30.20000000000001
 31
0.0
  0
LINE
  5
445
  8
DATA
  6
CONTINUOUS
 62
     7
 10
-109.43103625756891
 20
30.20000000000001
 30
0.0
 11
-109.43103625756891
 21
29.0
 31
0.0
  0
LINE
  5
446
  8
DATA
  6
CONTINUOUS
 62
     7
 10
-136.0
 20
34.5
 30
0.0
 11
-114.0
 21
34.5
 31
0.0
  0
LINE
  5
447
  8
DATA
  6
CONTINUOUS
 62
     7
 10
-117.2433982822017
 20
31.0
 30
0.0
 11
-117.2433982822017
 21
29.0
 31
0.0
  0
LINE
  5
448
  8
DATA
  6
CONTINUOUS
 62
     7
 10
-111.54339828220169
 20
31.0
 30
0.0
 11
-111.54339828220169
 21
29.0
 31
0.0
  0
LINE
  5
449
  8
DATA
  6
CONTINUOUS
 62
     7
 10
-112.7475921764774
 20
31.0
 30
0.0
 11
-117.2433982822017
 21
31.0
 31
0.0
  0
LINE
  5
44A
  8
DATA
  6
CONTINUOUS
 62
     7
 10
-112.7475921764774
 20
31.0
 30
0.0
 11
-111.54339828220169
 21
31.0
 31
0.0
  0
LINE
  5
44B
  8
DATA
  6
CONTINUOUS
 62
     7
 10
-130.0
 20
38.0
 30
0.0
 11
-120.0
 21
38.0
 31
0.0
  0
LINE
  5
44C
  8
DATA
  6
CONTINUOUS
 62
     7
 10
-130.0
 20
37.079999999999998
 30
0.0
 11
-120.0
 21
37.079999999999998
 31
0.0
  0
LINE
  5
44D
  8
DATA
  6
CONTINUOUS
 62
     7
 10
-130.0
 20
37.079999999999998
 30
0.0
 11
-130.0
 21
38.0
 31
0.0
  0
LINE
  5
44E
  8
DATA
  6
CONTINUOUS
 62
     7
 10
-120.0
 20
37.079999999999998
 30
0.0
 11
-120.0
 21
38.0
 31
0.0
  0
LINE
  5
44F
  8
DATA
  6
CONTINUOUS
 62
     7
 10
-127.40000000000001
 20
34.5
 30
0.0
 11
-127.40000000000001
 21
37.079999999999998
 31
0.0
  0
LINE
  5
450
  8
DATA
  6
CONTINUOUS
 62
     7
 10
-122.59999999999999
 20
34.5
 30
0.0
 11
-122.59999999999999
 21
37.079999999999998
 31
0.0
  0
LINE
  5
451
  8
DATA
  6
CONTINUOUS
 62
     7
 10
-136.5
 20
34.0
 30
0.0
 11
-136.0
 21
34.5
 31
0.0
  0
LINE
  5
452
  8
DATA
  6
CONTINUOUS
 62
     7
 10
-113.5
 20
34.0
 30
0.0
 11
-114.0
 21
34.5
 31
0.0
  0
LINE
  5
453
  8
DATA
  6
CONTINUOUS
 62
     7
 10
171.56999999999999
 20
-200.0
 30
0.0
 11
308.42000000000002
 21
-200.0
 31
0.0
  0
LINE
  5
454
  8
DATA
  6
CONTINUOUS
 62
     7
 10
171.56999999999999
 20
-156.0
 30
0.0
 11
308.42000000000002
 21
-156.0
 31
0.0
  0
LINE
  5
455
  8
DATA
  6
CONTINUOUS
 62
     7
 10
173.19999999999999
 20
-200.0
 30
0.0
 11
173.19999999999999
 21
-156.0
 31
0.0
  0
LINE
  5
456
  8
DATA
  6
CONTINUOUS
 62
     7
 10
306.90000000000009
 20
-200.0
 30
0.0
 11
306.90000000000009
 21
-156.0
 31
0.0
  0
LINE
  5
457
  8
DATA
  6
CONTINUOUS
 62
     7
 10
308.42000000000002
 20
-200.0
 30
0.0
 11
308.42000000000002
 21
-156.0
 31
0.0
  0
LINE
  5
458
  8
DATA
  6
CONTINUOUS
 62
     7
 10
173.19999999999999
 20
-158.34999999999999
 30
0.0
 11
306.90000000000009
 21
-158.34999999999999
 31
0.0
  0
LINE
  5
459
  8
DATA
  6
CONTINUOUS
 62
     7
 10
173.19999999999999
 20
-197.65000000000001
 30
0.0
 11
306.90000000000009
 21
-197.65000000000001
 31
0.0
  0
LINE
  5
45A
  8
DATA
  6
CONTINUOUS
 62
     7
 10
173.19999999999999
 20
-168.0
 30
0.0
 11
306.90000000000009
 21
-168.0
 31
0.0
  0
LINE
  5
45B
  8
DATA
  6
CONTINUOUS
 62
     7
 10
173.19999999999999
 20
-188.0
 30
0.0
 11
306.90000000000009
 21
-188.0
 31
0.0
  0
LINE
  5
45C
  8
DATA
  6
CONTINUOUS
 62
     7
 10
173.19999999999999
 20
-167.25
 30
0.0
 11
306.90000000000009
 21
-167.25
 31
0.0
  0
LINE
  5
45D
  8
DATA
  6
CONTINUOUS
 62
     7
 10
173.19999999999999
 20
-188.75
 30
0.0
 11
306.90000000000009
 21
-188.75
 31
0.0
  0
ARC
  5
45E
  8
DATA
  6
CONTINUOUS
 62
     7
 10
324.92512738853571
 20
-178.0
 30
0.0
 40
154.92512738853571
 50
171.836169712904
 51
188.163830287096
  0
LINE
  5
45F
  8
DATA
  6
CONTINUOUS
 62
     7
 10
169.4200000000001
 20
-167.34999999999999
 30
0.0
 11
169.4200000000001
 21
-160.64999999999989
 31
0.0
  0
LINE
  5
460
  8
DATA
  6
CONTINUOUS
 62
     7
 10
169.4200000000001
 20
-195.34999999999999
 30
0.0
 11
169.4200000000001
 21
-188.65000000000001
 31
0.0
  0
LINE
  5
461
  8
DATA
  6
CONTINUOUS
 62
     7
 10
169.4200000000001
 20
-195.34999999999999
 30
0.0
 11
170.97457494927349
 21
-195.34999999999999
 31
0.0
  0
LINE
  5
462
  8
DATA
  6
CONTINUOUS
 62
     7
 10
169.4200000000001
 20
-188.65000000000001
 30
0.0
 11
170.36648933697279
 21
-188.65000000000001
 31
0.0
  0
LINE
  5
463
  8
DATA
  6
CONTINUOUS
 62
     7
 10
169.4200000000001
 20
-160.64999999999989
 30
0.0
 11
170.97457494927349
 21
-160.64999999999989
 31
0.0
  0
LINE
  5
464
  8
DATA
  6
CONTINUOUS
 62
     7
 10
169.4200000000001
 20
-167.34999999999999
 30
0.0
 11
170.36648933697279
 21
-167.34999999999999
 31
0.0
  0
LINE
  5
465
  8
DATA
  6
CONTINUOUS
 62
     7
 10
311.42000000000002
 20
-167.34999999999999
 30
0.0
 11
311.42000000000002
 21
-160.64999999999989
 31
0.0
  0
LINE
  5
466
  8
DATA
  6
CONTINUOUS
 62
     7
 10
311.42000000000002
 20
-195.34999999999999
 30
0.0
 11
311.42000000000002
 21
-188.65000000000001
 31
0.0
  0
LINE
  5
467
  8
DATA
  6
CONTINUOUS
 62
     7
 10
311.42000000000002
 20
-160.64999999999989
 30
0.0
 11
308.42000000000002
 21
-160.64999999999989
 31
0.0
  0
LINE
  5
468
  8
DATA
  6
CONTINUOUS
 62
     7
 10
311.42000000000002
 20
-167.34999999999999
 30
0.0
 11
308.42000000000002
 21
-167.34999999999999
 31
0.0
  0
LINE
  5
469
  8
DATA
  6
CONTINUOUS
 62
     7
 10
311.42000000000002
 20
-188.65000000000001
 30
0.0
 11
308.42000000000002
 21
-188.65000000000001
 31
0.0
  0
LINE
  5
46A
  8
DATA
  6
CONTINUOUS
 62
     7
 10
311.42000000000002
 20
-195.34999999999999
 30
0.0
 11
308.42000000000002
 21
-195.34999999999999
 31
0.0
  0
LINE
  5
46B
  8
DATA
  6
CONTINUOUS
 62
     7
 10
311.42000000000002
 20
-188.65000000000001
 30
0.0
 11
311.42000000000002
 21
-167.34999999999999
 31
0.0
  0
LINE
  5
46C
  8
DATA
  6
CONTINUOUS
 62
     7
 10
311.42000000000002
 20
-178.55000000000001
 30
0.0
 11
316.42000000000002
 21
-178.55000000000001
 31
0.0
  0
LINE
  5
46D
  8
DATA
  6
CONTINUOUS
 62
     7
 10
316.42000000000002
 20
-187.44999999999999
 30
0.0
 11
312.92000000000002
 21
-187.44999999999999
 31
0.0
  0
LINE
  5
46E
  8
DATA
  6
CONTINUOUS
 62
     7
 10
316.42000000000002
 20
-187.44999999999999
 30
0.0
 11
316.42000000000002
 21
-178.55000000000001
 31
0.0
  0
LINE
  5
46F
  8
DATA
  6
CONTINUOUS
 62
     7
 10
312.92000000000002
 20
-186.03
 30
0.0
 11
312.92000000000002
 21
-181.22999999999999
 31
0.0
  0
LINE
  5
470
  8
DATA
  6
CONTINUOUS
 62
     7
 10
312.92000000000002
 20
-181.22999999999999
 30
0.0
 11
311.42000000000002
 21
-181.22999999999999
 31
0.0
  0
LINE
  5
471
  8
DATA
  6
CONTINUOUS
 62
     7
 10
312.92000000000002
 20
-186.03
 30
0.0
 11
311.42000000000002
 21
-186.03
 31
0.0
  0
LINE
  5
472
  8
DATA
  6
CONTINUOUS
 62
     7
 10
311.42000000000002
 20
-179.63
 30
0.0
 11
312.92000000000002
 21
-179.63
 31
0.0
  0
LINE
  5
473
  8
DATA
  6
CONTINUOUS
 62
     7
 10
311.42000000000002
 20
-187.63
 30
0.0
 11
312.92000000000002
 21
-187.63
 31
0.0
  0
LINE
  5
474
  8
DATA
  6
CONTINUOUS
 62
     7
 10
312.92000000000002
 20
-179.63
 30
0.0
 11
312.92000000000002
 21
-187.63
 31
0.0
  0
LINE
  5
475
  8
DATA
  6
CONTINUOUS
 62
     7
 10
313.92000000000002
 20
-178.55000000000001
 30
0.0
 11
313.92000000000002
 21
-163.0
 31
0.0
  0
LINE
  5
476
  8
DATA
  6
CONTINUOUS
 62
     7
 10
311.42000000000002
 20
-163.0
 30
0.0
 11
313.92000000000002
 21
-163.0
 31
0.0
  0
LINE
  5
477
  8
DATA
  6
CONTINUOUS
 62
     7
 10
317.92000000000002
 20
-162.30000000000001
 30
0.0
 11
317.92000000000002
 21
-157.1674874809523
 31
0.0
  0
LINE
  5
478
  8
DATA
  6
CONTINUOUS
 62
     7
 10
317.12
 20
-161.5
 30
0.0
 11
317.12
 21
-157.1674874809523
 31
0.0
  0
LINE
  5
479
  8
DATA
  6
CONTINUOUS
 62
     7
 10
313.92000000000002
 20
-163.0
 30
0.0
 11
315.62
 21
-163.0
 31
0.0
  0
LINE
  5
47A
  8
DATA
  6
CONTINUOUS
 62
     7
 10
313.92000000000002
 20
-163.80000000000001
 30
0.0
 11
316.42000000000002
 21
-163.80000000000001
 31
0.0
  0
LINE
  5
47B
  8
DATA
  6
CONTINUOUS
 62
     7
 10
317.12
 20
-157.1674874809523
 30
0.0
 11
317.92000000000002
 21
-157.1674874809523
 31
0.0
  0
ARC
  5
47C
  8
DATA
  6
CONTINUOUS
 62
     7
 10
315.62
 20
-161.5
 30
0.0
 40
1.5
 50
270.0
 51
0.0
  0
ARC
  5
47D
  8
DATA
  6
CONTINUOUS
 62
     7
 10
316.42000000000002
 20
-162.30000000000001
 30
0.0
 40
1.5
 50
270.0
 51
0.0
  0
ARC
  5
47E
  8
DATA
  6
CONTINUOUS
 62
     7
 10
-97.800000000000026
 20
117.59999999999999
 30
0.0
 40
11.64237924275208
 50
256.59037235932868
 51
281.4801208610802
  0
TEXT
  5
47F
  8
DATA
 62
     7
 10
-220.00000999999989
 20
-352.45253000000002
 30
0.0
 40
6.5153645833333318
  1
仕様および外観は予告なく変更されることがありますので、ご了承ください。
 41
0.8
 11
-220.00000999999989
 21
-345.93716541666669
 31
0.0
 73
     3
  0
ENDSEC
  0
EOF
