  0
SECTION
  2
HEADER
  9
$ACADVER
  1
AC1009
  9
$INSBASE
 10
0.0
 20
0.0
 30
0.0
  9
$EXTMIN
 10
-170.0164782349211
 20
-265.06859875045438
 30
-0.0015258207003583
  9
$EXTMAX
 10
370.01648074949219
 20
537.08808227102497
 30
0.0000000349246037
  9
$LIMMIN
 10
0.0
 20
0.0
  9
$LIMMAX
 10
0.0
 20
0.0
  9
$ORTHOMODE
 70
     0
  9
$REGENMODE
 70
     1
  9
$FILLMODE
 70
     1
  9
$QTEXTMODE
 70
     0
  9
$MIRRTEXT
 70
     1
  9
$DRAGMODE
 70
     2
  9
$LTSCALE
 40
15.24
  9
$OSMODE
 70
   167
  9
$ATTMODE
 70
     1
  9
$TEXTSIZE
 40
0.0
  9
$TRACEWID
 40
1.0
  9
$TEXTSTYLE
  7
STANDARD
  9
$CLAYER
  8
0
  9
$CELTYPE
  6
CONTINUOUS
  9
$CECOLOR
 62
   256
  9
$DIMSCALE
 40
1.0
  9
$DIMASZ
 40
0.18
  9
$DIMEXO
 40
0.0625
  9
$DIMDLI
 40
0.38
  9
$DIMRND
 40
0.0
  9
$DIMDLE
 40
0.0
  9
$DIMEXE
 40
0.18
  9
$DIMTP
 40
0.0
  9
$DIMTM
 40
0.0
  9
$DIMTXT
 40
0.18
  9
$DIMCEN
 40
0.09
  9
$DIMTSZ
 40
0.0
  9
$DIMTOL
 70
     0
  9
$DIMLIM
 70
     0
  9
$DIMTIH
 70
     1
  9
$DIMTOH
 70
     1
  9
$DIMSE1
 70
     0
  9
$DIMSE2
 70
     0
  9
$DIMTAD
 70
     0
  9
$DIMZIN
 70
     0
  9
$DIMBLK
  1

  9
$DIMASO
 70
     1
  9
$DIMSHO
 70
     1
  9
$DIMPOST
  1

  9
$DIMAPOST
  1

  9
$DIMALT
 70
     0
  9
$DIMALTD
 70
     2
  9
$DIMALTF
 40
25.399999999999999
  9
$DIMLFAC
 40
1.0
  9
$DIMTOFL
 70
     0
  9
$DIMTVP
 40
0.0
  9
$DIMTIX
 70
     0
  9
$DIMSOXD
 70
     0
  9
$DIMSAH
 70
     0
  9
$DIMBLK1
  1

  9
$DIMBLK2
  1

  9
$DIMSTYLE
  2
STANDARD
  9
$DIMCLRD
 70
     0
  9
$DIMCLRE
 70
     0
  9
$DIMCLRT
 70
     0
  9
$DIMTFAC
 40
1.0
  9
$DIMGAP
 40
0.09
  9
$LUNITS
 70
     2
  9
$LUPREC
 70
     4
  9
$SKETCHINC
 40
0.1
  9
$FILLETRAD
 40
0.0
  9
$AUNITS
 70
     0
  9
$AUPREC
 70
     0
  9
$MENU
  1
acad
  9
$ELEVATION
 40
0.0
  9
$PELEVATION
 40
0.0
  9
$THICKNESS
 40
0.0
  9
$LIMCHECK
 70
     0
  9
$BLIPMODE
 70
     0
  9
$CHAMFERA
 40
0.0
  9
$CHAMFERB
 40
0.0
  9
$SKPOLY
 70
     0
  9
$TDCREATE
 40
2452667.4090046291
  9
$TDUPDATE
 40
2452667.4096221058
  9
$TDINDWG
 40
0.0004322917
  9
$TDUSRTIMER
 40
0.0004310185
  9
$USRTIMER
 70
     1
  9
$ANGBASE
 50
0.0
  9
$ANGDIR
 70
     0
  9
$PDMODE
 70
     1
  9
$PDSIZE
 40
-2.0
  9
$PLINEWID
 40
0.0
  9
$COORDS
 70
     0
  9
$SPLFRAME
 70
     0
  9
$SPLINETYPE
 70
     6
  9
$SPLINESEGS
 70
     8
  9
$ATTDIA
 70
     0
  9
$ATTREQ
 70
     1
  9
$HANDLING
 70
     1
  9
$HANDSEED
  5
49F
  9
$SURFTAB1
 70
     6
  9
$SURFTAB2
 70
     6
  9
$SURFTYPE
 70
     6
  9
$SURFU
 70
     6
  9
$SURFV
 70
     6
  9
$UCSNAME
  2

  9
$UCSORG
 10
0.0
 20
0.0
 30
0.0
  9
$UCSXDIR
 10
1.0
 20
0.0
 30
0.0
  9
$UCSYDIR
 10
0.0
 20
1.0
 30
0.0
  9
$PUCSNAME
  2

  9
$PUCSORG
 10
0.0
 20
0.0
 30
0.0
  9
$PUCSXDIR
 10
1.0
 20
0.0
 30
0.0
  9
$PUCSYDIR
 10
0.0
 20
1.0
 30
0.0
  9
$USERI1
 70
     0
  9
$USERI2
 70
     0
  9
$USERI3
 70
     0
  9
$USERI4
 70
     0
  9
$USERI5
 70
     0
  9
$USERR1
 40
0.0
  9
$USERR2
 40
0.0
  9
$USERR3
 40
0.0
  9
$USERR4
 40
0.0
  9
$USERR5
 40
0.0
  9
$WORLDVIEW
 70
     1
  9
$SHADEDGE
 70
     3
  9
$SHADEDIF
 70
    70
  9
$TILEMODE
 70
     1
  9
$MAXACTVP
 70
    16
  9
$PLIMCHECK
 70
     0
  9
$PEXTMIN
 10
1.0000000000000000E+020
 20
1.0000000000000000E+020
 30
1.0000000000000000E+020
  9
$PEXTMAX
 10
-1.0000000000000000E+020
 20
-1.0000000000000000E+020
 30
-1.0000000000000000E+020
  9
$PLIMMIN
 10
0.0
 20
0.0
  9
$PLIMMAX
 10
12.0
 20
9.0
  9
$UNITMODE
 70
     0
  9
$VISRETAIN
 70
     0
  9
$PLINEGEN
 70
     1
  9
$PSLTSCALE
 70
     0
  0
ENDSEC
  0
SECTION
  2
TABLES
  0
TABLE
  2
VPORT
 70
     3
  0
VPORT
  2
*ACTIVE
 70
     0
 10
0.0
 20
0.0
 11
1.0
 21
1.0
 12
100.0000012572854
 22
136.00974176028541
 13
0.0
 23
0.0
 14
1.0
 24
1.0
 15
0.0
 25
0.0
 16
0.0
 26
0.0
 36
1.0
 17
0.0
 27
0.0
 37
0.0
 40
810.78202167762447
 41
1.703770197486534
 42
50.0
 43
0.0
 44
0.0
 50
0.0
 51
0.0
 71
     0
 72
   100
 73
     1
 74
     1
 75
     0
 76
     0
 77
     0
 78
     0
  0
ENDTAB
  0
TABLE
  2
LTYPE
 70
    11
  0
LTYPE
  2
CONTINUOUS
 70
     0
  3
Solid line
 72
    65
 73
     0
 40
0.0
  0
LTYPE
  2
STYLE_01
 70
     0
  3

 72
    65
 73
     2
 40
0.4166412353515625
 49
0.208282470703125
 49
-0.2083587646484375
  0
LTYPE
  2
STYLE_02
 70
     0
  3

 72
    65
 73
     2
 40
0.694427490234375
 49
0.4860687255859375
 49
-0.2083587646484375
  0
LTYPE
  2
STYLE_03
 70
     0
  3

 72
    65
 73
     2
 40
1.25
 49
1.0416412353515621
 49
-0.2083587646484375
  0
LTYPE
  2
STYLE_04
 70
     0
  3

 72
    65
 73
     2
 40
1.5277099609375
 49
1.319427490234375
 49
-0.208282470703125
  0
LTYPE
  2
STYLE_05
 70
     0
  3

 72
    65
 73
     2
 40
0.208282470703125
 49
0.069427490234375
 49
-0.13885498046875
  0
LTYPE
  2
STYLE_06
 70
     0
  3

 72
    65
 73
     4
 40
1.0416412353515621
 49
0.625
 49
-0.208282470703125
 49
0.069427490234375
 49
-0.1389312744140625
  0
LTYPE
  2
STYLE_07
 70
     0
  3

 72
    65
 73
     6
 40
1.875
 49
0.625
 49
-0.208282470703125
 49
0.625
 49
-0.2083587646484375
 49
0.069427490234375
 49
-0.1389312744140625
  0
LTYPE
  2
STYLE_08
 70
     0
  3

 72
    65
 73
     6
 40
1.25
 49
0.625
 49
-0.208282470703125
 49
0.069427490234375
 49
-0.1389312744140625
 49
0.069427490234375
 49
-0.1389312744140625
  0
LTYPE
  2
STYLE_09
 70
     0
  3

 72
    65
 73
     4
 40
5.0
 49
3.75
 49
-0.2777862548828125
 49
0.694427490234375
 49
-0.2777862548828125
  0
LTYPE
  2
STYLE_10
 70
     0
  3

 72
    65
 73
     6
 40
5.9375
 49
3.75
 49
-0.2777862548828125
 49
0.694427490234375
 49
-0.2777862548828125
 49
0.625
 49
-0.3125
  0
ENDTAB
  0
TABLE
  2
LAYER
 70
     5
  0
LAYER
  2
0
 70
     0
 62
     7
  6
CONTINUOUS
  0
LAYER
  2
HIBINO-BASE
 70
     0
 62
     7
  6
CONTINUOUS
  0
LAYER
  2
SPEC
 70
     0
 62
     7
  6
CONTINUOUS
  0
LAYER
  2
DIMNSIONS
 70
     0
 62
     7
  6
CONTINUOUS
  0
LAYER
  2
DATA
 70
     0
 62
     7
  6
CONTINUOUS
  0
ENDTAB
  0
TABLE
  2
STYLE
 70
     2
  0
STYLE
  2
STANDARD
 70
     0
 40
0.0
 41
1.0
 50
0.0
 71
     0
 42
0.0
  3
txt
  4
BIGFONT.SHX
  0
ENDTAB
  0
TABLE
  2
VIEW
 70
     0
  0
ENDTAB
  0
TABLE
  2
UCS
 70
     0
  0
ENDTAB
  0
TABLE
  2
APPID
 70
     1
  0
APPID
  2
ACAD
 70
     0
  0
ENDTAB
  0
TABLE
  2
DIMSTYLE
 70
     1
  0
DIMSTYLE
  2
STANDARD
 70
     0
  3

  4

  5

  6

  7

 40
1.0
 41
0.18
 42
0.0625
 43
0.38
 44
0.18
 45
0.0
 46
0.0
 47
0.0
 48
0.0
140
0.18
141
0.09
142
0.0
143
25.399999999999999
144
1.0
145
0.0
146
1.0
147
0.09
 71
     0
 72
     0
 73
     1
 74
     1
 75
     0
 76
     0
 77
     0
 78
     0
170
     0
171
     2
172
     0
173
     0
174
     0
175
     0
176
     0
177
     0
178
     0
  0
ENDTAB
  0
ENDSEC
  0
SECTION
  2
BLOCKS
  0
BLOCK
  8
0
  2
$MODEL_SPACE
 70
     0
 10
0.0
 20
0.0
 30
0.0
  3
$MODEL_SPACE
  1

  0
ENDBLK
  5
3FE
  8
0
  0
BLOCK
 67
     1
  8
0
  2
$PAPER_SPACE
 70
     0
 10
0.0
 20
0.0
 30
0.0
  3
$PAPER_SPACE
  1

  0
ENDBLK
  5
3FA
 67
     1
  8
0
  0
ENDSEC
  0
SECTION
  2
ENTITIES
  0
LINE
  5
2C
  8
HIBINO-BASE
  6
CONTINUOUS
 62
     7
 10
-169.99999999999989
 20
537.06362999999999
 30
0.0
 11
370.0
 21
537.06362999999999
 31
0.0
  0
LINE
  5
2D
  8
HIBINO-BASE
  6
CONTINUOUS
 62
     7
 10
370.0
 20
-242.93637000000001
 30
0.0
 11
-169.99999999999989
 21
-242.93637000000001
 31
0.0
  0
LINE
  5
2E
  8
HIBINO-BASE
  6
CONTINUOUS
 62
     7
 10
-169.99999999999989
 20
-242.93637000000001
 30
0.0
 11
-169.99999999999989
 21
537.06362999999999
 31
0.0
  0
TEXT
  5
2F
  8
HIBINO-BASE
 62
     7
 10
-148.44799999999989
 20
-261.32032199999992
 30
0.0
 40
11.227752000000001
  1
Hibino Corporation
 41
0.85
 11
-148.44799999999989
 21
-250.09256999999991
 31
0.0
 73
     3
  0
LINE
  5
30
  8
HIBINO-BASE
  6
CONTINUOUS
 62
     7
 10
370.0
 20
537.06362999999999
 30
0.0
 11
370.0
 21
-242.93637000000001
 31
0.0
  0
TEXT
  5
31
  8
HIBINO-BASE
 62
     7
 10
250.2051699999999
 20
-261.32032199999992
 30
0.0
 40
11.227752000000001
  1
ヒビノ株式会社
 41
0.85
 11
250.2051699999999
 21
-250.09256999999991
 31
0.0
 73
     3
  0
LINE
  5
32
  8
HIBINO-BASE
  6
CONTINUOUS
 62
     7
 10
96.250000000000057
 20
-175.4363699999999
 30
0.0
 11
370.0
 21
-175.4363699999999
 31
0.0
  0
LINE
  5
33
  8
HIBINO-BASE
  6
CONTINUOUS
 62
     7
 10
96.250000000000057
 20
-212.9363699999999
 30
0.0
 11
370.0
 21
-212.9363699999999
 31
0.0
  0
TEXT
  5
34
  8
HIBINO-BASE
 62
     7
 10
245.1999999999999
 20
-219.91248999999999
 30
0.0
 40
5.0799999999999992
  1
DRAWN
 41
0.85
 11
245.1999999999999
 21
-214.83248999999989
 31
0.0
 73
     3
  0
TEXT
  5
35
  8
HIBINO-BASE
 62
     7
 10
320.19999999999987
 20
-219.91248999999999
 30
0.0
 40
5.0799999999999992
  1
DRAWING NO.
 41
0.85
 11
320.19999999999987
 21
-214.83248999999989
 31
0.0
 73
     3
  0
TEXT
  5
36
  8
HIBINO-BASE
 62
     7
 10
282.69999999999987
 20
-219.91248999999999
 30
0.0
 40
5.0799999999999992
  1
CHECK
 41
0.85
 11
282.69999999999987
 21
-214.83248999999989
 31
0.0
 73
     3
  0
LINE
  5
37
  8
HIBINO-BASE
  6
CONTINUOUS
 62
     7
 10
242.5
 20
-212.9363699999999
 30
0.0
 11
242.5
 21
-242.93637000000001
 31
0.0
  0
LINE
  5
38
  8
HIBINO-BASE
  6
CONTINUOUS
 62
     7
 10
317.5
 20
-212.9363699999999
 30
0.0
 11
317.5
 21
-242.93637000000001
 31
0.0
  0
LINE
  5
39
  8
HIBINO-BASE
  6
CONTINUOUS
 62
     7
 10
280.0
 20
-242.93637000000001
 30
0.0
 11
280.0
 21
-212.9363699999999
 31
0.0
  0
TEXT
  5
3A
  8
HIBINO-BASE
 62
     7
 10
247.01743003310381
 20
-233.96442999999999
 30
0.0
 40
5.0799999999999992
  1
N.Sasaki
 41
0.85
 11
247.01743003310381
 21
-228.88443000000001
 31
0.0
 73
     3
  0
TEXT
  5
3B
  8
HIBINO-BASE
 62
     7
 10
111.65000000000001
 20
-236.2463699999999
 30
0.0
 40
10.159999999999989
  1
A4
 41
0.85
 11
111.65000000000001
 21
-226.0863699999999
 31
0.0
 73
     3
  0
TEXT
  5
3C
  8
HIBINO-BASE
 62
     7
 10
173.94999999999999
 20
-219.91248999999999
 30
0.0
 40
5.0799999999999992
  1
DATE
 41
0.85
 11
173.94999999999999
 21
-214.83248999999989
 31
0.0
 73
     3
  0
TEXT
  5
3D
  8
HIBINO-BASE
 62
     7
 10
143.94999999999999
 20
-219.91248999999999
 30
0.0
 40
5.0799999999999992
  1
SCALE
 41
0.85
 11
143.94999999999999
 21
-214.83248999999989
 31
0.0
 73
     3
  0
LINE
  5
3E
  8
HIBINO-BASE
  6
CONTINUOUS
 62
     7
 10
146.875
 20
-239.18637000000001
 30
0.0
 11
158.125
 21
-227.9363699999999
 31
0.0
  0
TEXT
  5
3F
  8
HIBINO-BASE
 62
     7
 10
145.0
 20
-230.88220000000001
 30
0.0
 40
5.0799999999999992
  1
1
 41
0.85
 11
145.0
 21
-225.80219999999991
 31
0.0
 73
     3
  0
LINE
  5
40
  8
HIBINO-BASE
  6
CONTINUOUS
 62
     7
 10
141.25
 20
-242.93637000000001
 30
0.0
 11
141.25
 21
-212.9363699999999
 31
0.0
  0
LINE
  5
41
  8
HIBINO-BASE
  6
CONTINUOUS
 62
     7
 10
171.25
 20
-242.93637000000001
 30
0.0
 11
171.25
 21
-212.9363699999999
 31
0.0
  0
TEXT
  5
42
  8
HIBINO-BASE
 62
     7
 10
173.8196199999999
 20
-233.96442999999999
 30
0.0
 40
5.0799999999999992
  1
'03.01.
 41
0.85
 11
173.8196199999999
 21
-228.88443000000001
 31
0.0
 73
     3
  0
TEXT
  5
43
  8
HIBINO-BASE
 62
     7
 10
156.25
 20
-236.50720000000001
 30
0.0
 40
5.0799999999999992
  1
3
 41
0.85
 11
156.25
 21
-231.42719999999991
 31
0.0
 73
     3
  0
LINE
  5
44
  8
HIBINO-BASE
  6
CONTINUOUS
 62
     7
 10
208.75
 20
-242.93637000000001
 30
0.0
 11
208.75
 21
-175.4363699999999
 31
0.0
  0
TEXT
  5
45
  8
HIBINO-BASE
 62
     7
 10
211.44999999999999
 20
-182.5814499999999
 30
0.0
 40
5.0799999999999992
  1
TITLE
 41
0.85
 11
211.44999999999999
 21
-177.50144999999989
 31
0.0
 73
     3
  0
TEXT
  5
46
  8
HIBINO-BASE
 62
     7
 10
211.44999999999999
 20
-219.91248999999999
 30
0.0
 40
5.0799999999999992
  1
DESIGN
 41
0.85
 11
211.44999999999999
 21
-214.83248999999989
 31
0.0
 73
     3
  0
LINE
  5
47
  8
HIBINO-BASE
  6
CONTINUOUS
 62
     7
 10
96.250000000000057
 20
-242.93637000000001
 30
0.0
 11
96.250000000000057
 21
-175.4363699999999
 31
0.0
  0
TEXT
  5
48
  8
HIBINO-BASE
 62
     7
 10
98.950000000000017
 20
-182.5814499999999
 30
0.0
 40
5.0799999999999992
  1
NOTE
 41
0.85
 11
98.950000000000017
 21
-177.50144999999989
 31
0.0
 73
     3
  0
TEXT
  5
49
  8
HIBINO-BASE
 62
     7
 10
99.125000000000043
 20
-220.41373499999989
 30
0.0
 40
5.0799999999999992
  1
PAPER SIZE
 41
0.85
 11
99.125000000000043
 21
-215.33373499999999
 31
0.0
 73
     3
  0
LINE
  5
4A
  8
SPEC
  6
CONTINUOUS
 62
     7
 10
-147.49999999999989
 20
507.06362999999988
 30
0.0
 11
312.5
 21
507.06362999999988
 31
0.0
  0
LINE
  5
4B
  8
SPEC
  6
CONTINUOUS
 62
     7
 10
-147.49999999999989
 20
394.56362999999988
 30
0.0
 11
312.5
 21
394.56362999999988
 31
0.0
  0
LINE
  5
4C
  8
SPEC
  6
CONTINUOUS
 62
     7
 10
-147.49999999999989
 20
507.06362999999988
 30
0.0
 11
-147.49999999999989
 21
225.81357
 31
0.0
  0
TEXT
  5
4D
  8
SPEC
 62
     7
 10
-143.74999999999989
 20
511.81493999999998
 30
0.0
 40
7.6199999999999983
  1
仕様
 41
0.85
 11
-143.74999999999989
 21
519.43493999999998
 31
0.0
 73
     3
  0
LINE
  5
4E
  8
SPEC
  6
CONTINUOUS
 62
     7
 10
-50.0
 20
507.06362999999988
 30
0.0
 11
-50.0
 21
225.81357
 31
0.0
  0
LINE
  5
4F
  8
SPEC
  6
CONTINUOUS
 62
     7
 10
312.5
 20
507.06362999999988
 30
0.0
 11
312.5
 21
225.81357
 31
0.0
  0
TEXT
  5
50
  8
SPEC
 62
     7
 10
-144.80000000000001
 20
498.62189399999988
 30
0.0
 40
5.9266560000000004
  1
マイク/ライン入力
 41
0.85
 11
-144.80000000000001
 21
504.54854999999992
 31
0.0
 73
     3
  0
TEXT
  5
51
  8
SPEC
 62
     7
 10
-47.29999999999999
 20
498.62190066666648
 30
0.0
 40
5.9266560000000004
  1
チャンネル数   : 2
 41
0.85
 11
-47.29999999999999
 21
504.54855666666651
 31
0.0
 73
     3
  0
TEXT
  5
52
  8
SPEC
 62
     7
 10
-47.29999999999999
 20
448.62194399999998
 30
0.0
 40
5.9266560000000004
  1
ファンタム電源 : DC12V(ディップスイッチにてON/OFF切替え、MICのXLRコネクタ のみ)
 41
0.85
 11
-47.29999999999999
 21
454.54860000000002
 31
0.0
 73
     3
  0
TEXT
  5
53
  8
SPEC
 62
     7
 10
-47.29999999999999
 20
356.12189399999988
 30
0.0
 40
5.9266560000000004
  1
インピーダンス : ステレオ - - - 300Ω(LINE),3Ω(MIC) *ディップスイッチにてMIC/LINE切替え
 41
0.85
 11
-47.29999999999999
 21
362.04854999999998
 31
0.0
 73
     3
  0
TEXT
  5
54
  8
SPEC
 62
     7
 10
-47.29999999999999
 20
488.62194399999998
 30
0.0
 40
5.9266560000000004
  1
端子・形式     : MIC - - - - XLR(アクティブバランス)
 41
0.85
 11
-47.29999999999999
 21
494.54860000000002
 31
0.0
 73
     3
  0
TEXT
  5
55
  8
SPEC
 62
     7
 10
-47.29999999999999
 20
478.62194399999998
 30
0.0
 40
5.9266560000000004
  1
               : LINE  - - - フォーンジャック(アンバランス,Ch2のみ)
 41
0.85
 11
-47.29999999999999
 21
484.54860000000002
 31
0.0
 73
     3
  0
TEXT
  5
56
  8
SPEC
 62
     7
 10
-47.29999999999999
 20
468.62194399999998
 30
0.0
 40
5.9266560000000004
  1
インピーダンス : 1.4kΩ(MIC),155kΩ(LINE)
 41
0.85
 11
-47.29999999999999
 21
474.54860000000002
 31
0.0
 73
     3
  0
TEXT
  5
57
  8
SPEC
 62
     7
 10
-47.29999999999999
 20
458.62194399999998
 30
0.0
 40
5.9266560000000004
  1
クリップレベル : -16dBV(MIC),+24dBV(LINE)
 41
0.85
 11
-47.29999999999999
 21
464.54860000000002
 31
0.0
 73
     3
  0
TEXT
  5
58
  8
SPEC
 62
     7
 10
-47.29999999999999
 20
401.12186400000002
 30
0.0
 40
5.9266560000000004
  1
クリップレベル : +28dBV以上
 41
0.85
 11
-47.29999999999999
 21
407.04852
 31
0.0
 73
     3
  0
LINE
  5
59
  8
SPEC
  6
CONTINUOUS
 62
     7
 10
-147.49999999999989
 20
439.56360000000001
 30
0.0
 11
312.5
 21
439.56360000000001
 31
0.0
  0
TEXT
  5
5A
  8
SPEC
 62
     7
 10
-47.29999999999999
 20
421.12186400000007
 30
0.0
 40
5.9266560000000004
  1
端子・形式     : RCA(アンバランス)
 41
0.85
 11
-47.29999999999999
 21
427.04852
 31
0.0
 73
     3
  0
TEXT
  5
5B
  8
SPEC
 62
     7
 10
-47.29999999999999
 20
411.12186400000002
 30
0.0
 40
5.9266560000000004
  1
インピーダンス : 21kΩ
 41
0.85
 11
-47.29999999999999
 21
417.04852
 31
0.0
 73
     3
  0
TEXT
  5
5C
  8
SPEC
 62
     7
 10
-144.80000000000001
 20
431.12186400000002
 30
0.0
 40
5.9266560000000004
  1
ステレオ入力
 41
0.85
 11
-144.80000000000001
 21
437.04852
 31
0.0
 73
     3
  0
TEXT
  5
5D
  8
SPEC
 62
     7
 10
-47.29999999999999
 20
431.12186400000002
 30
0.0
 40
5.9266560000000004
  1
チャンネル数   : 3ステレオ
 41
0.85
 11
-47.29999999999999
 21
437.04852
 31
0.0
 73
     3
  0
TEXT
  5
5E
  8
SPEC
 62
     7
 10
-144.80000000000001
 20
386.121894
 30
0.0
 40
5.9266560000000004
  1
ステレオ出力
 41
0.85
 11
-144.80000000000001
 21
392.04854999999992
 31
0.0
 73
     3
  0
TEXT
  5
5F
  8
SPEC
 62
     7
 10
-47.29999999999999
 20
376.121894
 30
0.0
 40
5.9266560000000004
  1
端子・形式     : ステレオ - - - フォーンジャック(バランス)
 41
0.85
 11
-47.29999999999999
 21
382.04854999999992
 31
0.0
 73
     3
  0
TEXT
  5
60
  8
SPEC
 62
     7
 10
-47.29999999999999
 20
386.121894
 30
0.0
 40
5.9266560000000004
  1
チャンネル数   : 1ステレオ,1AUX(ステレオ)
 41
0.85
 11
-47.29999999999999
 21
392.04854999999992
 31
0.0
 73
     3
  0
TEXT
  5
61
  8
SPEC
 62
     7
 10
-47.29999999999999
 20
366.12189399999988
 30
0.0
 40
5.9266560000000004
  1
               : AUX  - - - - - RCA(アンバランス)
 41
0.85
 11
-47.29999999999999
 21
372.04854999999992
 31
0.0
 73
     3
  0
TEXT
  5
62
  8
SPEC
 62
     7
 10
-47.29999999999999
 20
336.121894
 30
0.0
 40
5.9266560000000004
  1
クリップレベル : ステレオ - - - +18dBV(LINE),-22dBV(MIC) *ディップスイッチにてMIC/LINE切替え
 41
0.85
 11
-47.29999999999999
 21
342.04854999999992
 31
0.0
 73
     3
  0
TEXT
  5
63
  8
SPEC
 62
     7
 10
-47.29999999999999
 20
346.121894
 30
0.0
 40
5.9266560000000004
  1
               : AUX  - - - - - 1.5ｋΩ
 41
0.85
 11
-47.29999999999999
 21
352.04854999999992
 31
0.0
 73
     3
  0
LINE
  5
64
  8
SPEC
  6
CONTINUOUS
 62
     7
 10
-147.49999999999989
 20
315.81360000000001
 30
0.0
 11
312.5
 21
315.81360000000001
 31
0.0
  0
LINE
  5
65
  8
SPEC
  6
CONTINUOUS
 62
     7
 10
-147.49999999999989
 20
304.56359999999989
 30
0.0
 11
312.5
 21
304.56359999999989
 31
0.0
  0
TEXT
  5
66
  8
SPEC
 62
     7
 10
-144.80000000000001
 20
296.12186400000002
 30
0.0
 40
5.9266560000000004
  1
周波数特性
 41
0.85
 11
-144.80000000000001
 21
302.04851999999988
 31
0.0
 73
     3
  0
TEXT
  5
67
  8
SPEC
 62
     7
 10
-47.29999999999999
 20
296.12186400000002
 30
0.0
 40
5.9266560000000004
  1
150Hz～20kHz(±2dB,マイク/ライン入力)
 41
0.85
 11
-47.29999999999999
 21
302.04851999999988
 31
0.0
 73
     3
  0
TEXT
  5
68
  8
SPEC
 62
     7
 10
-144.80000000000001
 20
307.37186400000002
 30
0.0
 40
5.9266560000000004
  1
等価入力ノイズ
 41
0.85
 11
-144.80000000000001
 21
313.29852
 31
0.0
 73
     3
  0
TEXT
  5
69
  8
SPEC
 62
     7
 10
-47.29999999999999
 20
307.37186400000002
 30
0.0
 40
5.9266560000000004
  1
-125dBV(150Ω,22Hz～22kHz)
 41
0.85
 11
-47.29999999999999
 21
313.29852
 31
0.0
 73
     3
  0
LINE
  5
6A
  8
SPEC
  6
CONTINUOUS
 62
     7
 10
-147.49999999999989
 20
282.06357000000003
 30
0.0
 11
312.5
 21
282.06357000000003
 31
0.0
  0
TEXT
  5
6B
  8
SPEC
 62
     7
 10
-47.29999999999999
 20
273.62183400000009
 30
0.0
 40
5.9266560000000004
  1
0.25%%%以下(+4dBu,22Hz～22kHz)
 41
0.85
 11
-47.29999999999999
 21
279.54849000000002
 31
0.0
 73
     3
  0
TEXT
  5
6C
  8
SPEC
 62
     7
 10
-144.80000000000001
 20
273.62183400000009
 30
0.0
 40
5.9266560000000004
  1
THD
 41
0.85
 11
-144.80000000000001
 21
279.54849000000002
 31
0.0
 73
     3
  0
LINE
  5
6D
  8
SPEC
  6
CONTINUOUS
 62
     7
 10
-147.49999999999989
 20
259.56357000000003
 30
0.0
 11
312.5
 21
259.56357000000003
 31
0.0
  0
LINE
  5
6E
  8
SPEC
  6
CONTINUOUS
 62
     7
 10
-147.49999999999989
 20
225.81357
 30
0.0
 11
312.5
 21
225.81357
 31
0.0
  0
LINE
  5
6F
  8
SPEC
  6
CONTINUOUS
 62
     7
 10
-147.49999999999989
 20
237.06357
 30
0.0
 11
312.5
 21
237.06357
 31
0.0
  0
LINE
  5
70
  8
SPEC
  6
CONTINUOUS
 62
     7
 10
-147.49999999999989
 20
248.31357
 30
0.0
 11
312.5
 21
248.31357
 31
0.0
  0
TEXT
  5
71
  8
SPEC
 62
     7
 10
-144.80000000000001
 20
228.62183400000001
 30
0.0
 40
5.9266560000000004
  1
付属品
 41
0.85
 11
-144.80000000000001
 21
234.54848999999999
 31
0.0
 73
     3
  0
TEXT
  5
72
  8
SPEC
 62
     7
 10
-144.80000000000001
 20
251.12183400000001
 30
0.0
 40
5.9266560000000004
  1
寸法
 41
0.85
 11
-144.80000000000001
 21
257.04849000000002
 31
0.0
 73
     3
  0
TEXT
  5
73
  8
SPEC
 62
     7
 10
-144.80000000000001
 20
239.87183400000001
 30
0.0
 40
5.9266560000000004
  1
重量
 41
0.85
 11
-144.80000000000001
 21
245.79848999999999
 31
0.0
 73
     3
  0
TEXT
  5
74
  8
SPEC
 62
     7
 10
-47.29999999999999
 20
228.62183400000001
 30
0.0
 40
5.9266560000000004
  1
ラックマウント金具一式(重量:約0.4kg),ゴム足,電源ケーブル
 41
0.85
 11
-47.29999999999999
 21
234.54848999999999
 31
0.0
 73
     3
  0
TEXT
  5
75
  8
SPEC
 62
     7
 10
-47.29999999999999
 20
251.12183400000001
 30
0.0
 40
5.9266560000000004
  1
220(W)×44(H)×162(D)mm(突起部含む)
 41
0.85
 11
-47.29999999999999
 21
257.04849000000002
 31
0.0
 73
     3
  0
TEXT
  5
76
  8
SPEC
 62
     7
 10
-47.29999999999999
 20
239.87183400000001
 30
0.0
 40
5.9266560000000004
  1
約1.2kg(電源ケーブル含む,ラックマウント金具含まず)
 41
0.85
 11
-47.29999999999999
 21
245.79848999999999
 31
0.0
 73
     3
  0
LINE
  5
77
  8
SPEC
  6
CONTINUOUS
 62
     7
 10
-147.49999999999989
 20
270.81357000000003
 30
0.0
 11
312.5
 21
270.81357000000003
 31
0.0
  0
TEXT
  5
78
  8
SPEC
 62
     7
 10
-144.80000000000001
 20
262.37183399999998
 30
0.0
 40
5.9266560000000004
  1
電源/消費電力
 41
0.85
 11
-144.80000000000001
 21
268.29849000000002
 31
0.0
 73
     3
  0
TEXT
  5
79
  8
SPEC
 62
     7
 10
-47.29999999999999
 20
262.37183399999998
 30
0.0
 40
5.9266560000000004
  1
AC100V 50/60Hz 6W
 41
0.85
 11
-47.29999999999999
 21
268.29849000000002
 31
0.0
 73
     3
  0
TEXT
  5
7A
  8
SPEC
 62
     7
 10
-47.29999999999999
 20
286.12186400000002
 30
0.0
 40
5.9266560000000004
  1
20Hz～20kHz(±2dB,ステレオ入力)
 41
0.85
 11
-47.29999999999999
 21
292.04851999999988
 31
0.0
 73
     3
  0
TEXT
  5
7B
  8
SPEC
 62
     7
 10
-47.29999999999999
 20
326.121894
 30
0.0
 40
5.9266560000000004
  1
               : AUX  - - - - - +5dBV
 41
0.85
 11
-47.29999999999999
 21
332.04854999999992
 31
0.0
 73
     3
  0
TEXT
  5
7C
  8
DIMNSIONS
 62
     7
 10
39.999999999999993
 20
-205.55639999999991
 30
0.0
 40
7.6199999999999983
  1
(単位：mm)
 41
0.85
 11
39.999999999999993
 21
-197.93639999999991
 31
0.0
 73
     3
  0
LINE
  5
7D
  8
DIMNSIONS
  6
CONTINUOUS
 62
     7
 10
-81.000000000000014
 20
-125.0
 30
0.0
 11
-131.0
 21
-125.0
 31
0.0
  0
LINE
  5
7E
  8
DIMNSIONS
  6
CONTINUOUS
 62
     7
 10
-81.000000000000014
 20
-81.200000000000003
 30
0.0
 11
-131.0
 21
-81.200000000000003
 31
0.0
  0
LINE
  5
80
  8
DIMNSIONS
 62
     7
 10
-125.0
 20
-125.0
 30
0.0
 11
-127.01011938545069
 21
-117.4981323242187
 31
0.0
  0
LINE
  5
81
  8
DIMNSIONS
 62
     7
 10
-125.0
 20
-125.0
 30
0.0
 11
-122.98988061454919
 21
-117.4981323242187
 31
0.0
  0
LINE
  5
82
  8
DIMNSIONS
 62
     7
 10
-125.0
 20
-81.200000000000003
 30
0.0
 11
-122.98988061454919
 21
-88.701867675781244
 31
0.0
  0
LINE
  5
83
  8
DIMNSIONS
 62
     7
 10
-125.0
 20
-81.200000000000003
 30
0.0
 11
-127.01011938545069
 21
-88.701867675781244
 31
0.0
  0
LINE
  5
7F
  8
DIMNSIONS
  6
CONTINUOUS
 62
     7
 10
-125.0
 20
-125.0
 30
0.0
 11
-125.0
 21
-81.200000000000003
 31
0.0
  0
TEXT
  5
84
  8
DIMNSIONS
 62
     7
 10
-128.61666666666659
 20
-108.39166666666659
 30
0.0
 40
8.466666666666665
  1
44
 50
90.0
 41
0.85
 11
-137.08333333333329
 21
-108.39166666666659
 31
0.0
 73
     3
  0
LINE
  5
85
  8
DIMNSIONS
  6
CONTINUOUS
 62
     7
 10
144.5
 20
-131.0
 30
0.0
 11
144.5
 21
-156.0
 31
0.0
  0
LINE
  5
86
  8
DIMNSIONS
  6
CONTINUOUS
 62
     7
 10
-75.000000000000014
 20
-131.0
 30
0.0
 11
-75.000000000000014
 21
-156.0
 31
0.0
  0
LINE
  5
88
  8
DIMNSIONS
 62
     7
 10
144.5
 20
-150.0
 30
0.0
 11
136.99813232421869
 21
-152.01011938545071
 31
0.0
  0
LINE
  5
89
  8
DIMNSIONS
 62
     7
 10
144.5
 20
-150.0
 30
0.0
 11
136.99813232421869
 21
-147.98988061454921
 31
0.0
  0
LINE
  5
8A
  8
DIMNSIONS
 62
     7
 10
-75.000000000000014
 20
-150.0
 30
0.0
 11
-67.498132324218759
 21
-147.98988061454921
 31
0.0
  0
LINE
  5
8B
  8
DIMNSIONS
 62
     7
 10
-75.000000000000014
 20
-150.0
 30
0.0
 11
-67.498132324218759
 21
-152.01011938545071
 31
0.0
  0
LINE
  5
87
  8
DIMNSIONS
  6
CONTINUOUS
 62
     7
 10
144.5
 20
-150.0
 30
0.0
 11
-75.000000000000014
 21
-150.0
 31
0.0
  0
TEXT
  5
8C
  8
DIMNSIONS
 62
     7
 10
26.812499999999979
 20
-146.3833333333333
 30
0.0
 40
8.466666666666665
  1
220
 41
0.85
 11
26.812499999999979
 21
-137.9166666666666
 31
0.0
 73
     3
  0
LINE
  5
8D
  8
DIMNSIONS
  6
CONTINUOUS
 62
     7
 10
-62.899519052838329
 20
-55.5
 30
0.0
 11
-131.0
 21
-55.5
 31
0.0
  0
LINE
  5
8E
  8
DIMNSIONS
  6
CONTINUOUS
 62
     7
 10
-20.000000000000011
 20
106.40000000000001
 30
0.0
 11
-131.0
 21
106.40000000000001
 31
0.0
  0
LINE
  5
90
  8
DIMNSIONS
 62
     7
 10
-125.0
 20
-55.5
 30
0.0
 11
-127.01011938545069
 21
-47.998132324218737
 31
0.0
  0
LINE
  5
91
  8
DIMNSIONS
 62
     7
 10
-125.0
 20
-55.5
 30
0.0
 11
-122.98988061454919
 21
-47.998132324218737
 31
0.0
  0
LINE
  5
92
  8
DIMNSIONS
 62
     7
 10
-125.0
 20
106.40000000000001
 30
0.0
 11
-122.98988061454919
 21
98.898132324218764
 31
0.0
  0
LINE
  5
93
  8
DIMNSIONS
 62
     7
 10
-125.0
 20
106.40000000000001
 30
0.0
 11
-127.01011938545069
 21
98.898132324218764
 31
0.0
  0
LINE
  5
8F
  8
DIMNSIONS
  6
CONTINUOUS
 62
     7
 10
-125.0
 20
-55.5
 30
0.0
 11
-125.0
 21
106.40000000000001
 31
0.0
  0
TEXT
  5
94
  8
DIMNSIONS
 62
     7
 10
-128.61666666666659
 20
17.512499999999999
 30
0.0
 40
8.466666666666665
  1
162
 50
90.0
 41
0.85
 11
-137.08333333333329
 21
17.512499999999999
 31
0.0
 73
     3
  0
LINE
  5
95
  8
DIMNSIONS
  6
CONTINUOUS
 62
     7
 10
-81.000000000000014
 20
-37.5
 30
0.0
 11
-106.0
 21
-37.5
 31
0.0
  0
LINE
  5
96
  8
DIMNSIONS
  6
CONTINUOUS
 62
     7
 10
-81.000000000000014
 20
98.900000000000006
 30
0.0
 11
-106.0
 21
98.900000000000006
 31
0.0
  0
LINE
  5
98
  8
DIMNSIONS
 62
     7
 10
-100.0
 20
-37.5
 30
0.0
 11
-102.01011938545069
 21
-29.998132324218741
 31
0.0
  0
LINE
  5
99
  8
DIMNSIONS
 62
     7
 10
-100.0
 20
-37.5
 30
0.0
 11
-97.989880614549264
 21
-29.998132324218741
 31
0.0
  0
LINE
  5
9A
  8
DIMNSIONS
 62
     7
 10
-100.0
 20
98.900000000000006
 30
0.0
 11
-97.989880614549264
 21
91.398132324218764
 31
0.0
  0
LINE
  5
9B
  8
DIMNSIONS
 62
     7
 10
-100.0
 20
98.900000000000006
 30
0.0
 11
-102.01011938545069
 21
91.398132324218764
 31
0.0
  0
LINE
  5
97
  8
DIMNSIONS
  6
CONTINUOUS
 62
     7
 10
-100.0
 20
-37.5
 30
0.0
 11
-100.0
 21
98.900000000000006
 31
0.0
  0
TEXT
  5
9C
  8
DIMNSIONS
 62
     7
 10
-103.6166666666666
 20
22.762499999999999
 30
0.0
 40
8.466666666666665
  1
136
 50
90.0
 41
0.85
 11
-112.0833333333333
 21
22.762499999999999
 31
0.0
 73
     3
  0
LINE
  5
9D
  8
DIMNSIONS
  6
CONTINUOUS
 62
     7
 10
-81.000000000000014
 20
-37.5
 30
0.0
 11
-106.0
 21
-37.5
 31
0.0
  0
LINE
  5
9E
  8
DIMNSIONS
  6
CONTINUOUS
 62
     7
 10
-62.899519052838329
 20
-55.5
 30
0.0
 11
-106.0
 21
-55.5
 31
0.0
  0
LINE
  5
A0
  8
DIMNSIONS
 62
     7
 10
-100.0
 20
-37.5
 30
0.0
 11
-97.989880614549264
 21
-45.001867675781263
 31
0.0
  0
LINE
  5
A1
  8
DIMNSIONS
 62
     7
 10
-100.0
 20
-37.5
 30
0.0
 11
-102.01011938545069
 21
-45.001867675781263
 31
0.0
  0
LINE
  5
A2
  8
DIMNSIONS
 62
     7
 10
-100.0
 20
-55.5
 30
0.0
 11
-102.01011938545069
 21
-47.998132324218737
 31
0.0
  0
LINE
  5
A3
  8
DIMNSIONS
 62
     7
 10
-100.0
 20
-55.5
 30
0.0
 11
-97.989880614549264
 21
-47.998132324218737
 31
0.0
  0
LINE
  5
9F
  8
DIMNSIONS
  6
CONTINUOUS
 62
     7
 10
-100.0
 20
-37.5
 30
0.0
 11
-100.0
 21
-55.5
 31
0.0
  0
TEXT
  5
A4
  8
DIMNSIONS
 62
     7
 10
-103.6166666666666
 20
-51.791666666666657
 30
0.0
 40
8.466666666666665
  1
18
 50
90.0
 41
0.85
 11
-112.0833333333333
 21
-51.791666666666657
 31
0.0
 73
     3
  0
TEXT
  5
A5
  8
DATA
 62
     7
 10
249.99999999999989
 20
-208.97219999999999
 30
0.0
 40
7.6199999999999983
  1
SCM262
 41
0.85
 11
249.99999999999989
 21
-201.35220000000001
 31
0.0
 73
     3
  0
TEXT
  5
A6
  8
DATA
 62
     7
 10
249.99999999999989
 20
-187.2221999999999
 30
0.0
 40
7.6199999999999983
  1
SHURE
 41
0.85
 11
249.99999999999989
 21
-179.6021999999999
 31
0.0
 73
     3
  0
TEXT
  5
A7
  8
DATA
 62
     7
 10
-139.99999999999989
 20
-229.84137000000001
 30
0.0
 40
5.0799999999999992
  1
仕様および外観は予告なく変更されることがありますので、ご了承ください。
 41
0.85
 11
-139.99999999999989
 21
-224.76137
 31
0.0
 73
     3
  0
POLYLINE
  5
A8
  8
DATA
  6
CONTINUOUS
 62
     7
 66
     1
 10
0.0
 20
0.0
 30
0.0
 70
     1
  0
VERTEX
  5
419
  8
DATA
  6
CONTINUOUS
 62
     7
 10
-75.000000000000014
 20
-81.200000000000003
 30
0.0
  0
VERTEX
  5
41A
  8
DATA
  6
CONTINUOUS
 62
     7
 10
144.5
 20
-81.200000000000003
 30
0.0
  0
VERTEX
  5
41B
  8
DATA
  6
CONTINUOUS
 62
     7
 10
144.5
 20
-125.0
 30
0.0
  0
VERTEX
  5
41C
  8
DATA
  6
CONTINUOUS
 62
     7
 10
-75.000000000000014
 20
-125.0
 30
0.0
  0
SEQEND
  5
41D
  8
DATA
  6
CONTINUOUS
 62
     7
  0
POLYLINE
  5
AE
  8
DATA
  6
CONTINUOUS
 62
     7
 66
     1
 10
0.0
 20
0.0
 30
0.0
 70
     1
  0
VERTEX
  5
41E
  8
DATA
  6
CONTINUOUS
 62
     7
 10
175.0
 20
-81.200000000000003
 30
0.0
  0
VERTEX
  5
41F
  8
DATA
  6
CONTINUOUS
 62
     7
 10
311.39999999999998
 20
-81.200000000000003
 30
0.0
  0
VERTEX
  5
420
  8
DATA
  6
CONTINUOUS
 62
     7
 10
311.39999999999998
 20
-125.0
 30
0.0
  0
VERTEX
  5
421
  8
DATA
  6
CONTINUOUS
 62
     7
 10
175.0
 20
-125.0
 30
0.0
  0
SEQEND
  5
422
  8
DATA
  6
CONTINUOUS
 62
     7
  0
POLYLINE
  5
B4
  8
DATA
  6
CONTINUOUS
 62
     7
 66
     1
 10
0.0
 20
0.0
 30
0.0
 70
     1
  0
VERTEX
  5
423
  8
DATA
  6
CONTINUOUS
 62
     7
 10
-75.000000000000014
 20
98.900000000000006
 30
0.0
  0
VERTEX
  5
424
  8
DATA
  6
CONTINUOUS
 62
     7
 10
144.5
 20
98.900000000000006
 30
0.0
  0
VERTEX
  5
425
  8
DATA
  6
CONTINUOUS
 62
     7
 10
144.5
 20
-37.5
 30
0.0
  0
VERTEX
  5
426
  8
DATA
  6
CONTINUOUS
 62
     7
 10
-75.000000000000014
 20
-37.5
 30
0.0
  0
SEQEND
  5
427
  8
DATA
  6
CONTINUOUS
 62
     7
  0
CIRCLE
  5
BA
  8
DATA
  6
CONTINUOUS
 62
     7
 10
-69.750000000000014
 20
-89.100000000000009
 30
0.0
 40
3.5
  0
LINE
  5
BB
  8
DATA
  6
CONTINUOUS
 62
     7
 10
-71.500000000000014
 20
-89.100000000000009
 30
0.0
 11
-68.000000000000014
 21
-89.100000000000009
 31
0.0
  0
LINE
  5
BC
  8
DATA
  6
CONTINUOUS
 62
     7
 10
-69.750000000000014
 20
-90.850000000000023
 30
0.0
 11
-69.750000000000014
 21
-87.350000000000023
 31
0.0
  0
CIRCLE
  5
BD
  8
DATA
  6
CONTINUOUS
 62
     7
 10
-69.750000000000014
 20
-117.09999999999999
 30
0.0
 40
3.5
  0
LINE
  5
BE
  8
DATA
  6
CONTINUOUS
 62
     7
 10
-71.500000000000014
 20
-117.09999999999999
 30
0.0
 11
-68.000000000000014
 21
-117.09999999999999
 31
0.0
  0
LINE
  5
BF
  8
DATA
  6
CONTINUOUS
 62
     7
 10
-69.750000000000014
 20
-118.84999999999999
 30
0.0
 11
-69.750000000000014
 21
-115.34999999999999
 31
0.0
  0
CIRCLE
  5
C0
  8
DATA
  6
CONTINUOUS
 62
     7
 10
139.25
 20
-89.100000000000009
 30
0.0
 40
3.5
  0
LINE
  5
C1
  8
DATA
  6
CONTINUOUS
 62
     7
 10
137.5
 20
-89.100000000000009
 30
0.0
 11
141.0
 21
-89.100000000000009
 31
0.0
  0
LINE
  5
C2
  8
DATA
  6
CONTINUOUS
 62
     7
 10
139.25
 20
-90.850000000000023
 30
0.0
 11
139.25
 21
-87.350000000000023
 31
0.0
  0
CIRCLE
  5
C3
  8
DATA
  6
CONTINUOUS
 62
     7
 10
139.25
 20
-117.09999999999999
 30
0.0
 40
3.5
  0
LINE
  5
C4
  8
DATA
  6
CONTINUOUS
 62
     7
 10
137.5
 20
-117.09999999999999
 30
0.0
 11
141.0
 21
-117.09999999999999
 31
0.0
  0
LINE
  5
C5
  8
DATA
  6
CONTINUOUS
 62
     7
 10
139.25
 20
-118.84999999999999
 30
0.0
 11
139.25
 21
-115.34999999999999
 31
0.0
  0
LINE
  5
C6
  8
DATA
  6
CONTINUOUS
 62
     7
 10
173.5
 20
-85.600000000000023
 30
0.0
 11
175.0
 21
-85.600000000000023
 31
0.0
  0
LINE
  5
C7
  8
DATA
  6
CONTINUOUS
 62
     7
 10
173.5
 20
-92.600000000000037
 30
0.0
 11
175.0
 21
-92.600000000000037
 31
0.0
  0
ARC
  5
C8
  8
DATA
  6
CONTINUOUS
 62
     7
 10
179.12499999999989
 20
-89.100000000000009
 30
0.0
 40
6.6250000000000124
 50
148.10920819815431
 51
211.89079180184561
  0
LINE
  5
C9
  8
DATA
  6
CONTINUOUS
 62
     7
 10
173.5
 20
-85.600000000000023
 30
0.0
 11
173.5
 21
-92.600000000000037
 31
0.0
  0
LINE
  5
CA
  8
DATA
  6
CONTINUOUS
 62
     7
 10
173.5
 20
-113.59999999999999
 30
0.0
 11
175.0
 21
-113.59999999999999
 31
0.0
  0
LINE
  5
CB
  8
DATA
  6
CONTINUOUS
 62
     7
 10
173.5
 20
-120.59999999999999
 30
0.0
 11
175.0
 21
-120.59999999999999
 31
0.0
  0
ARC
  5
CC
  8
DATA
  6
CONTINUOUS
 62
     7
 10
179.12499999999989
 20
-117.09999999999999
 30
0.0
 40
6.6250000000000124
 50
148.10920819815431
 51
211.89079180184561
  0
LINE
  5
CD
  8
DATA
  6
CONTINUOUS
 62
     7
 10
173.5
 20
-113.59999999999999
 30
0.0
 11
173.5
 21
-120.59999999999999
 31
0.0
  0
LINE
  5
CE
  8
DATA
  6
CONTINUOUS
 62
     7
 10
-73.250000000000014
 20
-39.0
 30
0.0
 11
-73.250000000000014
 21
-37.5
 31
0.0
  0
LINE
  5
CF
  8
DATA
  6
CONTINUOUS
 62
     7
 10
-66.250000000000014
 20
-39.0
 30
0.0
 11
-66.250000000000014
 21
-37.5
 31
0.0
  0
ARC
  5
D0
  8
DATA
  6
CONTINUOUS
 62
     7
 10
-69.750000000000014
 20
-33.374999999999957
 30
0.0
 40
6.6250000000000231
 50
238.10920819815439
 51
301.89079180184558
  0
LINE
  5
D1
  8
DATA
  6
CONTINUOUS
 62
     7
 10
-73.250000000000014
 20
-39.0
 30
0.0
 11
-66.250000000000014
 21
-39.0
 31
0.0
  0
LINE
  5
D2
  8
DATA
  6
CONTINUOUS
 62
     7
 10
135.74999999999989
 20
-39.0
 30
0.0
 11
135.74999999999989
 21
-37.5
 31
0.0
  0
LINE
  5
D3
  8
DATA
  6
CONTINUOUS
 62
     7
 10
142.75
 20
-39.0
 30
0.0
 11
142.75
 21
-37.5
 31
0.0
  0
ARC
  5
D4
  8
DATA
  6
CONTINUOUS
 62
     7
 10
139.25
 20
-33.374999999999957
 30
0.0
 40
6.6250000000000231
 50
238.10920819815439
 51
301.89079180184558
  0
LINE
  5
D5
  8
DATA
  6
CONTINUOUS
 62
     7
 10
135.74999999999989
 20
-39.0
 30
0.0
 11
142.75
 21
-39.0
 31
0.0
  0
POLYLINE
  5
D6
  8
DATA
  6
CONTINUOUS
 62
     7
 66
     1
 10
0.0
 20
0.0
 30
0.0
 70
     1
  0
VERTEX
  5
428
  8
DATA
  6
CONTINUOUS
 62
     7
 10
-63.750000000000021
 20
-90.200000000000017
 30
0.0
  0
VERTEX
  5
429
  8
DATA
  6
CONTINUOUS
 62
     7
 10
-42.250000000000007
 20
-90.200000000000017
 30
0.0
  0
VERTEX
  5
42A
  8
DATA
  6
CONTINUOUS
 62
     7
 10
-42.250000000000007
 20
-115.2
 30
0.0
  0
VERTEX
  5
42B
  8
DATA
  6
CONTINUOUS
 62
     7
 10
-63.750000000000021
 20
-115.2
 30
0.0
  0
SEQEND
  5
42C
  8
DATA
  6
CONTINUOUS
 62
     7
  0
TEXT
  5
DC
  8
DATA
 62
     7
 10
-56.968750000000021
 20
-93.270819601580939
 30
0.0
 40
2.54
  1
MIC 1
 41
0.85
 11
-56.968750000000021
 21
-90.730819601580947
 31
0.0
 73
     3
  0
POLYLINE
  5
DD
  8
DATA
  6
CONTINUOUS
 62
     7
 66
     1
 10
0.0
 20
0.0
 30
0.0
 70
     1
  0
VERTEX
  5
42D
  8
DATA
  6
CONTINUOUS
 62
     7
 10
-40.500000000000007
 20
-90.200000000000017
 30
0.0
  0
VERTEX
  5
42E
  8
DATA
  6
CONTINUOUS
 62
     7
 10
-19.000000000000011
 20
-90.200000000000017
 30
0.0
  0
VERTEX
  5
42F
  8
DATA
  6
CONTINUOUS
 62
     7
 10
-19.000000000000011
 20
-115.2
 30
0.0
  0
VERTEX
  5
430
  8
DATA
  6
CONTINUOUS
 62
     7
 10
-40.500000000000007
 20
-115.2
 30
0.0
  0
SEQEND
  5
431
  8
DATA
  6
CONTINUOUS
 62
     7
  0
TEXT
  5
E3
  8
DATA
 62
     7
 10
-33.718750000000007
 20
-93.270819601580939
 30
0.0
 40
2.54
  1
MIC 2
 41
0.85
 11
-33.718750000000007
 21
-90.730819601580947
 31
0.0
 73
     3
  0
POLYLINE
  5
E4
  8
DATA
  6
CONTINUOUS
 62
     7
 66
     1
 10
0.0
 20
0.0
 30
0.0
 70
     1
  0
VERTEX
  5
432
  8
DATA
  6
CONTINUOUS
 62
     7
 10
-17.250000000000011
 20
-90.200000000000017
 30
0.0
  0
VERTEX
  5
433
  8
DATA
  6
CONTINUOUS
 62
     7
 10
4.2499999999999849
 20
-90.200000000000017
 30
0.0
  0
VERTEX
  5
434
  8
DATA
  6
CONTINUOUS
 62
     7
 10
4.2499999999999849
 20
-115.2
 30
0.0
  0
VERTEX
  5
435
  8
DATA
  6
CONTINUOUS
 62
     7
 10
-17.250000000000011
 20
-115.2
 30
0.0
  0
SEQEND
  5
436
  8
DATA
  6
CONTINUOUS
 62
     7
  0
POLYLINE
  5
EA
  8
DATA
  6
CONTINUOUS
 62
     7
 66
     1
 10
0.0
 20
0.0
 30
0.0
 70
     1
  0
VERTEX
  5
437
  8
DATA
  6
CONTINUOUS
 62
     7
 10
5.9999999999999849
 20
-90.200000000000017
 30
0.0
  0
VERTEX
  5
438
  8
DATA
  6
CONTINUOUS
 62
     7
 10
27.499999999999979
 20
-90.200000000000017
 30
0.0
  0
VERTEX
  5
439
  8
DATA
  6
CONTINUOUS
 62
     7
 10
27.499999999999979
 20
-115.2
 30
0.0
  0
VERTEX
  5
43A
  8
DATA
  6
CONTINUOUS
 62
     7
 10
5.9999999999999849
 20
-115.2
 30
0.0
  0
SEQEND
  5
43B
  8
DATA
  6
CONTINUOUS
 62
     7
  0
TEXT
  5
F0
  8
DATA
 62
     7
 10
-12.85
 20
-93.270819601580939
 30
0.0
 40
2.54
  1
STEREO 1
 41
0.85
 11
-12.85
 21
-90.730819601580947
 31
0.0
 73
     3
  0
CIRCLE
  5
F1
  8
DATA
  6
CONTINUOUS
 62
     7
 10
30.999999999999979
 20
-103.2
 30
0.0
 40
0.75
  0
CIRCLE
  5
F2
  8
DATA
  6
CONTINUOUS
 62
     7
 10
48.999999999999993
 20
-103.2
 30
0.0
 40
0.75
  0
CIRCLE
  5
F3
  8
DATA
  6
CONTINUOUS
 62
     7
 10
35.499999999999979
 20
-110.99422863405989
 30
0.0
 40
0.7499999999999633
  0
CIRCLE
  5
F4
  8
DATA
  6
CONTINUOUS
 62
     7
 10
44.499999999999993
 20
-95.405771365940055
 30
0.0
 40
0.7499999999999633
  0
CIRCLE
  5
F5
  8
DATA
  6
CONTINUOUS
 62
     7
 10
44.499999999999993
 20
-110.99422863405989
 30
0.0
 40
0.7499999999999633
  0
CIRCLE
  5
F6
  8
DATA
  6
CONTINUOUS
 62
     7
 10
35.499999999999979
 20
-95.405771365940055
 30
0.0
 40
0.7499999999999633
  0
POLYLINE
  5
F7
  8
DATA
  6
CONTINUOUS
 62
     7
 66
     1
 10
0.0
 20
0.0
 30
0.0
 70
     1
  0
VERTEX
  5
43C
  8
DATA
  6
CONTINUOUS
 62
     7
 10
29.249999999999979
 20
-90.200000000000017
 30
0.0
  0
VERTEX
  5
43D
  8
DATA
  6
CONTINUOUS
 62
     7
 10
50.749999999999993
 20
-90.200000000000017
 30
0.0
  0
VERTEX
  5
43E
  8
DATA
  6
CONTINUOUS
 62
     7
 10
50.749999999999993
 20
-115.2
 30
0.0
  0
VERTEX
  5
43F
  8
DATA
  6
CONTINUOUS
 62
     7
 10
29.249999999999979
 20
-115.2
 30
0.0
  0
SEQEND
  5
440
  8
DATA
  6
CONTINUOUS
 62
     7
  0
TEXT
  5
FD
  8
DATA
 62
     7
 10
10.39999999999999
 20
-93.270819601580939
 30
0.0
 40
2.54
  1
STEREO 2
 41
0.85
 11
10.39999999999999
 21
-90.730819601580947
 31
0.0
 73
     3
  0
TEXT
  5
FE
  8
DATA
 62
     7
 10
33.649999999999991
 20
-93.270819601580939
 30
0.0
 40
2.54
  1
STEREO 3
 41
0.85
 11
33.649999999999991
 21
-90.730819601580947
 31
0.0
 73
     3
  0
POLYLINE
  5
FF
  8
DATA
  6
CONTINUOUS
 62
     7
 66
     1
 10
0.0
 20
0.0
 30
0.0
 70
     1
  0
VERTEX
  5
441
  8
DATA
  6
CONTINUOUS
 62
     7
 10
-65.000000000000014
 20
-82.350000000000023
 30
0.0
  0
VERTEX
  5
442
  8
DATA
  6
CONTINUOUS
 62
     7
 10
134.49999999999989
 20
-82.350000000000023
 30
0.0
  0
VERTEX
  5
443
  8
DATA
  6
CONTINUOUS
 62
     7
 10
134.49999999999989
 20
-123.84999999999999
 30
0.0
  0
VERTEX
  5
444
  8
DATA
  6
CONTINUOUS
 62
     7
 10
-65.000000000000014
 20
-123.84999999999999
 30
0.0
  0
SEQEND
  5
445
  8
DATA
  6
CONTINUOUS
 62
     7
  0
LINE
  5
105
  8
DATA
  6
CONTINUOUS
 62
     7
 10
66.749999999999986
 20
-110.99422863405989
 30
0.0
 11
68.749999999999986
 21
-110.99422863405989
 31
0.0
  0
LINE
  5
106
  8
DATA
  6
CONTINUOUS
 62
     7
 10
67.749999999999986
 20
-111.99422863405989
 30
0.0
 11
67.749999999999986
 21
-109.99422863405989
 31
0.0
  0
LINE
  5
107
  8
DATA
  6
CONTINUOUS
 62
     7
 10
57.749999999999993
 20
-110.99422863405989
 30
0.0
 11
59.749999999999993
 21
-110.99422863405989
 31
0.0
  0
LINE
  5
108
  8
DATA
  6
CONTINUOUS
 62
     7
 10
89.999999999999986
 20
-110.99422863405989
 30
0.0
 11
91.999999999999986
 21
-110.99422863405989
 31
0.0
  0
LINE
  5
109
  8
DATA
  6
CONTINUOUS
 62
     7
 10
90.999999999999986
 20
-111.99422863405989
 30
0.0
 11
90.999999999999986
 21
-109.99422863405989
 31
0.0
  0
LINE
  5
10A
  8
DATA
  6
CONTINUOUS
 62
     7
 10
80.999999999999986
 20
-110.99422863405989
 30
0.0
 11
82.999999999999986
 21
-110.99422863405989
 31
0.0
  0
TEXT
  5
10B
  8
DATA
 62
     7
 10
60.074999999999989
 20
-93.270819601580939
 30
0.0
 40
2.54
  1
BASS
 41
0.85
 11
60.074999999999989
 21
-90.730819601580947
 31
0.0
 73
     3
  0
TEXT
  5
10C
  8
DATA
 62
     7
 10
81.737499999999983
 20
-93.270819601580939
 30
0.0
 40
2.54
  1
TREBLE
 41
0.85
 11
81.737499999999983
 21
-90.730819601580947
 31
0.0
 73
     3
  0
TEXT
  5
10D
  8
DATA
 62
     7
 10
104.9874999999999
 20
-93.270819601580939
 30
0.0
 40
2.54
  1
MASTER
 41
0.85
 11
104.9874999999999
 21
-90.730819601580947
 31
0.0
 73
     3
  0
POLYLINE
  5
10E
  8
DATA
  6
CONTINUOUS
 62
     7
 66
     1
 10
0.0
 20
0.0
 30
0.0
 70
     1
  0
VERTEX
  5
446
  8
DATA
  6
CONTINUOUS
 62
     7
 10
-63.750000000000021
 20
-84.199999999999989
 30
0.0
  0
VERTEX
  5
447
  8
DATA
  6
CONTINUOUS
 62
     7
 10
120.5
 20
-84.199999999999989
 30
0.0
  0
VERTEX
  5
448
  8
DATA
  6
CONTINUOUS
 62
     7
 10
120.5
 20
-86.200000000000003
 30
0.0
  0
VERTEX
  5
449
  8
DATA
  6
CONTINUOUS
 62
     7
 10
-63.750000000000021
 20
-86.200000000000003
 30
0.0
  0
SEQEND
  5
44A
  8
DATA
  6
CONTINUOUS
 62
     7
  0
TEXT
  5
114
  8
DATA
 62
     7
 10
-29.750000000000011
 20
-122.0033333333333
 30
0.0
 40
3.3866666666666658
  1
SCM262
 41
0.85
 11
-29.750000000000011
 21
-118.6166666666666
 31
0.0
 73
     3
  0
TEXT
  5
115
  8
DATA
 62
     7
 10
-8.5000000000000142
 20
-122.0033333333333
 30
0.0
 40
3.3866666666666658
  1
stereo mixer
 41
0.85
 11
-8.5000000000000142
 21
-118.6166666666666
 31
0.0
 73
     3
  0
LINE
  5
116
  8
DATA
  6
CONTINUOUS
 62
     7
 10
-48.00000000000054
 20
-55.0
 30
0.0
 11
-47.000000000000362
 21
-40.0
 31
0.0
  0
LINE
  5
117
  8
DATA
  6
CONTINUOUS
 62
     7
 10
-58.999999999999638
 20
-40.0
 30
0.0
 11
-57.999999999999467
 21
-55.0
 31
0.0
  0
LINE
  5
118
  8
DATA
  6
CONTINUOUS
 62
     7
 10
144.5
 20
-35.900000000000013
 30
0.0
 11
-75.000000000000014
 21
-35.900000000000013
 31
0.0
  0
LINE
  5
119
  8
DATA
  6
CONTINUOUS
 62
     7
 10
134.49999999999989
 20
-35.900000000000013
 30
0.0
 11
134.49999999999989
 21
97.200000000000003
 31
0.0
  0
LINE
  5
11A
  8
DATA
  6
CONTINUOUS
 62
     7
 10
-65.000000000000014
 20
97.200000000000003
 30
0.0
 11
-65.000000000000014
 21
-35.900000000000013
 31
0.0
  0
LINE
  5
11B
  8
DATA
  6
CONTINUOUS
 62
     7
 10
-75.000000000000014
 20
97.200000000000003
 30
0.0
 11
144.5
 21
97.200000000000003
 31
0.0
  0
CIRCLE
  5
11C
  8
DATA
  6
CONTINUOUS
 62
     7
 10
-60.500000000000021
 20
68.5
 30
0.0
 40
3.5
  0
LINE
  5
11D
  8
DATA
  6
CONTINUOUS
 62
     7
 10
-62.250000000000021
 20
68.5
 30
0.0
 11
-58.750000000000021
 21
68.5
 31
0.0
  0
LINE
  5
11E
  8
DATA
  6
CONTINUOUS
 62
     7
 10
-60.500000000000021
 20
66.75
 30
0.0
 11
-60.500000000000021
 21
70.25
 31
0.0
  0
CIRCLE
  5
11F
  8
DATA
  6
CONTINUOUS
 62
     7
 10
-60.500000000000021
 20
-6.5
 30
0.0
 40
3.5
  0
LINE
  5
120
  8
DATA
  6
CONTINUOUS
 62
     7
 10
-62.250000000000021
 20
-6.5
 30
0.0
 11
-58.750000000000021
 21
-6.5
 31
0.0
  0
LINE
  5
121
  8
DATA
  6
CONTINUOUS
 62
     7
 10
-60.500000000000021
 20
-8.25
 30
0.0
 11
-60.500000000000021
 21
-4.75
 31
0.0
  0
CIRCLE
  5
122
  8
DATA
  6
CONTINUOUS
 62
     7
 10
130.0
 20
68.5
 30
0.0
 40
3.5
  0
LINE
  5
123
  8
DATA
  6
CONTINUOUS
 62
     7
 10
128.24999999999989
 20
68.5
 30
0.0
 11
131.75
 21
68.5
 31
0.0
  0
LINE
  5
124
  8
DATA
  6
CONTINUOUS
 62
     7
 10
130.0
 20
66.75
 30
0.0
 11
130.0
 21
70.25
 31
0.0
  0
CIRCLE
  5
125
  8
DATA
  6
CONTINUOUS
 62
     7
 10
130.0
 20
-6.5
 30
0.0
 40
3.5
  0
LINE
  5
126
  8
DATA
  6
CONTINUOUS
 62
     7
 10
128.24999999999989
 20
-6.5
 30
0.0
 11
131.75
 21
-6.5
 31
0.0
  0
LINE
  5
127
  8
DATA
  6
CONTINUOUS
 62
     7
 10
130.0
 20
-8.25
 30
0.0
 11
130.0
 21
-4.75
 31
0.0
  0
CIRCLE
  5
128
  8
DATA
  6
CONTINUOUS
 62
     7
 10
139.5
 20
-19.0
 30
0.0
 40
1.5
  0
CIRCLE
  5
129
  8
DATA
  6
CONTINUOUS
 62
     7
 10
139.5
 20
81.5
 30
0.0
 40
1.5
  0
CIRCLE
  5
12A
  8
DATA
  6
CONTINUOUS
 62
     7
 10
-70.000000000000014
 20
81.5
 30
0.0
 40
1.5
  0
CIRCLE
  5
12B
  8
DATA
  6
CONTINUOUS
 62
     7
 10
-70.000000000000014
 20
-19.0
 30
0.0
 40
1.5
  0
LINE
  5
12C
  8
DATA
  6
CONTINUOUS
 62
     7
 10
-51.883974596215552
 20
-55.5
 30
0.0
 11
-56.899519052838329
 21
-55.5
 31
0.0
  0
LINE
  5
12D
  8
DATA
  6
CONTINUOUS
 62
     7
 10
-48.00000000000054
 20
-55.0
 30
0.0
 11
-57.999999999999467
 21
-55.0
 31
0.0
  0
LINE
  5
12E
  8
DATA
  6
CONTINUOUS
 62
     7
 10
-47.000000000000362
 20
-40.0
 30
0.0
 11
-58.999999999999638
 21
-40.0
 31
0.0
  0
CIRCLE
  5
12F
  8
DATA
  6
CONTINUOUS
 62
     7
 10
39.999999999999993
 20
-103.2
 30
0.0
 40
7.0
  0
CIRCLE
  5
130
  8
DATA
  6
CONTINUOUS
 62
     7
 10
63.249999999999993
 20
-103.2
 30
0.0
 40
7.0
  0
CIRCLE
  5
131
  8
DATA
  6
CONTINUOUS
 62
     7
 10
86.499999999999986
 20
-103.2
 30
0.0
 40
7.0
  0
LINE
  5
132
  8
DATA
  6
CONTINUOUS
 62
     7
 10
-60.000000000000021
 20
-38.0
 30
0.0
 11
-60.000000000000021
 21
-37.5
 31
0.0
  0
LINE
  5
133
  8
DATA
  6
CONTINUOUS
 62
     7
 10
-46.000000000000021
 20
-38.0
 30
0.0
 11
-46.000000000000021
 21
-37.5
 31
0.0
  0
LINE
  5
134
  8
DATA
  6
CONTINUOUS
 62
     7
 10
-46.000000000000021
 20
-38.0
 30
0.0
 11
-60.000000000000021
 21
-38.0
 31
0.0
  0
LINE
  5
135
  8
DATA
  6
CONTINUOUS
 62
     7
 10
-54.041889066001588
 20
-38.0
 30
0.0
 11
-54.041889066001588
 21
-39.800000000000011
 31
0.0
  0
LINE
  5
136
  8
DATA
  6
CONTINUOUS
 62
     7
 10
-58.638155724715482
 20
-38.0
 30
0.0
 11
-58.638155724715482
 21
-39.800000000000011
 31
0.0
  0
LINE
  5
137
  8
DATA
  6
CONTINUOUS
 62
     7
 10
-48.403733341286149
 20
-39.800000000000011
 30
0.0
 11
-48.403733341286149
 21
-38.0
 31
0.0
  0
LINE
  5
138
  8
DATA
  6
CONTINUOUS
 62
     7
 10
-58.999999999999638
 20
-39.800000000000011
 30
0.0
 11
-58.999999999999638
 21
-38.0
 31
0.0
  0
LINE
  5
139
  8
DATA
  6
CONTINUOUS
 62
     7
 10
-47.000000000000362
 20
-39.800000000000011
 30
0.0
 11
-47.000000000000362
 21
-38.0
 31
0.0
  0
LINE
  5
13A
  8
DATA
  6
CONTINUOUS
 62
     7
 10
-58.999999999999638
 20
-39.800000000000011
 30
0.0
 11
-47.000000000000362
 21
-39.800000000000011
 31
0.0
  0
LINE
  5
13B
  8
DATA
  6
CONTINUOUS
 62
     7
 10
-57.000000000000021
 20
-39.800000000000011
 30
0.0
 11
-57.000000000000021
 21
-40.0
 31
0.0
  0
LINE
  5
13C
  8
DATA
  6
CONTINUOUS
 62
     7
 10
-49.000000000000021
 20
-39.800000000000011
 30
0.0
 11
-49.000000000000021
 21
-40.0
 31
0.0
  0
LINE
  5
13D
  8
DATA
  6
CONTINUOUS
 62
     7
 10
-24.750000000000519
 20
-55.0
 30
0.0
 11
-23.750000000000352
 21
-40.0
 31
0.0
  0
LINE
  5
13E
  8
DATA
  6
CONTINUOUS
 62
     7
 10
-35.749999999999638
 20
-40.0
 30
0.0
 11
-34.749999999999467
 21
-55.0
 31
0.0
  0
LINE
  5
13F
  8
DATA
  6
CONTINUOUS
 62
     7
 10
-24.750000000000519
 20
-55.0
 30
0.0
 11
-34.749999999999467
 21
-55.0
 31
0.0
  0
LINE
  5
140
  8
DATA
  6
CONTINUOUS
 62
     7
 10
-23.750000000000352
 20
-40.0
 30
0.0
 11
-35.749999999999638
 21
-40.0
 31
0.0
  0
LINE
  5
141
  8
DATA
  6
CONTINUOUS
 62
     7
 10
-36.750000000000007
 20
-38.0
 30
0.0
 11
-36.750000000000007
 21
-37.5
 31
0.0
  0
LINE
  5
142
  8
DATA
  6
CONTINUOUS
 62
     7
 10
-22.750000000000011
 20
-38.0
 30
0.0
 11
-22.750000000000011
 21
-37.5
 31
0.0
  0
LINE
  5
143
  8
DATA
  6
CONTINUOUS
 62
     7
 10
-22.750000000000011
 20
-38.0
 30
0.0
 11
-36.750000000000007
 21
-38.0
 31
0.0
  0
LINE
  5
144
  8
DATA
  6
CONTINUOUS
 62
     7
 10
-30.791889066001591
 20
-38.0
 30
0.0
 11
-30.791889066001591
 21
-39.800000000000011
 31
0.0
  0
LINE
  5
145
  8
DATA
  6
CONTINUOUS
 62
     7
 10
-35.388155724715467
 20
-38.0
 30
0.0
 11
-35.388155724715467
 21
-39.800000000000011
 31
0.0
  0
LINE
  5
146
  8
DATA
  6
CONTINUOUS
 62
     7
 10
-25.153733341286159
 20
-39.800000000000011
 30
0.0
 11
-25.153733341286159
 21
-38.0
 31
0.0
  0
LINE
  5
147
  8
DATA
  6
CONTINUOUS
 62
     7
 10
-35.749999999999638
 20
-39.800000000000011
 30
0.0
 11
-35.749999999999638
 21
-38.0
 31
0.0
  0
LINE
  5
148
  8
DATA
  6
CONTINUOUS
 62
     7
 10
-23.750000000000352
 20
-39.800000000000011
 30
0.0
 11
-23.750000000000352
 21
-38.0
 31
0.0
  0
LINE
  5
149
  8
DATA
  6
CONTINUOUS
 62
     7
 10
-35.749999999999638
 20
-39.800000000000011
 30
0.0
 11
-23.750000000000352
 21
-39.800000000000011
 31
0.0
  0
LINE
  5
14A
  8
DATA
  6
CONTINUOUS
 62
     7
 10
-33.75
 20
-39.800000000000011
 30
0.0
 11
-33.75
 21
-40.0
 31
0.0
  0
LINE
  5
14B
  8
DATA
  6
CONTINUOUS
 62
     7
 10
-25.750000000000011
 20
-39.800000000000011
 30
0.0
 11
-25.750000000000011
 21
-40.0
 31
0.0
  0
LINE
  5
14C
  8
DATA
  6
CONTINUOUS
 62
     7
 10
-1.5000000000005249
 20
-55.0
 30
0.0
 11
-0.5000000000003553
 21
-40.0
 31
0.0
  0
LINE
  5
14D
  8
DATA
  6
CONTINUOUS
 62
     7
 10
-12.499999999999639
 20
-40.0
 30
0.0
 11
-11.499999999999471
 21
-55.0
 31
0.0
  0
LINE
  5
14E
  8
DATA
  6
CONTINUOUS
 62
     7
 10
-1.5000000000005249
 20
-55.0
 30
0.0
 11
-11.499999999999471
 21
-55.0
 31
0.0
  0
LINE
  5
14F
  8
DATA
  6
CONTINUOUS
 62
     7
 10
-0.5000000000003553
 20
-40.0
 30
0.0
 11
-12.499999999999639
 21
-40.0
 31
0.0
  0
LINE
  5
150
  8
DATA
  6
CONTINUOUS
 62
     7
 10
-13.500000000000011
 20
-38.0
 30
0.0
 11
-13.500000000000011
 21
-37.5
 31
0.0
  0
LINE
  5
151
  8
DATA
  6
CONTINUOUS
 62
     7
 10
0.4999999999999858
 20
-38.0
 30
0.0
 11
0.4999999999999858
 21
-37.5
 31
0.0
  0
LINE
  5
152
  8
DATA
  6
CONTINUOUS
 62
     7
 10
0.4999999999999858
 20
-38.0
 30
0.0
 11
-13.500000000000011
 21
-38.0
 31
0.0
  0
LINE
  5
153
  8
DATA
  6
CONTINUOUS
 62
     7
 10
-7.5418890660015867
 20
-38.0
 30
0.0
 11
-7.5418890660015867
 21
-39.800000000000011
 31
0.0
  0
LINE
  5
154
  8
DATA
  6
CONTINUOUS
 62
     7
 10
-12.138155724715469
 20
-38.0
 30
0.0
 11
-12.138155724715469
 21
-39.800000000000011
 31
0.0
  0
LINE
  5
155
  8
DATA
  6
CONTINUOUS
 62
     7
 10
-1.903733341286155
 20
-39.800000000000011
 30
0.0
 11
-1.903733341286155
 21
-38.0
 31
0.0
  0
LINE
  5
156
  8
DATA
  6
CONTINUOUS
 62
     7
 10
-12.499999999999639
 20
-39.800000000000011
 30
0.0
 11
-12.499999999999639
 21
-38.0
 31
0.0
  0
LINE
  5
157
  8
DATA
  6
CONTINUOUS
 62
     7
 10
-0.5000000000003553
 20
-39.800000000000011
 30
0.0
 11
-0.5000000000003553
 21
-38.0
 31
0.0
  0
LINE
  5
158
  8
DATA
  6
CONTINUOUS
 62
     7
 10
-12.499999999999639
 20
-39.800000000000011
 30
0.0
 11
-0.5000000000003553
 21
-39.800000000000011
 31
0.0
  0
LINE
  5
159
  8
DATA
  6
CONTINUOUS
 62
     7
 10
-10.500000000000011
 20
-39.800000000000011
 30
0.0
 11
-10.500000000000011
 21
-40.0
 31
0.0
  0
LINE
  5
15A
  8
DATA
  6
CONTINUOUS
 62
     7
 10
-2.5000000000000142
 20
-39.800000000000011
 30
0.0
 11
-2.5000000000000142
 21
-40.0
 31
0.0
  0
LINE
  5
15B
  8
DATA
  6
CONTINUOUS
 62
     7
 10
21.749999999999471
 20
-55.0
 30
0.0
 11
22.749999999999641
 21
-40.0
 31
0.0
  0
LINE
  5
15C
  8
DATA
  6
CONTINUOUS
 62
     7
 10
10.75000000000035
 20
-40.0
 30
0.0
 11
11.75000000000052
 21
-55.0
 31
0.0
  0
LINE
  5
15D
  8
DATA
  6
CONTINUOUS
 62
     7
 10
21.749999999999471
 20
-55.0
 30
0.0
 11
11.75000000000052
 21
-55.0
 31
0.0
  0
LINE
  5
15E
  8
DATA
  6
CONTINUOUS
 62
     7
 10
22.749999999999641
 20
-40.0
 30
0.0
 11
10.75000000000035
 21
-40.0
 31
0.0
  0
LINE
  5
15F
  8
DATA
  6
CONTINUOUS
 62
     7
 10
9.749999999999984
 20
-38.0
 30
0.0
 11
9.749999999999984
 21
-37.5
 31
0.0
  0
LINE
  5
160
  8
DATA
  6
CONTINUOUS
 62
     7
 10
23.749999999999979
 20
-38.0
 30
0.0
 11
23.749999999999979
 21
-37.5
 31
0.0
  0
LINE
  5
161
  8
DATA
  6
CONTINUOUS
 62
     7
 10
23.749999999999979
 20
-38.0
 30
0.0
 11
9.749999999999984
 21
-38.0
 31
0.0
  0
LINE
  5
162
  8
DATA
  6
CONTINUOUS
 62
     7
 10
15.708110933998411
 20
-38.0
 30
0.0
 11
15.708110933998411
 21
-39.800000000000011
 31
0.0
  0
LINE
  5
163
  8
DATA
  6
CONTINUOUS
 62
     7
 10
11.11184427528452
 20
-38.0
 30
0.0
 11
11.11184427528452
 21
-39.800000000000011
 31
0.0
  0
LINE
  5
164
  8
DATA
  6
CONTINUOUS
 62
     7
 10
21.346266658713841
 20
-39.800000000000011
 30
0.0
 11
21.346266658713841
 21
-38.0
 31
0.0
  0
LINE
  5
165
  8
DATA
  6
CONTINUOUS
 62
     7
 10
10.75000000000035
 20
-39.800000000000011
 30
0.0
 11
10.75000000000035
 21
-38.0
 31
0.0
  0
LINE
  5
166
  8
DATA
  6
CONTINUOUS
 62
     7
 10
22.749999999999641
 20
-39.800000000000011
 30
0.0
 11
22.749999999999641
 21
-38.0
 31
0.0
  0
LINE
  5
167
  8
DATA
  6
CONTINUOUS
 62
     7
 10
10.75000000000035
 20
-39.800000000000011
 30
0.0
 11
22.749999999999641
 21
-39.800000000000011
 31
0.0
  0
LINE
  5
168
  8
DATA
  6
CONTINUOUS
 62
     7
 10
12.74999999999998
 20
-39.800000000000011
 30
0.0
 11
12.74999999999998
 21
-40.0
 31
0.0
  0
LINE
  5
169
  8
DATA
  6
CONTINUOUS
 62
     7
 10
20.749999999999979
 20
-39.800000000000011
 30
0.0
 11
20.749999999999979
 21
-40.0
 31
0.0
  0
LINE
  5
16A
  8
DATA
  6
CONTINUOUS
 62
     7
 10
44.99999999999946
 20
-55.0
 30
0.0
 11
45.999999999999652
 21
-40.0
 31
0.0
  0
LINE
  5
16B
  8
DATA
  6
CONTINUOUS
 62
     7
 10
34.000000000000348
 20
-40.0
 30
0.0
 11
35.000000000000519
 21
-55.0
 31
0.0
  0
LINE
  5
16C
  8
DATA
  6
CONTINUOUS
 62
     7
 10
44.99999999999946
 20
-55.0
 30
0.0
 11
35.000000000000519
 21
-55.0
 31
0.0
  0
LINE
  5
16D
  8
DATA
  6
CONTINUOUS
 62
     7
 10
45.999999999999652
 20
-40.0
 30
0.0
 11
34.000000000000348
 21
-40.0
 31
0.0
  0
LINE
  5
16E
  8
DATA
  6
CONTINUOUS
 62
     7
 10
32.999999999999979
 20
-38.0
 30
0.0
 11
32.999999999999979
 21
-37.5
 31
0.0
  0
LINE
  5
16F
  8
DATA
  6
CONTINUOUS
 62
     7
 10
46.999999999999993
 20
-38.0
 30
0.0
 11
46.999999999999993
 21
-37.5
 31
0.0
  0
LINE
  5
170
  8
DATA
  6
CONTINUOUS
 62
     7
 10
46.999999999999993
 20
-38.0
 30
0.0
 11
32.999999999999979
 21
-38.0
 31
0.0
  0
LINE
  5
171
  8
DATA
  6
CONTINUOUS
 62
     7
 10
38.958110933998398
 20
-38.0
 30
0.0
 11
38.958110933998398
 21
-39.800000000000011
 31
0.0
  0
LINE
  5
172
  8
DATA
  6
CONTINUOUS
 62
     7
 10
34.361844275284518
 20
-38.0
 30
0.0
 11
34.361844275284518
 21
-39.800000000000011
 31
0.0
  0
LINE
  5
173
  8
DATA
  6
CONTINUOUS
 62
     7
 10
44.596266658713837
 20
-39.800000000000011
 30
0.0
 11
44.596266658713837
 21
-38.0
 31
0.0
  0
LINE
  5
174
  8
DATA
  6
CONTINUOUS
 62
     7
 10
34.000000000000348
 20
-39.800000000000011
 30
0.0
 11
34.000000000000348
 21
-38.0
 31
0.0
  0
LINE
  5
175
  8
DATA
  6
CONTINUOUS
 62
     7
 10
45.999999999999652
 20
-39.800000000000011
 30
0.0
 11
45.999999999999652
 21
-38.0
 31
0.0
  0
LINE
  5
176
  8
DATA
  6
CONTINUOUS
 62
     7
 10
34.000000000000348
 20
-39.800000000000011
 30
0.0
 11
45.999999999999652
 21
-39.800000000000011
 31
0.0
  0
LINE
  5
177
  8
DATA
  6
CONTINUOUS
 62
     7
 10
35.999999999999979
 20
-39.800000000000011
 30
0.0
 11
35.999999999999979
 21
-40.0
 31
0.0
  0
LINE
  5
178
  8
DATA
  6
CONTINUOUS
 62
     7
 10
43.999999999999993
 20
-39.800000000000011
 30
0.0
 11
43.999999999999993
 21
-40.0
 31
0.0
  0
LINE
  5
179
  8
DATA
  6
CONTINUOUS
 62
     7
 10
68.249999999999446
 20
-55.0
 30
0.0
 11
69.249999999999645
 21
-40.0
 31
0.0
  0
LINE
  5
17A
  8
DATA
  6
CONTINUOUS
 62
     7
 10
57.250000000000362
 20
-40.0
 30
0.0
 11
58.250000000000533
 21
-55.0
 31
0.0
  0
LINE
  5
17B
  8
DATA
  6
CONTINUOUS
 62
     7
 10
64.249999999999957
 20
-55.5
 30
0.0
 11
62.249999999999993
 21
-55.5
 31
0.0
  0
LINE
  5
17C
  8
DATA
  6
CONTINUOUS
 62
     7
 10
68.249999999999446
 20
-55.0
 30
0.0
 11
58.250000000000533
 21
-55.0
 31
0.0
  0
LINE
  5
17D
  8
DATA
  6
CONTINUOUS
 62
     7
 10
69.249999999999645
 20
-40.0
 30
0.0
 11
57.250000000000362
 21
-40.0
 31
0.0
  0
LINE
  5
17E
  8
DATA
  6
CONTINUOUS
 62
     7
 10
56.25
 20
-38.0
 30
0.0
 11
56.25
 21
-37.5
 31
0.0
  0
LINE
  5
17F
  8
DATA
  6
CONTINUOUS
 62
     7
 10
70.249999999999986
 20
-38.0
 30
0.0
 11
70.249999999999986
 21
-37.5
 31
0.0
  0
LINE
  5
180
  8
DATA
  6
CONTINUOUS
 62
     7
 10
70.249999999999986
 20
-38.0
 30
0.0
 11
56.25
 21
-38.0
 31
0.0
  0
LINE
  5
181
  8
DATA
  6
CONTINUOUS
 62
     7
 10
62.208110933998412
 20
-38.0
 30
0.0
 11
62.208110933998412
 21
-39.800000000000011
 31
0.0
  0
LINE
  5
182
  8
DATA
  6
CONTINUOUS
 62
     7
 10
57.611844275284518
 20
-38.0
 30
0.0
 11
57.611844275284518
 21
-39.800000000000011
 31
0.0
  0
LINE
  5
183
  8
DATA
  6
CONTINUOUS
 62
     7
 10
67.846266658713844
 20
-39.800000000000011
 30
0.0
 11
67.846266658713844
 21
-38.0
 31
0.0
  0
LINE
  5
184
  8
DATA
  6
CONTINUOUS
 62
     7
 10
57.250000000000362
 20
-39.800000000000011
 30
0.0
 11
57.250000000000362
 21
-38.0
 31
0.0
  0
LINE
  5
185
  8
DATA
  6
CONTINUOUS
 62
     7
 10
69.249999999999645
 20
-39.800000000000011
 30
0.0
 11
69.249999999999645
 21
-38.0
 31
0.0
  0
LINE
  5
186
  8
DATA
  6
CONTINUOUS
 62
     7
 10
57.250000000000362
 20
-39.800000000000011
 30
0.0
 11
69.249999999999645
 21
-39.800000000000011
 31
0.0
  0
LINE
  5
187
  8
DATA
  6
CONTINUOUS
 62
     7
 10
59.249999999999993
 20
-39.800000000000011
 30
0.0
 11
59.249999999999993
 21
-40.0
 31
0.0
  0
LINE
  5
188
  8
DATA
  6
CONTINUOUS
 62
     7
 10
67.249999999999986
 20
-39.800000000000011
 30
0.0
 11
67.249999999999986
 21
-40.0
 31
0.0
  0
LINE
  5
189
  8
DATA
  6
CONTINUOUS
 62
     7
 10
91.499999999999474
 20
-55.0
 30
0.0
 11
92.499999999999616
 21
-40.0
 31
0.0
  0
LINE
  5
18A
  8
DATA
  6
CONTINUOUS
 62
     7
 10
80.500000000000341
 20
-40.0
 30
0.0
 11
81.500000000000512
 21
-55.0
 31
0.0
  0
LINE
  5
18B
  8
DATA
  6
CONTINUOUS
 62
     7
 10
91.499999999999474
 20
-55.0
 30
0.0
 11
81.500000000000512
 21
-55.0
 31
0.0
  0
LINE
  5
18C
  8
DATA
  6
CONTINUOUS
 62
     7
 10
92.499999999999616
 20
-40.0
 30
0.0
 11
80.500000000000341
 21
-40.0
 31
0.0
  0
LINE
  5
18D
  8
DATA
  6
CONTINUOUS
 62
     7
 10
79.499999999999986
 20
-38.0
 30
0.0
 11
79.499999999999986
 21
-37.5
 31
0.0
  0
LINE
  5
18E
  8
DATA
  6
CONTINUOUS
 62
     7
 10
93.499999999999986
 20
-38.0
 30
0.0
 11
93.499999999999986
 21
-37.5
 31
0.0
  0
LINE
  5
18F
  8
DATA
  6
CONTINUOUS
 62
     7
 10
93.499999999999986
 20
-38.0
 30
0.0
 11
79.499999999999986
 21
-38.0
 31
0.0
  0
LINE
  5
190
  8
DATA
  6
CONTINUOUS
 62
     7
 10
85.458110933998427
 20
-38.0
 30
0.0
 11
85.458110933998427
 21
-39.800000000000011
 31
0.0
  0
LINE
  5
191
  8
DATA
  6
CONTINUOUS
 62
     7
 10
80.861844275284525
 20
-38.0
 30
0.0
 11
80.861844275284525
 21
-39.800000000000011
 31
0.0
  0
LINE
  5
192
  8
DATA
  6
CONTINUOUS
 62
     7
 10
91.09626665871383
 20
-39.800000000000011
 30
0.0
 11
91.09626665871383
 21
-38.0
 31
0.0
  0
LINE
  5
193
  8
DATA
  6
CONTINUOUS
 62
     7
 10
80.500000000000341
 20
-39.800000000000011
 30
0.0
 11
80.500000000000341
 21
-38.0
 31
0.0
  0
LINE
  5
194
  8
DATA
  6
CONTINUOUS
 62
     7
 10
92.499999999999616
 20
-39.800000000000011
 30
0.0
 11
92.499999999999616
 21
-38.0
 31
0.0
  0
LINE
  5
195
  8
DATA
  6
CONTINUOUS
 62
     7
 10
80.500000000000341
 20
-39.800000000000011
 30
0.0
 11
92.499999999999616
 21
-39.800000000000011
 31
0.0
  0
LINE
  5
196
  8
DATA
  6
CONTINUOUS
 62
     7
 10
82.499999999999986
 20
-39.800000000000011
 30
0.0
 11
82.499999999999986
 21
-40.0
 31
0.0
  0
LINE
  5
197
  8
DATA
  6
CONTINUOUS
 62
     7
 10
90.499999999999986
 20
-39.800000000000011
 30
0.0
 11
90.499999999999986
 21
-40.0
 31
0.0
  0
LINE
  5
198
  8
DATA
  6
CONTINUOUS
 62
     7
 10
157.5
 20
-108.19999999999941
 30
0.0
 11
172.5
 21
-109.1999999999996
 31
0.0
  0
LINE
  5
199
  8
DATA
  6
CONTINUOUS
 62
     7
 10
172.5
 20
-97.200000000000358
 30
0.0
 11
157.5
 21
-98.200000000000514
 31
0.0
  0
LINE
  5
19A
  8
DATA
  6
CONTINUOUS
 62
     7
 10
157.0
 20
-108.2891226829601
 30
0.0
 11
157.0
 21
-102.26698729810769
 31
0.0
  0
LINE
  5
19B
  8
DATA
  6
CONTINUOUS
 62
     7
 10
157.5
 20
-108.19999999999941
 30
0.0
 11
157.5
 21
-98.200000000000514
 31
0.0
  0
LINE
  5
19C
  8
DATA
  6
CONTINUOUS
 62
     7
 10
172.5
 20
-109.3224560162936
 30
0.0
 11
172.5
 21
-97.200000000000358
 31
0.0
  0
LINE
  5
19D
  8
DATA
  6
CONTINUOUS
 62
     7
 10
174.5
 20
-96.200000000000003
 30
0.0
 11
175.0
 21
-96.200000000000003
 31
0.0
  0
LINE
  5
19E
  8
DATA
  6
CONTINUOUS
 62
     7
 10
174.5
 20
-110.2
 30
0.0
 11
175.0
 21
-110.2
 31
0.0
  0
LINE
  5
19F
  8
DATA
  6
CONTINUOUS
 62
     7
 10
174.5
 20
-110.2
 30
0.0
 11
174.5
 21
-96.200000000000003
 31
0.0
  0
LINE
  5
1A0
  8
DATA
  6
CONTINUOUS
 62
     7
 10
172.6999999999999
 20
-97.200000000000358
 30
0.0
 11
174.5
 21
-97.200000000000358
 31
0.0
  0
LINE
  5
1A1
  8
DATA
  6
CONTINUOUS
 62
     7
 10
172.6999999999999
 20
-109.1999999999996
 30
0.0
 11
174.5
 21
-109.1999999999996
 31
0.0
  0
LINE
  5
1A2
  8
DATA
  6
CONTINUOUS
 62
     7
 10
172.6999999999999
 20
-97.200000000000358
 30
0.0
 11
172.6999999999999
 21
-109.1999999999996
 31
0.0
  0
LINE
  5
1A3
  8
DATA
  6
CONTINUOUS
 62
     7
 10
172.6999999999999
 20
-99.200000000000017
 30
0.0
 11
172.5
 21
-99.200000000000017
 31
0.0
  0
LINE
  5
1A4
  8
DATA
  6
CONTINUOUS
 62
     7
 10
172.6999999999999
 20
-107.2
 30
0.0
 11
172.5
 21
-107.2
 31
0.0
  0
LINE
  5
1A5
  8
DATA
  6
CONTINUOUS
 62
     7
 10
172.6999999999999
 20
-99.343274341880772
 30
0.0
 11
174.5
 21
-99.343274341880772
 31
0.0
  0
LINE
  5
1A6
  8
DATA
  6
CONTINUOUS
 62
     7
 10
172.6999999999999
 20
-105.25212085995391
 30
0.0
 11
174.5
 21
-105.25212085995391
 31
0.0
  0
LINE
  5
1A7
  8
DATA
  6
CONTINUOUS
 62
     7
 10
172.6999999999999
 20
-109.10884651807319
 30
0.0
 11
174.5
 21
-109.10884651807319
 31
0.0
  0
LINE
  5
1A8
  8
DATA
  6
CONTINUOUS
 62
     7
 10
157.0
 20
-108.2891226829601
 30
0.0
 11
172.5
 21
-109.3224560162936
 31
0.0
  0
LINE
  5
1A9
  8
DATA
  6
CONTINUOUS
 62
     7
 10
41.116025403784469
 20
-103.26698729810769
 30
0.0
 11
39.383974596215573
 21
-102.26698729810769
 31
0.0
  0
LINE
  5
1AA
  8
DATA
  6
CONTINUOUS
 62
     7
 10
36.100480947161671
 20
-108.4541651245988
 30
0.0
 11
37.39951905283835
 21
-109.2041651245988
 31
0.0
  0
LINE
  5
1AB
  8
DATA
  6
CONTINUOUS
 62
     7
 10
39.383974596215573
 20
-102.26698729810769
 30
0.0
 11
38.600480947161671
 21
-104.1240381056766
 31
0.0
  0
LINE
  5
1AC
  8
DATA
  6
CONTINUOUS
 62
     7
 10
41.116025403784469
 20
-103.26698729810769
 30
0.0
 11
39.899519052838329
 21
-104.8740381056766
 31
0.0
  0
LINE
  5
1AD
  8
DATA
  6
CONTINUOUS
 62
     7
 10
38.600480947161671
 20
-104.1240381056766
 30
0.0
 11
36.100480947161671
 21
-108.4541651245988
 31
0.0
  0
LINE
  5
1AE
  8
DATA
  6
CONTINUOUS
 62
     7
 10
39.899519052838329
 20
-104.8740381056766
 30
0.0
 11
37.39951905283835
 21
-109.2041651245988
 31
0.0
  0
LINE
  5
1AF
  8
DATA
  6
CONTINUOUS
 62
     7
 10
37.927819052838331
 20
-108.2891226829601
 30
0.0
 11
36.628780947161658
 21
-107.5391226829601
 31
0.0
  0
ARC
  5
1B0
  8
DATA
  6
CONTINUOUS
 62
     7
 10
39.999999999999993
 20
-103.2
 30
0.0
 40
5.0
 50
248.62692655867801
 51
231.3730734413225
  0
ARC
  5
1B1
  8
DATA
  6
CONTINUOUS
 62
     7
 10
39.999999999999993
 20
-103.2
 30
0.0
 40
5.9999999999999947
 50
247.18075578145849
 51
232.81924421854211
  0
CIRCLE
  5
1B2
  8
DATA
  6
CONTINUOUS
 62
     7
 10
100.75
 20
-103.2
 30
0.0
 40
0.75
  0
CIRCLE
  5
1B3
  8
DATA
  6
CONTINUOUS
 62
     7
 10
118.75
 20
-103.2
 30
0.0
 40
0.75
  0
CIRCLE
  5
1B4
  8
DATA
  6
CONTINUOUS
 62
     7
 10
105.2499999999999
 20
-110.99422863405989
 30
0.0
 40
0.7499999999999633
  0
CIRCLE
  5
1B5
  8
DATA
  6
CONTINUOUS
 62
     7
 10
114.25
 20
-95.405771365940055
 30
0.0
 40
0.7499999999999633
  0
CIRCLE
  5
1B6
  8
DATA
  6
CONTINUOUS
 62
     7
 10
114.25
 20
-110.99422863405989
 30
0.0
 40
0.7499999999999633
  0
CIRCLE
  5
1B7
  8
DATA
  6
CONTINUOUS
 62
     7
 10
105.2499999999999
 20
-95.405771365940055
 30
0.0
 40
0.7499999999999633
  0
POLYLINE
  5
1B8
  8
DATA
  6
CONTINUOUS
 62
     7
 66
     1
 10
0.0
 20
0.0
 30
0.0
 70
     1
  0
VERTEX
  5
44B
  8
DATA
  6
CONTINUOUS
 62
     7
 10
98.999999999999986
 20
-90.200000000000017
 30
0.0
  0
VERTEX
  5
44C
  8
DATA
  6
CONTINUOUS
 62
     7
 10
120.5
 20
-90.200000000000017
 30
0.0
  0
VERTEX
  5
44D
  8
DATA
  6
CONTINUOUS
 62
     7
 10
120.5
 20
-115.2
 30
0.0
  0
VERTEX
  5
44E
  8
DATA
  6
CONTINUOUS
 62
     7
 10
98.999999999999986
 20
-115.2
 30
0.0
  0
SEQEND
  5
44F
  8
DATA
  6
CONTINUOUS
 62
     7
  0
CIRCLE
  5
1BE
  8
DATA
  6
CONTINUOUS
 62
     7
 10
109.7499999999999
 20
-103.2
 30
0.0
 40
7.0
  0
LINE
  5
1BF
  8
DATA
  6
CONTINUOUS
 62
     7
 10
110.86602540378441
 20
-103.26698729810769
 30
0.0
 11
109.1339745962155
 21
-102.26698729810769
 31
0.0
  0
LINE
  5
1C0
  8
DATA
  6
CONTINUOUS
 62
     7
 10
105.8504809471616
 20
-108.4541651245988
 30
0.0
 11
107.1495190528383
 21
-109.2041651245988
 31
0.0
  0
LINE
  5
1C1
  8
DATA
  6
CONTINUOUS
 62
     7
 10
109.1339745962155
 20
-102.26698729810769
 30
0.0
 11
108.3504809471617
 21
-104.1240381056766
 31
0.0
  0
LINE
  5
1C2
  8
DATA
  6
CONTINUOUS
 62
     7
 10
110.86602540378441
 20
-103.26698729810769
 30
0.0
 11
109.6495190528383
 21
-104.8740381056766
 31
0.0
  0
LINE
  5
1C3
  8
DATA
  6
CONTINUOUS
 62
     7
 10
108.3504809471617
 20
-104.1240381056766
 30
0.0
 11
105.8504809471616
 21
-108.4541651245988
 31
0.0
  0
LINE
  5
1C4
  8
DATA
  6
CONTINUOUS
 62
     7
 10
109.6495190528383
 20
-104.8740381056766
 30
0.0
 11
107.1495190528383
 21
-109.2041651245988
 31
0.0
  0
LINE
  5
1C5
  8
DATA
  6
CONTINUOUS
 62
     7
 10
107.6778190528383
 20
-108.2891226829601
 30
0.0
 11
106.3787809471616
 21
-107.5391226829601
 31
0.0
  0
ARC
  5
1C6
  8
DATA
  6
CONTINUOUS
 62
     7
 10
109.7499999999999
 20
-103.2
 30
0.0
 40
5.0
 50
248.62692655867801
 51
231.3730734413225
  0
ARC
  5
1C7
  8
DATA
  6
CONTINUOUS
 62
     7
 10
109.7499999999999
 20
-103.2
 30
0.0
 40
5.9999999999999947
 50
247.18075578145849
 51
232.81924421854211
  0
LINE
  5
1C8
  8
DATA
  6
CONTINUOUS
 62
     7
 10
62.249999999999993
 20
-103.7
 30
0.0
 11
64.249999999999957
 21
-103.7
 31
0.0
  0
LINE
  5
1C9
  8
DATA
  6
CONTINUOUS
 62
     7
 10
63.999999999999993
 20
-96.700000000000017
 30
0.0
 11
62.499999999999957
 21
-96.700000000000017
 31
0.0
  0
LINE
  5
1CA
  8
DATA
  6
CONTINUOUS
 62
     7
 10
64.249999999999957
 20
-103.7
 30
0.0
 11
63.999999999999993
 21
-101.7
 31
0.0
  0
LINE
  5
1CB
  8
DATA
  6
CONTINUOUS
 62
     7
 10
62.249999999999993
 20
-103.7
 30
0.0
 11
62.499999999999957
 21
-101.7
 31
0.0
  0
LINE
  5
1CC
  8
DATA
  6
CONTINUOUS
 62
     7
 10
63.999999999999993
 20
-101.7
 30
0.0
 11
63.999999999999993
 21
-96.700000000000017
 31
0.0
  0
LINE
  5
1CD
  8
DATA
  6
CONTINUOUS
 62
     7
 10
62.499999999999957
 20
-101.7
 30
0.0
 11
62.499999999999957
 21
-96.700000000000017
 31
0.0
  0
LINE
  5
1CE
  8
DATA
  6
CONTINUOUS
 62
     7
 10
62.5
 20
-97.756600000000034
 30
0.0
 11
63.999999999999993
 21
-97.75660000000002
 31
0.0
  0
ARC
  5
1CF
  8
DATA
  6
CONTINUOUS
 62
     7
 10
63.249999999999993
 20
-103.2
 30
0.0
 40
5.0000000000000018
 50
98.62692655867906
 51
81.373073441321338
  0
ARC
  5
1D0
  8
DATA
  6
CONTINUOUS
 62
     7
 10
63.249999999999993
 20
-103.2
 30
0.0
 40
5.9999999999999956
 50
97.180755781458572
 51
82.819244218541684
  0
LINE
  5
1D1
  8
DATA
  6
CONTINUOUS
 62
     7
 10
85.499999999999986
 20
-103.7
 30
0.0
 11
87.499999999999957
 21
-103.7
 31
0.0
  0
LINE
  5
1D2
  8
DATA
  6
CONTINUOUS
 62
     7
 10
87.249999999999986
 20
-96.700000000000017
 30
0.0
 11
85.749999999999943
 21
-96.700000000000017
 31
0.0
  0
LINE
  5
1D3
  8
DATA
  6
CONTINUOUS
 62
     7
 10
87.499999999999957
 20
-103.7
 30
0.0
 11
87.249999999999986
 21
-101.7
 31
0.0
  0
LINE
  5
1D4
  8
DATA
  6
CONTINUOUS
 62
     7
 10
85.499999999999986
 20
-103.7
 30
0.0
 11
85.749999999999943
 21
-101.7
 31
0.0
  0
LINE
  5
1D5
  8
DATA
  6
CONTINUOUS
 62
     7
 10
87.249999999999986
 20
-101.7
 30
0.0
 11
87.249999999999986
 21
-96.700000000000017
 31
0.0
  0
LINE
  5
1D6
  8
DATA
  6
CONTINUOUS
 62
     7
 10
85.749999999999943
 20
-101.7
 30
0.0
 11
85.749999999999943
 21
-96.700000000000017
 31
0.0
  0
LINE
  5
1D7
  8
DATA
  6
CONTINUOUS
 62
     7
 10
85.749999999999986
 20
-97.756600000000034
 30
0.0
 11
87.249999999999986
 21
-97.75660000000002
 31
0.0
  0
ARC
  5
1D8
  8
DATA
  6
CONTINUOUS
 62
     7
 10
86.499999999999986
 20
-103.2
 30
0.0
 40
5.0000000000000018
 50
98.62692655867906
 51
81.373073441321338
  0
ARC
  5
1D9
  8
DATA
  6
CONTINUOUS
 62
     7
 10
86.499999999999986
 20
-103.2
 30
0.0
 40
5.9999999999999956
 50
97.180755781458572
 51
82.819244218541684
  0
CIRCLE
  5
1DA
  8
DATA
  6
CONTINUOUS
 62
     7
 10
7.7499999999999867
 20
-103.2
 30
0.0
 40
0.75
  0
CIRCLE
  5
1DB
  8
DATA
  6
CONTINUOUS
 62
     7
 10
25.749999999999979
 20
-103.2
 30
0.0
 40
0.75
  0
CIRCLE
  5
1DC
  8
DATA
  6
CONTINUOUS
 62
     7
 10
12.24999999999998
 20
-110.99422863405989
 30
0.0
 40
0.7499999999999633
  0
CIRCLE
  5
1DD
  8
DATA
  6
CONTINUOUS
 62
     7
 10
21.249999999999979
 20
-95.405771365940055
 30
0.0
 40
0.7499999999999633
  0
CIRCLE
  5
1DE
  8
DATA
  6
CONTINUOUS
 62
     7
 10
21.249999999999979
 20
-110.99422863405989
 30
0.0
 40
0.7499999999999633
  0
CIRCLE
  5
1DF
  8
DATA
  6
CONTINUOUS
 62
     7
 10
12.24999999999998
 20
-95.405771365940055
 30
0.0
 40
0.7499999999999633
  0
CIRCLE
  5
1E0
  8
DATA
  6
CONTINUOUS
 62
     7
 10
16.749999999999979
 20
-103.2
 30
0.0
 40
7.0
  0
LINE
  5
1E1
  8
DATA
  6
CONTINUOUS
 62
     7
 10
17.866025403784459
 20
-103.26698729810769
 30
0.0
 11
16.133974596215559
 21
-102.26698729810769
 31
0.0
  0
LINE
  5
1E2
  8
DATA
  6
CONTINUOUS
 62
     7
 10
12.850480947161669
 20
-108.4541651245988
 30
0.0
 11
14.14951905283835
 21
-109.2041651245988
 31
0.0
  0
LINE
  5
1E3
  8
DATA
  6
CONTINUOUS
 62
     7
 10
16.133974596215559
 20
-102.26698729810769
 30
0.0
 11
15.350480947161669
 21
-104.1240381056766
 31
0.0
  0
LINE
  5
1E4
  8
DATA
  6
CONTINUOUS
 62
     7
 10
17.866025403784459
 20
-103.26698729810769
 30
0.0
 11
16.649519052838329
 21
-104.8740381056766
 31
0.0
  0
LINE
  5
1E5
  8
DATA
  6
CONTINUOUS
 62
     7
 10
15.350480947161669
 20
-104.1240381056766
 30
0.0
 11
12.850480947161669
 21
-108.4541651245988
 31
0.0
  0
LINE
  5
1E6
  8
DATA
  6
CONTINUOUS
 62
     7
 10
16.649519052838329
 20
-104.8740381056766
 30
0.0
 11
14.14951905283835
 21
-109.2041651245988
 31
0.0
  0
LINE
  5
1E7
  8
DATA
  6
CONTINUOUS
 62
     7
 10
14.677819052838331
 20
-108.2891226829601
 30
0.0
 11
13.378780947161649
 21
-107.5391226829601
 31
0.0
  0
ARC
  5
1E8
  8
DATA
  6
CONTINUOUS
 62
     7
 10
16.749999999999979
 20
-103.2
 30
0.0
 40
5.0
 50
248.62692655867801
 51
231.3730734413225
  0
ARC
  5
1E9
  8
DATA
  6
CONTINUOUS
 62
     7
 10
16.749999999999979
 20
-103.2
 30
0.0
 40
5.9999999999999947
 50
247.18075578145849
 51
232.81924421854211
  0
CIRCLE
  5
1EA
  8
DATA
  6
CONTINUOUS
 62
     7
 10
-15.500000000000011
 20
-103.2
 30
0.0
 40
0.75
  0
CIRCLE
  5
1EB
  8
DATA
  6
CONTINUOUS
 62
     7
 10
2.4999999999999849
 20
-103.2
 30
0.0
 40
0.75
  0
CIRCLE
  5
1EC
  8
DATA
  6
CONTINUOUS
 62
     7
 10
-11.000000000000011
 20
-110.99422863405989
 30
0.0
 40
0.7499999999999633
  0
CIRCLE
  5
1ED
  8
DATA
  6
CONTINUOUS
 62
     7
 10
-2.0000000000000142
 20
-95.405771365940055
 30
0.0
 40
0.7499999999999633
  0
CIRCLE
  5
1EE
  8
DATA
  6
CONTINUOUS
 62
     7
 10
-2.0000000000000142
 20
-110.99422863405989
 30
0.0
 40
0.7499999999999633
  0
CIRCLE
  5
1EF
  8
DATA
  6
CONTINUOUS
 62
     7
 10
-11.000000000000011
 20
-95.405771365940055
 30
0.0
 40
0.7499999999999633
  0
CIRCLE
  5
1F0
  8
DATA
  6
CONTINUOUS
 62
     7
 10
-6.5000000000000142
 20
-103.2
 30
0.0
 40
7.0
  0
LINE
  5
1F1
  8
DATA
  6
CONTINUOUS
 62
     7
 10
-5.3839745962155368
 20
-103.26698729810769
 30
0.0
 11
-7.116025403784433
 21
-102.26698729810769
 31
0.0
  0
LINE
  5
1F2
  8
DATA
  6
CONTINUOUS
 62
     7
 10
-10.39951905283832
 20
-108.4541651245988
 30
0.0
 11
-9.1004809471616408
 21
-109.2041651245988
 31
0.0
  0
LINE
  5
1F3
  8
DATA
  6
CONTINUOUS
 62
     7
 10
-7.116025403784433
 20
-102.26698729810769
 30
0.0
 11
-7.899519052838329
 21
-104.1240381056766
 31
0.0
  0
LINE
  5
1F4
  8
DATA
  6
CONTINUOUS
 62
     7
 10
-5.3839745962155368
 20
-103.26698729810769
 30
0.0
 11
-6.6004809471616701
 21
-104.8740381056766
 31
0.0
  0
LINE
  5
1F5
  8
DATA
  6
CONTINUOUS
 62
     7
 10
-7.899519052838329
 20
-104.1240381056766
 30
0.0
 11
-10.39951905283832
 21
-108.4541651245988
 31
0.0
  0
LINE
  5
1F6
  8
DATA
  6
CONTINUOUS
 62
     7
 10
-6.6004809471616701
 20
-104.8740381056766
 30
0.0
 11
-9.1004809471616408
 21
-109.2041651245988
 31
0.0
  0
LINE
  5
1F7
  8
DATA
  6
CONTINUOUS
 62
     7
 10
-8.5721809471616695
 20
-108.2891226829601
 30
0.0
 11
-9.8712190528383577
 21
-107.5391226829601
 31
0.0
  0
ARC
  5
1F8
  8
DATA
  6
CONTINUOUS
 62
     7
 10
-6.5000000000000142
 20
-103.2
 30
0.0
 40
5.0
 50
248.62692655867801
 51
231.3730734413225
  0
ARC
  5
1F9
  8
DATA
  6
CONTINUOUS
 62
     7
 10
-6.5000000000000142
 20
-103.2
 30
0.0
 40
6.0000000000000009
 50
247.1807557814584
 51
232.81924421854231
  0
CIRCLE
  5
1FA
  8
DATA
  6
CONTINUOUS
 62
     7
 10
-38.750000000000007
 20
-103.2
 30
0.0
 40
0.75
  0
CIRCLE
  5
1FB
  8
DATA
  6
CONTINUOUS
 62
     7
 10
-20.750000000000011
 20
-103.2
 30
0.0
 40
0.75
  0
CIRCLE
  5
1FC
  8
DATA
  6
CONTINUOUS
 62
     7
 10
-34.25
 20
-110.99422863405989
 30
0.0
 40
0.7499999999999633
  0
CIRCLE
  5
1FD
  8
DATA
  6
CONTINUOUS
 62
     7
 10
-25.250000000000011
 20
-95.405771365940055
 30
0.0
 40
0.7499999999999633
  0
CIRCLE
  5
1FE
  8
DATA
  6
CONTINUOUS
 62
     7
 10
-25.250000000000011
 20
-110.99422863405989
 30
0.0
 40
0.7499999999999633
  0
CIRCLE
  5
1FF
  8
DATA
  6
CONTINUOUS
 62
     7
 10
-34.25
 20
-95.405771365940055
 30
0.0
 40
0.7499999999999633
  0
CIRCLE
  5
200
  8
DATA
  6
CONTINUOUS
 62
     7
 10
-29.750000000000011
 20
-103.2
 30
0.0
 40
7.0
  0
LINE
  5
201
  8
DATA
  6
CONTINUOUS
 62
     7
 10
-28.633974596215531
 20
-103.26698729810769
 30
0.0
 11
-30.36602540378443
 21
-102.26698729810769
 31
0.0
  0
LINE
  5
202
  8
DATA
  6
CONTINUOUS
 62
     7
 10
-33.649519052838329
 20
-108.4541651245988
 30
0.0
 11
-32.350480947161643
 21
-109.2041651245988
 31
0.0
  0
LINE
  5
203
  8
DATA
  6
CONTINUOUS
 62
     7
 10
-30.36602540378443
 20
-102.26698729810769
 30
0.0
 11
-31.149519052838329
 21
-104.1240381056766
 31
0.0
  0
LINE
  5
204
  8
DATA
  6
CONTINUOUS
 62
     7
 10
-28.633974596215531
 20
-103.26698729810769
 30
0.0
 11
-29.850480947161671
 21
-104.8740381056766
 31
0.0
  0
LINE
  5
205
  8
DATA
  6
CONTINUOUS
 62
     7
 10
-31.149519052838329
 20
-104.1240381056766
 30
0.0
 11
-33.649519052838329
 21
-108.4541651245988
 31
0.0
  0
LINE
  5
206
  8
DATA
  6
CONTINUOUS
 62
     7
 10
-29.850480947161671
 20
-104.8740381056766
 30
0.0
 11
-32.350480947161643
 21
-109.2041651245988
 31
0.0
  0
LINE
  5
207
  8
DATA
  6
CONTINUOUS
 62
     7
 10
-31.822180947161669
 20
-108.2891226829601
 30
0.0
 11
-33.121219052838349
 21
-107.5391226829601
 31
0.0
  0
ARC
  5
208
  8
DATA
  6
CONTINUOUS
 62
     7
 10
-29.750000000000011
 20
-103.2
 30
0.0
 40
5.0
 50
248.62692655867801
 51
231.3730734413225
  0
ARC
  5
209
  8
DATA
  6
CONTINUOUS
 62
     7
 10
-29.750000000000011
 20
-103.2
 30
0.0
 40
6.0000000000000009
 50
247.1807557814584
 51
232.81924421854231
  0
CIRCLE
  5
20A
  8
DATA
  6
CONTINUOUS
 62
     7
 10
-62.000000000000021
 20
-103.2
 30
0.0
 40
0.75
  0
CIRCLE
  5
20B
  8
DATA
  6
CONTINUOUS
 62
     7
 10
-44.000000000000021
 20
-103.2
 30
0.0
 40
0.75
  0
CIRCLE
  5
20C
  8
DATA
  6
CONTINUOUS
 62
     7
 10
-57.500000000000021
 20
-110.99422863405989
 30
0.0
 40
0.7499999999999633
  0
CIRCLE
  5
20D
  8
DATA
  6
CONTINUOUS
 62
     7
 10
-48.500000000000021
 20
-95.405771365940055
 30
0.0
 40
0.7499999999999633
  0
CIRCLE
  5
20E
  8
DATA
  6
CONTINUOUS
 62
     7
 10
-48.500000000000021
 20
-110.99422863405989
 30
0.0
 40
0.7499999999999633
  0
CIRCLE
  5
20F
  8
DATA
  6
CONTINUOUS
 62
     7
 10
-57.500000000000021
 20
-95.405771365940055
 30
0.0
 40
0.7499999999999633
  0
CIRCLE
  5
210
  8
DATA
  6
CONTINUOUS
 62
     7
 10
-53.000000000000021
 20
-103.2
 30
0.0
 40
7.0
  0
LINE
  5
211
  8
DATA
  6
CONTINUOUS
 62
     7
 10
-51.883974596215552
 20
-103.26698729810769
 30
0.0
 11
-53.61602540378442
 21
-102.26698729810769
 31
0.0
  0
LINE
  5
212
  8
DATA
  6
CONTINUOUS
 62
     7
 10
-56.899519052838329
 20
-108.4541651245988
 30
0.0
 11
-55.600480947161628
 21
-109.2041651245988
 31
0.0
  0
LINE
  5
213
  8
DATA
  6
CONTINUOUS
 62
     7
 10
-53.61602540378442
 20
-102.26698729810769
 30
0.0
 11
-54.399519052838329
 21
-104.1240381056766
 31
0.0
  0
LINE
  5
214
  8
DATA
  6
CONTINUOUS
 62
     7
 10
-51.883974596215552
 20
-103.26698729810769
 30
0.0
 11
-53.100480947161671
 21
-104.8740381056766
 31
0.0
  0
LINE
  5
215
  8
DATA
  6
CONTINUOUS
 62
     7
 10
-54.399519052838329
 20
-104.1240381056766
 30
0.0
 11
-56.899519052838329
 21
-108.4541651245988
 31
0.0
  0
LINE
  5
216
  8
DATA
  6
CONTINUOUS
 62
     7
 10
-53.100480947161671
 20
-104.8740381056766
 30
0.0
 11
-55.600480947161628
 21
-109.2041651245988
 31
0.0
  0
LINE
  5
217
  8
DATA
  6
CONTINUOUS
 62
     7
 10
-55.072180947161677
 20
-108.2891226829601
 30
0.0
 11
-56.371219052838363
 21
-107.5391226829601
 31
0.0
  0
ARC
  5
218
  8
DATA
  6
CONTINUOUS
 62
     7
 10
-53.000000000000021
 20
-103.2
 30
0.0
 40
5.0
 50
248.62692655867801
 51
231.3730734413225
  0
ARC
  5
219
  8
DATA
  6
CONTINUOUS
 62
     7
 10
-53.000000000000021
 20
-103.2
 30
0.0
 40
6.0000000000000009
 50
247.1807557814584
 51
232.81924421854231
  0
LINE
  5
21A
  8
DATA
  6
CONTINUOUS
 62
     7
 10
-53.61602540378442
 20
-55.5
 30
0.0
 11
-53.61602540378442
 21
-55.0
 31
0.0
  0
LINE
  5
21B
  8
DATA
  6
CONTINUOUS
 62
     7
 10
-51.883974596215552
 20
-55.5
 30
0.0
 11
-51.883974596215552
 21
-55.0
 31
0.0
  0
LINE
  5
21C
  8
DATA
  6
CONTINUOUS
 62
     7
 10
-56.371219052838363
 20
-55.5
 30
0.0
 11
-56.371219052838363
 21
-55.0
 31
0.0
  0
LINE
  5
21D
  8
DATA
  6
CONTINUOUS
 62
     7
 10
-56.899519052838329
 20
-55.5
 30
0.0
 11
-56.899519052838329
 21
-55.0
 31
0.0
  0
LINE
  5
21E
  8
DATA
  6
CONTINUOUS
 62
     7
 10
-28.633974596215531
 20
-55.5
 30
0.0
 11
-33.649519052838329
 21
-55.5
 31
0.0
  0
LINE
  5
21F
  8
DATA
  6
CONTINUOUS
 62
     7
 10
-30.36602540378443
 20
-55.5
 30
0.0
 11
-30.36602540378443
 21
-55.0
 31
0.0
  0
LINE
  5
220
  8
DATA
  6
CONTINUOUS
 62
     7
 10
-28.633974596215531
 20
-55.5
 30
0.0
 11
-28.633974596215531
 21
-55.0
 31
0.0
  0
LINE
  5
221
  8
DATA
  6
CONTINUOUS
 62
     7
 10
-33.121219052838349
 20
-55.5
 30
0.0
 11
-33.121219052838349
 21
-55.0
 31
0.0
  0
LINE
  5
222
  8
DATA
  6
CONTINUOUS
 62
     7
 10
-33.649519052838329
 20
-55.5
 30
0.0
 11
-33.649519052838329
 21
-55.0
 31
0.0
  0
LINE
  5
223
  8
DATA
  6
CONTINUOUS
 62
     7
 10
-5.3839745962155368
 20
-55.5
 30
0.0
 11
-10.39951905283832
 21
-55.5
 31
0.0
  0
LINE
  5
224
  8
DATA
  6
CONTINUOUS
 62
     7
 10
-7.116025403784433
 20
-55.5
 30
0.0
 11
-7.116025403784433
 21
-55.0
 31
0.0
  0
LINE
  5
225
  8
DATA
  6
CONTINUOUS
 62
     7
 10
-5.3839745962155368
 20
-55.5
 30
0.0
 11
-5.3839745962155368
 21
-55.0
 31
0.0
  0
LINE
  5
226
  8
DATA
  6
CONTINUOUS
 62
     7
 10
-9.8712190528383577
 20
-55.5
 30
0.0
 11
-9.8712190528383577
 21
-55.0
 31
0.0
  0
LINE
  5
227
  8
DATA
  6
CONTINUOUS
 62
     7
 10
-10.39951905283832
 20
-55.5
 30
0.0
 11
-10.39951905283832
 21
-55.0
 31
0.0
  0
LINE
  5
228
  8
DATA
  6
CONTINUOUS
 62
     7
 10
17.866025403784459
 20
-55.5
 30
0.0
 11
12.850480947161669
 21
-55.5
 31
0.0
  0
LINE
  5
229
  8
DATA
  6
CONTINUOUS
 62
     7
 10
16.133974596215559
 20
-55.5
 30
0.0
 11
16.133974596215559
 21
-55.0
 31
0.0
  0
LINE
  5
22A
  8
DATA
  6
CONTINUOUS
 62
     7
 10
17.866025403784459
 20
-55.5
 30
0.0
 11
17.866025403784459
 21
-55.0
 31
0.0
  0
LINE
  5
22B
  8
DATA
  6
CONTINUOUS
 62
     7
 10
13.378780947161641
 20
-55.5
 30
0.0
 11
13.378780947161641
 21
-55.0
 31
0.0
  0
LINE
  5
22C
  8
DATA
  6
CONTINUOUS
 62
     7
 10
12.850480947161669
 20
-55.5
 30
0.0
 11
12.850480947161669
 21
-55.0
 31
0.0
  0
LINE
  5
22D
  8
DATA
  6
CONTINUOUS
 62
     7
 10
41.116025403784469
 20
-55.5
 30
0.0
 11
36.100480947161671
 21
-55.5
 31
0.0
  0
LINE
  5
22E
  8
DATA
  6
CONTINUOUS
 62
     7
 10
39.383974596215573
 20
-55.5
 30
0.0
 11
39.383974596215573
 21
-55.0
 31
0.0
  0
LINE
  5
22F
  8
DATA
  6
CONTINUOUS
 62
     7
 10
41.116025403784469
 20
-55.5
 30
0.0
 11
41.116025403784469
 21
-55.0
 31
0.0
  0
LINE
  5
230
  8
DATA
  6
CONTINUOUS
 62
     7
 10
36.628780947161651
 20
-55.5
 30
0.0
 11
36.628780947161651
 21
-55.0
 31
0.0
  0
LINE
  5
231
  8
DATA
  6
CONTINUOUS
 62
     7
 10
36.100480947161671
 20
-55.5
 30
0.0
 11
36.100480947161671
 21
-55.0
 31
0.0
  0
LINE
  5
232
  8
DATA
  6
CONTINUOUS
 62
     7
 10
62.249999999999993
 20
-55.5
 30
0.0
 11
62.249999999999993
 21
-55.000000000000199
 31
0.0
  0
LINE
  5
233
  8
DATA
  6
CONTINUOUS
 62
     7
 10
63.999999999999993
 20
-55.5
 30
0.0
 11
63.999999999999993
 21
-55.0
 31
0.0
  0
LINE
  5
234
  8
DATA
  6
CONTINUOUS
 62
     7
 10
62.499999999999957
 20
-55.5
 30
0.0
 11
62.499999999999957
 21
-55.0
 31
0.0
  0
LINE
  5
235
  8
DATA
  6
CONTINUOUS
 62
     7
 10
64.249999999999957
 20
-55.0
 30
0.0
 11
64.249999999999957
 21
-55.5
 31
0.0
  0
LINE
  5
236
  8
DATA
  6
CONTINUOUS
 62
     7
 10
87.499999999999957
 20
-55.5
 30
0.0
 11
85.499999999999986
 21
-55.5
 31
0.0
  0
LINE
  5
237
  8
DATA
  6
CONTINUOUS
 62
     7
 10
85.499999999999986
 20
-55.5
 30
0.0
 11
85.499999999999986
 21
-55.000000000000199
 31
0.0
  0
LINE
  5
238
  8
DATA
  6
CONTINUOUS
 62
     7
 10
87.249999999999986
 20
-55.5
 30
0.0
 11
87.249999999999986
 21
-55.0
 31
0.0
  0
LINE
  5
239
  8
DATA
  6
CONTINUOUS
 62
     7
 10
85.749999999999943
 20
-55.5
 30
0.0
 11
85.749999999999943
 21
-55.0
 31
0.0
  0
LINE
  5
23A
  8
DATA
  6
CONTINUOUS
 62
     7
 10
87.499999999999957
 20
-55.0
 30
0.0
 11
87.499999999999957
 21
-55.5
 31
0.0
  0
LINE
  5
23B
  8
DATA
  6
CONTINUOUS
 62
     7
 10
114.7499999999994
 20
-55.0
 30
0.0
 11
115.7499999999996
 21
-40.0
 31
0.0
  0
LINE
  5
23C
  8
DATA
  6
CONTINUOUS
 62
     7
 10
103.7500000000003
 20
-40.0
 30
0.0
 11
104.7500000000005
 21
-55.0
 31
0.0
  0
LINE
  5
23D
  8
DATA
  6
CONTINUOUS
 62
     7
 10
114.7499999999994
 20
-55.0
 30
0.0
 11
104.7500000000005
 21
-55.0
 31
0.0
  0
LINE
  5
23E
  8
DATA
  6
CONTINUOUS
 62
     7
 10
115.7499999999996
 20
-40.0
 30
0.0
 11
103.7500000000003
 21
-40.0
 31
0.0
  0
LINE
  5
23F
  8
DATA
  6
CONTINUOUS
 62
     7
 10
102.75
 20
-38.0
 30
0.0
 11
102.75
 21
-37.5
 31
0.0
  0
LINE
  5
240
  8
DATA
  6
CONTINUOUS
 62
     7
 10
116.7499999999999
 20
-38.0
 30
0.0
 11
116.7499999999999
 21
-37.5
 31
0.0
  0
LINE
  5
241
  8
DATA
  6
CONTINUOUS
 62
     7
 10
116.7499999999999
 20
-38.0
 30
0.0
 11
102.75
 21
-38.0
 31
0.0
  0
LINE
  5
242
  8
DATA
  6
CONTINUOUS
 62
     7
 10
108.7081109339984
 20
-38.0
 30
0.0
 11
108.7081109339984
 21
-39.800000000000011
 31
0.0
  0
LINE
  5
243
  8
DATA
  6
CONTINUOUS
 62
     7
 10
104.1118442752845
 20
-38.0
 30
0.0
 11
104.1118442752845
 21
-39.800000000000011
 31
0.0
  0
LINE
  5
244
  8
DATA
  6
CONTINUOUS
 62
     7
 10
114.3462666587138
 20
-39.800000000000011
 30
0.0
 11
114.3462666587138
 21
-38.0
 31
0.0
  0
LINE
  5
245
  8
DATA
  6
CONTINUOUS
 62
     7
 10
103.7500000000003
 20
-39.800000000000011
 30
0.0
 11
103.7500000000003
 21
-38.0
 31
0.0
  0
LINE
  5
246
  8
DATA
  6
CONTINUOUS
 62
     7
 10
115.7499999999996
 20
-39.800000000000011
 30
0.0
 11
115.7499999999996
 21
-38.0
 31
0.0
  0
LINE
  5
247
  8
DATA
  6
CONTINUOUS
 62
     7
 10
103.7500000000003
 20
-39.800000000000011
 30
0.0
 11
115.7499999999996
 21
-39.800000000000011
 31
0.0
  0
LINE
  5
248
  8
DATA
  6
CONTINUOUS
 62
     7
 10
105.75
 20
-39.800000000000011
 30
0.0
 11
105.75
 21
-40.0
 31
0.0
  0
LINE
  5
249
  8
DATA
  6
CONTINUOUS
 62
     7
 10
113.7499999999999
 20
-39.800000000000011
 30
0.0
 11
113.7499999999999
 21
-40.0
 31
0.0
  0
LINE
  5
24A
  8
DATA
  6
CONTINUOUS
 62
     7
 10
110.86602540378441
 20
-55.5
 30
0.0
 11
105.8504809471616
 21
-55.5
 31
0.0
  0
LINE
  5
24B
  8
DATA
  6
CONTINUOUS
 62
     7
 10
109.1339745962155
 20
-55.5
 30
0.0
 11
109.1339745962155
 21
-55.0
 31
0.0
  0
LINE
  5
24C
  8
DATA
  6
CONTINUOUS
 62
     7
 10
110.86602540378441
 20
-55.5
 30
0.0
 11
110.86602540378441
 21
-55.0
 31
0.0
  0
LINE
  5
24D
  8
DATA
  6
CONTINUOUS
 62
     7
 10
106.3787809471616
 20
-55.5
 30
0.0
 11
106.3787809471616
 21
-55.0
 31
0.0
  0
LINE
  5
24E
  8
DATA
  6
CONTINUOUS
 62
     7
 10
105.8504809471616
 20
-55.5
 30
0.0
 11
105.8504809471616
 21
-55.0
 31
0.0
  0
LINE
  5
24F
  8
DATA
  6
CONTINUOUS
 62
     7
 10
157.0
 20
-102.26698729810769
 30
0.0
 11
157.5
 21
-102.26698729810769
 31
0.0
  0
LINE
  5
250
  8
DATA
  6
CONTINUOUS
 62
     7
 10
157.0
 20
-103.26698729810769
 30
0.0
 11
157.5
 21
-103.26698729810769
 31
0.0
  0
LINE
  5
251
  8
DATA
  6
CONTINUOUS
 62
     7
 10
309.79999999999978
 20
-122.59999999999999
 30
0.0
 11
176.59999999999999
 21
-122.59999999999999
 31
0.0
  0
LINE
  5
252
  8
DATA
  6
CONTINUOUS
 62
     7
 10
176.59999999999999
 20
-83.600000000000023
 30
0.0
 11
309.79999999999978
 21
-83.600000000000023
 31
0.0
  0
LINE
  5
253
  8
DATA
  6
CONTINUOUS
 62
     7
 10
176.59999999999999
 20
-125.0
 30
0.0
 11
176.59999999999999
 21
-81.200000000000003
 31
0.0
  0
LINE
  5
254
  8
DATA
  6
CONTINUOUS
 62
     7
 10
309.79999999999978
 20
-81.200000000000003
 30
0.0
 11
309.79999999999978
 21
-125.0
 31
0.0
  0
POLYLINE
  5
255
  8
DATA
  6
CONTINUOUS
 62
     7
 66
     1
 10
0.0
 20
0.0
 30
0.0
 70
     1
  0
VERTEX
  5
450
  8
DATA
  6
CONTINUOUS
 62
     7
 10
-75.000000000000014
 20
168.80000000000001
 30
0.0
  0
VERTEX
  5
451
  8
DATA
  6
CONTINUOUS
 62
     7
 10
144.5
 20
168.80000000000001
 30
0.0
  0
VERTEX
  5
452
  8
DATA
  6
CONTINUOUS
 62
     7
 10
144.5
 20
125.0
 30
0.0
  0
VERTEX
  5
453
  8
DATA
  6
CONTINUOUS
 62
     7
 10
-75.000000000000014
 20
125.0
 30
0.0
  0
SEQEND
  5
454
  8
DATA
  6
CONTINUOUS
 62
     7
  0
CIRCLE
  5
25B
  8
DATA
  6
CONTINUOUS
 62
     7
 10
-69.750000000000014
 20
160.89999999999989
 30
0.0
 40
3.5
  0
LINE
  5
25C
  8
DATA
  6
CONTINUOUS
 62
     7
 10
-71.500000000000014
 20
160.89999999999989
 30
0.0
 11
-68.000000000000014
 21
160.89999999999989
 31
0.0
  0
LINE
  5
25D
  8
DATA
  6
CONTINUOUS
 62
     7
 10
-69.750000000000014
 20
159.14999999999989
 30
0.0
 11
-69.750000000000014
 21
162.64999999999989
 31
0.0
  0
CIRCLE
  5
25E
  8
DATA
  6
CONTINUOUS
 62
     7
 10
-69.750000000000014
 20
132.89999999999989
 30
0.0
 40
3.5
  0
LINE
  5
25F
  8
DATA
  6
CONTINUOUS
 62
     7
 10
-71.500000000000014
 20
132.89999999999989
 30
0.0
 11
-68.000000000000014
 21
132.89999999999989
 31
0.0
  0
LINE
  5
260
  8
DATA
  6
CONTINUOUS
 62
     7
 10
-69.750000000000014
 20
131.14999999999989
 30
0.0
 11
-69.750000000000014
 21
134.64999999999989
 31
0.0
  0
CIRCLE
  5
261
  8
DATA
  6
CONTINUOUS
 62
     7
 10
139.25
 20
160.89999999999989
 30
0.0
 40
3.5
  0
LINE
  5
262
  8
DATA
  6
CONTINUOUS
 62
     7
 10
137.5
 20
160.89999999999989
 30
0.0
 11
141.0
 21
160.89999999999989
 31
0.0
  0
LINE
  5
263
  8
DATA
  6
CONTINUOUS
 62
     7
 10
139.25
 20
159.14999999999989
 30
0.0
 11
139.25
 21
162.64999999999989
 31
0.0
  0
CIRCLE
  5
264
  8
DATA
  6
CONTINUOUS
 62
     7
 10
139.25
 20
132.89999999999989
 30
0.0
 40
3.5
  0
LINE
  5
265
  8
DATA
  6
CONTINUOUS
 62
     7
 10
137.5
 20
132.89999999999989
 30
0.0
 11
141.0
 21
132.89999999999989
 31
0.0
  0
LINE
  5
266
  8
DATA
  6
CONTINUOUS
 62
     7
 10
139.25
 20
131.14999999999989
 30
0.0
 11
139.25
 21
134.64999999999989
 31
0.0
  0
CIRCLE
  5
267
  8
DATA
  6
CONTINUOUS
 62
     7
 10
-52.000000000000021
 20
146.0
 30
0.0
 40
9.75
  0
ARC
  5
268
  8
DATA
  6
CONTINUOUS
 62
     7
 10
-52.000000000000021
 20
146.0
 30
0.0
 40
8.0000000000000036
 50
318.58156931865801
 51
311.41843068134199
  0
CIRCLE
  5
269
  8
DATA
  6
CONTINUOUS
 62
     7
 10
-56.000000000000021
 20
146.0
 30
0.0
 40
1.5
  0
CIRCLE
  5
26A
  8
DATA
  6
CONTINUOUS
 62
     7
 10
-48.000000000000021
 20
146.0
 30
0.0
 40
1.5
  0
CIRCLE
  5
26B
  8
DATA
  6
CONTINUOUS
 62
     7
 10
-52.000000000000021
 20
150.0
 30
0.0
 40
1.5
  0
ARC
  5
26C
  8
DATA
  6
CONTINUOUS
 62
     7
 10
-46.343145750507652
 20
140.3431457505076
 30
0.0
 40
0.5000000000000126
 50
223.20921534065809
 51
46.790784659352809
  0
LINE
  5
26D
  8
DATA
  6
CONTINUOUS
 62
     7
 10
-56.431818181818507
 20
137.31544545740451
 30
0.0
 11
-57.000000000000021
 21
136.20204102886731
 31
0.0
  0
LINE
  5
26E
  8
DATA
  6
CONTINUOUS
 62
     7
 10
-47.000000000000007
 20
136.20204102886731
 30
0.0
 11
-47.568181818181067
 21
137.31544545740351
 31
0.0
  0
ARC
  5
26F
  8
DATA
  6
CONTINUOUS
 62
     7
 10
-54.508647280195781
 20
133.0805479755324
 30
0.0
 40
2.8976153051289488
 50
236.81132047636771
 51
244.44172003434011
  0
ARC
  5
270
  8
DATA
  6
CONTINUOUS
 62
     7
 10
-53.077265752572217
 20
135.81414282903319
 30
0.0
 40
5.9823067585417791
 50
243.3693136576444
 51
256.24187190059968
  0
ARC
  5
271
  8
DATA
  6
CONTINUOUS
 62
     7
 10
-52.104474255714102
 20
139.3532891195205
 30
0.0
 40
9.6518135382654915
 50
255.62931022867261
 51
270.62019959189058
  0
ARC
  5
272
  8
DATA
  6
CONTINUOUS
 62
     7
 10
-49.491352719804262
 20
133.0805479755324
 30
0.0
 40
2.8976153051289519
 50
295.55827996565978
 51
303.18867952363217
  0
ARC
  5
273
  8
DATA
  6
CONTINUOUS
 62
     7
 10
-50.922734247427812
 20
135.81414282903319
 30
0.0
 40
5.9823067585417826
 50
283.7581280994001
 51
296.63068634235538
  0
ARC
  5
274
  8
DATA
  6
CONTINUOUS
 62
     7
 10
-51.895525744285919
 20
139.3532891195205
 30
0.0
 40
9.6518135382655075
 50
269.37980040810942
 51
284.37068977132742
  0
ARC
  5
275
  8
DATA
  6
CONTINUOUS
 62
     7
 10
-55.000000000000028
 20
132.32935842505751
 30
0.0
 40
1.9999999999999709
 50
180.0
 51
236.81132047636839
  0
ARC
  5
276
  8
DATA
  6
CONTINUOUS
 62
     7
 10
-48.999999999999993
 20
132.32935842505751
 30
0.0
 40
1.99999999999998
 50
303.18867952363172
 51
0.0
  0
CIRCLE
  5
277
  8
DATA
  6
CONTINUOUS
 62
     7
 10
-28.500000000000011
 20
146.0
 30
0.0
 40
9.75
  0
ARC
  5
278
  8
DATA
  6
CONTINUOUS
 62
     7
 10
-28.500000000000011
 20
146.0
 30
0.0
 40
8.0000000000000036
 50
318.58156931865801
 51
311.41843068134199
  0
CIRCLE
  5
279
  8
DATA
  6
CONTINUOUS
 62
     7
 10
-32.5
 20
146.0
 30
0.0
 40
1.5
  0
CIRCLE
  5
27A
  8
DATA
  6
CONTINUOUS
 62
     7
 10
-24.500000000000011
 20
146.0
 30
0.0
 40
1.5
  0
CIRCLE
  5
27B
  8
DATA
  6
CONTINUOUS
 62
     7
 10
-28.500000000000011
 20
150.0
 30
0.0
 40
1.5
  0
ARC
  5
27C
  8
DATA
  6
CONTINUOUS
 62
     7
 10
-22.843145750507642
 20
140.3431457505076
 30
0.0
 40
0.5000000000000126
 50
223.20921534065809
 51
46.790784659352809
  0
LINE
  5
27D
  8
DATA
  6
CONTINUOUS
 62
     7
 10
-61.500000000000021
 20
156.49999999999989
 30
0.0
 11
-61.500000000000021
 21
159.49999999999989
 31
0.0
  0
LINE
  5
27E
  8
DATA
  6
CONTINUOUS
 62
     7
 10
-63.000000000000021
 20
158.0
 30
0.0
 11
-60.000000000000021
 21
158.0
 31
0.0
  0
CIRCLE
  5
27F
  8
DATA
  6
CONTINUOUS
 62
     7
 10
-61.500000000000021
 20
158.0
 30
0.0
 40
3.0
  0
LINE
  5
280
  8
DATA
  6
CONTINUOUS
 62
     7
 10
-42.500000000000007
 20
132.49999999999989
 30
0.0
 11
-42.500000000000007
 21
135.49999999999989
 31
0.0
  0
LINE
  5
281
  8
DATA
  6
CONTINUOUS
 62
     7
 10
-44.000000000000021
 20
134.0
 30
0.0
 11
-41.000000000000007
 21
134.0
 31
0.0
  0
CIRCLE
  5
282
  8
DATA
  6
CONTINUOUS
 62
     7
 10
-42.500000000000007
 20
134.0
 30
0.0
 40
3.0
  0
LINE
  5
283
  8
DATA
  6
CONTINUOUS
 62
     7
 10
-38.000000000000007
 20
156.49999999999989
 30
0.0
 11
-38.000000000000007
 21
159.49999999999989
 31
0.0
  0
LINE
  5
284
  8
DATA
  6
CONTINUOUS
 62
     7
 10
-39.500000000000007
 20
158.0
 30
0.0
 11
-36.500000000000007
 21
158.0
 31
0.0
  0
CIRCLE
  5
285
  8
DATA
  6
CONTINUOUS
 62
     7
 10
-38.000000000000007
 20
158.0
 30
0.0
 40
3.0
  0
LINE
  5
286
  8
DATA
  6
CONTINUOUS
 62
     7
 10
-19.000000000000011
 20
132.49999999999989
 30
0.0
 11
-19.000000000000011
 21
135.49999999999989
 31
0.0
  0
LINE
  5
287
  8
DATA
  6
CONTINUOUS
 62
     7
 10
-20.500000000000011
 20
134.0
 30
0.0
 11
-17.500000000000011
 21
134.0
 31
0.0
  0
CIRCLE
  5
288
  8
DATA
  6
CONTINUOUS
 62
     7
 10
-19.000000000000011
 20
134.0
 30
0.0
 40
3.0
  0
CIRCLE
  5
289
  8
DATA
  6
CONTINUOUS
 62
     7
 10
-9.5000000000000142
 20
152.30000000000001
 30
0.0
 40
4.5
  0
CIRCLE
  5
28A
  8
DATA
  6
CONTINUOUS
 62
     7
 10
-9.5000000000000142
 20
152.30000000000001
 30
0.0
 40
3.0
  0
CIRCLE
  5
28B
  8
DATA
  6
CONTINUOUS
 62
     7
 10
-9.5000000000000142
 20
152.30000000000001
 30
0.0
 40
7.0
  0
LINE
  5
28C
  8
DATA
  6
CONTINUOUS
 62
     7
 10
-9.5000000000000142
 20
158.55000000000001
 30
0.0
 11
-14.912658773652749
 21
155.42500000000001
 31
0.0
  0
LINE
  5
28D
  8
DATA
  6
CONTINUOUS
 62
     7
 10
-4.0873412263472764
 20
155.42500000000001
 30
0.0
 11
-9.5000000000000142
 21
158.55000000000001
 31
0.0
  0
LINE
  5
28E
  8
DATA
  6
CONTINUOUS
 62
     7
 10
-4.0873412263472764
 20
149.17500000000001
 30
0.0
 11
-4.0873412263472764
 21
155.42500000000001
 31
0.0
  0
LINE
  5
28F
  8
DATA
  6
CONTINUOUS
 62
     7
 10
-9.5000000000000142
 20
146.05000000000001
 30
0.0
 11
-4.0873412263472764
 21
149.17500000000001
 31
0.0
  0
LINE
  5
290
  8
DATA
  6
CONTINUOUS
 62
     7
 10
-14.912658773652749
 20
149.17500000000001
 30
0.0
 11
-9.5000000000000142
 21
146.05000000000001
 31
0.0
  0
LINE
  5
291
  8
DATA
  6
CONTINUOUS
 62
     7
 10
-14.912658773652749
 20
155.42500000000001
 30
0.0
 11
-14.912658773652749
 21
149.17500000000001
 31
0.0
  0
TEXT
  5
292
  8
DATA
 62
     7
 10
-29.6666666666667
 20
128.8866666666666
 30
0.0
 40
3.3866666666666658
  1
MIC INPUTS
 50
180.0
 41
0.85
 11
-29.6666666666667
 21
125.5
 31
0.0
 73
     3
  0
TEXT
  5
293
  8
DATA
 62
     7
 10
-34.350621800168732
 20
133.18903306029571
 30
0.0
 40
2.54
  1
2
 50
180.0
 41
0.85
 11
-34.350621800168732
 21
130.64903306029569
 31
0.0
 73
     3
  0
TEXT
  5
294
  8
DATA
 62
     7
 10
-57.850621800168717
 20
133.18903306029571
 30
0.0
 40
2.54
  1
1
 50
180.0
 41
0.85
 11
-57.850621800168717
 21
130.64903306029569
 31
0.0
 73
     3
  0
LINE
  5
295
  8
DATA
  6
CONTINUOUS
 62
     7
 10
-28.500000000000011
 20
157.0
 30
0.0
 11
-28.500000000000011
 21
162.80000000000001
 31
0.0
  0
LINE
  5
296
  8
DATA
  6
CONTINUOUS
 62
     7
 10
-9.5000000000000142
 20
159.30000000000001
 30
0.0
 11
-9.5000000000000142
 21
162.80000000000001
 31
0.0
  0
LINE
  5
297
  8
DATA
  6
CONTINUOUS
 62
     7
 10
-10.500000000000011
 20
163.80000000000001
 30
0.0
 11
-27.500000000000011
 21
163.80000000000001
 31
0.0
  0
ARC
  5
298
  8
DATA
  6
CONTINUOUS
 62
     7
 10
-10.500000000000011
 20
162.80000000000001
 30
0.0
 40
1.0
 50
0.0
 51
90.0
  0
ARC
  5
299
  8
DATA
  6
CONTINUOUS
 62
     7
 10
-27.500000000000011
 20
162.80000000000001
 30
0.0
 40
1.0
 50
90.0
 51
180.0
  0
TEXT
  5
29A
  8
DATA
 62
     7
 10
-3.9437500000000361
 20
139.66499999999991
 30
0.0
 40
2.54
  1
LINE IN
 50
180.0
 41
0.85
 11
-3.9437500000000361
 21
137.125
 31
0.0
 73
     3
  0
TEXT
  5
29B
  8
DATA
 62
     7
 10
-8.7062500000000256
 20
143.66499999999999
 30
0.0
 40
2.54
  1
2
 50
180.0
 41
0.85
 11
-8.7062500000000256
 21
141.125
 31
0.0
 73
     3
  0
CIRCLE
  5
29C
  8
DATA
  6
CONTINUOUS
 62
     7
 10
6.4999999999999849
 20
151.80000000000001
 30
0.0
 40
4.25
  0
CIRCLE
  5
29D
  8
DATA
  6
CONTINUOUS
 62
     7
 10
6.4999999999999849
 20
151.80000000000001
 30
0.0
 40
1.75
  0
CIRCLE
  5
29E
  8
DATA
  6
CONTINUOUS
 62
     7
 10
33.999999999999979
 20
151.80000000000001
 30
0.0
 40
4.25
  0
CIRCLE
  5
29F
  8
DATA
  6
CONTINUOUS
 62
     7
 10
33.999999999999979
 20
151.80000000000001
 30
0.0
 40
1.75
  0
CIRCLE
  5
2A0
  8
DATA
  6
CONTINUOUS
 62
     7
 10
6.4999999999999849
 20
137.80000000000001
 30
0.0
 40
4.25
  0
CIRCLE
  5
2A1
  8
DATA
  6
CONTINUOUS
 62
     7
 10
6.4999999999999849
 20
137.80000000000001
 30
0.0
 40
1.75
  0
CIRCLE
  5
2A2
  8
DATA
  6
CONTINUOUS
 62
     7
 10
33.999999999999979
 20
137.80000000000001
 30
0.0
 40
4.25
  0
CIRCLE
  5
2A3
  8
DATA
  6
CONTINUOUS
 62
     7
 10
33.999999999999979
 20
137.80000000000001
 30
0.0
 40
1.75
  0
CIRCLE
  5
2A4
  8
DATA
  6
CONTINUOUS
 62
     7
 10
13.37499999999998
 20
144.80000000000001
 30
0.0
 40
2.5
  0
LINE
  5
2A5
  8
DATA
  6
CONTINUOUS
 62
     7
 10
12.12499999999998
 20
144.80000000000001
 30
0.0
 11
14.62499999999998
 21
144.80000000000001
 31
0.0
  0
CIRCLE
  5
2A6
  8
DATA
  6
CONTINUOUS
 62
     7
 10
27.124999999999979
 20
144.80000000000001
 30
0.0
 40
2.5
  0
LINE
  5
2A7
  8
DATA
  6
CONTINUOUS
 62
     7
 10
25.874999999999979
 20
144.80000000000001
 30
0.0
 11
28.374999999999979
 21
144.80000000000001
 31
0.0
  0
LINE
  5
2A8
  8
DATA
  6
CONTINUOUS
 62
     7
 10
27.124999999999979
 20
143.55000000000001
 30
0.0
 11
27.124999999999979
 21
146.05000000000001
 31
0.0
  0
TEXT
  5
2A9
  8
DATA
 62
     7
 10
7.2937499999999869
 20
132.41499999999991
 30
0.0
 40
2.54
  1
1
 50
180.0
 41
0.85
 11
7.293749999999986
 21
129.875
 31
0.0
 73
     3
  0
TEXT
  5
2AA
  8
DATA
 62
     7
 10
34.793749999999989
 20
132.41499999999991
 30
0.0
 40
2.54
  1
3
 50
180.0
 41
0.85
 11
34.793749999999989
 21
129.875
 31
0.0
 73
     3
  0
TEXT
  5
2AB
  8
DATA
 62
     7
 10
13.36932749610866
 20
140.33999999999989
 30
0.0
 40
2.54
  1
L
 50
180.0
 41
0.85
 11
13.36932749610866
 21
137.80000000000001
 31
0.0
 73
     3
  0
TEXT
  5
2AC
  8
DATA
 62
     7
 10
13.36932749610866
 20
154.34
 30
0.0
 40
2.54
  1
R
 50
180.0
 41
0.85
 11
13.36932749610866
 21
151.80000000000001
 31
0.0
 73
     3
  0
TEXT
  5
2AD
  8
DATA
 62
     7
 10
40.543749999999989
 20
140.33999999999989
 30
0.0
 40
2.54
  1
L
 50
180.0
 41
0.85
 11
40.543749999999989
 21
137.80000000000001
 31
0.0
 73
     3
  0
TEXT
  5
2AE
  8
DATA
 62
     7
 10
40.543749999999989
 20
154.34
 30
0.0
 40
2.54
  1
R
 50
180.0
 41
0.85
 11
40.543749999999989
 21
151.80000000000001
 31
0.0
 73
     3
  0
POLYLINE
  5
2AF
  8
DATA
  6
CONTINUOUS
 62
     7
 66
     1
 10
0.0
 20
0.0
 30
0.0
 70
     1
  0
VERTEX
  5
455
  8
DATA
  6
CONTINUOUS
 62
     7
 10
41.999999999999993
 20
155.30000000000001
 30
0.0
  0
VERTEX
  5
456
  8
DATA
  6
CONTINUOUS
 62
     7
 10
62.999999999999993
 20
155.30000000000001
 30
0.0
  0
VERTEX
  5
457
  8
DATA
  6
CONTINUOUS
 62
     7
 10
62.999999999999993
 20
149.80000000000001
 30
0.0
  0
VERTEX
  5
458
  8
DATA
  6
CONTINUOUS
 62
     7
 10
41.999999999999993
 20
149.80000000000001
 30
0.0
  0
SEQEND
  5
459
  8
DATA
  6
CONTINUOUS
 62
     7
  0
POLYLINE
  5
2B5
  8
DATA
  6
CONTINUOUS
 62
     7
 66
     1
 10
0.0
 20
0.0
 30
0.0
 70
     1
  0
VERTEX
  5
45A
  8
DATA
  6
CONTINUOUS
 62
     7
 10
43.999999999999993
 20
154.05000000000001
 30
0.0
  0
VERTEX
  5
45B
  8
DATA
  6
CONTINUOUS
 62
     7
 10
45.999999999999993
 20
154.05000000000001
 30
0.0
  0
VERTEX
  5
45C
  8
DATA
  6
CONTINUOUS
 62
     7
 10
45.999999999999993
 20
151.05000000000001
 30
0.0
  0
VERTEX
  5
45D
  8
DATA
  6
CONTINUOUS
 62
     7
 10
43.999999999999993
 20
151.05000000000001
 30
0.0
  0
SEQEND
  5
45E
  8
DATA
  6
CONTINUOUS
 62
     7
  0
POLYLINE
  5
2BB
  8
DATA
  6
CONTINUOUS
 62
     7
 66
     1
 10
0.0
 20
0.0
 30
0.0
 70
     1
  0
VERTEX
  5
45F
  8
DATA
  6
CONTINUOUS
 62
     7
 10
46.499999999999993
 20
154.05000000000001
 30
0.0
  0
VERTEX
  5
460
  8
DATA
  6
CONTINUOUS
 62
     7
 10
48.499999999999993
 20
154.05000000000001
 30
0.0
  0
VERTEX
  5
461
  8
DATA
  6
CONTINUOUS
 62
     7
 10
48.499999999999993
 20
151.05000000000001
 30
0.0
  0
VERTEX
  5
462
  8
DATA
  6
CONTINUOUS
 62
     7
 10
46.499999999999993
 20
151.05000000000001
 30
0.0
  0
SEQEND
  5
463
  8
DATA
  6
CONTINUOUS
 62
     7
  0
POLYLINE
  5
2C1
  8
DATA
  6
CONTINUOUS
 62
     7
 66
     1
 10
0.0
 20
0.0
 30
0.0
 70
     1
  0
VERTEX
  5
464
  8
DATA
  6
CONTINUOUS
 62
     7
 10
48.999999999999993
 20
154.05000000000001
 30
0.0
  0
VERTEX
  5
465
  8
DATA
  6
CONTINUOUS
 62
     7
 10
50.999999999999993
 20
154.05000000000001
 30
0.0
  0
VERTEX
  5
466
  8
DATA
  6
CONTINUOUS
 62
     7
 10
50.999999999999993
 20
151.05000000000001
 30
0.0
  0
VERTEX
  5
467
  8
DATA
  6
CONTINUOUS
 62
     7
 10
48.999999999999993
 20
151.05000000000001
 30
0.0
  0
SEQEND
  5
468
  8
DATA
  6
CONTINUOUS
 62
     7
  0
POLYLINE
  5
2C7
  8
DATA
  6
CONTINUOUS
 62
     7
 66
     1
 10
0.0
 20
0.0
 30
0.0
 70
     1
  0
VERTEX
  5
469
  8
DATA
  6
CONTINUOUS
 62
     7
 10
51.499999999999993
 20
154.05000000000001
 30
0.0
  0
VERTEX
  5
46A
  8
DATA
  6
CONTINUOUS
 62
     7
 10
53.499999999999993
 20
154.05000000000001
 30
0.0
  0
VERTEX
  5
46B
  8
DATA
  6
CONTINUOUS
 62
     7
 10
53.499999999999993
 20
151.05000000000001
 30
0.0
  0
VERTEX
  5
46C
  8
DATA
  6
CONTINUOUS
 62
     7
 10
51.499999999999993
 20
151.05000000000001
 30
0.0
  0
SEQEND
  5
46D
  8
DATA
  6
CONTINUOUS
 62
     7
  0
POLYLINE
  5
2CD
  8
DATA
  6
CONTINUOUS
 62
     7
 66
     1
 10
0.0
 20
0.0
 30
0.0
 70
     1
  0
VERTEX
  5
46E
  8
DATA
  6
CONTINUOUS
 62
     7
 10
53.999999999999993
 20
154.05000000000001
 30
0.0
  0
VERTEX
  5
46F
  8
DATA
  6
CONTINUOUS
 62
     7
 10
55.999999999999993
 20
154.05000000000001
 30
0.0
  0
VERTEX
  5
470
  8
DATA
  6
CONTINUOUS
 62
     7
 10
55.999999999999993
 20
151.05000000000001
 30
0.0
  0
VERTEX
  5
471
  8
DATA
  6
CONTINUOUS
 62
     7
 10
53.999999999999993
 20
151.05000000000001
 30
0.0
  0
SEQEND
  5
472
  8
DATA
  6
CONTINUOUS
 62
     7
  0
POLYLINE
  5
2D3
  8
DATA
  6
CONTINUOUS
 62
     7
 66
     1
 10
0.0
 20
0.0
 30
0.0
 70
     1
  0
VERTEX
  5
473
  8
DATA
  6
CONTINUOUS
 62
     7
 10
56.499999999999993
 20
154.05000000000001
 30
0.0
  0
VERTEX
  5
474
  8
DATA
  6
CONTINUOUS
 62
     7
 10
58.499999999999993
 20
154.05000000000001
 30
0.0
  0
VERTEX
  5
475
  8
DATA
  6
CONTINUOUS
 62
     7
 10
58.499999999999993
 20
151.05000000000001
 30
0.0
  0
VERTEX
  5
476
  8
DATA
  6
CONTINUOUS
 62
     7
 10
56.499999999999993
 20
151.05000000000001
 30
0.0
  0
SEQEND
  5
477
  8
DATA
  6
CONTINUOUS
 62
     7
  0
POLYLINE
  5
2D9
  8
DATA
  6
CONTINUOUS
 62
     7
 66
     1
 10
0.0
 20
0.0
 30
0.0
 70
     1
  0
VERTEX
  5
478
  8
DATA
  6
CONTINUOUS
 62
     7
 10
58.999999999999993
 20
154.05000000000001
 30
0.0
  0
VERTEX
  5
479
  8
DATA
  6
CONTINUOUS
 62
     7
 10
60.999999999999993
 20
154.05000000000001
 30
0.0
  0
VERTEX
  5
47A
  8
DATA
  6
CONTINUOUS
 62
     7
 10
60.999999999999993
 20
151.05000000000001
 30
0.0
  0
VERTEX
  5
47B
  8
DATA
  6
CONTINUOUS
 62
     7
 10
58.999999999999993
 20
151.05000000000001
 30
0.0
  0
SEQEND
  5
47C
  8
DATA
  6
CONTINUOUS
 62
     7
  0
LINE
  5
2DF
  8
DATA
  6
CONTINUOUS
 62
     7
 10
43.999999999999993
 20
151.55000000000001
 30
0.0
 11
45.999999999999993
 21
151.55000000000001
 31
0.0
  0
LINE
  5
2E0
  8
DATA
  6
CONTINUOUS
 62
     7
 10
46.499999999999993
 20
151.55000000000001
 30
0.0
 11
48.499999999999993
 21
151.55000000000001
 31
0.0
  0
LINE
  5
2E1
  8
DATA
  6
CONTINUOUS
 62
     7
 10
48.999999999999993
 20
151.55000000000001
 30
0.0
 11
50.999999999999993
 21
151.55000000000001
 31
0.0
  0
LINE
  5
2E2
  8
DATA
  6
CONTINUOUS
 62
     7
 10
51.499999999999993
 20
151.55000000000001
 30
0.0
 11
53.499999999999993
 21
151.55000000000001
 31
0.0
  0
LINE
  5
2E3
  8
DATA
  6
CONTINUOUS
 62
     7
 10
53.999999999999993
 20
151.55000000000001
 30
0.0
 11
55.999999999999993
 21
151.55000000000001
 31
0.0
  0
LINE
  5
2E4
  8
DATA
  6
CONTINUOUS
 62
     7
 10
56.499999999999993
 20
151.55000000000001
 30
0.0
 11
58.499999999999993
 21
151.55000000000001
 31
0.0
  0
LINE
  5
2E5
  8
DATA
  6
CONTINUOUS
 62
     7
 10
58.999999999999993
 20
151.55000000000001
 30
0.0
 11
60.999999999999993
 21
151.55000000000001
 31
0.0
  0
TEXT
  5
2E6
  8
DATA
 62
     7
 10
59.459999999999987
 20
143.80000000000001
 30
0.0
 40
1.4399999999999999
  1
L OUTPUT
 50
270.0
 41
0.85
 11
60.899999999999991
 21
143.80000000000001
 31
0.0
 73
     3
  0
TEXT
  5
2E7
  8
DATA
 62
     7
 10
56.959999999999987
 20
143.80000000000001
 30
0.0
 40
1.4399999999999999
  1
R OUTPUT
 50
270.0
 41
0.85
 11
58.399999999999991
 21
143.80000000000001
 31
0.0
 73
     3
  0
TEXT
  5
2E8
  8
DATA
 62
     7
 10
54.459999999999987
 20
143.80000000000001
 30
0.0
 40
1.4399999999999999
  1
MIC 1 DUCKING
 50
270.0
 41
0.85
 11
55.899999999999991
 21
143.80000000000001
 31
0.0
 73
     3
  0
TEXT
  5
2E9
  8
DATA
 62
     7
 10
51.959999999999987
 20
143.80000000000001
 30
0.0
 40
1.4399999999999999
  1
MIC 2 DUCKING
 50
270.0
 41
0.85
 11
53.399999999999991
 21
143.80000000000001
 31
0.0
 73
     3
  0
TEXT
  5
2EA
  8
DATA
 62
     7
 10
49.459999999999987
 20
143.80000000000001
 30
0.0
 40
1.4399999999999999
  1
DUCKING LEVEL(dB)
 50
270.0
 41
0.85
 11
50.899999999999991
 21
143.80000000000001
 31
0.0
 73
     3
  0
TEXT
  5
2EB
  8
DATA
 62
     7
 10
46.959999999999987
 20
143.80000000000001
 30
0.0
 40
1.4399999999999999
  1
ST.3 JUKEBOX MUTE
 50
270.0
 41
0.85
 11
48.399999999999991
 21
143.80000000000001
 31
0.0
 73
     3
  0
TEXT
  5
2EC
  8
DATA
 62
     7
 10
44.459999999999987
 20
143.80000000000001
 30
0.0
 40
1.4399999999999999
  1
12 V PHANTOM
 50
270.0
 41
0.85
 11
45.899999999999977
 21
143.80000000000001
 31
0.0
 73
     3
  0
TEXT
  5
2ED
  8
DATA
 62
     7
 10
59.45999999999998
 20
148.80000000000001
 30
0.0
 40
1.4399999999999999
  1
LINE
 50
270.0
 41
0.85
 11
60.899999999999977
 21
148.80000000000001
 31
0.0
 73
     3
  0
TEXT
  5
2EE
  8
DATA
 62
     7
 10
56.95999999999998
 20
148.80000000000001
 30
0.0
 40
1.4399999999999999
  1
LINE
 50
270.0
 41
0.85
 11
58.399999999999977
 21
148.80000000000001
 31
0.0
 73
     3
  0
TEXT
  5
2EF
  8
DATA
 62
     7
 10
54.45999999999998
 20
148.80000000000001
 30
0.0
 40
1.4399999999999999
  1
OFF
 50
270.0
 41
0.85
 11
55.899999999999977
 21
148.80000000000001
 31
0.0
 73
     3
  0
TEXT
  5
2F0
  8
DATA
 62
     7
 10
51.95999999999998
 20
148.80000000000001
 30
0.0
 40
1.4399999999999999
  1
OFF
 50
270.0
 41
0.85
 11
53.399999999999977
 21
148.80000000000001
 31
0.0
 73
     3
  0
TEXT
  5
2F1
  8
DATA
 62
     7
 10
49.45999999999998
 20
148.80000000000001
 30
0.0
 40
1.4399999999999999
  1
-∞
 50
270.0
 41
0.85
 11
50.899999999999977
 21
148.80000000000001
 31
0.0
 73
     3
  0
TEXT
  5
2F2
  8
DATA
 62
     7
 10
46.95999999999998
 20
148.80000000000001
 30
0.0
 40
1.4399999999999999
  1
OFF
 50
270.0
 41
0.85
 11
48.399999999999977
 21
148.80000000000001
 31
0.0
 73
     3
  0
TEXT
  5
2F3
  8
DATA
 62
     7
 10
44.45999999999998
 20
148.80000000000001
 30
0.0
 40
1.4399999999999999
  1
OFF
 50
270.0
 41
0.85
 11
45.899999999999977
 21
148.80000000000001
 31
0.0
 73
     3
  0
TEXT
  5
2F4
  8
DATA
 62
     7
 10
59.459999999999987
 20
159.0
 30
0.0
 40
1.4399999999999999
  1
MIC
 50
270.0
 41
0.85
 11
60.899999999999991
 21
159.0
 31
0.0
 73
     3
  0
TEXT
  5
2F5
  8
DATA
 62
     7
 10
56.959999999999987
 20
159.0
 30
0.0
 40
1.4399999999999999
  1
MIC
 50
270.0
 41
0.85
 11
58.399999999999991
 21
159.0
 31
0.0
 73
     3
  0
TEXT
  5
2F6
  8
DATA
 62
     7
 10
54.459999999999987
 20
158.09999999999999
 30
0.0
 40
1.4399999999999999
  1
ON
 50
270.0
 41
0.85
 11
55.899999999999991
 21
158.09999999999999
 31
0.0
 73
     3
  0
TEXT
  5
2F7
  8
DATA
 62
     7
 10
51.959999999999987
 20
158.09999999999999
 30
0.0
 40
1.4399999999999999
  1
ON
 50
270.0
 41
0.85
 11
53.399999999999991
 21
158.09999999999999
 31
0.0
 73
     3
  0
TEXT
  5
2F8
  8
DATA
 62
     7
 10
49.459999999999987
 20
159.0
 30
0.0
 40
1.4399999999999999
  1
-20
 50
270.0
 41
0.85
 11
50.899999999999991
 21
159.0
 31
0.0
 73
     3
  0
TEXT
  5
2F9
  8
DATA
 62
     7
 10
46.959999999999987
 20
158.09999999999999
 30
0.0
 40
1.4399999999999999
  1
ON
 50
270.0
 41
0.85
 11
48.399999999999991
 21
158.09999999999999
 31
0.0
 73
     3
  0
TEXT
  5
2FA
  8
DATA
 62
     7
 10
44.459999999999987
 20
158.09999999999999
 30
0.0
 40
1.4399999999999999
  1
ON
 50
270.0
 41
0.85
 11
45.899999999999977
 21
158.09999999999999
 31
0.0
 73
     3
  0
LINE
  5
2FB
  8
DATA
  6
CONTINUOUS
 62
     7
 10
63.999999999999993
 20
128.30000000000001
 30
0.0
 11
63.999999999999993
 21
142.30000000000001
 31
0.0
  0
CIRCLE
  5
2FC
  8
DATA
  6
CONTINUOUS
 62
     7
 10
72.999999999999986
 20
151.80000000000001
 30
0.0
 40
4.25
  0
CIRCLE
  5
2FD
  8
DATA
  6
CONTINUOUS
 62
     7
 10
72.999999999999986
 20
151.80000000000001
 30
0.0
 40
1.75
  0
CIRCLE
  5
2FE
  8
DATA
  6
CONTINUOUS
 62
     7
 10
72.999999999999986
 20
137.80000000000001
 30
0.0
 40
4.25
  0
CIRCLE
  5
2FF
  8
DATA
  6
CONTINUOUS
 62
     7
 10
72.999999999999986
 20
137.80000000000001
 30
0.0
 40
1.75
  0
CIRCLE
  5
300
  8
DATA
  6
CONTINUOUS
 62
     7
 10
63.999999999999993
 20
144.80000000000001
 30
0.0
 40
2.5
  0
LINE
  5
301
  8
DATA
  6
CONTINUOUS
 62
     7
 10
62.749999999999993
 20
144.80000000000001
 30
0.0
 11
65.249999999999986
 21
144.80000000000001
 31
0.0
  0
LINE
  5
302
  8
DATA
  6
CONTINUOUS
 62
     7
 10
63.999999999999993
 20
143.55000000000001
 30
0.0
 11
63.999999999999993
 21
146.05000000000001
 31
0.0
  0
TEXT
  5
303
  8
DATA
 62
     7
 10
67.149462843889779
 20
140.33999999999989
 30
0.0
 40
2.54
  1
L
 50
180.0
 41
0.85
 11
67.149462843889779
 21
137.80000000000001
 31
0.0
 73
     3
  0
TEXT
  5
304
  8
DATA
 62
     7
 10
67.149462843889779
 20
154.34
 30
0.0
 40
2.54
  1
R
 50
180.0
 41
0.85
 11
67.149462843889779
 21
151.80000000000001
 31
0.0
 73
     3
  0
LINE
  5
305
  8
DATA
  6
CONTINUOUS
 62
     7
 10
63.999999999999993
 20
147.30000000000001
 30
0.0
 11
63.999999999999993
 21
161.80000000000001
 31
0.0
  0
LINE
  5
306
  8
DATA
  6
CONTINUOUS
 62
     7
 10
111.4999999999999
 20
128.30000000000001
 30
0.0
 11
111.4999999999999
 21
161.80000000000001
 31
0.0
  0
LINE
  5
307
  8
DATA
  6
CONTINUOUS
 62
     7
 10
65.499999999999986
 20
163.30000000000001
 30
0.0
 11
110.0
 21
163.30000000000001
 31
0.0
  0
LINE
  5
308
  8
DATA
  6
CONTINUOUS
 62
     7
 10
65.499999999999986
 20
126.8
 30
0.0
 11
90.0
 21
126.8
 31
0.0
  0
LINE
  5
309
  8
DATA
  6
CONTINUOUS
 62
     7
 10
106.4999999999999
 20
126.8
 30
0.0
 11
110.0
 21
126.8
 31
0.0
  0
CIRCLE
  5
30A
  8
DATA
  6
CONTINUOUS
 62
     7
 10
89.499999999999986
 20
152.30000000000001
 30
0.0
 40
4.5
  0
CIRCLE
  5
30B
  8
DATA
  6
CONTINUOUS
 62
     7
 10
89.499999999999986
 20
152.30000000000001
 30
0.0
 40
3.0
  0
CIRCLE
  5
30C
  8
DATA
  6
CONTINUOUS
 62
     7
 10
89.499999999999986
 20
152.30000000000001
 30
0.0
 40
7.0
  0
LINE
  5
30D
  8
DATA
  6
CONTINUOUS
 62
     7
 10
89.499999999999986
 20
158.55000000000001
 30
0.0
 11
84.087341226347235
 21
155.42500000000001
 31
0.0
  0
LINE
  5
30E
  8
DATA
  6
CONTINUOUS
 62
     7
 10
94.912658773652723
 20
155.42500000000001
 30
0.0
 11
89.499999999999986
 21
158.55000000000001
 31
0.0
  0
LINE
  5
30F
  8
DATA
  6
CONTINUOUS
 62
     7
 10
94.912658773652723
 20
149.17500000000001
 30
0.0
 11
94.912658773652723
 21
155.42500000000001
 31
0.0
  0
LINE
  5
310
  8
DATA
  6
CONTINUOUS
 62
     7
 10
89.499999999999986
 20
146.05000000000001
 30
0.0
 11
94.912658773652723
 21
149.17500000000001
 31
0.0
  0
LINE
  5
311
  8
DATA
  6
CONTINUOUS
 62
     7
 10
84.087341226347235
 20
149.17500000000001
 30
0.0
 11
89.499999999999986
 21
146.05000000000001
 31
0.0
  0
LINE
  5
312
  8
DATA
  6
CONTINUOUS
 62
     7
 10
84.087341226347235
 20
155.42500000000001
 30
0.0
 11
84.087341226347235
 21
149.17500000000001
 31
0.0
  0
CIRCLE
  5
313
  8
DATA
  6
CONTINUOUS
 62
     7
 10
104.0
 20
152.30000000000001
 30
0.0
 40
4.5
  0
CIRCLE
  5
314
  8
DATA
  6
CONTINUOUS
 62
     7
 10
104.0
 20
152.30000000000001
 30
0.0
 40
3.0
  0
CIRCLE
  5
315
  8
DATA
  6
CONTINUOUS
 62
     7
 10
104.0
 20
152.30000000000001
 30
0.0
 40
7.0
  0
LINE
  5
316
  8
DATA
  6
CONTINUOUS
 62
     7
 10
104.0
 20
158.55000000000001
 30
0.0
 11
98.587341226347235
 21
155.42500000000001
 31
0.0
  0
LINE
  5
317
  8
DATA
  6
CONTINUOUS
 62
     7
 10
109.41265877365269
 20
155.42500000000001
 30
0.0
 11
104.0
 21
158.55000000000001
 31
0.0
  0
LINE
  5
318
  8
DATA
  6
CONTINUOUS
 62
     7
 10
109.41265877365269
 20
149.17500000000001
 30
0.0
 11
109.41265877365269
 21
155.42500000000001
 31
0.0
  0
LINE
  5
319
  8
DATA
  6
CONTINUOUS
 62
     7
 10
104.0
 20
146.05000000000001
 30
0.0
 11
109.41265877365269
 21
149.17500000000001
 31
0.0
  0
LINE
  5
31A
  8
DATA
  6
CONTINUOUS
 62
     7
 10
98.587341226347235
 20
149.17500000000001
 30
0.0
 11
104.0
 21
146.05000000000001
 31
0.0
  0
LINE
  5
31B
  8
DATA
  6
CONTINUOUS
 62
     7
 10
98.587341226347235
 20
155.42500000000001
 30
0.0
 11
98.587341226347235
 21
149.17500000000001
 31
0.0
  0
TEXT
  5
31C
  8
DATA
 62
     7
 10
75.38124999999998
 20
131.12749999999991
 30
0.0
 40
2.54
  1
AUX
 50
180.0
 41
0.85
 11
75.38124999999998
 21
128.58750000000001
 31
0.0
 73
     3
  0
TEXT
  5
31D
  8
DATA
 62
     7
 10
104.6875
 20
143.2525
 30
0.0
 40
2.54
  1
MIC / LINE
 50
180.0
 41
0.85
 11
104.6875
 21
140.71250000000001
 31
0.0
 73
     3
  0
TEXT
  5
31E
  8
DATA
 62
     7
 10
104.59999999999999
 20
128.76285671879111
 30
0.0
 40
3.3866666666666658
  1
STEREO
 50
180.0
 41
0.85
 11
104.59999999999999
 21
125.3761900521244
 31
0.0
 73
     3
  0
TEXT
  5
31F
  8
DATA
 62
     7
 10
104.59999999999999
 20
133.76285671879111
 30
0.0
 40
3.3866666666666658
  1
OUTPUTS
 50
180.0
 41
0.85
 11
104.59999999999999
 21
130.3761900521244
 31
0.0
 73
     3
  0
CIRCLE
  5
320
  8
DATA
  6
CONTINUOUS
 62
     7
 10
20.249999999999979
 20
151.80000000000001
 30
0.0
 40
4.25
  0
CIRCLE
  5
321
  8
DATA
  6
CONTINUOUS
 62
     7
 10
20.249999999999979
 20
151.80000000000001
 30
0.0
 40
1.75
  0
CIRCLE
  5
322
  8
DATA
  6
CONTINUOUS
 62
     7
 10
20.249999999999979
 20
137.80000000000001
 30
0.0
 40
4.25
  0
CIRCLE
  5
323
  8
DATA
  6
CONTINUOUS
 62
     7
 10
20.249999999999979
 20
137.80000000000001
 30
0.0
 40
1.75
  0
LINE
  5
324
  8
DATA
  6
CONTINUOUS
 62
     7
 10
13.37499999999998
 20
143.55000000000001
 30
0.0
 11
13.37499999999998
 21
146.05000000000001
 31
0.0
  0
TEXT
  5
325
  8
DATA
 62
     7
 10
21.043749999999982
 20
132.41499999999991
 30
0.0
 40
2.54
  1
2
 50
180.0
 41
0.85
 11
21.043749999999982
 21
129.875
 31
0.0
 73
     3
  0
TEXT
  5
326
  8
DATA
 62
     7
 10
27.119327496108671
 20
140.33999999999989
 30
0.0
 40
2.54
  1
L
 50
180.0
 41
0.85
 11
27.119327496108671
 21
137.80000000000001
 31
0.0
 73
     3
  0
TEXT
  5
327
  8
DATA
 62
     7
 10
27.119327496108671
 20
154.34
 30
0.0
 40
2.54
  1
R
 50
180.0
 41
0.85
 11
27.119327496108671
 21
151.80000000000001
 31
0.0
 73
     3
  0
TEXT
  5
328
  8
DATA
 62
     7
 10
34.008333333333297
 20
128.8866666666666
 30
0.0
 40
3.3866666666666658
  1
STEREO INPUTS
 50
180.0
 41
0.85
 11
34.008333333333297
 21
125.5
 31
0.0
 73
     3
  0
POLYLINE
  5
329
  8
DATA
  6
CONTINUOUS
 62
     7
 66
     1
 10
0.0
 20
0.0
 30
0.0
 70
     1
  0
VERTEX
  5
47D
  8
DATA
  6
CONTINUOUS
 62
     7
 10
112.5
 20
159.30000000000001
 30
0.0
  0
VERTEX
  5
47E
  8
DATA
  6
CONTINUOUS
 62
     7
 10
134.0
 20
159.30000000000001
 30
0.0
  0
VERTEX
  5
47F
  8
DATA
  6
CONTINUOUS
 62
     7
 10
134.0
 20
128.80000000000001
 30
0.0
  0
VERTEX
  5
480
  8
DATA
  6
CONTINUOUS
 62
     7
 10
112.5
 20
128.80000000000001
 30
0.0
  0
SEQEND
  5
481
  8
DATA
  6
CONTINUOUS
 62
     7
  0
ARC
  5
32F
  8
DATA
  6
CONTINUOUS
 62
     7
 10
65.499999999999986
 20
161.80000000000001
 30
0.0
 40
1.5
 50
90.0
 51
180.0
  0
ARC
  5
330
  8
DATA
  6
CONTINUOUS
 62
     7
 10
110.0
 20
161.80000000000001
 30
0.0
 40
1.5
 50
0.0
 51
90.0
  0
ARC
  5
331
  8
DATA
  6
CONTINUOUS
 62
     7
 10
110.0
 20
128.30000000000001
 30
0.0
 40
1.5
 50
270.0
 51
0.0
  0
ARC
  5
332
  8
DATA
  6
CONTINUOUS
 62
     7
 10
65.499999999999986
 20
128.30000000000001
 30
0.0
 40
1.5
 50
180.0
 51
270.0
  0
TEXT
  5
333
  8
DATA
 62
     7
 10
104.7937499999999
 20
162.25249999999991
 30
0.0
 40
2.54
  1
L
 50
180.0
 41
0.85
 11
104.7937499999999
 21
159.71250000000001
 31
0.0
 73
     3
  0
TEXT
  5
334
  8
DATA
 62
     7
 10
90.293749999999989
 20
162.25249999999991
 30
0.0
 40
2.54
  1
R
 50
180.0
 41
0.85
 11
90.293749999999989
 21
159.71250000000001
 31
0.0
 73
     3
  0
LINE
  5
335
  8
DATA
  6
CONTINUOUS
 62
     7
 10
115.0
 20
133.80000000000001
 30
0.0
 11
115.0
 21
154.30000000000001
 31
0.0
  0
LINE
  5
336
  8
DATA
  6
CONTINUOUS
 62
     7
 10
126.5
 20
131.80000000000001
 30
0.0
 11
117.0
 21
131.80000000000001
 31
0.0
  0
LINE
  5
337
  8
DATA
  6
CONTINUOUS
 62
     7
 10
131.49999999999989
 20
151.30000000000001
 30
0.0
 11
131.49999999999989
 21
136.80000000000001
 31
0.0
  0
LINE
  5
338
  8
DATA
  6
CONTINUOUS
 62
     7
 10
131.49999999999989
 20
136.80000000000001
 30
0.0
 11
126.5
 21
131.80000000000001
 31
0.0
  0
LINE
  5
339
  8
DATA
  6
CONTINUOUS
 62
     7
 10
131.49999999999989
 20
151.30000000000001
 30
0.0
 11
126.5
 21
156.30000000000001
 31
0.0
  0
LINE
  5
33A
  8
DATA
  6
CONTINUOUS
 62
     7
 10
117.0
 20
156.30000000000001
 30
0.0
 11
126.5
 21
156.30000000000001
 31
0.0
  0
ARC
  5
33B
  8
DATA
  6
CONTINUOUS
 62
     7
 10
117.0
 20
154.30000000000001
 30
0.0
 40
2.0
 50
90.0
 51
180.0
  0
ARC
  5
33C
  8
DATA
  6
CONTINUOUS
 62
     7
 10
117.0
 20
133.80000000000001
 30
0.0
 40
2.0
 50
180.0
 51
270.0
  0
POLYLINE
  5
33D
  8
DATA
  6
CONTINUOUS
 62
     7
 66
     1
 10
0.0
 20
0.0
 30
0.0
 70
     1
  0
VERTEX
  5
482
  8
DATA
  6
CONTINUOUS
 62
     7
 10
124.0
 20
145.05000000000001
 30
0.0
  0
VERTEX
  5
483
  8
DATA
  6
CONTINUOUS
 62
     7
 10
127.0
 20
145.05000000000001
 30
0.0
  0
VERTEX
  5
484
  8
DATA
  6
CONTINUOUS
 62
     7
 10
127.0
 20
143.05000000000001
 30
0.0
  0
VERTEX
  5
485
  8
DATA
  6
CONTINUOUS
 62
     7
 10
124.0
 20
143.05000000000001
 30
0.0
  0
SEQEND
  5
486
  8
DATA
  6
CONTINUOUS
 62
     7
  0
POLYLINE
  5
343
  8
DATA
  6
CONTINUOUS
 62
     7
 66
     1
 10
0.0
 20
0.0
 30
0.0
 70
     1
  0
VERTEX
  5
487
  8
DATA
  6
CONTINUOUS
 62
     7
 10
120.0
 20
151.55000000000001
 30
0.0
  0
VERTEX
  5
488
  8
DATA
  6
CONTINUOUS
 62
     7
 10
123.0
 20
151.55000000000001
 30
0.0
  0
VERTEX
  5
489
  8
DATA
  6
CONTINUOUS
 62
     7
 10
123.0
 20
149.55000000000001
 30
0.0
  0
VERTEX
  5
48A
  8
DATA
  6
CONTINUOUS
 62
     7
 10
120.0
 20
149.55000000000001
 30
0.0
  0
SEQEND
  5
48B
  8
DATA
  6
CONTINUOUS
 62
     7
  0
POLYLINE
  5
349
  8
DATA
  6
CONTINUOUS
 62
     7
 66
     1
 10
0.0
 20
0.0
 30
0.0
 70
     1
  0
VERTEX
  5
48C
  8
DATA
  6
CONTINUOUS
 62
     7
 10
120.0
 20
138.55000000000001
 30
0.0
  0
VERTEX
  5
48D
  8
DATA
  6
CONTINUOUS
 62
     7
 10
123.0
 20
138.55000000000001
 30
0.0
  0
VERTEX
  5
48E
  8
DATA
  6
CONTINUOUS
 62
     7
 10
123.0
 20
136.55000000000001
 30
0.0
  0
VERTEX
  5
48F
  8
DATA
  6
CONTINUOUS
 62
     7
 10
120.0
 20
136.55000000000001
 30
0.0
  0
SEQEND
  5
490
  8
DATA
  6
CONTINUOUS
 62
     7
  0
TEXT
  5
34F
  8
DATA
 62
     7
 10
134.0
 20
166.84
 30
0.0
 40
2.54
  1
50/60Hz 60mA
 50
180.0
 41
0.85
 11
134.0
 21
164.30000000000001
 31
0.0
 73
     3
  0
TEXT
  5
350
  8
DATA
 62
     7
 10
134.0
 20
163.33999999999989
 30
0.0
 40
2.54
  1
100-120 Vac
 50
180.0
 41
0.85
 11
134.0
 21
160.80000000000001
 31
0.0
 73
     3
  0
TEXT
  5
351
  8
DATA
 62
     7
 10
128.80625000000001
 20
127.85250000000001
 30
0.0
 40
2.54
  1
SCM 262
 50
180.0
 41
0.85
 11
128.80625000000001
 21
125.3125
 31
0.0
 73
     3
  0
LINE
  5
352
  8
DATA
  6
CONTINUOUS
 62
     7
 10
-66.250000000000014
 20
100.40000000000001
 30
0.0
 11
-66.250000000000014
 21
98.900000000000006
 31
0.0
  0
LINE
  5
353
  8
DATA
  6
CONTINUOUS
 62
     7
 10
-73.250000000000014
 20
100.40000000000001
 30
0.0
 11
-73.250000000000014
 21
98.900000000000006
 31
0.0
  0
ARC
  5
354
  8
DATA
  6
CONTINUOUS
 62
     7
 10
-69.750000000000014
 20
94.774999999999963
 30
0.0
 40
6.6250000000000231
 50
58.10920819815442
 51
121.8907918018455
  0
LINE
  5
355
  8
DATA
  6
CONTINUOUS
 62
     7
 10
-66.250000000000014
 20
100.40000000000001
 30
0.0
 11
-73.250000000000014
 21
100.40000000000001
 31
0.0
  0
LINE
  5
356
  8
DATA
  6
CONTINUOUS
 62
     7
 10
142.75
 20
100.40000000000001
 30
0.0
 11
142.75
 21
98.900000000000006
 31
0.0
  0
LINE
  5
357
  8
DATA
  6
CONTINUOUS
 62
     7
 10
135.74999999999989
 20
100.40000000000001
 30
0.0
 11
135.74999999999989
 21
98.900000000000006
 31
0.0
  0
ARC
  5
358
  8
DATA
  6
CONTINUOUS
 62
     7
 10
139.25
 20
94.774999999999963
 30
0.0
 40
6.6250000000000231
 50
58.10920819815442
 51
121.8907918018455
  0
LINE
  5
359
  8
DATA
  6
CONTINUOUS
 62
     7
 10
142.75
 20
100.40000000000001
 30
0.0
 11
135.74999999999989
 21
100.40000000000001
 31
0.0
  0
LINE
  5
35A
  8
DATA
  6
CONTINUOUS
 62
     7
 10
112.5
 20
103.90000000000001
 30
0.0
 11
112.5
 21
98.900000000000006
 31
0.0
  0
LINE
  5
35B
  8
DATA
  6
CONTINUOUS
 62
     7
 10
134.0609944439793
 20
103.8999976036838
 30
0.0
 11
134.065889661668
 21
98.900000000000006
 31
0.0
  0
LINE
  5
35C
  8
DATA
  6
CONTINUOUS
 62
     7
 10
112.5
 20
103.90000000000001
 30
0.0
 11
134.0609944439793
 21
103.8999976036838
 31
0.0
  0
LINE
  5
35D
  8
DATA
  6
CONTINUOUS
 62
     7
 10
84.087341226347235
 20
101.40000000000001
 30
0.0
 11
84.087341226347235
 21
99.400000000000006
 31
0.0
  0
LINE
  5
35E
  8
DATA
  6
CONTINUOUS
 62
     7
 10
94.912658773652723
 20
101.40000000000001
 30
0.0
 11
94.912658773652723
 21
99.400000000000006
 31
0.0
  0
LINE
  5
35F
  8
DATA
  6
CONTINUOUS
 62
     7
 10
84.999999999999986
 20
106.40000000000001
 30
0.0
 11
84.999999999999986
 21
101.40000000000001
 31
0.0
  0
LINE
  5
360
  8
DATA
  6
CONTINUOUS
 62
     7
 10
93.999999999999986
 20
106.40000000000001
 30
0.0
 11
93.999999999999986
 21
101.40000000000001
 31
0.0
  0
LINE
  5
361
  8
DATA
  6
CONTINUOUS
 62
     7
 10
84.999999999999986
 20
106.40000000000001
 30
0.0
 11
93.999999999999986
 21
106.40000000000001
 31
0.0
  0
LINE
  5
362
  8
DATA
  6
CONTINUOUS
 62
     7
 10
84.087341226347235
 20
101.40000000000001
 30
0.0
 11
94.912658773652723
 21
101.40000000000001
 31
0.0
  0
LINE
  5
363
  8
DATA
  6
CONTINUOUS
 62
     7
 10
82.499999999999986
 20
99.400000000000006
 30
0.0
 11
82.499999999999986
 21
98.900000000000006
 31
0.0
  0
LINE
  5
364
  8
DATA
  6
CONTINUOUS
 62
     7
 10
96.499999999999986
 20
99.400000000000006
 30
0.0
 11
96.499999999999986
 21
98.900000000000006
 31
0.0
  0
LINE
  5
365
  8
DATA
  6
CONTINUOUS
 62
     7
 10
82.499999999999986
 20
99.400000000000006
 30
0.0
 11
96.499999999999986
 21
99.400000000000006
 31
0.0
  0
LINE
  5
366
  8
DATA
  6
CONTINUOUS
 62
     7
 10
98.587341226347235
 20
101.40000000000001
 30
0.0
 11
98.587341226347235
 21
99.400000000000006
 31
0.0
  0
LINE
  5
367
  8
DATA
  6
CONTINUOUS
 62
     7
 10
109.41265877365269
 20
101.40000000000001
 30
0.0
 11
109.41265877365269
 21
99.400000000000006
 31
0.0
  0
LINE
  5
368
  8
DATA
  6
CONTINUOUS
 62
     7
 10
99.499999999999986
 20
106.40000000000001
 30
0.0
 11
99.499999999999986
 21
101.40000000000001
 31
0.0
  0
LINE
  5
369
  8
DATA
  6
CONTINUOUS
 62
     7
 10
108.4999999999999
 20
106.40000000000001
 30
0.0
 11
108.4999999999999
 21
101.40000000000001
 31
0.0
  0
LINE
  5
36A
  8
DATA
  6
CONTINUOUS
 62
     7
 10
99.499999999999986
 20
106.40000000000001
 30
0.0
 11
108.4999999999999
 21
106.40000000000001
 31
0.0
  0
LINE
  5
36B
  8
DATA
  6
CONTINUOUS
 62
     7
 10
98.587341226347235
 20
101.40000000000001
 30
0.0
 11
109.41265877365269
 21
101.40000000000001
 31
0.0
  0
LINE
  5
36C
  8
DATA
  6
CONTINUOUS
 62
     7
 10
96.999999999999986
 20
99.400000000000006
 30
0.0
 11
96.999999999999986
 21
98.900000000000006
 31
0.0
  0
LINE
  5
36D
  8
DATA
  6
CONTINUOUS
 62
     7
 10
111.0
 20
99.400000000000006
 30
0.0
 11
111.0
 21
98.900000000000006
 31
0.0
  0
LINE
  5
36E
  8
DATA
  6
CONTINUOUS
 62
     7
 10
96.999999999999986
 20
99.400000000000006
 30
0.0
 11
111.0
 21
99.400000000000006
 31
0.0
  0
LINE
  5
36F
  8
DATA
  6
CONTINUOUS
 62
     7
 10
68.749999999999986
 20
105.90000000000001
 30
0.0
 11
68.749999999999986
 21
98.900000000000006
 31
0.0
  0
LINE
  5
370
  8
DATA
  6
CONTINUOUS
 62
     7
 10
77.249999999999986
 20
105.90000000000001
 30
0.0
 11
77.249999999999986
 21
98.900000000000006
 31
0.0
  0
LINE
  5
371
  8
DATA
  6
CONTINUOUS
 62
     7
 10
77.249999999999986
 20
105.90000000000001
 30
0.0
 11
68.749999999999986
 21
105.90000000000001
 31
0.0
  0
LINE
  5
372
  8
DATA
  6
CONTINUOUS
 62
     7
 10
-14.912658773652749
 20
101.40000000000001
 30
0.0
 11
-14.912658773652749
 21
99.400000000000006
 31
0.0
  0
LINE
  5
373
  8
DATA
  6
CONTINUOUS
 62
     7
 10
-4.0873412263472764
 20
101.40000000000001
 30
0.0
 11
-4.0873412263472764
 21
99.400000000000006
 31
0.0
  0
LINE
  5
374
  8
DATA
  6
CONTINUOUS
 62
     7
 10
-14.000000000000011
 20
106.40000000000001
 30
0.0
 11
-14.000000000000011
 21
101.40000000000001
 31
0.0
  0
LINE
  5
375
  8
DATA
  6
CONTINUOUS
 62
     7
 10
-5.0000000000000142
 20
106.40000000000001
 30
0.0
 11
-5.0000000000000142
 21
101.40000000000001
 31
0.0
  0
LINE
  5
376
  8
DATA
  6
CONTINUOUS
 62
     7
 10
-14.000000000000011
 20
106.40000000000001
 30
0.0
 11
-5.0000000000000142
 21
106.40000000000001
 31
0.0
  0
LINE
  5
377
  8
DATA
  6
CONTINUOUS
 62
     7
 10
-14.912658773652749
 20
101.40000000000001
 30
0.0
 11
-4.0873412263472764
 21
101.40000000000001
 31
0.0
  0
LINE
  5
378
  8
DATA
  6
CONTINUOUS
 62
     7
 10
-2.5000000000000142
 20
99.400000000000006
 30
0.0
 11
-2.5000000000000142
 21
98.900000000000006
 31
0.0
  0
LINE
  5
379
  8
DATA
  6
CONTINUOUS
 62
     7
 10
-16.000000000000011
 20
99.400000000000006
 30
0.0
 11
-2.5000000000000142
 21
99.400000000000006
 31
0.0
  0
LINE
  5
37A
  8
DATA
  6
CONTINUOUS
 62
     7
 10
29.749999999999979
 20
105.90000000000001
 30
0.0
 11
29.749999999999979
 21
98.900000000000006
 31
0.0
  0
LINE
  5
37B
  8
DATA
  6
CONTINUOUS
 62
     7
 10
38.249999999999993
 20
105.90000000000001
 30
0.0
 11
38.249999999999993
 21
98.900000000000006
 31
0.0
  0
LINE
  5
37C
  8
DATA
  6
CONTINUOUS
 62
     7
 10
38.249999999999993
 20
105.90000000000001
 30
0.0
 11
29.749999999999979
 21
105.90000000000001
 31
0.0
  0
LINE
  5
37D
  8
DATA
  6
CONTINUOUS
 62
     7
 10
15.99999999999998
 20
105.90000000000001
 30
0.0
 11
15.99999999999998
 21
98.900000000000006
 31
0.0
  0
LINE
  5
37E
  8
DATA
  6
CONTINUOUS
 62
     7
 10
24.499999999999979
 20
105.90000000000001
 30
0.0
 11
24.499999999999979
 21
98.900000000000006
 31
0.0
  0
LINE
  5
37F
  8
DATA
  6
CONTINUOUS
 62
     7
 10
24.499999999999979
 20
105.90000000000001
 30
0.0
 11
15.99999999999998
 21
105.90000000000001
 31
0.0
  0
LINE
  5
380
  8
DATA
  6
CONTINUOUS
 62
     7
 10
2.7499999999999849
 20
105.90000000000001
 30
0.0
 11
2.7499999999999849
 21
98.900000000000006
 31
0.0
  0
LINE
  5
381
  8
DATA
  6
CONTINUOUS
 62
     7
 10
10.74999999999998
 20
105.90000000000001
 30
0.0
 11
10.74999999999998
 21
98.900000000000006
 31
0.0
  0
LINE
  5
382
  8
DATA
  6
CONTINUOUS
 62
     7
 10
10.74999999999998
 20
105.90000000000001
 30
0.0
 11
2.2499999999999849
 21
105.90000000000001
 31
0.0
  0
LINE
  5
383
  8
DATA
  6
CONTINUOUS
 62
     7
 10
61.499999999999993
 20
99.900000000000006
 30
0.0
 11
61.499999999999993
 21
98.900000000000006
 31
0.0
  0
LINE
  5
384
  8
DATA
  6
CONTINUOUS
 62
     7
 10
66.499999999999986
 20
99.900000000000006
 30
0.0
 11
66.499999999999986
 21
98.900000000000006
 31
0.0
  0
LINE
  5
385
  8
DATA
  6
CONTINUOUS
 62
     7
 10
66.499999999999986
 20
99.900000000000006
 30
0.0
 11
61.499999999999993
 21
99.900000000000006
 31
0.0
  0
ARC
  5
386
  8
DATA
  6
CONTINUOUS
 62
     7
 10
63.999999999999993
 20
97.275000000000006
 30
0.0
 40
3.625
 50
46.397181027296369
 51
133.6028189727036
  0
LINE
  5
387
  8
DATA
  6
CONTINUOUS
 62
     7
 10
24.624999999999979
 20
99.900000000000006
 30
0.0
 11
24.624999999999979
 21
98.900000000000006
 31
0.0
  0
LINE
  5
388
  8
DATA
  6
CONTINUOUS
 62
     7
 10
29.624999999999979
 20
99.900000000000006
 30
0.0
 11
29.624999999999979
 21
98.900000000000006
 31
0.0
  0
LINE
  5
389
  8
DATA
  6
CONTINUOUS
 62
     7
 10
29.624999999999979
 20
99.900000000000006
 30
0.0
 11
24.624999999999979
 21
99.900000000000006
 31
0.0
  0
ARC
  5
38A
  8
DATA
  6
CONTINUOUS
 62
     7
 10
27.124999999999979
 20
97.275000000000006
 30
0.0
 40
3.625
 50
46.397181027296369
 51
133.6028189727036
  0
LINE
  5
38B
  8
DATA
  6
CONTINUOUS
 62
     7
 10
10.87499999999998
 20
99.900000000000006
 30
0.0
 11
10.87499999999998
 21
98.900000000000006
 31
0.0
  0
LINE
  5
38C
  8
DATA
  6
CONTINUOUS
 62
     7
 10
15.87499999999998
 20
99.900000000000006
 30
0.0
 11
15.87499999999998
 21
98.900000000000006
 31
0.0
  0
LINE
  5
38D
  8
DATA
  6
CONTINUOUS
 62
     7
 10
15.87499999999998
 20
99.900000000000006
 30
0.0
 11
10.87499999999998
 21
99.900000000000006
 31
0.0
  0
ARC
  5
38E
  8
DATA
  6
CONTINUOUS
 62
     7
 10
13.37499999999998
 20
97.275000000000006
 30
0.0
 40
3.625
 50
46.397181027296369
 51
133.6028189727036
  0
LINE
  5
38F
  8
DATA
  6
CONTINUOUS
 62
     7
 10
-22.000000000000011
 20
99.400000000000006
 30
0.0
 11
-16.000000000000011
 21
99.400000000000006
 31
0.0
  0
ARC
  5
390
  8
DATA
  6
CONTINUOUS
 62
     7
 10
-19.000000000000011
 20
95.400000000000006
 30
0.0
 40
5.0
 50
53.130102354155973
 51
126.86989764584401
  0
LINE
  5
391
  8
DATA
  6
CONTINUOUS
 62
     7
 10
-22.000000000000011
 20
99.400000000000006
 30
0.0
 11
-22.000000000000011
 21
98.900000000000006
 31
0.0
  0
LINE
  5
392
  8
DATA
  6
CONTINUOUS
 62
     7
 10
-16.000000000000011
 20
99.400000000000006
 30
0.0
 11
-16.000000000000011
 21
98.900000000000006
 31
0.0
  0
ARC
  5
393
  8
DATA
  6
CONTINUOUS
 62
     7
 10
-38.000000000000007
 20
95.400000000000006
 30
0.0
 40
5.0000000000000044
 50
107.457603123722
 51
116.7436839504029
  0
LINE
  5
394
  8
DATA
  6
CONTINUOUS
 62
     7
 10
-45.500000000000021
 20
99.400000000000006
 30
0.0
 11
-39.500000000000007
 21
99.400000000000006
 31
0.0
  0
ARC
  5
395
  8
DATA
  6
CONTINUOUS
 62
     7
 10
-42.500000000000007
 20
95.400000000000006
 30
0.0
 40
5.0
 50
53.130102354155973
 51
126.86989764584401
  0
LINE
  5
396
  8
DATA
  6
CONTINUOUS
 62
     7
 10
-45.500000000000021
 20
99.400000000000006
 30
0.0
 11
-45.500000000000021
 21
98.900000000000006
 31
0.0
  0
LINE
  5
397
  8
DATA
  6
CONTINUOUS
 62
     7
 10
-39.500000000000007
 20
99.400000000000006
 30
0.0
 11
-39.500000000000007
 21
98.900000000000006
 31
0.0
  0
LINE
  5
398
  8
DATA
  6
CONTINUOUS
 62
     7
 10
-64.500000000000014
 20
99.400000000000006
 30
0.0
 11
-63.000000000000021
 21
99.400000000000006
 31
0.0
  0
ARC
  5
399
  8
DATA
  6
CONTINUOUS
 62
     7
 10
-61.500000000000021
 20
95.400000000000006
 30
0.0
 40
5.0000000000000044
 50
107.457603123722
 51
126.86989764584401
  0
LINE
  5
39A
  8
DATA
  6
CONTINUOUS
 62
     7
 10
-64.500000000000014
 20
99.400000000000006
 30
0.0
 11
-64.500000000000014
 21
98.900000000000006
 31
0.0
  0
LINE
  5
39B
  8
DATA
  6
CONTINUOUS
 62
     7
 10
-41.000000000000007
 20
100.40000000000001
 30
0.0
 11
-41.000000000000007
 21
100.1696960070847
 31
0.0
  0
LINE
  5
39C
  8
DATA
  6
CONTINUOUS
 62
     7
 10
-63.000000000000021
 20
98.900000000000006
 30
0.0
 11
-63.000000000000021
 21
100.40000000000001
 31
0.0
  0
LINE
  5
39D
  8
DATA
  6
CONTINUOUS
 62
     7
 10
-63.000000000000021
 20
100.40000000000001
 30
0.0
 11
-41.000000000000007
 21
100.40000000000001
 31
0.0
  0
LINE
  5
39E
  8
DATA
  6
CONTINUOUS
 62
     7
 10
-54.500000000000021
 20
103.40000000000001
 30
0.0
 11
-54.500000000000021
 21
100.40000000000001
 31
0.0
  0
LINE
  5
39F
  8
DATA
  6
CONTINUOUS
 62
     7
 10
-49.500000000000021
 20
103.40000000000001
 30
0.0
 11
-49.500000000000021
 21
100.40000000000001
 31
0.0
  0
POLYLINE
  5
3A0
  8
DATA
  6
CONTINUOUS
 62
     7
 66
     1
 10
0.0
 20
0.0
 30
0.0
 70
     1
  0
VERTEX
  5
491
  8
DATA
  6
CONTINUOUS
 62
     7
 10
-57.000000000000021
 20
103.90000000000001
 30
0.0
  0
VERTEX
  5
492
  8
DATA
  6
CONTINUOUS
 62
     7
 10
-47.000000000000007
 20
103.90000000000001
 30
0.0
  0
VERTEX
  5
493
  8
DATA
  6
CONTINUOUS
 62
     7
 10
-47.000000000000007
 20
103.40000000000001
 30
0.0
  0
VERTEX
  5
494
  8
DATA
  6
CONTINUOUS
 62
     7
 10
-57.000000000000021
 20
103.40000000000001
 30
0.0
  0
SEQEND
  5
495
  8
DATA
  6
CONTINUOUS
 62
     7
  0
LINE
  5
3A6
  8
DATA
  6
CONTINUOUS
 62
     7
 10
-17.500000000000011
 20
100.40000000000001
 30
0.0
 11
-17.500000000000011
 21
100.1696960070847
 31
0.0
  0
LINE
  5
3A7
  8
DATA
  6
CONTINUOUS
 62
     7
 10
-39.500000000000007
 20
98.900000000000006
 30
0.0
 11
-39.500000000000007
 21
100.40000000000001
 31
0.0
  0
LINE
  5
3A8
  8
DATA
  6
CONTINUOUS
 62
     7
 10
-39.500000000000007
 20
100.40000000000001
 30
0.0
 11
-17.500000000000011
 21
100.40000000000001
 31
0.0
  0
LINE
  5
3A9
  8
DATA
  6
CONTINUOUS
 62
     7
 10
-31.000000000000011
 20
103.40000000000001
 30
0.0
 11
-31.000000000000011
 21
100.40000000000001
 31
0.0
  0
LINE
  5
3AA
  8
DATA
  6
CONTINUOUS
 62
     7
 10
-26.000000000000011
 20
103.40000000000001
 30
0.0
 11
-26.000000000000011
 21
100.40000000000001
 31
0.0
  0
POLYLINE
  5
3AB
  8
DATA
  6
CONTINUOUS
 62
     7
 66
     1
 10
0.0
 20
0.0
 30
0.0
 70
     1
  0
VERTEX
  5
496
  8
DATA
  6
CONTINUOUS
 62
     7
 10
-33.5
 20
103.90000000000001
 30
0.0
  0
VERTEX
  5
497
  8
DATA
  6
CONTINUOUS
 62
     7
 10
-23.5
 20
103.90000000000001
 30
0.0
  0
VERTEX
  5
498
  8
DATA
  6
CONTINUOUS
 62
     7
 10
-23.5
 20
103.40000000000001
 30
0.0
  0
VERTEX
  5
499
  8
DATA
  6
CONTINUOUS
 62
     7
 10
-33.5
 20
103.40000000000001
 30
0.0
  0
SEQEND
  5
49A
  8
DATA
  6
CONTINUOUS
 62
     7
  0
LINE
  5
3B1
  8
DATA
  6
CONTINUOUS
 62
     7
 10
312.89999999999998
 20
-92.599999999999966
 30
0.0
 11
311.39999999999998
 21
-92.599999999999966
 31
0.0
  0
LINE
  5
3B2
  8
DATA
  6
CONTINUOUS
 62
     7
 10
312.89999999999998
 20
-85.599999999999966
 30
0.0
 11
311.39999999999998
 21
-85.599999999999966
 31
0.0
  0
ARC
  5
3B3
  8
DATA
  6
CONTINUOUS
 62
     7
 10
307.27499999999998
 20
-89.099999999999966
 30
0.0
 40
6.625
 50
328.10920819815419
 51
31.89079180184569
  0
LINE
  5
3B4
  8
DATA
  6
CONTINUOUS
 62
     7
 10
312.89999999999998
 20
-92.599999999999966
 30
0.0
 11
312.89999999999998
 21
-85.599999999999966
 31
0.0
  0
LINE
  5
3B5
  8
DATA
  6
CONTINUOUS
 62
     7
 10
316.3999976036838
 20
-85.0
 30
0.0
 11
316.3999976036838
 21
-115.5
 31
0.0
  0
LINE
  5
3B6
  8
DATA
  6
CONTINUOUS
 62
     7
 10
316.3999976036838
 20
-85.0
 30
0.0
 11
311.39999999999998
 21
-85.0
 31
0.0
  0
LINE
  5
3B7
  8
DATA
  6
CONTINUOUS
 62
     7
 10
316.3999976036838
 20
-115.5
 30
0.0
 11
313.70388987306501
 21
-115.5
 31
0.0
  0
LINE
  5
3B8
  8
DATA
  6
CONTINUOUS
 62
     7
 10
318.89999999999998
 20
-104.0
 30
0.0
 11
316.3999976036838
 21
-104.0
 31
0.0
  0
LINE
  5
3B9
  8
DATA
  6
CONTINUOUS
 62
     7
 10
318.89999999999998
 20
-113.0
 30
0.0
 11
316.3999976036838
 21
-113.0
 31
0.0
  0
LINE
  5
3BA
  8
DATA
  6
CONTINUOUS
 62
     7
 10
318.89999999999998
 20
-104.0
 30
0.0
 11
318.89999999999998
 21
-113.0
 31
0.0
  0
LINE
  5
3BB
  8
DATA
  6
CONTINUOUS
 62
     7
 10
318.40000000000009
 20
-89.749999999999986
 30
0.0
 11
316.3999976036838
 21
-89.749999999999986
 31
0.0
  0
LINE
  5
3BC
  8
DATA
  6
CONTINUOUS
 62
     7
 10
318.40000000000009
 20
-98.250000000000014
 30
0.0
 11
316.3999976036838
 21
-98.250000000000014
 31
0.0
  0
LINE
  5
3BD
  8
DATA
  6
CONTINUOUS
 62
     7
 10
318.40000000000009
 20
-98.250000000000014
 30
0.0
 11
318.40000000000009
 21
-89.749999999999986
 31
0.0
  0
LINE
  5
3BE
  8
DATA
  6
CONTINUOUS
 62
     7
 10
312.89999999999998
 20
-120.59999999999989
 30
0.0
 11
311.39999999999998
 21
-120.59999999999989
 31
0.0
  0
LINE
  5
3BF
  8
DATA
  6
CONTINUOUS
 62
     7
 10
312.89999999999998
 20
-113.59999999999989
 30
0.0
 11
311.39999999999998
 21
-113.59999999999989
 31
0.0
  0
ARC
  5
3C0
  8
DATA
  6
CONTINUOUS
 62
     7
 10
307.27499999999998
 20
-117.09999999999989
 30
0.0
 40
6.625
 50
328.10920819815419
 51
31.89079180184569
  0
LINE
  5
3C1
  8
DATA
  6
CONTINUOUS
 62
     7
 10
312.89999999999998
 20
-120.59999999999989
 30
0.0
 11
312.89999999999998
 21
-113.59999999999989
 31
0.0
  0
ARC
  5
3C2
  8
DATA
  6
CONTINUOUS
 62
     7
 10
-54.500000000000021
 20
132.32935842505751
 30
0.0
 40
2.5
 50
90.0
 51
180.0
  0
LINE
  5
3C3
  8
DATA
  6
CONTINUOUS
 62
     7
 10
-54.500000000000021
 20
134.82935842505751
 30
0.0
 11
-54.500000000000021
 21
136.5759615875146
 31
0.0
  0
ARC
  5
3C4
  8
DATA
  6
CONTINUOUS
 62
     7
 10
-52.000000000000021
 20
146.0
 30
0.0
 40
10.999999999999989
 50
283.13655878694482
 51
256.86344121305513
  0
ARC
  5
3C5
  8
DATA
  6
CONTINUOUS
 62
     7
 10
-49.500000000000021
 20
132.32935842505751
 30
0.0
 40
2.5
 50
0.0
 51
90.0
  0
LINE
  5
3C6
  8
DATA
  6
CONTINUOUS
 62
     7
 10
-49.500000000000021
 20
134.82935842505751
 30
0.0
 11
-49.500000000000021
 21
136.5759615875146
 31
0.0
  0
LINE
  5
3C7
  8
DATA
  6
CONTINUOUS
 62
     7
 10
-32.931818181818507
 20
137.31544545740451
 30
0.0
 11
-33.5
 21
136.20204102886731
 31
0.0
  0
LINE
  5
3C8
  8
DATA
  6
CONTINUOUS
 62
     7
 10
-23.5
 20
136.20204102886731
 30
0.0
 11
-24.068181818181049
 21
137.31544545740351
 31
0.0
  0
ARC
  5
3C9
  8
DATA
  6
CONTINUOUS
 62
     7
 10
-31.00864728019577
 20
133.0805479755324
 30
0.0
 40
2.8976153051289488
 50
236.81132047636771
 51
244.44172003434011
  0
ARC
  5
3CA
  8
DATA
  6
CONTINUOUS
 62
     7
 10
-29.57726575257222
 20
135.81414282903319
 30
0.0
 40
5.9823067585417791
 50
243.3693136576444
 51
256.24187190059968
  0
ARC
  5
3CB
  8
DATA
  6
CONTINUOUS
 62
     7
 10
-28.604474255714081
 20
139.3532891195205
 30
0.0
 40
9.6518135382654915
 50
255.62931022867261
 51
270.62019959189058
  0
ARC
  5
3CC
  8
DATA
  6
CONTINUOUS
 62
     7
 10
-25.99135271980424
 20
133.0805479755324
 30
0.0
 40
2.8976153051289519
 50
295.55827996565978
 51
303.18867952363217
  0
ARC
  5
3CD
  8
DATA
  6
CONTINUOUS
 62
     7
 10
-27.422734247427801
 20
135.81414282903319
 30
0.0
 40
5.9823067585417826
 50
283.7581280994001
 51
296.63068634235538
  0
ARC
  5
3CE
  8
DATA
  6
CONTINUOUS
 62
     7
 10
-28.395525744285919
 20
139.3532891195205
 30
0.0
 40
9.6518135382655075
 50
269.37980040810942
 51
284.37068977132742
  0
ARC
  5
3CF
  8
DATA
  6
CONTINUOUS
 62
     7
 10
-31.500000000000039
 20
132.32935842505751
 30
0.0
 40
1.9999999999999709
 50
180.0
 51
236.81132047636839
  0
ARC
  5
3D0
  8
DATA
  6
CONTINUOUS
 62
     7
 10
-25.499999999999979
 20
132.32935842505751
 30
0.0
 40
1.99999999999998
 50
303.18867952363172
 51
0.0
  0
ARC
  5
3D1
  8
DATA
  6
CONTINUOUS
 62
     7
 10
-31.000000000000011
 20
132.32935842505751
 30
0.0
 40
2.5
 50
90.0
 51
180.0
  0
LINE
  5
3D2
  8
DATA
  6
CONTINUOUS
 62
     7
 10
-31.000000000000011
 20
134.82935842505751
 30
0.0
 11
-31.000000000000011
 21
136.5759615875146
 31
0.0
  0
ARC
  5
3D3
  8
DATA
  6
CONTINUOUS
 62
     7
 10
-26.000000000000011
 20
132.32935842505751
 30
0.0
 40
2.5
 50
0.0
 51
90.0
  0
LINE
  5
3D4
  8
DATA
  6
CONTINUOUS
 62
     7
 10
-26.000000000000011
 20
134.82935842505751
 30
0.0
 11
-26.000000000000011
 21
136.5759615875146
 31
0.0
  0
ARC
  5
3D5
  8
DATA
  6
CONTINUOUS
 62
     7
 10
-28.500000000000011
 20
146.0
 30
0.0
 40
10.999999999999989
 50
283.13655878694482
 51
256.86344121305513
  0
LINE
  5
3D6
  8
DATA
  6
CONTINUOUS
 62
     7
 10
176.59999999999999
 20
-91.600000000000009
 30
0.0
 11
309.79999999999978
 21
-91.600000000000009
 31
0.0
  0
LINE
  5
3D7
  8
DATA
  6
CONTINUOUS
 62
     7
 10
176.59999999999999
 20
-92.600000000000037
 30
0.0
 11
309.79999999999978
 21
-92.600000000000037
 31
0.0
  0
LINE
  5
3D8
  8
DATA
  6
CONTINUOUS
 62
     7
 10
176.59999999999999
 20
-107.59999999999999
 30
0.0
 11
309.79999999999978
 21
-107.59999999999999
 31
0.0
  0
LINE
  5
3D9
  8
DATA
  6
CONTINUOUS
 62
     7
 10
176.59999999999999
 20
-108.59999999999999
 30
0.0
 11
309.79999999999978
 21
-108.59999999999999
 31
0.0
  0
LINE
  5
3DA
  8
DATA
  6
CONTINUOUS
 62
     7
 10
176.59999999999999
 20
-110.09999999999999
 30
0.0
 11
309.79999999999978
 21
-110.09999999999999
 31
0.0
  0
LINE
  5
3DB
  8
DATA
  6
CONTINUOUS
 62
     7
 10
176.59999999999999
 20
-111.09999999999989
 30
0.0
 11
309.79999999999978
 21
-111.09999999999989
 31
0.0
  0
TEXT
  5
3DC
  8
DATA
 62
     7
 10
242.49999999999989
 20
-197.84356500000001
 30
0.0
 40
5.0799999999999992
  1
小型ステレオ・ミキサー
 41
0.85
 11
242.49999999999989
 21
-192.763565
 31
0.0
 73
     3
  0
ENDSEC
  0
EOF
