  0
SECTION
  2
HEADER
  9
$ACADVER
  1
AC1009
  9
$INSBASE
 10
0.0
 20
0.0
 30
0.0
  9
$EXTMIN
 10
-260.02197097989512
 20
-399.89219455822189
 30
-0.0015258207003583
  9
$EXTMAX
 10
460.0219743326561
 20
670.62806302803392
 30
0.0000000349246037
  9
$LIMMIN
 10
0.0
 20
0.0
  9
$LIMMAX
 10
0.0
 20
0.0
  9
$ORTHOMODE
 70
     0
  9
$REGENMODE
 70
     1
  9
$FILLMODE
 70
     1
  9
$QTEXTMODE
 70
     0
  9
$MIRRTEXT
 70
     1
  9
$DRAGMODE
 70
     2
  9
$LTSCALE
 40
20.32
  9
$OSMODE
 70
   231
  9
$ATTMODE
 70
     1
  9
$TEXTSIZE
 40
0.0
  9
$TRACEWID
 40
1.0
  9
$TEXTSTYLE
  7
STANDARD
  9
$CLAYER
  8
DATA
  9
$CELTYPE
  6
BYLAYER
  9
$CECOLOR
 62
   256
  9
$DIMSCALE
 40
1.0
  9
$DIMASZ
 40
0.18
  9
$DIMEXO
 40
0.0625
  9
$DIMDLI
 40
0.38
  9
$DIMRND
 40
0.0
  9
$DIMDLE
 40
0.0
  9
$DIMEXE
 40
0.18
  9
$DIMTP
 40
0.0
  9
$DIMTM
 40
0.0
  9
$DIMTXT
 40
0.18
  9
$DIMCEN
 40
0.09
  9
$DIMTSZ
 40
0.0
  9
$DIMTOL
 70
     0
  9
$DIMLIM
 70
     0
  9
$DIMTIH
 70
     1
  9
$DIMTOH
 70
     1
  9
$DIMSE1
 70
     0
  9
$DIMSE2
 70
     0
  9
$DIMTAD
 70
     0
  9
$DIMZIN
 70
     0
  9
$DIMBLK
  1

  9
$DIMASO
 70
     1
  9
$DIMSHO
 70
     1
  9
$DIMPOST
  1

  9
$DIMAPOST
  1

  9
$DIMALT
 70
     0
  9
$DIMALTD
 70
     2
  9
$DIMALTF
 40
25.399999999999999
  9
$DIMLFAC
 40
1.0
  9
$DIMTOFL
 70
     0
  9
$DIMTVP
 40
0.0
  9
$DIMTIX
 70
     0
  9
$DIMSOXD
 70
     0
  9
$DIMSAH
 70
     0
  9
$DIMBLK1
  1

  9
$DIMBLK2
  1

  9
$DIMSTYLE
  2
STANDARD
  9
$DIMCLRD
 70
     0
  9
$DIMCLRE
 70
     0
  9
$DIMCLRT
 70
     0
  9
$DIMTFAC
 40
1.0
  9
$DIMGAP
 40
0.09
  9
$LUNITS
 70
     2
  9
$LUPREC
 70
     4
  9
$SKETCHINC
 40
0.1
  9
$FILLETRAD
 40
0.0
  9
$AUNITS
 70
     0
  9
$AUPREC
 70
     0
  9
$MENU
  1
acad
  9
$ELEVATION
 40
0.0
  9
$PELEVATION
 40
0.0
  9
$THICKNESS
 40
0.0
  9
$LIMCHECK
 70
     0
  9
$BLIPMODE
 70
     0
  9
$CHAMFERA
 40
0.0
  9
$CHAMFERB
 40
0.0
  9
$SKPOLY
 70
     0
  9
$TDCREATE
 40
2453984.6607870371
  9
$TDUPDATE
 40
2453984.6771576968
  9
$TDINDWG
 40
0.0002766898
  9
$TDUSRTIMER
 40
0.0002765162
  9
$USRTIMER
 70
     1
  9
$ANGBASE
 50
0.0
  9
$ANGDIR
 70
     0
  9
$PDMODE
 70
     1
  9
$PDSIZE
 40
-2.0
  9
$PLINEWID
 40
0.0
  9
$COORDS
 70
     1
  9
$SPLFRAME
 70
     0
  9
$SPLINETYPE
 70
     6
  9
$SPLINESEGS
 70
     8
  9
$ATTDIA
 70
     0
  9
$ATTREQ
 70
     1
  9
$HANDLING
 70
     1
  9
$HANDSEED
  5
782
  9
$SURFTAB1
 70
     6
  9
$SURFTAB2
 70
     6
  9
$SURFTYPE
 70
     6
  9
$SURFU
 70
     6
  9
$SURFV
 70
     6
  9
$UCSNAME
  2

  9
$UCSORG
 10
0.0
 20
0.0
 30
0.0
  9
$UCSXDIR
 10
1.0
 20
0.0
 30
0.0
  9
$UCSYDIR
 10
0.0
 20
1.0
 30
0.0
  9
$PUCSNAME
  2

  9
$PUCSORG
 10
0.0
 20
0.0
 30
0.0
  9
$PUCSXDIR
 10
1.0
 20
0.0
 30
0.0
  9
$PUCSYDIR
 10
0.0
 20
1.0
 30
0.0
  9
$USERI1
 70
     0
  9
$USERI2
 70
     0
  9
$USERI3
 70
     0
  9
$USERI4
 70
     0
  9
$USERI5
 70
     0
  9
$USERR1
 40
0.0
  9
$USERR2
 40
0.0
  9
$USERR3
 40
0.0
  9
$USERR4
 40
0.0
  9
$USERR5
 40
0.0
  9
$WORLDVIEW
 70
     1
  9
$SHADEDGE
 70
     3
  9
$SHADEDIF
 70
    70
  9
$TILEMODE
 70
     1
  9
$MAXACTVP
 70
    64
  9
$PLIMCHECK
 70
     0
  9
$PEXTMIN
 10
1.0000000000000000E+020
 20
1.0000000000000000E+020
 30
1.0000000000000000E+020
  9
$PEXTMAX
 10
-1.0000000000000000E+020
 20
-1.0000000000000000E+020
 30
-1.0000000000000000E+020
  9
$PLIMMIN
 10
0.0
 20
0.0
  9
$PLIMMAX
 10
12.0
 20
9.0
  9
$UNITMODE
 70
     0
  9
$VISRETAIN
 70
     0
  9
$PLINEGEN
 70
     1
  9
$PSLTSCALE
 70
     0
  0
ENDSEC
  0
SECTION
  2
TABLES
  0
TABLE
  2
VPORT
 70
     1
  0
VPORT
  2
*ACTIVE
 70
     0
 10
0.0
 20
0.0
 11
1.0
 21
1.0
 12
100.00000167638041
 22
135.36793423490599
 13
0.0
 23
0.0
 14
1.0
 24
1.0
 15
0.0
 25
0.0
 16
0.0
 26
0.0
 36
1.0
 17
0.0
 27
0.0
 37
0.0
 40
1079.4042431263911
 41
1.6703601108033239
 42
50.0
 43
0.0
 44
0.0
 50
0.0
 51
0.0
 71
     0
 72
  2000
 73
     1
 74
     1
 75
     0
 76
     0
 77
     0
 78
     0
  0
ENDTAB
  0
TABLE
  2
LTYPE
 70
    11
  0
LTYPE
  2
CONTINUOUS
 70
     0
  3
Solid line
 72
    65
 73
     0
 40
0.0
  0
ENDTAB
  0
TABLE
  2
LAYER
 70
     5
  0
LAYER
  2
0
 70
     0
 62
     7
  6
CONTINUOUS
  0
LAYER
  2
DATA
 70
     0
 62
     7
  6
CONTINUOUS
  0
LAYER
  2
HIBINO-BASE
 70
     0
 62
     7
  6
CONTINUOUS
  0
LAYER
  2
SPEC
 70
     0
 62
     7
  6
CONTINUOUS
  0
LAYER
  2
DIMNSIONS
 70
     0
 62
     7
  6
CONTINUOUS
  0
ENDTAB
  0
TABLE
  2
STYLE
 70
     2
  0
STYLE
  2
STANDARD
 70
     0
 40
0.0
 41
1.0
 50
0.0
 71
     0
 42
0.0
  3
txt
  4
BIGFONT.SHX
  0
ENDTAB
  0
TABLE
  2
VIEW
 70
     0
  0
ENDTAB
  0
TABLE
  2
UCS
 70
     0
  0
ENDTAB
  0
TABLE
  2
APPID
 70
     1
  0
APPID
  2
ACAD
 70
     0
  0
ENDTAB
  0
TABLE
  2
DIMSTYLE
 70
     1
  0
DIMSTYLE
  2
STANDARD
 70
     0
  3

  4

  5

  6

  7

 40
1.0
 41
0.18
 42
0.0625
 43
0.38
 44
0.18
 45
0.0
 46
0.0
 47
0.0
 48
0.0
140
0.18
141
0.09
142
0.0
143
25.399999999999999
144
1.0
145
0.0
146
1.0
147
0.09
 71
     0
 72
     0
 73
     1
 74
     1
 75
     0
 76
     0
 77
     0
 78
     0
170
     0
171
     2
172
     0
173
     0
174
     0
175
     0
176
     0
177
     0
178
     0
  0
ENDTAB
  0
ENDSEC
  0
SECTION
  2
BLOCKS
  0
BLOCK
  8
0
  2
$MODEL_SPACE
 70
     0
 10
0.0
 20
0.0
 30
0.0
  3
$MODEL_SPACE
  1

  0
ENDBLK
  5
5F0
  8
0
  0
BLOCK
 67
     1
  8
0
  2
$PAPER_SPACE
 70
     0
 10
0.0
 20
0.0
 30
0.0
  3
$PAPER_SPACE
  1

  0
ENDBLK
  5
5EC
 67
     1
  8
0
  0
ENDSEC
  0
SECTION
  2
ENTITIES
  0
LINE
  5
2C
  8
HIBINO-BASE
 62
     7
 10
-260.0
 20
670.59546
 30
0.0
 11
460.0
 21
670.59546
 31
0.0
  0
LINE
  5
2D
  8
HIBINO-BASE
 62
     7
 10
460.0
 20
-369.40454
 30
0.0
 11
-260.0
 21
-369.40454
 31
0.0
  0
LINE
  5
2E
  8
HIBINO-BASE
 62
     7
 10
-260.0
 20
-369.40454
 30
0.0
 11
-260.0
 21
670.59546
 31
0.0
  0
TEXT
  5
2F
  8
HIBINO-BASE
 62
     7
 10
-231.26400000000001
 20
-395.03925119999991
 30
0.0
 40
14.40017671875
  1
Hibino Corporation
 41
0.8
 11
-231.26400000000001
 21
-380.63907448124991
 31
0.0
 73
     3
  0
LINE
  5
30
  8
HIBINO-BASE
 62
     7
 10
460.0
 20
670.59546
 30
0.0
 11
460.0
 21
-369.40454
 31
0.0
  0
LINE
  5
31
  8
HIBINO-BASE
 62
     7
 10
100.0
 20
-279.40453999999988
 30
0.0
 11
460.0
 21
-279.40453999999988
 31
0.0
  0
LINE
  5
32
  8
HIBINO-BASE
 62
     7
 10
100.0
 20
-369.40454
 30
0.0
 11
100.0
 21
-279.40453999999988
 31
0.0
  0
TEXT
  5
33
  8
HIBINO-BASE
 62
     7
 10
103.59999999999999
 20
-290.20455279999999
 30
0.0
 40
7.2001037500000002
  1
NOTE
 41
0.8
 11
103.59999999999999
 21
-283.00444905000001
 31
0.0
 73
     3
  0
LINE
  5
34
  8
HIBINO-BASE
 62
     7
 10
240.0
 20
-369.40454
 30
0.0
 11
240.0
 21
-279.40453999999988
 31
0.0
  0
TEXT
  5
35
  8
HIBINO-BASE
 62
     7
 10
243.59999999999999
 20
-290.20455279999999
 30
0.0
 40
7.2001037500000002
  1
TITLE
 41
0.8
 11
243.59999999999999
 21
-283.00444905000001
 31
0.0
 73
     3
  0
TEXT
  5
36
  8
HIBINO-BASE
 62
     7
 10
300.27355999999997
 20
-395.03925119999991
 30
0.0
 40
14.40017671875
  1
ヒビノ株式会社
 41
0.8
 11
300.27355999999997
 21
-380.63907448124991
 31
0.0
 73
     3
  0
LINE
  5
37
  8
HIBINO-BASE
 62
     7
 10
100.0
 20
-329.40453999999988
 30
0.0
 11
460.0
 21
-329.40453999999988
 31
0.0
  0
TEXT
  5
38
  8
HIBINO-BASE
 62
     7
 10
293.60000000000002
 20
-339.97927279999988
 30
0.0
 40
7.2001037500000002
  1
DRAWN
 41
0.8
 11
293.60000000000002
 21
-332.77916905000001
 31
0.0
 73
     3
  0
TEXT
  5
39
  8
HIBINO-BASE
 62
     7
 10
193.59999999999999
 20
-339.97927279999988
 30
0.0
 40
7.2001037500000002
  1
DATE
 41
0.8
 11
193.59999999999999
 21
-332.77916905000001
 31
0.0
 73
     3
  0
TEXT
  5
3A
  8
HIBINO-BASE
 62
     7
 10
104.40000000000001
 20
-339.8823648
 30
0.0
 40
6.5153748437499992
  1
図面サイズ
 41
0.8
 11
104.40000000000001
 21
-333.36698995624999
 31
0.0
 73
     3
  0
TEXT
  5
3B
  8
HIBINO-BASE
 62
     7
 10
153.59999999999991
 20
-339.97927279999988
 30
0.0
 40
7.2001037500000002
  1
SCALE
 41
0.8
 11
153.59999999999991
 21
-332.77916905000001
 31
0.0
 73
     3
  0
TEXT
  5
3C
  8
HIBINO-BASE
 62
     7
 10
243.59999999999999
 20
-339.97927279999988
 30
0.0
 40
7.2001037500000002
  1
DESIGN
 41
0.8
 11
243.59999999999999
 21
-332.77916905000001
 31
0.0
 73
     3
  0
TEXT
  5
3D
  8
HIBINO-BASE
 62
     7
 10
393.60000000000002
 20
-339.97927279999988
 30
0.0
 40
7.2001037500000002
  1
DRAWING NO.
 41
0.8
 11
393.60000000000002
 21
-332.77916905000001
 31
0.0
 73
     3
  0
TEXT
  5
3E
  8
HIBINO-BASE
 62
     7
 10
343.60000000000002
 20
-339.97927279999988
 30
0.0
 40
7.2001037500000002
  1
CHECK
 41
0.8
 11
343.60000000000002
 21
-332.77916905000001
 31
0.0
 73
     3
  0
LINE
  5
3F
  8
HIBINO-BASE
 62
     7
 10
157.5
 20
-364.40454
 30
0.0
 11
172.5
 21
-349.40454
 31
0.0
  0
TEXT
  5
40
  8
HIBINO-BASE
 62
     7
 10
155.0
 20
-356.26741679999998
 30
0.0
 40
8.6871459375000004
  1
1
 41
0.8
 11
155.0
 21
-347.58027086250002
 31
0.0
 73
     3
  0
LINE
  5
41
  8
HIBINO-BASE
 62
     7
 10
150.0
 20
-369.40454
 30
0.0
 11
150.0
 21
-329.40453999999988
 31
0.0
  0
LINE
  5
42
  8
HIBINO-BASE
 62
     7
 10
190.0
 20
-369.40454
 30
0.0
 11
190.0
 21
-329.40453999999988
 31
0.0
  0
LINE
  5
43
  8
HIBINO-BASE
 62
     7
 10
290.0
 20
-329.40453999999988
 30
0.0
 11
290.0
 21
-369.40454
 31
0.0
  0
LINE
  5
44
  8
HIBINO-BASE
 62
     7
 10
390.0
 20
-329.40453999999988
 30
0.0
 11
390.0
 21
-369.40454
 31
0.0
  0
LINE
  5
45
  8
HIBINO-BASE
 62
     7
 10
339.99999999999989
 20
-369.40454
 30
0.0
 11
339.99999999999989
 21
-329.40453999999988
 31
0.0
  0
TEXT
  5
46
  8
HIBINO-BASE
 62
     7
 10
115.64355999999999
 20
-359.41071520000003
 30
0.0
 40
13.03071890625
  1
A4
 41
0.8
 11
115.64355999999999
 21
-346.37999629375003
 31
0.0
 73
     3
  0
TEXT
  5
47
  8
HIBINO-BASE
 62
     7
 10
193.42616000000001
 20
-358.7151927999999
 30
0.0
 40
7.2001037500000002
  1
'06.08.
 41
0.8
 11
193.42616000000001
 21
-351.51508904999997
 31
0.0
 73
     3
  0
TEXT
  5
48
  8
HIBINO-BASE
 62
     7
 10
170.0
 20
-363.76741679999998
 30
0.0
 40
8.6871459375000004
  1
4
 41
0.8
 11
170.0
 21
-355.08027086250002
 31
0.0
 73
     3
  0
LINE
  5
49
  8
SPEC
 62
     7
 10
-230.0
 20
630.59545999999989
 30
0.0
 11
360.0
 21
630.59545999999989
 31
0.0
  0
LINE
  5
4A
  8
SPEC
 62
     7
 10
-230.0
 20
615.59546
 30
0.0
 11
360.0
 21
615.59546
 31
0.0
  0
LINE
  5
4B
  8
SPEC
 62
     7
 10
-230.0
 20
630.59545999999989
 30
0.0
 11
-230.0
 21
450.59545999999989
 31
0.0
  0
TEXT
  5
4C
  8
SPEC
 62
     7
 10
-225.0
 20
636.16853999999989
 30
0.0
 40
9.7730468750000004
  1
仕様
 41
0.8
 11
-225.0
 21
645.94158687499987
 31
0.0
 73
     3
  0
LINE
  5
4D
  8
SPEC
 62
     7
 10
-100.0
 20
630.59545999999989
 30
0.0
 11
-100.0
 21
450.59545999999989
 31
0.0
  0
LINE
  5
4E
  8
SPEC
 62
     7
 10
360.0
 20
630.59545999999989
 30
0.0
 11
360.0
 21
450.59545999999989
 31
0.0
  0
TEXT
  5
4F
  8
SPEC
 62
     7
 10
-93.414497071548766
 20
394.30483489371773
 30
0.0
 40
7.6012449999999978
  1
220(W)×44(H)×162(D)mm
 41
0.8
 11
-93.414497071548766
 21
401.90607989371762
 31
0.0
 73
     3
  0
TEXT
  5
50
  8
SPEC
 62
     7
 10
-93.575828367718927
 20
379.49124581430982
 30
0.0
 40
7.6012449999999978
  1
1.2kg
 41
0.8
 11
-93.575828367718927
 21
387.09249081430983
 31
0.0
 73
     3
  0
TEXT
  5
51
  8
SPEC
 62
     7
 10
-93.443550292845117
 20
409.52124167242238
 30
0.0
 40
7.6012449999999978
  1
AC100V,50/60Hz,6W
 41
0.8
 11
-93.443550292845117
 21
417.12248667242233
 31
0.0
 73
     3
  0
LINE
  5
52
  8
SPEC
 62
     7
 10
-230.0
 20
525.59545999999989
 30
0.0
 11
360.0
 21
525.59545999999989
 31
0.0
  0
LINE
  5
53
  8
SPEC
 62
     7
 10
-230.0
 20
450.59545999999989
 30
0.0
 11
360.0
 21
450.59545999999989
 31
0.0
  0
TEXT
  5
54
  8
SPEC
 62
     7
 10
-225.39756353714321
 20
619.67388858686047
 30
0.0
 40
7.6012586805555546
  1
形式
 41
0.8
 11
-225.39756353714321
 21
627.27514726741606
 31
0.0
 73
     3
  0
TEXT
  5
55
  8
SPEC
 62
     7
 10
-95.878040564251236
 20
619.56185886573837
 30
0.0
 40
7.6012586805555546
  1
マイクロホン・ミキサ－
 41
0.8
 11
-95.878040564251236
 21
627.16311754629407
 31
0.0
 73
     3
  0
TEXT
  5
56
  8
SPEC
 62
     7
 10
-225.75808645853181
 20
604.50231206718274
 30
0.0
 40
7.6012586805555546
  1
マイク/ライン入力
 41
0.8
 11
-225.75808645853181
 21
612.10357074773833
 31
0.0
 73
     3
  0
TEXT
  5
57
  8
SPEC
 62
     7
 10
-96.113717190209144
 20
589.81821912762507
 30
0.0
 40
7.6012586805555546
  1
端子・形式:Mic XLR,トランスバランス
 41
0.8
 11
-96.113717190209144
 21
597.41947780818066
 31
0.0
 73
     3
  0
TEXT
  5
58
  8
SPEC
 62
     7
 10
-46.78544438634205
 20
574.84101429381656
 30
0.0
 40
7.6012586805555546
  1
:Line RCA,アンバランス
 41
0.8
 11
-46.78544438634205
 21
582.44227297437214
 31
0.0
 73
     3
  0
TEXT
  5
59
  8
SPEC
 62
     7
 10
-95.987738553818758
 20
559.50315383832958
 30
0.0
 40
7.6012586805555546
  1
インピ－ダンス:1.2kΩ(Mic),21kΩ(Line)
 41
0.8
 11
-95.987738553818758
 21
567.10441251888528
 31
0.0
 73
     3
  0
TEXT
  5
5A
  8
SPEC
 62
     7
 10
-95.783322479504264
 20
544.57275912762509
 30
0.0
 40
7.6012586805555546
  1
クリップレベル:-5dBV(Mic),+28dBV以上(Line)
 41
0.8
 11
-95.783322479504264
 21
552.17401780818079
 31
0.0
 73
     3
  0
TEXT
  5
5B
  8
SPEC
 62
     7
 10
-95.942639876142565
 20
529.52275912762525
 30
0.0
 40
7.6012586805555546
  1
ファンタム電源:DC12V(Mic入力選択時)
 41
0.8
 11
-95.942639876142565
 21
537.12401780818084
 31
0.0
 73
     3
  0
TEXT
  5
5C
  8
SPEC
 62
     7
 10
-225.8184080020167
 20
514.60198228449542
 30
0.0
 40
7.6012586805555546
  1
マイク/ライン出力
 41
0.8
 11
-225.8184080020167
 21
522.20324096505101
 31
0.0
 73
     3
  0
TEXT
  5
5D
  8
SPEC
 62
     7
 10
-95.603914545561565
 20
514.67312044994912
 30
0.0
 40
7.6012586805555546
  1
チャンネル数:1
 41
0.8
 11
-95.603914545561565
 21
522.27437913050471
 31
0.0
 73
     3
  0
TEXT
  5
5E
  8
SPEC
 62
     7
 10
-96.342639876142556
 20
499.56900549897802
 30
0.0
 40
7.6012586805555546
  1
端子・形式:XLR,トランスバランス
 41
0.8
 11
-96.342639876142556
 21
507.1702641795336
 31
0.0
 73
     3
  0
TEXT
  5
5F
  8
SPEC
 62
     7
 10
-95.961759917428367
 20
484.98403379704428
 30
0.0
 40
7.6012586805555546
  1
インピ－ダンス:72Ω(Line)
 41
0.8
 11
-95.961759917428367
 21
492.58529247759969
 31
0.0
 73
     3
  0
TEXT
  5
60
  8
SPEC
 62
     7
 10
-95.534794504275794
 20
469.36295648297738
 30
0.0
 40
7.6012586805555546
  1
クリップレベル:+18dBV(Line)
 41
0.8
 11
-95.534794504275794
 21
476.96421516353303
 31
0.0
 73
     3
  0
LINE
  5
61
  8
SPEC
 62
     7
 10
-230.0
 20
465.59546
 30
0.0
 11
360.0
 21
465.59546
 31
0.0
  0
LINE
  5
62
  8
SPEC
 62
     7
 10
-230.0
 20
435.59546
 30
0.0
 11
360.0
 21
435.59546
 31
0.0
  0
LINE
  5
63
  8
SPEC
 62
     7
 10
-230.0
 20
420.59546
 30
0.0
 11
360.0
 21
420.59546
 31
0.0
  0
LINE
  5
64
  8
SPEC
 62
     7
 10
-230.0
 20
405.59545999999989
 30
0.0
 11
360.0
 21
405.59545999999989
 31
0.0
  0
LINE
  5
65
  8
SPEC
 62
     7
 10
-230.0
 20
390.59546
 30
0.0
 11
360.0
 21
390.59546
 31
0.0
  0
LINE
  5
66
  8
SPEC
 62
     7
 10
-230.0
 20
375.59546
 30
0.0
 11
360.0
 21
375.59546
 31
0.0
  0
LINE
  5
67
  8
SPEC
 62
     7
 10
-230.0
 20
450.59545999999989
 30
0.0
 11
-230.0
 21
375.59546
 31
0.0
  0
LINE
  5
68
  8
SPEC
 62
     7
 10
-100.0
 20
450.59545999999989
 30
0.0
 11
-100.0
 21
375.59546
 31
0.0
  0
LINE
  5
69
  8
SPEC
 62
     7
 10
360.0
 20
450.59545999999989
 30
0.0
 11
360.0
 21
375.59546
 31
0.0
  0
TEXT
  5
6A
  8
SPEC
 62
     7
 10
-226.0541863565636
 20
454.45589783787398
 30
0.0
 40
7.6012586805555546
  1
等価入力ノイズ
 41
0.8
 11
-226.0541863565636
 21
462.05715651842939
 31
0.0
 73
     3
  0
TEXT
  5
6B
  8
SPEC
 62
     7
 10
-93.41591960464892
 20
454.57101181411718
 30
0.0
 40
7.6012586805555546
  1
-124dBV(150Ω,22Hz～22kHz)
 41
0.8
 11
-93.41591960464892
 21
462.17227049467272
 31
0.0
 73
     3
  0
TEXT
  5
6C
  8
SPEC
 62
     7
 10
-226.154794162169
 20
439.67611969504208
 30
0.0
 40
7.6012586805555546
  1
周波数特性
 41
0.8
 11
-226.154794162169
 21
447.27737837559761
 31
0.0
 73
     3
  0
TEXT
  5
6D
  8
SPEC
 62
     7
 10
-93.614526610648113
 20
439.54269887085678
 30
0.0
 40
7.6012586805555546
  1
20Hz～20kHz(±2dB,AUX入力)
 41
0.8
 11
-93.614526610648113
 21
447.14395755141231
 31
0.0
 73
     3
  0
TEXT
  5
6E
  8
SPEC
 62
     7
 10
-223.39709306498051
 20
424.6911330645396
 30
0.0
 40
7.6012586805555546
  1
THD
 41
0.8
 11
-223.39709306498051
 21
432.29239174509507
 31
0.0
 73
     3
  0
TEXT
  5
6F
  8
SPEC
 62
     7
 10
-93.412899414309706
 20
424.57782050738888
 30
0.0
 40
7.6012586805555546
  1
0.25%%%以下(+4dBu,22～22kHz)
 41
0.8
 11
-93.412899414309706
 21
432.17907918794441
 31
0.0
 73
     3
  0
TEXT
  5
70
  8
SPEC
 62
     7
 10
-225.88802545427299
 20
409.68811658685081
 30
0.0
 40
7.6012586805555546
  1
電源/消費電力
 41
0.8
 11
-225.88802545427299
 21
417.28937526740629
 31
0.0
 73
     3
  0
TEXT
  5
71
  8
SPEC
 62
     7
 10
-226.29176923702519
 20
394.6034114596884
 30
0.0
 40
7.6012586805555546
  1
寸法
 41
0.8
 11
-226.29176923702519
 21
402.20467014024388
 31
0.0
 73
     3
  0
TEXT
  5
72
  8
SPEC
 62
     7
 10
-226.0168849815912
 20
379.6478820985588
 30
0.0
 40
7.6012586805555546
  1
質量
 41
0.8
 11
-226.0168849815912
 21
387.24914077911433
 31
0.0
 73
     3
  0
TEXT
  5
73
  8
SPEC
 62
     7
 10
-226.34200072615721
 20
364.82372631105932
 30
0.0
 40
7.6012586805555546
  1
付属品
 41
0.8
 11
-226.34200072615721
 21
372.42498499161479
 31
0.0
 73
     3
  0
TEXT
  5
74
  8
SPEC
 62
     7
 10
-95.780726754779508
 20
364.40963602321187
 30
0.0
 40
7.6012586805555546
  1
ラックマウント金具一式,ゴム足,電源ケーブル
 41
0.8
 11
-95.780726754779508
 21
372.01089470376752
 31
0.0
 73
     3
  0
LINE
  5
75
  8
SPEC
 62
     7
 10
-230.0
 20
360.59546
 30
0.0
 11
360.0
 21
360.59546
 31
0.0
  0
LINE
  5
76
  8
SPEC
 62
     7
 10
-230.0
 20
360.59546
 30
0.0
 11
-230.0
 21
375.60000000000002
 31
0.0
  0
LINE
  5
77
  8
SPEC
 62
     7
 10
-100.0
 20
375.59546
 30
0.0
 11
-100.0
 21
360.59546
 31
0.0
  0
LINE
  5
78
  8
SPEC
 62
     7
 10
360.0
 20
360.59546
 30
0.0
 11
360.0
 21
375.59546
 31
0.0
  0
TEXT
  5
79
  8
SPEC
 62
     7
 10
-95.837712430093873
 20
604.66353434763096
 30
0.0
 40
7.6012586805555546
  1
チャンネル数:4
 41
0.8
 11
-95.837712430093873
 21
612.26479302818655
 31
0.0
 73
     3
  0
TEXT
  5
7A
  8
DIMNSIONS
 62
     7
 10
19.999999999999979
 20
-320.32657999999992
 30
0.0
 40
9.7730468750000004
  1
(単位：mm)
 41
0.8
 11
19.999999999999979
 21
-310.553533125
 31
0.0
 73
     3
  0
LINE
  5
7B
  8
DIMNSIONS
 62
     7
 10
-127.49999997019761
 20
-159.99999999999989
 30
0.0
 11
-167.99999997019771
 21
-159.99999999999989
 31
0.0
  0
LINE
  5
7C
  8
DIMNSIONS
 62
     7
 10
-127.49999997019761
 20
-115.9999999999999
 30
0.0
 11
-167.99999997019771
 21
-115.9999999999999
 31
0.0
  0
LINE
  5
7D
  8
DIMNSIONS
 62
     7
 10
-160.0
 20
-159.99999999999989
 30
0.0
 11
-160.0
 21
-115.9999999999999
 31
0.0
  0
LINE
  5
7E
  8
DIMNSIONS
 62
     7
 10
-160.0
 20
-159.99999999999989
 30
0.0
 11
-163.40295474387531
 21
-147.2999999999999
 31
0.0
  0
LINE
  5
7F
  8
DIMNSIONS
 62
     7
 10
-160.0
 20
-159.99999999999989
 30
0.0
 11
-156.59704525612469
 21
-147.2999999999999
 31
0.0
  0
LINE
  5
80
  8
DIMNSIONS
 62
     7
 10
-160.0
 20
-115.9999999999999
 30
0.0
 11
-156.59704525612469
 21
-128.6999999999999
 31
0.0
  0
LINE
  5
81
  8
DIMNSIONS
 62
     7
 10
-160.0
 20
-115.9999999999999
 30
0.0
 11
-163.40295474387531
 21
-128.6999999999999
 31
0.0
  0
TEXT
  5
82
  8
DIMNSIONS
 62
     7
 10
-165.97555554065431
 20
-145.05555555555549
 30
0.0
 40
10.85894097222222
  1
44
 50
90.0
 41
0.8
 11
-176.83449651287651
 21
-145.05555555555549
 31
0.0
 73
     3
  0
LINE
  5
83
  8
DIMNSIONS
 62
     7
 10
-127.49999997019761
 20
-39.999999999999957
 30
0.0
 11
-167.99999997019771
 21
-39.999999999999957
 31
0.0
  0
LINE
  5
84
  8
DIMNSIONS
 62
     7
 10
-127.49999997019761
 20
96.000000000000043
 30
0.0
 11
-167.99999997019771
 21
96.000000000000043
 31
0.0
  0
LINE
  5
85
  8
DIMNSIONS
 62
     7
 10
-160.0
 20
-39.999999999999957
 30
0.0
 11
-160.0
 21
96.000000000000043
 31
0.0
  0
LINE
  5
86
  8
DIMNSIONS
 62
     7
 10
-160.0
 20
-39.999999999999957
 30
0.0
 11
-163.40295474387531
 21
-27.29999999999999
 31
0.0
  0
LINE
  5
87
  8
DIMNSIONS
 62
     7
 10
-160.0
 20
-39.999999999999957
 30
0.0
 11
-156.59704525612469
 21
-27.29999999999999
 31
0.0
  0
LINE
  5
88
  8
DIMNSIONS
 62
     7
 10
-160.0
 20
96.000000000000043
 30
0.0
 11
-156.59704525612469
 21
83.300000000000054
 31
0.0
  0
LINE
  5
89
  8
DIMNSIONS
 62
     7
 10
-160.0
 20
96.000000000000043
 30
0.0
 11
-163.40295474387531
 21
83.300000000000054
 31
0.0
  0
TEXT
  5
8A
  8
DIMNSIONS
 62
     7
 10
-165.97555554065431
 20
17.4166666666667
 30
0.0
 40
10.85894097222222
  1
136
 50
90.0
 41
0.8
 11
-176.83449651287651
 21
17.4166666666667
 31
0.0
 73
     3
  0
LINE
  5
8B
  8
DIMNSIONS
 62
     7
 10
-127.49999997019761
 20
-39.999999999999957
 30
0.0
 11
-167.99999997019771
 21
-39.999999999999957
 31
0.0
  0
LINE
  5
8C
  8
DIMNSIONS
 62
     7
 10
-111.44322769210839
 20
-57.999999999999972
 30
0.0
 11
-167.99999997019771
 21
-57.999999999999972
 31
0.0
  0
LINE
  5
8D
  8
DIMNSIONS
 62
     7
 10
-160.0
 20
-57.999999999999972
 30
0.0
 11
-160.0
 21
-39.999999999999957
 31
0.0
  0
LINE
  5
8E
  8
DIMNSIONS
 62
     7
 10
-160.0
 20
-39.999999999999957
 30
0.0
 11
-160.0
 21
-19.999999979883398
 31
0.0
  0
LINE
  5
8F
  8
DIMNSIONS
 62
     7
 10
-160.0
 20
-39.999999999999957
 30
0.0
 11
-163.40295474387531
 21
-27.29999999999999
 31
0.0
  0
LINE
  5
90
  8
DIMNSIONS
 62
     7
 10
-160.0
 20
-39.999999999999957
 30
0.0
 11
-156.59704525612469
 21
-27.29999999999999
 31
0.0
  0
LINE
  5
91
  8
DIMNSIONS
 62
     7
 10
-160.0
 20
-57.999999999999972
 30
0.0
 11
-160.0
 21
-78.000000020116545
 31
0.0
  0
LINE
  5
92
  8
DIMNSIONS
 62
     7
 10
-160.0
 20
-57.999999999999972
 30
0.0
 11
-156.59704525612469
 21
-70.699999999999946
 31
0.0
  0
LINE
  5
93
  8
DIMNSIONS
 62
     7
 10
-160.0
 20
-57.999999999999972
 30
0.0
 11
-163.40295474387531
 21
-70.699999999999946
 31
0.0
  0
TEXT
  5
94
  8
DIMNSIONS
 62
     7
 10
-165.97555554065431
 20
-56.055555555555522
 30
0.0
 40
10.85894097222222
  1
18
 50
90.0
 41
0.8
 11
-176.83449651287651
 21
-56.055555555555522
 31
0.0
 73
     3
  0
LINE
  5
95
  8
DIMNSIONS
 62
     7
 10
-127.99999997019761
 20
96.000000000000043
 30
0.0
 11
-167.99999997019771
 21
96.000000000000043
 31
0.0
  0
LINE
  5
96
  8
DIMNSIONS
 62
     7
 10
-16.66499997019762
 20
104.0
 30
0.0
 11
-167.99999997019771
 21
104.0
 31
0.0
  0
LINE
  5
97
  8
DIMNSIONS
 62
     7
 10
-160.0
 20
104.0
 30
0.0
 11
-160.0
 21
96.000000000000043
 31
0.0
  0
LINE
  5
98
  8
DIMNSIONS
 62
     7
 10
-160.0
 20
96.000000000000043
 30
0.0
 11
-160.0
 21
75.999999979883484
 31
0.0
  0
LINE
  5
99
  8
DIMNSIONS
 62
     7
 10
-160.0
 20
96.000000000000043
 30
0.0
 11
-156.59704525612469
 21
83.300000000000054
 31
0.0
  0
LINE
  5
9A
  8
DIMNSIONS
 62
     7
 10
-160.0
 20
96.000000000000043
 30
0.0
 11
-163.40295474387531
 21
83.300000000000054
 31
0.0
  0
LINE
  5
9B
  8
DIMNSIONS
 62
     7
 10
-160.0
 20
104.0
 30
0.0
 11
-160.0
 21
123.65555555555549
 31
0.0
  0
LINE
  5
9C
  8
DIMNSIONS
 62
     7
 10
-160.0
 20
104.0
 30
0.0
 11
-163.40295474387531
 21
116.7
 31
0.0
  0
LINE
  5
9D
  8
DIMNSIONS
 62
     7
 10
-160.0
 20
104.0
 30
0.0
 11
-156.59704525612469
 21
116.7
 31
0.0
  0
TEXT
  5
9E
  8
DIMNSIONS
 62
     7
 10
-165.97555554065431
 20
116.59999999999999
 30
0.0
 40
10.85894097222222
  1
8
 50
90.0
 41
0.8
 11
-176.83449651287651
 21
116.59999999999999
 31
0.0
 73
     3
  0
LINE
  5
9F
  8
DIMNSIONS
 62
     7
 10
-119.9999999999999
 20
-167.99999997019759
 30
0.0
 11
-119.9999999999999
 21
-207.99999997019771
 31
0.0
  0
LINE
  5
A0
  8
DIMNSIONS
 62
     7
 10
100.0
 20
-167.99999997019759
 30
0.0
 11
100.0
 21
-207.99999997019771
 31
0.0
  0
LINE
  5
A1
  8
DIMNSIONS
 62
     7
 10
-119.9999999999999
 20
-200.0
 30
0.0
 11
100.0
 21
-200.0
 31
0.0
  0
LINE
  5
A2
  8
DIMNSIONS
 62
     7
 10
-119.9999999999999
 20
-200.0
 30
0.0
 11
-107.2999999999999
 21
-196.59704525612469
 31
0.0
  0
LINE
  5
A3
  8
DIMNSIONS
 62
     7
 10
-119.9999999999999
 20
-200.0
 30
0.0
 11
-107.2999999999999
 21
-203.40295474387531
 31
0.0
  0
LINE
  5
A4
  8
DIMNSIONS
 62
     7
 10
100.0
 20
-200.0
 30
0.0
 11
87.300000000000026
 21
-203.40295474387531
 31
0.0
  0
LINE
  5
A5
  8
DIMNSIONS
 62
     7
 10
100.0
 20
-200.0
 30
0.0
 11
87.300000000000026
 21
-196.59704525612469
 31
0.0
  0
TEXT
  5
A6
  8
DIMNSIONS
 62
     7
 10
-20.58333333333329
 20
-194.02444445934569
 30
0.0
 40
10.85894097222222
  1
220
 41
0.8
 11
-20.58333333333329
 21
-183.1655034871234
 31
0.0
 73
     3
  0
TEXT
  5
A7
  8
DATA
 62
     7
 10
284.21145777235012
 20
-325.22319713442317
 30
0.0
 40
9.7730468750000004
  1
SCM268
 41
0.8
 11
284.21145777235012
 21
-315.4501502594232
 31
0.0
 73
     3
  0
TEXT
  5
A8
  8
DATA
 62
     7
 10
290.04974026939431
 20
-295.19654573115338
 30
0.0
 40
9.7730468750000004
  1
SHURE
 41
0.8
 11
290.04974026939431
 21
-285.4234988561534
 31
0.0
 73
     3
  0
TEXT
  5
A9
  8
DATA
 62
     7
 10
283.81950036853249
 20
-309.22959723581658
 30
0.0
 40
7.6012586805555546
  1
マイクロホン・ミキサ－
 41
0.8
 11
283.81950036853249
 21
-301.62833855526111
 31
0.0
 73
     3
  0
LINE
  5
AA
  8
DATA
 62
     7
 10
-119.9999999999999
 20
96.000000000000043
 30
0.0
 11
100.0
 21
96.000000000000043
 31
0.0
  0
LINE
  5
AB
  8
DATA
 62
     7
 10
100.0
 20
-39.999999999999957
 30
0.0
 11
-119.9999999999999
 21
-39.999999999999957
 31
0.0
  0
LINE
  5
AC
  8
DATA
 62
     7
 10
-119.9999999999999
 20
-115.9999999999999
 30
0.0
 11
100.0
 21
-115.9999999999999
 31
0.0
  0
LINE
  5
AD
  8
DATA
 62
     7
 10
100.0
 20
-159.99999999999989
 30
0.0
 11
-119.9999999999999
 21
-159.99999999999989
 31
0.0
  0
LINE
  5
AE
  8
DATA
 62
     7
 10
-119.9999999999999
 20
-38.499999999999957
 30
0.0
 11
100.0
 21
-38.499999999999957
 31
0.0
  0
LINE
  5
AF
  8
DATA
 62
     7
 10
-119.4999999999999
 20
94.800000000000026
 30
0.0
 11
100.0
 21
94.800000000000026
 31
0.0
  0
LINE
  5
B0
  8
DATA
 62
     7
 10
-110.4999999999999
 20
-38.499999999999957
 30
0.0
 11
-110.4999999999999
 21
94.800000000000026
 31
0.0
  0
LINE
  5
B1
  8
DATA
 62
     7
 10
89.500000000000043
 20
-38.499999999999957
 30
0.0
 11
89.500000000000043
 21
94.800000000000026
 31
0.0
  0
CIRCLE
  5
B2
  8
DATA
 62
     7
 10
-105.9999999999999
 20
65.80000000000004
 30
0.0
 40
3.1500000000000048
  0
LINE
  5
B3
  8
DATA
 62
     7
 10
-107.71464281994599
 20
65.450000000000045
 30
0.0
 11
-107.71464281994599
 21
66.150000000000034
 31
0.0
  0
LINE
  5
B4
  8
DATA
 62
     7
 10
-104.28535718005379
 20
65.450000000000045
 30
0.0
 11
-104.28535718005379
 21
66.150000000000034
 31
0.0
  0
LINE
  5
B5
  8
DATA
 62
     7
 10
-105.64999999999991
 20
67.514642819948151
 30
0.0
 11
-106.34999999999999
 21
67.514642819948151
 31
0.0
  0
LINE
  5
B6
  8
DATA
 62
     7
 10
-105.64999999999991
 20
64.085357180051929
 30
0.0
 11
-106.34999999999999
 21
64.085357180051929
 31
0.0
  0
LINE
  5
B7
  8
DATA
 62
     7
 10
-106.34999999999999
 20
64.085357180051929
 30
0.0
 11
-106.34999999999999
 21
65.092847621254123
 31
0.0
  0
LINE
  5
B8
  8
DATA
 62
     7
 10
-106.34999999999999
 20
66.507152378705058
 30
0.0
 11
-106.34999999999999
 21
67.519999999999996
 31
0.0
  0
LINE
  5
B9
  8
DATA
 62
     7
 10
-105.64999999999991
 20
64.085357180051929
 30
0.0
 11
-105.64999999999991
 21
65.092847621389112
 31
0.0
  0
LINE
  5
BA
  8
DATA
 62
     7
 10
-105.64999999999991
 20
66.507449779091218
 30
0.0
 11
-105.64999999999991
 21
67.514642819948151
 31
0.0
  0
LINE
  5
BB
  8
DATA
 62
     7
 10
-107.71464281994599
 20
66.150000000000034
 30
0.0
 11
-106.7071523787276
 21
66.150000000000034
 31
0.0
  0
LINE
  5
BC
  8
DATA
 62
     7
 10
-105.29291955448031
 20
66.150000000000034
 30
0.0
 11
-104.28535718005379
 21
66.150000000000034
 31
0.0
  0
LINE
  5
BD
  8
DATA
 62
     7
 10
-104.28535718005379
 20
65.450000000000045
 30
0.0
 11
-105.29284762145269
 21
65.450000000000045
 31
0.0
  0
LINE
  5
BE
  8
DATA
 62
     7
 10
-106.7071523787568
 20
65.450000000000045
 30
0.0
 11
-107.72
 21
65.450000000000045
 31
0.0
  0
ARC
  5
BF
  8
DATA
 62
     7
 10
-106.7824992594005
 20
65.017500740601093
 30
0.0
 40
0.4390133959299899
 50
9.8824732841403673
 51
80.117526717010094
  0
ARC
  5
C0
  8
DATA
 62
     7
 10
-105.2175007406679
 20
65.017500740669703
 30
0.0
 40
0.4390133958741855
 50
99.882473302655626
 51
170.11752670578801
  0
ARC
  5
C1
  8
DATA
 62
     7
 10
-105.2175367072315
 20
66.582385594535211
 30
0.0
 40
0.4389075939506917
 50
189.8304141412124
 51
260.11035462451861
  0
ARC
  5
C2
  8
DATA
 62
     7
 10
-106.7824992593778
 20
66.582499259376192
 30
0.0
 40
0.4390133959114614
 50
279.88247328431891
 51
350.1175267130227
  0
CIRCLE
  5
C3
  8
DATA
 62
     7
 10
-105.9999999999999
 20
-9.4999999999999716
 30
0.0
 40
3.1500000000000048
  0
LINE
  5
C4
  8
DATA
 62
     7
 10
-107.71464281994599
 20
-9.8499999999999641
 30
0.0
 11
-107.71464281994599
 21
-9.1499999999999755
 31
0.0
  0
LINE
  5
C5
  8
DATA
 62
     7
 10
-104.28535718005379
 20
-9.8499999999999641
 30
0.0
 11
-104.28535718005379
 21
-9.1499999999999755
 31
0.0
  0
LINE
  5
C6
  8
DATA
 62
     7
 10
-105.64999999999991
 20
-7.7853571800518457
 30
0.0
 11
-106.34999999999999
 21
-7.7853571800518457
 31
0.0
  0
LINE
  5
C7
  8
DATA
 62
     7
 10
-105.64999999999991
 20
-11.214642819948089
 30
0.0
 11
-106.34999999999999
 21
-11.214642819948089
 31
0.0
  0
LINE
  5
C8
  8
DATA
 62
     7
 10
-106.34999999999999
 20
-11.214642819948089
 30
0.0
 11
-106.34999999999999
 21
-10.20715237874588
 31
0.0
  0
LINE
  5
C9
  8
DATA
 62
     7
 10
-106.34999999999999
 20
-8.7928476212949533
 30
0.0
 11
-106.34999999999999
 21
-7.7800000000000278
 31
0.0
  0
LINE
  5
CA
  8
DATA
 62
     7
 10
-105.64999999999991
 20
-11.214642819948089
 30
0.0
 11
-105.64999999999991
 21
-10.20715237861088
 31
0.0
  0
LINE
  5
CB
  8
DATA
 62
     7
 10
-105.64999999999991
 20
-8.7925502209087938
 30
0.0
 11
-105.64999999999991
 21
-7.7853571800518457
 31
0.0
  0
LINE
  5
CC
  8
DATA
 62
     7
 10
-107.71464281994599
 20
-9.1499999999999755
 30
0.0
 11
-106.7071523787276
 21
-9.1499999999999755
 31
0.0
  0
LINE
  5
CD
  8
DATA
 62
     7
 10
-105.29291955448031
 20
-9.1499999999999755
 30
0.0
 11
-104.28535718005379
 21
-9.1499999999999755
 31
0.0
  0
LINE
  5
CE
  8
DATA
 62
     7
 10
-104.28535718005379
 20
-9.8499999999999641
 30
0.0
 11
-105.29284762145269
 21
-9.8499999999999641
 31
0.0
  0
LINE
  5
CF
  8
DATA
 62
     7
 10
-106.7071523787568
 20
-9.8499999999999641
 30
0.0
 11
-107.72
 21
-9.8499999999999641
 31
0.0
  0
ARC
  5
D0
  8
DATA
 62
     7
 10
-106.7824992594005
 20
-10.28249925939892
 30
0.0
 40
0.4390133959299875
 50
9.8824732841385359
 51
80.117526717009781
  0
ARC
  5
D1
  8
DATA
 62
     7
 10
-105.2175007406679
 20
-10.282499259330301
 30
0.0
 40
0.4390133958741855
 50
99.882473302655626
 51
170.11752670578991
  0
ARC
  5
D2
  8
DATA
 62
     7
 10
-105.2175367072315
 20
-8.7176144054648166
 30
0.0
 40
0.4389075939506917
 50
189.8304141412124
 51
260.11035462451889
  0
ARC
  5
D3
  8
DATA
 62
     7
 10
-106.7824992593778
 20
-8.7175007406238194
 30
0.0
 40
0.4390133959114473
 50
279.88247328431908
 51
350.11752671302258
  0
CIRCLE
  5
D4
  8
DATA
 62
     7
 10
85.000000000000028
 20
-9.4999999999999716
 30
0.0
 40
3.1500000000000048
  0
LINE
  5
D5
  8
DATA
 62
     7
 10
83.285357180053936
 20
-9.8499999999999641
 30
0.0
 11
83.285357180053936
 21
-9.1499999999999755
 31
0.0
  0
LINE
  5
D6
  8
DATA
 62
     7
 10
86.714642819946192
 20
-9.8499999999999641
 30
0.0
 11
86.714642819946192
 21
-9.1499999999999755
 31
0.0
  0
LINE
  5
D7
  8
DATA
 62
     7
 10
85.350000000000009
 20
-7.7853571800518457
 30
0.0
 11
84.650000000000006
 21
-7.7853571800518457
 31
0.0
  0
LINE
  5
D8
  8
DATA
 62
     7
 10
85.350000000000009
 20
-11.214642819948089
 30
0.0
 11
84.650000000000006
 21
-11.214642819948089
 31
0.0
  0
LINE
  5
D9
  8
DATA
 62
     7
 10
84.650000000000006
 20
-11.214642819948089
 30
0.0
 11
84.650000000000006
 21
-10.20715237874588
 31
0.0
  0
LINE
  5
DA
  8
DATA
 62
     7
 10
84.650000000000006
 20
-8.7928476212949533
 30
0.0
 11
84.650000000000006
 21
-7.7800000000000278
 31
0.0
  0
LINE
  5
DB
  8
DATA
 62
     7
 10
85.350000000000009
 20
-11.214642819948089
 30
0.0
 11
85.350000000000009
 21
-10.20715237861088
 31
0.0
  0
LINE
  5
DC
  8
DATA
 62
     7
 10
85.350000000000009
 20
-8.7925502209087938
 30
0.0
 11
85.350000000000009
 21
-7.7853571800518457
 31
0.0
  0
LINE
  5
DD
  8
DATA
 62
     7
 10
83.285357180053936
 20
-9.1499999999999755
 30
0.0
 11
84.292847621272344
 21
-9.1499999999999755
 31
0.0
  0
LINE
  5
DE
  8
DATA
 62
     7
 10
85.707080445519651
 20
-9.1499999999999755
 30
0.0
 11
86.714642819946192
 21
-9.1499999999999755
 31
0.0
  0
LINE
  5
DF
  8
DATA
 62
     7
 10
86.714642819946192
 20
-9.8499999999999641
 30
0.0
 11
85.707152378547235
 21
-9.8499999999999641
 31
0.0
  0
LINE
  5
E0
  8
DATA
 62
     7
 10
84.292847621243226
 20
-9.8499999999999641
 30
0.0
 11
83.280000000000015
 21
-9.8499999999999641
 31
0.0
  0
ARC
  5
E1
  8
DATA
 62
     7
 10
84.217500740599448
 20
-10.28249925939892
 30
0.0
 40
0.4390133959299875
 50
9.8824732841385359
 51
80.117526717009781
  0
ARC
  5
E2
  8
DATA
 62
     7
 10
85.782499259332013
 20
-10.282499259330301
 30
0.0
 40
0.4390133958741855
 50
99.882473302655626
 51
170.11752670578991
  0
ARC
  5
E3
  8
DATA
 62
     7
 10
85.782463292768455
 20
-8.7176144054648166
 30
0.0
 40
0.4389075939506917
 50
189.8304141412124
 51
260.11035462451889
  0
ARC
  5
E4
  8
DATA
 62
     7
 10
84.217500740622185
 20
-8.7175007406238194
 30
0.0
 40
0.4390133959114473
 50
279.88247328431908
 51
350.11752671302258
  0
CIRCLE
  5
E5
  8
DATA
 62
     7
 10
85.000000000000028
 20
65.80000000000004
 30
0.0
 40
3.1500000000000048
  0
LINE
  5
E6
  8
DATA
 62
     7
 10
83.285357180053936
 20
65.450000000000045
 30
0.0
 11
83.285357180053936
 21
66.150000000000034
 31
0.0
  0
LINE
  5
E7
  8
DATA
 62
     7
 10
86.714642819946192
 20
65.450000000000045
 30
0.0
 11
86.714642819946192
 21
66.150000000000034
 31
0.0
  0
LINE
  5
E8
  8
DATA
 62
     7
 10
85.350000000000009
 20
67.514642819948151
 30
0.0
 11
84.650000000000006
 21
67.514642819948151
 31
0.0
  0
LINE
  5
E9
  8
DATA
 62
     7
 10
85.350000000000009
 20
64.085357180051929
 30
0.0
 11
84.650000000000006
 21
64.085357180051929
 31
0.0
  0
LINE
  5
EA
  8
DATA
 62
     7
 10
84.650000000000006
 20
64.085357180051929
 30
0.0
 11
84.650000000000006
 21
65.092847621254123
 31
0.0
  0
LINE
  5
EB
  8
DATA
 62
     7
 10
84.650000000000006
 20
66.507152378705058
 30
0.0
 11
84.650000000000006
 21
67.519999999999996
 31
0.0
  0
LINE
  5
EC
  8
DATA
 62
     7
 10
85.350000000000009
 20
64.085357180051929
 30
0.0
 11
85.350000000000009
 21
65.092847621389112
 31
0.0
  0
LINE
  5
ED
  8
DATA
 62
     7
 10
85.350000000000009
 20
66.507449779091218
 30
0.0
 11
85.350000000000009
 21
67.514642819948151
 31
0.0
  0
LINE
  5
EE
  8
DATA
 62
     7
 10
83.285357180053936
 20
66.150000000000034
 30
0.0
 11
84.292847621272344
 21
66.150000000000034
 31
0.0
  0
LINE
  5
EF
  8
DATA
 62
     7
 10
85.707080445519651
 20
66.150000000000034
 30
0.0
 11
86.714642819946192
 21
66.150000000000034
 31
0.0
  0
LINE
  5
F0
  8
DATA
 62
     7
 10
86.714642819946192
 20
65.450000000000045
 30
0.0
 11
85.707152378547235
 21
65.450000000000045
 31
0.0
  0
LINE
  5
F1
  8
DATA
 62
     7
 10
84.292847621243226
 20
65.450000000000045
 30
0.0
 11
83.280000000000015
 21
65.450000000000045
 31
0.0
  0
ARC
  5
F2
  8
DATA
 62
     7
 10
84.217500740599448
 20
65.017500740601093
 30
0.0
 40
0.4390133959299899
 50
9.8824732841403673
 51
80.117526717010094
  0
ARC
  5
F3
  8
DATA
 62
     7
 10
85.782499259332013
 20
65.017500740669703
 30
0.0
 40
0.4390133958741855
 50
99.882473302655626
 51
170.11752670578801
  0
ARC
  5
F4
  8
DATA
 62
     7
 10
85.782463292768455
 20
66.582385594535211
 30
0.0
 40
0.4389075939506917
 50
189.8304141412124
 51
260.11035462451861
  0
ARC
  5
F5
  8
DATA
 62
     7
 10
84.217500740622185
 20
66.582499259376192
 30
0.0
 40
0.4390133959114614
 50
279.88247328431891
 51
350.1175267130227
  0
CIRCLE
  5
F6
  8
DATA
 62
     7
 10
-115.4999999999999
 20
78.300000000000054
 30
0.0
 40
3.1500000000000048
  0
LINE
  5
F7
  8
DATA
 62
     7
 10
-117.21464281994599
 20
77.950000000000031
 30
0.0
 11
-117.21464281994599
 21
78.650000000000034
 31
0.0
  0
LINE
  5
F8
  8
DATA
 62
     7
 10
-113.78535718005379
 20
77.950000000000031
 30
0.0
 11
-113.78535718005379
 21
78.650000000000034
 31
0.0
  0
LINE
  5
F9
  8
DATA
 62
     7
 10
-115.14999999999991
 20
80.014642819948136
 30
0.0
 11
-115.84999999999999
 21
80.014642819948136
 31
0.0
  0
LINE
  5
FA
  8
DATA
 62
     7
 10
-115.14999999999991
 20
76.585357180051943
 30
0.0
 11
-115.84999999999999
 21
76.585357180051943
 31
0.0
  0
LINE
  5
FB
  8
DATA
 62
     7
 10
-115.84999999999999
 20
76.585357180051943
 30
0.0
 11
-115.84999999999999
 21
77.592847621254094
 31
0.0
  0
LINE
  5
FC
  8
DATA
 62
     7
 10
-115.84999999999999
 20
79.007152378705058
 30
0.0
 11
-115.84999999999999
 21
80.019999999999982
 31
0.0
  0
LINE
  5
FD
  8
DATA
 62
     7
 10
-115.14999999999991
 20
76.585357180051943
 30
0.0
 11
-115.14999999999991
 21
77.592847621389097
 31
0.0
  0
LINE
  5
FE
  8
DATA
 62
     7
 10
-115.14999999999991
 20
79.007449779091232
 30
0.0
 11
-115.14999999999991
 21
80.014642819948136
 31
0.0
  0
LINE
  5
FF
  8
DATA
 62
     7
 10
-117.21464281994599
 20
78.650000000000034
 30
0.0
 11
-116.2071523787276
 21
78.650000000000034
 31
0.0
  0
LINE
  5
100
  8
DATA
 62
     7
 10
-114.79291955448031
 20
78.650000000000034
 30
0.0
 11
-113.78535718005379
 21
78.650000000000034
 31
0.0
  0
LINE
  5
101
  8
DATA
 62
     7
 10
-113.78535718005379
 20
77.950000000000031
 30
0.0
 11
-114.79284762145269
 21
77.950000000000031
 31
0.0
  0
LINE
  5
102
  8
DATA
 62
     7
 10
-116.2071523787568
 20
77.950000000000031
 30
0.0
 11
-117.22
 21
77.950000000000031
 31
0.0
  0
ARC
  5
103
  8
DATA
 62
     7
 10
-116.2824992594005
 20
77.517500740601093
 30
0.0
 40
0.4390133959299899
 50
9.8824732841403673
 51
80.117526717010094
  0
ARC
  5
104
  8
DATA
 62
     7
 10
-114.7175007406679
 20
77.517500740669703
 30
0.0
 40
0.4390133958741855
 50
99.882473302655626
 51
170.11752670578801
  0
ARC
  5
105
  8
DATA
 62
     7
 10
-114.7175367072315
 20
79.082385594535182
 30
0.0
 40
0.4389075939506917
 50
189.8304141412124
 51
260.11035462451861
  0
ARC
  5
106
  8
DATA
 62
     7
 10
-116.2824992593778
 20
79.082499259376192
 30
0.0
 40
0.4390133959114614
 50
279.88247328431891
 51
350.1175267130227
  0
CIRCLE
  5
107
  8
DATA
 62
     7
 10
-115.4999999999999
 20
-21.999999999999972
 30
0.0
 40
3.1500000000000048
  0
LINE
  5
108
  8
DATA
 62
     7
 10
-117.21464281994599
 20
-22.349999999999969
 30
0.0
 11
-117.21464281994599
 21
-21.649999999999981
 31
0.0
  0
LINE
  5
109
  8
DATA
 62
     7
 10
-113.78535718005379
 20
-22.349999999999969
 30
0.0
 11
-113.78535718005379
 21
-21.649999999999981
 31
0.0
  0
LINE
  5
10A
  8
DATA
 62
     7
 10
-115.14999999999991
 20
-20.28535718005185
 30
0.0
 11
-115.84999999999999
 21
-20.28535718005185
 31
0.0
  0
LINE
  5
10B
  8
DATA
 62
     7
 10
-115.14999999999991
 20
-23.714642819948089
 30
0.0
 11
-115.84999999999999
 21
-23.714642819948089
 31
0.0
  0
LINE
  5
10C
  8
DATA
 62
     7
 10
-115.84999999999999
 20
-23.714642819948089
 30
0.0
 11
-115.84999999999999
 21
-22.707152378745889
 31
0.0
  0
LINE
  5
10D
  8
DATA
 62
     7
 10
-115.84999999999999
 20
-21.29284762129495
 30
0.0
 11
-115.84999999999999
 21
-20.28000000000003
 31
0.0
  0
LINE
  5
10E
  8
DATA
 62
     7
 10
-115.14999999999991
 20
-23.714642819948089
 30
0.0
 11
-115.14999999999991
 21
-22.707152378610889
 31
0.0
  0
LINE
  5
10F
  8
DATA
 62
     7
 10
-115.14999999999991
 20
-21.292550220908801
 30
0.0
 11
-115.14999999999991
 21
-20.28535718005185
 31
0.0
  0
LINE
  5
110
  8
DATA
 62
     7
 10
-117.21464281994599
 20
-21.649999999999981
 30
0.0
 11
-116.2071523787276
 21
-21.649999999999981
 31
0.0
  0
LINE
  5
111
  8
DATA
 62
     7
 10
-114.79291955448031
 20
-21.649999999999981
 30
0.0
 11
-113.78535718005379
 21
-21.649999999999981
 31
0.0
  0
LINE
  5
112
  8
DATA
 62
     7
 10
-113.78535718005379
 20
-22.349999999999969
 30
0.0
 11
-114.79284762145269
 21
-22.349999999999969
 31
0.0
  0
LINE
  5
113
  8
DATA
 62
     7
 10
-116.2071523787568
 20
-22.349999999999969
 30
0.0
 11
-117.22
 21
-22.349999999999969
 31
0.0
  0
ARC
  5
114
  8
DATA
 62
     7
 10
-116.2824992594005
 20
-22.782499259398922
 30
0.0
 40
0.4390133959299875
 50
9.8824732841385359
 51
80.117526717009781
  0
ARC
  5
115
  8
DATA
 62
     7
 10
-114.7175007406679
 20
-22.782499259330312
 30
0.0
 40
0.4390133958741855
 50
99.882473302655626
 51
170.11752670578991
  0
ARC
  5
116
  8
DATA
 62
     7
 10
-114.7175367072315
 20
-21.217614405464811
 30
0.0
 40
0.4389075939506917
 50
189.8304141412124
 51
260.11035462451889
  0
ARC
  5
117
  8
DATA
 62
     7
 10
-116.2824992593778
 20
-21.217500740623819
 30
0.0
 40
0.4390133959114473
 50
279.88247328431908
 51
350.11752671302258
  0
CIRCLE
  5
118
  8
DATA
 62
     7
 10
94.500000000000043
 20
78.300000000000054
 30
0.0
 40
3.1500000000000048
  0
LINE
  5
119
  8
DATA
 62
     7
 10
92.785357180053907
 20
77.950000000000031
 30
0.0
 11
92.785357180053907
 21
78.650000000000034
 31
0.0
  0
LINE
  5
11A
  8
DATA
 62
     7
 10
96.214642819946192
 20
77.950000000000031
 30
0.0
 11
96.214642819946192
 21
78.650000000000034
 31
0.0
  0
LINE
  5
11B
  8
DATA
 62
     7
 10
94.850000000000037
 20
80.014642819948136
 30
0.0
 11
94.15000000000002
 21
80.014642819948136
 31
0.0
  0
LINE
  5
11C
  8
DATA
 62
     7
 10
94.850000000000037
 20
76.585357180051943
 30
0.0
 11
94.15000000000002
 21
76.585357180051943
 31
0.0
  0
LINE
  5
11D
  8
DATA
 62
     7
 10
94.15000000000002
 20
76.585357180051943
 30
0.0
 11
94.15000000000002
 21
77.592847621254094
 31
0.0
  0
LINE
  5
11E
  8
DATA
 62
     7
 10
94.15000000000002
 20
79.007152378705058
 30
0.0
 11
94.15000000000002
 21
80.019999999999982
 31
0.0
  0
LINE
  5
11F
  8
DATA
 62
     7
 10
94.850000000000037
 20
76.585357180051943
 30
0.0
 11
94.850000000000037
 21
77.592847621389097
 31
0.0
  0
LINE
  5
120
  8
DATA
 62
     7
 10
94.850000000000037
 20
79.007449779091232
 30
0.0
 11
94.850000000000037
 21
80.014642819948136
 31
0.0
  0
LINE
  5
121
  8
DATA
 62
     7
 10
92.785357180053907
 20
78.650000000000034
 30
0.0
 11
93.792847621272315
 21
78.650000000000034
 31
0.0
  0
LINE
  5
122
  8
DATA
 62
     7
 10
95.207080445519637
 20
78.650000000000034
 30
0.0
 11
96.214642819946192
 21
78.650000000000034
 31
0.0
  0
LINE
  5
123
  8
DATA
 62
     7
 10
96.214642819946192
 20
77.950000000000031
 30
0.0
 11
95.207152378547235
 21
77.950000000000031
 31
0.0
  0
LINE
  5
124
  8
DATA
 62
     7
 10
93.792847621243212
 20
77.950000000000031
 30
0.0
 11
92.780000000000001
 21
77.950000000000031
 31
0.0
  0
ARC
  5
125
  8
DATA
 62
     7
 10
93.717500740599462
 20
77.517500740601093
 30
0.0
 40
0.4390133959299899
 50
9.8824732841403673
 51
80.117526717010094
  0
ARC
  5
126
  8
DATA
 62
     7
 10
95.282499259331999
 20
77.517500740669703
 30
0.0
 40
0.4390133958741855
 50
99.882473302655626
 51
170.11752670578801
  0
ARC
  5
127
  8
DATA
 62
     7
 10
95.282463292768455
 20
79.082385594535182
 30
0.0
 40
0.4389075939506917
 50
189.8304141412124
 51
260.11035462451861
  0
ARC
  5
128
  8
DATA
 62
     7
 10
93.717500740622185
 20
79.082499259376192
 30
0.0
 40
0.4390133959114614
 50
279.88247328431891
 51
350.1175267130227
  0
CIRCLE
  5
129
  8
DATA
 62
     7
 10
94.500000000000043
 20
-21.999999999999972
 30
0.0
 40
3.1500000000000048
  0
LINE
  5
12A
  8
DATA
 62
     7
 10
92.785357180053907
 20
-22.349999999999969
 30
0.0
 11
92.785357180053907
 21
-21.649999999999981
 31
0.0
  0
LINE
  5
12B
  8
DATA
 62
     7
 10
96.214642819946192
 20
-22.349999999999969
 30
0.0
 11
96.214642819946192
 21
-21.649999999999981
 31
0.0
  0
LINE
  5
12C
  8
DATA
 62
     7
 10
94.850000000000037
 20
-20.28535718005185
 30
0.0
 11
94.15000000000002
 21
-20.28535718005185
 31
0.0
  0
LINE
  5
12D
  8
DATA
 62
     7
 10
94.850000000000037
 20
-23.714642819948089
 30
0.0
 11
94.15000000000002
 21
-23.714642819948089
 31
0.0
  0
LINE
  5
12E
  8
DATA
 62
     7
 10
94.15000000000002
 20
-23.714642819948089
 30
0.0
 11
94.15000000000002
 21
-22.707152378745889
 31
0.0
  0
LINE
  5
12F
  8
DATA
 62
     7
 10
94.15000000000002
 20
-21.29284762129495
 30
0.0
 11
94.15000000000002
 21
-20.28000000000003
 31
0.0
  0
LINE
  5
130
  8
DATA
 62
     7
 10
94.850000000000037
 20
-23.714642819948089
 30
0.0
 11
94.850000000000037
 21
-22.707152378610889
 31
0.0
  0
LINE
  5
131
  8
DATA
 62
     7
 10
94.850000000000037
 20
-21.292550220908801
 30
0.0
 11
94.850000000000037
 21
-20.28535718005185
 31
0.0
  0
LINE
  5
132
  8
DATA
 62
     7
 10
92.785357180053907
 20
-21.649999999999981
 30
0.0
 11
93.792847621272315
 21
-21.649999999999981
 31
0.0
  0
LINE
  5
133
  8
DATA
 62
     7
 10
95.207080445519637
 20
-21.649999999999981
 30
0.0
 11
96.214642819946192
 21
-21.649999999999981
 31
0.0
  0
LINE
  5
134
  8
DATA
 62
     7
 10
96.214642819946192
 20
-22.349999999999969
 30
0.0
 11
95.207152378547235
 21
-22.349999999999969
 31
0.0
  0
LINE
  5
135
  8
DATA
 62
     7
 10
93.792847621243212
 20
-22.349999999999969
 30
0.0
 11
92.780000000000001
 21
-22.349999999999969
 31
0.0
  0
ARC
  5
136
  8
DATA
 62
     7
 10
93.717500740599462
 20
-22.782499259398922
 30
0.0
 40
0.4390133959299875
 50
9.8824732841385359
 51
80.117526717009781
  0
ARC
  5
137
  8
DATA
 62
     7
 10
95.282499259331999
 20
-22.782499259330312
 30
0.0
 40
0.4390133958741855
 50
99.882473302655626
 51
170.11752670578991
  0
ARC
  5
138
  8
DATA
 62
     7
 10
95.282463292768455
 20
-21.217614405464811
 30
0.0
 40
0.4389075939506917
 50
189.8304141412124
 51
260.11035462451889
  0
ARC
  5
139
  8
DATA
 62
     7
 10
93.717500740622185
 20
-21.217500740623819
 30
0.0
 40
0.4390133959114473
 50
279.88247328431908
 51
350.11752671302258
  0
ARC
  5
13A
  8
DATA
 62
     7
 10
-115.4999999999999
 20
-38.35739661654145
 30
0.0
 40
4.9726033834585683
 50
227.09929055029659
 51
312.90070944970319
  0
LINE
  5
13B
  8
DATA
 62
     7
 10
-118.88499999999991
 20
-41.999999999999957
 30
0.0
 11
-118.88499999999991
 21
-39.999999999999957
 31
0.0
  0
LINE
  5
13C
  8
DATA
 62
     7
 10
-112.1149999999999
 20
-41.999999999999957
 30
0.0
 11
-112.1149999999999
 21
-39.999999999999957
 31
0.0
  0
ARC
  5
13D
  8
DATA
 62
     7
 10
94.500000000000043
 20
-38.35739661654145
 30
0.0
 40
4.9726033834585683
 50
227.09929055029659
 51
312.90070944970319
  0
LINE
  5
13E
  8
DATA
 62
     7
 10
91.115000000000023
 20
-41.999999999999957
 30
0.0
 11
91.115000000000023
 21
-39.999999999999957
 31
0.0
  0
LINE
  5
13F
  8
DATA
 62
     7
 10
97.885000000000034
 20
-41.999999999999957
 30
0.0
 11
97.885000000000034
 21
-39.999999999999957
 31
0.0
  0
CIRCLE
  5
140
  8
DATA
 62
     7
 10
-115.4999999999999
 20
-123.9999999999998
 30
0.0
 40
3.1500000000000048
  0
LINE
  5
141
  8
DATA
 62
     7
 10
-117.21464281994599
 20
-124.34999999999989
 30
0.0
 11
-117.21464281994599
 21
-123.64999999999981
 31
0.0
  0
LINE
  5
142
  8
DATA
 62
     7
 10
-113.78535718005379
 20
-124.34999999999989
 30
0.0
 11
-113.78535718005379
 21
-123.64999999999981
 31
0.0
  0
LINE
  5
143
  8
DATA
 62
     7
 10
-115.14999999999991
 20
-122.2853571800517
 30
0.0
 11
-115.84999999999999
 21
-122.2853571800517
 31
0.0
  0
LINE
  5
144
  8
DATA
 62
     7
 10
-115.14999999999991
 20
-125.714642819948
 30
0.0
 11
-115.84999999999999
 21
-125.714642819948
 31
0.0
  0
LINE
  5
145
  8
DATA
 62
     7
 10
-115.84999999999999
 20
-125.714642819948
 30
0.0
 11
-115.84999999999999
 21
-124.7071523787458
 31
0.0
  0
LINE
  5
146
  8
DATA
 62
     7
 10
-115.84999999999999
 20
-123.2928476212949
 30
0.0
 11
-115.84999999999999
 21
-122.2799999999999
 31
0.0
  0
LINE
  5
147
  8
DATA
 62
     7
 10
-115.14999999999991
 20
-125.714642819948
 30
0.0
 11
-115.14999999999991
 21
-124.7071523786107
 31
0.0
  0
LINE
  5
148
  8
DATA
 62
     7
 10
-115.14999999999991
 20
-123.29255022090869
 30
0.0
 11
-115.14999999999991
 21
-122.2853571800517
 31
0.0
  0
LINE
  5
149
  8
DATA
 62
     7
 10
-117.21464281994599
 20
-123.64999999999981
 30
0.0
 11
-116.2071523787276
 21
-123.64999999999981
 31
0.0
  0
LINE
  5
14A
  8
DATA
 62
     7
 10
-114.79291955448031
 20
-123.64999999999981
 30
0.0
 11
-113.78535718005379
 21
-123.64999999999981
 31
0.0
  0
LINE
  5
14B
  8
DATA
 62
     7
 10
-113.78535718005379
 20
-124.34999999999989
 30
0.0
 11
-114.79284762145269
 21
-124.34999999999989
 31
0.0
  0
LINE
  5
14C
  8
DATA
 62
     7
 10
-116.2071523787568
 20
-124.34999999999989
 30
0.0
 11
-117.22
 21
-124.34999999999989
 31
0.0
  0
ARC
  5
14D
  8
DATA
 62
     7
 10
-116.2824992594005
 20
-124.7824992593988
 30
0.0
 40
0.4390133959299923
 50
9.8824732841421916
 51
80.117526717010406
  0
ARC
  5
14E
  8
DATA
 62
     7
 10
-114.7175007406679
 20
-124.78249925933019
 30
0.0
 40
0.4390133958741574
 50
99.882473302656294
 51
170.11752670578619
  0
ARC
  5
14F
  8
DATA
 62
     7
 10
-114.7175367072315
 20
-123.2176144054647
 30
0.0
 40
0.4389075939506917
 50
189.8304141412124
 51
260.11035462452031
  0
ARC
  5
150
  8
DATA
 62
     7
 10
-116.2824992593778
 20
-123.21750074062371
 30
0.0
 40
0.4390133959114193
 50
279.88247328431981
 51
350.11752671301912
  0
CIRCLE
  5
151
  8
DATA
 62
     7
 10
-115.4999999999999
 20
-151.9999999999998
 30
0.0
 40
3.1500000000000048
  0
LINE
  5
152
  8
DATA
 62
     7
 10
-117.21464281994599
 20
-152.34999999999991
 30
0.0
 11
-117.21464281994599
 21
-151.64999999999981
 31
0.0
  0
LINE
  5
153
  8
DATA
 62
     7
 10
-113.78535718005379
 20
-152.34999999999991
 30
0.0
 11
-113.78535718005379
 21
-151.64999999999981
 31
0.0
  0
LINE
  5
154
  8
DATA
 62
     7
 10
-115.14999999999991
 20
-150.2853571800517
 30
0.0
 11
-115.84999999999999
 21
-150.2853571800517
 31
0.0
  0
LINE
  5
155
  8
DATA
 62
     7
 10
-115.14999999999991
 20
-153.71464281994801
 30
0.0
 11
-115.84999999999999
 21
-153.71464281994801
 31
0.0
  0
LINE
  5
156
  8
DATA
 62
     7
 10
-115.84999999999999
 20
-153.71464281994801
 30
0.0
 11
-115.84999999999999
 21
-152.7071523787458
 31
0.0
  0
LINE
  5
157
  8
DATA
 62
     7
 10
-115.84999999999999
 20
-151.29284762129481
 30
0.0
 11
-115.84999999999999
 21
-150.27999999999989
 31
0.0
  0
LINE
  5
158
  8
DATA
 62
     7
 10
-115.14999999999991
 20
-153.71464281994801
 30
0.0
 11
-115.14999999999991
 21
-152.70715237861069
 31
0.0
  0
LINE
  5
159
  8
DATA
 62
     7
 10
-115.14999999999991
 20
-151.29255022090871
 30
0.0
 11
-115.14999999999991
 21
-150.2853571800517
 31
0.0
  0
LINE
  5
15A
  8
DATA
 62
     7
 10
-117.21464281994599
 20
-151.64999999999981
 30
0.0
 11
-116.2071523787276
 21
-151.64999999999981
 31
0.0
  0
LINE
  5
15B
  8
DATA
 62
     7
 10
-114.79291955448031
 20
-151.64999999999981
 30
0.0
 11
-113.78535718005379
 21
-151.64999999999981
 31
0.0
  0
LINE
  5
15C
  8
DATA
 62
     7
 10
-113.78535718005379
 20
-152.34999999999991
 30
0.0
 11
-114.79284762145269
 21
-152.34999999999991
 31
0.0
  0
LINE
  5
15D
  8
DATA
 62
     7
 10
-116.2071523787568
 20
-152.34999999999991
 30
0.0
 11
-117.22
 21
-152.34999999999991
 31
0.0
  0
ARC
  5
15E
  8
DATA
 62
     7
 10
-116.2824992594005
 20
-152.7824992593988
 30
0.0
 40
0.4390133959299923
 50
9.8824732841421916
 51
80.117526717010406
  0
ARC
  5
15F
  8
DATA
 62
     7
 10
-114.7175007406679
 20
-152.78249925933019
 30
0.0
 40
0.4390133958741574
 50
99.882473302656294
 51
170.11752670578619
  0
ARC
  5
160
  8
DATA
 62
     7
 10
-114.7175367072315
 20
-151.2176144054647
 30
0.0
 40
0.4389075939506917
 50
189.8304141412124
 51
260.11035462452031
  0
ARC
  5
161
  8
DATA
 62
     7
 10
-116.2824992593778
 20
-151.21750074062371
 30
0.0
 40
0.4390133959114193
 50
279.88247328431981
 51
350.11752671301912
  0
CIRCLE
  5
162
  8
DATA
 62
     7
 10
94.500000000000043
 20
-123.9999999999998
 30
0.0
 40
3.1500000000000048
  0
LINE
  5
163
  8
DATA
 62
     7
 10
92.785357180053907
 20
-124.34999999999989
 30
0.0
 11
92.785357180053907
 21
-123.64999999999981
 31
0.0
  0
LINE
  5
164
  8
DATA
 62
     7
 10
96.214642819946192
 20
-124.34999999999989
 30
0.0
 11
96.214642819946192
 21
-123.64999999999981
 31
0.0
  0
LINE
  5
165
  8
DATA
 62
     7
 10
94.850000000000037
 20
-122.2853571800517
 30
0.0
 11
94.15000000000002
 21
-122.2853571800517
 31
0.0
  0
LINE
  5
166
  8
DATA
 62
     7
 10
94.850000000000037
 20
-125.714642819948
 30
0.0
 11
94.15000000000002
 21
-125.714642819948
 31
0.0
  0
LINE
  5
167
  8
DATA
 62
     7
 10
94.15000000000002
 20
-125.714642819948
 30
0.0
 11
94.15000000000002
 21
-124.7071523787458
 31
0.0
  0
LINE
  5
168
  8
DATA
 62
     7
 10
94.15000000000002
 20
-123.2928476212949
 30
0.0
 11
94.15000000000002
 21
-122.2799999999999
 31
0.0
  0
LINE
  5
169
  8
DATA
 62
     7
 10
94.850000000000037
 20
-125.714642819948
 30
0.0
 11
94.850000000000037
 21
-124.7071523786107
 31
0.0
  0
LINE
  5
16A
  8
DATA
 62
     7
 10
94.850000000000037
 20
-123.29255022090869
 30
0.0
 11
94.850000000000037
 21
-122.2853571800517
 31
0.0
  0
LINE
  5
16B
  8
DATA
 62
     7
 10
92.785357180053907
 20
-123.64999999999981
 30
0.0
 11
93.792847621272315
 21
-123.64999999999981
 31
0.0
  0
LINE
  5
16C
  8
DATA
 62
     7
 10
95.207080445519637
 20
-123.64999999999981
 30
0.0
 11
96.214642819946192
 21
-123.64999999999981
 31
0.0
  0
LINE
  5
16D
  8
DATA
 62
     7
 10
96.214642819946192
 20
-124.34999999999989
 30
0.0
 11
95.207152378547235
 21
-124.34999999999989
 31
0.0
  0
LINE
  5
16E
  8
DATA
 62
     7
 10
93.792847621243212
 20
-124.34999999999989
 30
0.0
 11
92.780000000000001
 21
-124.34999999999989
 31
0.0
  0
ARC
  5
16F
  8
DATA
 62
     7
 10
93.717500740599462
 20
-124.7824992593988
 30
0.0
 40
0.4390133959299923
 50
9.8824732841421916
 51
80.117526717010406
  0
ARC
  5
170
  8
DATA
 62
     7
 10
95.282499259331999
 20
-124.78249925933019
 30
0.0
 40
0.4390133958741574
 50
99.882473302656294
 51
170.11752670578619
  0
ARC
  5
171
  8
DATA
 62
     7
 10
95.282463292768455
 20
-123.2176144054647
 30
0.0
 40
0.4389075939506917
 50
189.8304141412124
 51
260.11035462452031
  0
ARC
  5
172
  8
DATA
 62
     7
 10
93.717500740622185
 20
-123.21750074062371
 30
0.0
 40
0.4390133959114193
 50
279.88247328431981
 51
350.11752671301912
  0
CIRCLE
  5
173
  8
DATA
 62
     7
 10
94.500000000000043
 20
-151.9999999999998
 30
0.0
 40
3.1500000000000048
  0
LINE
  5
174
  8
DATA
 62
     7
 10
92.785357180053907
 20
-152.34999999999991
 30
0.0
 11
92.785357180053907
 21
-151.64999999999981
 31
0.0
  0
LINE
  5
175
  8
DATA
 62
     7
 10
96.214642819946192
 20
-152.34999999999991
 30
0.0
 11
96.214642819946192
 21
-151.64999999999981
 31
0.0
  0
LINE
  5
176
  8
DATA
 62
     7
 10
94.850000000000037
 20
-150.2853571800517
 30
0.0
 11
94.15000000000002
 21
-150.2853571800517
 31
0.0
  0
LINE
  5
177
  8
DATA
 62
     7
 10
94.850000000000037
 20
-153.71464281994801
 30
0.0
 11
94.15000000000002
 21
-153.71464281994801
 31
0.0
  0
LINE
  5
178
  8
DATA
 62
     7
 10
94.15000000000002
 20
-153.71464281994801
 30
0.0
 11
94.15000000000002
 21
-152.7071523787458
 31
0.0
  0
LINE
  5
179
  8
DATA
 62
     7
 10
94.15000000000002
 20
-151.29284762129481
 30
0.0
 11
94.15000000000002
 21
-150.27999999999989
 31
0.0
  0
LINE
  5
17A
  8
DATA
 62
     7
 10
94.850000000000037
 20
-153.71464281994801
 30
0.0
 11
94.850000000000037
 21
-152.70715237861069
 31
0.0
  0
LINE
  5
17B
  8
DATA
 62
     7
 10
94.850000000000037
 20
-151.29255022090871
 30
0.0
 11
94.850000000000037
 21
-150.2853571800517
 31
0.0
  0
LINE
  5
17C
  8
DATA
 62
     7
 10
92.785357180053907
 20
-151.64999999999981
 30
0.0
 11
93.792847621272315
 21
-151.64999999999981
 31
0.0
  0
LINE
  5
17D
  8
DATA
 62
     7
 10
95.207080445519637
 20
-151.64999999999981
 30
0.0
 11
96.214642819946192
 21
-151.64999999999981
 31
0.0
  0
LINE
  5
17E
  8
DATA
 62
     7
 10
96.214642819946192
 20
-152.34999999999991
 30
0.0
 11
95.207152378547235
 21
-152.34999999999991
 31
0.0
  0
LINE
  5
17F
  8
DATA
 62
     7
 10
93.792847621243212
 20
-152.34999999999991
 30
0.0
 11
92.780000000000001
 21
-152.34999999999991
 31
0.0
  0
ARC
  5
180
  8
DATA
 62
     7
 10
93.717500740599462
 20
-152.7824992593988
 30
0.0
 40
0.4390133959299923
 50
9.8824732841421916
 51
80.117526717010406
  0
ARC
  5
181
  8
DATA
 62
     7
 10
95.282499259331999
 20
-152.78249925933019
 30
0.0
 40
0.4390133958741574
 50
99.882473302656294
 51
170.11752670578619
  0
ARC
  5
182
  8
DATA
 62
     7
 10
95.282463292768455
 20
-151.2176144054647
 30
0.0
 40
0.4389075939506917
 50
189.8304141412124
 51
260.11035462452031
  0
ARC
  5
183
  8
DATA
 62
     7
 10
93.717500740622185
 20
-151.21750074062371
 30
0.0
 40
0.4390133959114193
 50
279.88247328431981
 51
350.11752671301912
  0
LINE
  5
184
  8
DATA
 62
     7
 10
-110.1999999999999
 20
-159.09999999999999
 30
0.0
 11
-110.1999999999999
 21
-116.89999999999991
 31
0.0
  0
LINE
  5
185
  8
DATA
 62
     7
 10
89.200000000000102
 20
-159.09999999999999
 30
0.0
 11
89.200000000000102
 21
-116.89999999999991
 31
0.0
  0
ARC
  5
186
  8
DATA
 62
     7
 10
-98.499999999999901
 20
-137.0
 30
0.0
 40
4.9499999999999202
 50
249.60139423288311
 51
232.1698117460146
  0
CIRCLE
  5
187
  8
DATA
 62
     7
 10
-98.499999999999957
 20
-136.99999999999989
 30
0.0
 40
6.8000000000000114
  0
ARC
  5
188
  8
DATA
 62
     7
 10
-98.499999999999801
 20
-137.0000000000002
 30
0.0
 40
5.8999999999997401
 50
248.0441591642001
 51
233.43669017850181
  0
CIRCLE
  5
189
  8
DATA
 62
     7
 10
-107.34999999999989
 20
-136.99999999999989
 30
0.0
 40
0.6999999999999887
  0
CIRCLE
  5
18A
  8
DATA
 62
     7
 10
-89.649999999999963
 20
-136.99999999999989
 30
0.0
 40
0.6999999999999887
  0
CIRCLE
  5
18B
  8
DATA
 62
     7
 10
-102.924999999999
 20
-129.3356751765092
 30
0.0
 40
0.6999999999999887
  0
CIRCLE
  5
18C
  8
DATA
 62
     7
 10
-94.074999999999733
 20
-129.33567517650729
 30
0.0
 40
0.6999999999999887
  0
CIRCLE
  5
18D
  8
DATA
 62
     7
 10
-102.924999999999
 20
-144.66432482349069
 30
0.0
 40
0.6999999999999887
  0
CIRCLE
  5
18E
  8
DATA
 62
     7
 10
-93.999999999999986
 20
-144.79422863405981
 30
0.0
 40
0.6999999999999887
  0
POLYLINE
  5
18F
  8
DATA
 62
     7
 66
     1
 10
0.0
 20
0.0
 30
0.0
  0
VERTEX
  5
60D
  8
DATA
 62
     7
 10
-97.999100603107664
 20
-137.78366491961091
 30
0.0
  0
VERTEX
  5
60E
  8
DATA
 62
     7
 10
-101.0782242626849
 20
-143.11686354078631
 30
0.0
  0
VERTEX
  5
60F
  8
DATA
 62
     7
 10
-102.3772623683616
 20
-142.36686354078631
 30
0.0
  0
VERTEX
  5
610
  8
DATA
 62
     7
 10
-99.298138708784307
 20
-137.03366491961091
 30
0.0
  0
SEQEND
  5
611
  8
DATA
 62
     7
  0
LINE
  5
196
  8
DATA
 62
     7
 10
-97.307594252161564
 20
-137.08594078601581
 30
0.0
 11
-99.039645059730447
 21
-136.08594078601581
 31
0.0
  0
LINE
  5
197
  8
DATA
 62
     7
 10
-99.039645059730447
 20
-136.08594078601581
 30
0.0
 11
-99.298138708784307
 21
-137.03366491961091
 31
0.0
  0
LINE
  5
198
  8
DATA
 62
     7
 10
-97.307594252161564
 20
-137.08594078601581
 30
0.0
 11
-97.999100603107664
 21
-137.78366491961091
 31
0.0
  0
POLYLINE
  5
199
  8
DATA
 62
     7
 66
     1
 10
0.0
 20
0.0
 30
0.0
 70
     1
  0
VERTEX
  5
612
  8
DATA
 62
     7
 10
-108.9999999999998
 20
-123.817866057835
 30
0.0
  0
VERTEX
  5
613
  8
DATA
 62
     7
 10
-87.999999999999787
 20
-123.817866057835
 30
0.0
  0
VERTEX
  5
614
  8
DATA
 62
     7
 10
-87.999999999999787
 20
-148.817866057835
 30
0.0
  0
VERTEX
  5
615
  8
DATA
 62
     7
 10
-108.9999999999998
 20
-148.817866057835
 30
0.0
  0
SEQEND
  5
616
  8
DATA
 62
     7
  0
TEXT
  5
1A0
  8
DATA
 62
     7
 10
-99.186036529681317
 20
-127.6170502283087
 30
0.0
 40
2.1717881944444439
  1
1
 41
0.8
 11
-99.186036529681317
 21
-125.4452620338643
 31
0.0
 73
     3
  0
ARC
  5
1A1
  8
DATA
 62
     7
 10
-75.499999999999901
 20
-137.0
 30
0.0
 40
4.9499999999999202
 50
249.60139423288311
 51
232.1698117460146
  0
CIRCLE
  5
1A2
  8
DATA
 62
     7
 10
-75.499999999999957
 20
-136.99999999999989
 30
0.0
 40
6.8000000000000114
  0
ARC
  5
1A3
  8
DATA
 62
     7
 10
-75.499999999999815
 20
-137.0000000000002
 30
0.0
 40
5.8999999999997401
 50
248.0441591642001
 51
233.43669017850181
  0
CIRCLE
  5
1A4
  8
DATA
 62
     7
 10
-84.349999999999952
 20
-136.99999999999989
 30
0.0
 40
0.6999999999999887
  0
CIRCLE
  5
1A5
  8
DATA
 62
     7
 10
-66.649999999999963
 20
-136.99999999999989
 30
0.0
 40
0.6999999999999887
  0
CIRCLE
  5
1A6
  8
DATA
 62
     7
 10
-79.924999999999017
 20
-129.3356751765092
 30
0.0
 40
0.6999999999999887
  0
CIRCLE
  5
1A7
  8
DATA
 62
     7
 10
-71.074999999999747
 20
-129.33567517650729
 30
0.0
 40
0.6999999999999887
  0
CIRCLE
  5
1A8
  8
DATA
 62
     7
 10
-79.924999999999059
 20
-144.66432482349069
 30
0.0
 40
0.6999999999999887
  0
CIRCLE
  5
1A9
  8
DATA
 62
     7
 10
-70.999999999999986
 20
-144.79422863405981
 30
0.0
 40
0.6999999999999887
  0
POLYLINE
  5
1AA
  8
DATA
 62
     7
 66
     1
 10
0.0
 20
0.0
 30
0.0
  0
VERTEX
  5
617
  8
DATA
 62
     7
 10
-74.999100603107649
 20
-137.78366491961091
 30
0.0
  0
VERTEX
  5
618
  8
DATA
 62
     7
 10
-78.078224262684984
 20
-143.11686354078631
 30
0.0
  0
VERTEX
  5
619
  8
DATA
 62
     7
 10
-79.377262368361613
 20
-142.36686354078631
 30
0.0
  0
VERTEX
  5
61A
  8
DATA
 62
     7
 10
-76.298138708784307
 20
-137.03366491961091
 30
0.0
  0
SEQEND
  5
61B
  8
DATA
 62
     7
  0
LINE
  5
1B1
  8
DATA
 62
     7
 10
-74.307594252161564
 20
-137.08594078601581
 30
0.0
 11
-76.039645059730447
 21
-136.08594078601581
 31
0.0
  0
LINE
  5
1B2
  8
DATA
 62
     7
 10
-76.039645059730447
 20
-136.08594078601581
 30
0.0
 11
-76.298138708784307
 21
-137.03366491961091
 31
0.0
  0
LINE
  5
1B3
  8
DATA
 62
     7
 10
-74.307594252161564
 20
-137.08594078601581
 30
0.0
 11
-74.999100603107649
 21
-137.78366491961091
 31
0.0
  0
POLYLINE
  5
1B4
  8
DATA
 62
     7
 66
     1
 10
0.0
 20
0.0
 30
0.0
 70
     1
  0
VERTEX
  5
61C
  8
DATA
 62
     7
 10
-85.999999999999787
 20
-123.817866057835
 30
0.0
  0
VERTEX
  5
61D
  8
DATA
 62
     7
 10
-64.999999999999787
 20
-123.817866057835
 30
0.0
  0
VERTEX
  5
61E
  8
DATA
 62
     7
 10
-64.999999999999787
 20
-148.817866057835
 30
0.0
  0
VERTEX
  5
61F
  8
DATA
 62
     7
 10
-85.999999999999787
 20
-148.817866057835
 30
0.0
  0
SEQEND
  5
620
  8
DATA
 62
     7
  0
TEXT
  5
1BB
  8
DATA
 62
     7
 10
-76.186036529681317
 20
-127.6170502283087
 30
0.0
 40
2.1717881944444439
  1
2
 41
0.8
 11
-76.186036529681317
 21
-125.4452620338643
 31
0.0
 73
     3
  0
ARC
  5
1BC
  8
DATA
 62
     7
 10
-52.499999999999893
 20
-137.0
 30
0.0
 40
4.9499999999999202
 50
249.60139423288311
 51
232.1698117460146
  0
CIRCLE
  5
1BD
  8
DATA
 62
     7
 10
-52.499999999999957
 20
-136.99999999999989
 30
0.0
 40
6.8000000000000114
  0
ARC
  5
1BE
  8
DATA
 62
     7
 10
-52.499999999999822
 20
-137.0000000000002
 30
0.0
 40
5.8999999999997401
 50
248.0441591642001
 51
233.43669017850181
  0
CIRCLE
  5
1BF
  8
DATA
 62
     7
 10
-61.349999999999952
 20
-136.99999999999989
 30
0.0
 40
0.6999999999999887
  0
CIRCLE
  5
1C0
  8
DATA
 62
     7
 10
-43.649999999999963
 20
-136.99999999999989
 30
0.0
 40
0.6999999999999887
  0
CIRCLE
  5
1C1
  8
DATA
 62
     7
 10
-56.924999999999031
 20
-129.3356751765092
 30
0.0
 40
0.6999999999999887
  0
CIRCLE
  5
1C2
  8
DATA
 62
     7
 10
-48.074999999999761
 20
-129.33567517650729
 30
0.0
 40
0.6999999999999887
  0
CIRCLE
  5
1C3
  8
DATA
 62
     7
 10
-56.924999999999059
 20
-144.66432482349069
 30
0.0
 40
0.6999999999999887
  0
CIRCLE
  5
1C4
  8
DATA
 62
     7
 10
-47.999999999999993
 20
-144.79422863405981
 30
0.0
 40
0.6999999999999887
  0
POLYLINE
  5
1C5
  8
DATA
 62
     7
 66
     1
 10
0.0
 20
0.0
 30
0.0
  0
VERTEX
  5
621
  8
DATA
 62
     7
 10
-51.999100603107649
 20
-137.78366491961091
 30
0.0
  0
VERTEX
  5
622
  8
DATA
 62
     7
 10
-55.078224262684962
 20
-143.11686354078631
 30
0.0
  0
VERTEX
  5
623
  8
DATA
 62
     7
 10
-56.37726236836162
 20
-142.36686354078631
 30
0.0
  0
VERTEX
  5
624
  8
DATA
 62
     7
 10
-53.298138708784322
 20
-137.03366491961091
 30
0.0
  0
SEQEND
  5
625
  8
DATA
 62
     7
  0
LINE
  5
1CC
  8
DATA
 62
     7
 10
-51.307594252161572
 20
-137.08594078601581
 30
0.0
 11
-53.039645059730461
 21
-136.08594078601581
 31
0.0
  0
LINE
  5
1CD
  8
DATA
 62
     7
 10
-53.039645059730461
 20
-136.08594078601581
 30
0.0
 11
-53.298138708784322
 21
-137.03366491961091
 31
0.0
  0
LINE
  5
1CE
  8
DATA
 62
     7
 10
-51.307594252161572
 20
-137.08594078601581
 30
0.0
 11
-51.999100603107649
 21
-137.78366491961091
 31
0.0
  0
POLYLINE
  5
1CF
  8
DATA
 62
     7
 66
     1
 10
0.0
 20
0.0
 30
0.0
 70
     1
  0
VERTEX
  5
626
  8
DATA
 62
     7
 10
-62.99999999999978
 20
-123.817866057835
 30
0.0
  0
VERTEX
  5
627
  8
DATA
 62
     7
 10
-41.999999999999773
 20
-123.817866057835
 30
0.0
  0
VERTEX
  5
628
  8
DATA
 62
     7
 10
-41.999999999999773
 20
-148.817866057835
 30
0.0
  0
VERTEX
  5
629
  8
DATA
 62
     7
 10
-62.99999999999978
 20
-148.817866057835
 30
0.0
  0
SEQEND
  5
62A
  8
DATA
 62
     7
  0
TEXT
  5
1D6
  8
DATA
 62
     7
 10
-53.186036529681317
 20
-127.6170502283087
 30
0.0
 40
2.1717881944444439
  1
3
 41
0.8
 11
-53.186036529681317
 21
-125.4452620338643
 31
0.0
 73
     3
  0
ARC
  5
1D7
  8
DATA
 62
     7
 10
-29.499999999999901
 20
-137.0
 30
0.0
 40
4.9499999999999202
 50
249.60139423288311
 51
232.1698117460146
  0
CIRCLE
  5
1D8
  8
DATA
 62
     7
 10
-29.499999999999961
 20
-136.99999999999989
 30
0.0
 40
6.8000000000000114
  0
ARC
  5
1D9
  8
DATA
 62
     7
 10
-29.499999999999812
 20
-137.0000000000002
 30
0.0
 40
5.8999999999997401
 50
248.0441591642001
 51
233.43669017850181
  0
CIRCLE
  5
1DA
  8
DATA
 62
     7
 10
-38.349999999999952
 20
-136.99999999999989
 30
0.0
 40
0.6999999999999887
  0
CIRCLE
  5
1DB
  8
DATA
 62
     7
 10
-20.649999999999959
 20
-136.99999999999989
 30
0.0
 40
0.6999999999999887
  0
CIRCLE
  5
1DC
  8
DATA
 62
     7
 10
-33.924999999999031
 20
-129.3356751765092
 30
0.0
 40
0.6999999999999887
  0
CIRCLE
  5
1DD
  8
DATA
 62
     7
 10
-25.074999999999751
 20
-129.33567517650729
 30
0.0
 40
0.6999999999999887
  0
CIRCLE
  5
1DE
  8
DATA
 62
     7
 10
-33.924999999999059
 20
-144.66432482349069
 30
0.0
 40
0.6999999999999887
  0
CIRCLE
  5
1DF
  8
DATA
 62
     7
 10
-24.999999999999989
 20
-144.79422863405981
 30
0.0
 40
0.6999999999999887
  0
POLYLINE
  5
1E0
  8
DATA
 62
     7
 66
     1
 10
0.0
 20
0.0
 30
0.0
  0
VERTEX
  5
62B
  8
DATA
 62
     7
 10
-28.99910060310766
 20
-137.78366491961091
 30
0.0
  0
VERTEX
  5
62C
  8
DATA
 62
     7
 10
-32.078224262684969
 20
-143.11686354078631
 30
0.0
  0
VERTEX
  5
62D
  8
DATA
 62
     7
 10
-33.377262368361627
 20
-142.36686354078631
 30
0.0
  0
VERTEX
  5
62E
  8
DATA
 62
     7
 10
-30.298138708784322
 20
-137.03366491961091
 30
0.0
  0
SEQEND
  5
62F
  8
DATA
 62
     7
  0
LINE
  5
1E7
  8
DATA
 62
     7
 10
-28.307594252161561
 20
-137.08594078601581
 30
0.0
 11
-30.039645059730461
 21
-136.08594078601581
 31
0.0
  0
LINE
  5
1E8
  8
DATA
 62
     7
 10
-30.039645059730461
 20
-136.08594078601581
 30
0.0
 11
-30.298138708784322
 21
-137.03366491961091
 31
0.0
  0
LINE
  5
1E9
  8
DATA
 62
     7
 10
-28.307594252161561
 20
-137.08594078601581
 30
0.0
 11
-28.99910060310766
 21
-137.78366491961091
 31
0.0
  0
POLYLINE
  5
1EA
  8
DATA
 62
     7
 66
     1
 10
0.0
 20
0.0
 30
0.0
 70
     1
  0
VERTEX
  5
630
  8
DATA
 62
     7
 10
-39.99999999999978
 20
-123.817866057835
 30
0.0
  0
VERTEX
  5
631
  8
DATA
 62
     7
 10
-18.99999999999979
 20
-123.817866057835
 30
0.0
  0
VERTEX
  5
632
  8
DATA
 62
     7
 10
-18.99999999999979
 20
-148.817866057835
 30
0.0
  0
VERTEX
  5
633
  8
DATA
 62
     7
 10
-39.99999999999978
 20
-148.817866057835
 30
0.0
  0
SEQEND
  5
634
  8
DATA
 62
     7
  0
TEXT
  5
1F1
  8
DATA
 62
     7
 10
-30.186036529681321
 20
-127.6170502283087
 30
0.0
 40
2.1717881944444439
  1
4
 41
0.8
 11
-30.186036529681321
 21
-125.4452620338643
 31
0.0
 73
     3
  0
ARC
  5
1F2
  8
DATA
 62
     7
 10
-6.4999999999998996
 20
-137.0
 30
0.0
 40
4.9499999999999202
 50
249.60139423288311
 51
232.1698117460146
  0
CIRCLE
  5
1F3
  8
DATA
 62
     7
 10
-6.4999999999999556
 20
-136.99999999999989
 30
0.0
 40
6.8000000000000114
  0
ARC
  5
1F4
  8
DATA
 62
     7
 10
-6.4999999999998153
 20
-137.0000000000002
 30
0.0
 40
5.8999999999997401
 50
248.0441591642001
 51
233.43669017850181
  0
CIRCLE
  5
1F5
  8
DATA
 62
     7
 10
-15.34999999999995
 20
-136.99999999999989
 30
0.0
 40
0.6999999999999887
  0
CIRCLE
  5
1F6
  8
DATA
 62
     7
 10
2.3500000000000361
 20
-136.99999999999989
 30
0.0
 40
0.6999999999999887
  0
CIRCLE
  5
1F7
  8
DATA
 62
     7
 10
-10.924999999999031
 20
-129.3356751765092
 30
0.0
 40
0.6999999999999887
  0
CIRCLE
  5
1F8
  8
DATA
 62
     7
 10
-2.0749999999997462
 20
-129.33567517650729
 30
0.0
 40
0.6999999999999887
  0
CIRCLE
  5
1F9
  8
DATA
 62
     7
 10
-10.924999999999059
 20
-144.66432482349069
 30
0.0
 40
0.6999999999999887
  0
CIRCLE
  5
1FA
  8
DATA
 62
     7
 10
-1.9999999999999849
 20
-144.79422863405981
 30
0.0
 40
0.6999999999999887
  0
POLYLINE
  5
1FB
  8
DATA
 62
     7
 66
     1
 10
0.0
 20
0.0
 30
0.0
  0
VERTEX
  5
635
  8
DATA
 62
     7
 10
-5.9991006031076628
 20
-137.78366491961091
 30
0.0
  0
VERTEX
  5
636
  8
DATA
 62
     7
 10
-9.0782242626849676
 20
-143.11686354078631
 30
0.0
  0
VERTEX
  5
637
  8
DATA
 62
     7
 10
-10.377262368361629
 20
-142.36686354078631
 30
0.0
  0
VERTEX
  5
638
  8
DATA
 62
     7
 10
-7.2981387087843208
 20
-137.03366491961091
 30
0.0
  0
SEQEND
  5
639
  8
DATA
 62
     7
  0
LINE
  5
202
  8
DATA
 62
     7
 10
-5.3075942521615644
 20
-137.08594078601581
 30
0.0
 11
-7.0396450597304598
 21
-136.08594078601581
 31
0.0
  0
LINE
  5
203
  8
DATA
 62
     7
 10
-7.0396450597304598
 20
-136.08594078601581
 30
0.0
 11
-7.2981387087843208
 21
-137.03366491961091
 31
0.0
  0
LINE
  5
204
  8
DATA
 62
     7
 10
-5.3075942521615644
 20
-137.08594078601581
 30
0.0
 11
-5.9991006031076628
 21
-137.78366491961091
 31
0.0
  0
POLYLINE
  5
205
  8
DATA
 62
     7
 66
     1
 10
0.0
 20
0.0
 30
0.0
  0
VERTEX
  5
63A
  8
DATA
 62
     7
 10
2.3384294806074162
 20
-148.817866057835
 30
0.0
  0
VERTEX
  5
63B
  8
DATA
 62
     7
 10
-16.99999999999979
 20
-148.817866057835
 30
0.0
  0
VERTEX
  5
63C
  8
DATA
 62
     7
 10
-16.99999999999979
 20
-123.817866057835
 30
0.0
  0
VERTEX
  5
63D
  8
DATA
 62
     7
 10
4.0000000000002132
 20
-123.817866057835
 30
0.0
  0
VERTEX
  5
63E
  8
DATA
 62
     7
 10
4.0000000000002132
 20
-147.3500085606201
 30
0.0
  0
SEQEND
  5
63F
  8
DATA
 62
     7
  0
TEXT
  5
20D
  8
DATA
 62
     7
 10
-10.55428843441014
 20
-127.6170502283087
 30
0.0
 40
2.1717881944444439
  1
AUX IN
 41
0.8
 11
-10.55428843441014
 21
-125.4452620338643
 31
0.0
 73
     3
  0
ARC
  5
20E
  8
DATA
 62
     7
 10
66.500000000000099
 20
-137.0
 30
0.0
 40
4.9499999999999202
 50
249.60139423288311
 51
232.1698117460146
  0
CIRCLE
  5
20F
  8
DATA
 62
     7
 10
66.500000000000043
 20
-136.99999999999989
 30
0.0
 40
6.8000000000000114
  0
ARC
  5
210
  8
DATA
 62
     7
 10
66.500000000000185
 20
-137.0000000000002
 30
0.0
 40
5.8999999999997401
 50
248.0441591642001
 51
233.43669017850181
  0
CIRCLE
  5
211
  8
DATA
 62
     7
 10
57.650000000000048
 20
-136.99999999999989
 30
0.0
 40
0.6999999999999887
  0
CIRCLE
  5
212
  8
DATA
 62
     7
 10
75.350000000000023
 20
-136.99999999999989
 30
0.0
 40
0.6999999999999887
  0
CIRCLE
  5
213
  8
DATA
 62
     7
 10
62.075000000000983
 20
-129.3356751765092
 30
0.0
 40
0.6999999999999887
  0
CIRCLE
  5
214
  8
DATA
 62
     7
 10
70.925000000000253
 20
-129.33567517650729
 30
0.0
 40
0.6999999999999887
  0
CIRCLE
  5
215
  8
DATA
 62
     7
 10
62.075000000000927
 20
-144.66432482349069
 30
0.0
 40
0.6999999999999887
  0
CIRCLE
  5
216
  8
DATA
 62
     7
 10
71.000000000000014
 20
-144.79422863405981
 30
0.0
 40
0.6999999999999887
  0
POLYLINE
  5
217
  8
DATA
 62
     7
 66
     1
 10
0.0
 20
0.0
 30
0.0
  0
VERTEX
  5
640
  8
DATA
 62
     7
 10
67.000899396892351
 20
-137.78366491961091
 30
0.0
  0
VERTEX
  5
641
  8
DATA
 62
     7
 10
63.921775737315038
 20
-143.11686354078631
 30
0.0
  0
VERTEX
  5
642
  8
DATA
 62
     7
 10
62.622737631638358
 20
-142.36686354078631
 30
0.0
  0
VERTEX
  5
643
  8
DATA
 62
     7
 10
65.701861291215678
 20
-137.03366491961091
 30
0.0
  0
SEQEND
  5
644
  8
DATA
 62
     7
  0
LINE
  5
21E
  8
DATA
 62
     7
 10
67.692405747838436
 20
-137.08594078601581
 30
0.0
 11
65.960354940269539
 21
-136.08594078601581
 31
0.0
  0
LINE
  5
21F
  8
DATA
 62
     7
 10
65.960354940269539
 20
-136.08594078601581
 30
0.0
 11
65.701861291215678
 21
-137.03366491961091
 31
0.0
  0
LINE
  5
220
  8
DATA
 62
     7
 10
67.692405747838436
 20
-137.08594078601581
 30
0.0
 11
67.000899396892351
 21
-137.78366491961091
 31
0.0
  0
POLYLINE
  5
221
  8
DATA
 62
     7
 66
     1
 10
0.0
 20
0.0
 30
0.0
  0
VERTEX
  5
645
  8
DATA
 62
     7
 10
56.000000000000213
 20
-147.30804731583081
 30
0.0
  0
VERTEX
  5
646
  8
DATA
 62
     7
 10
56.000000000000213
 20
-123.817866057835
 30
0.0
  0
VERTEX
  5
647
  8
DATA
 62
     7
 10
77.000000000000199
 20
-123.817866057835
 30
0.0
  0
VERTEX
  5
648
  8
DATA
 62
     7
 10
77.000000000000199
 20
-148.817866057835
 30
0.0
  0
VERTEX
  5
649
  8
DATA
 62
     7
 10
57.498213940062811
 20
-148.817866057835
 30
0.0
  0
SEQEND
  5
64A
  8
DATA
 62
     7
  0
TEXT
  5
229
  8
DATA
 62
     7
 10
62.44571156558986
 20
-127.6170502283087
 30
0.0
 40
2.1717881944444439
  1
MASTER
 41
0.8
 11
62.44571156558986
 21
-125.4452620338643
 31
0.0
 73
     3
  0
LINE
  5
22A
  8
DATA
 62
     7
 10
-110.1999999999999
 20
-116.89999999999991
 30
0.0
 11
89.200000000000102
 21
-116.89999999999991
 31
0.0
  0
LINE
  5
22B
  8
DATA
 62
     7
 10
89.200000000000102
 20
-159.09999999999999
 30
0.0
 11
-110.1999999999999
 21
-159.09999999999999
 31
0.0
  0
CIRCLE
  5
22C
  8
DATA
 62
     7
 10
80.000000000000028
 20
-149.64495097205341
 30
0.0
 40
1.950000000000002
  0
CIRCLE
  5
22D
  8
DATA
 62
     7
 10
55.09118745994941
 20
-149.70813305960041
 30
0.0
 40
1.950000000000002
  0
TEXT
  5
22E
  8
DATA
 62
     7
 10
76.684185642249417
 20
-154.82590293469681
 30
0.0
 40
2.1717881944444439
  1
POWER
 41
0.8
 11
76.684185642249417
 21
-152.6541147402524
 31
0.0
 73
     3
  0
ARC
  5
22F
  8
DATA
 62
     7
 10
55.09118745994946
 20
-149.7081330596001
 30
0.0
 40
2.5663888657797762
 50
20.297505568243832
 51
69.260409557752979
  0
CIRCLE
  5
230
  8
DATA
 62
     7
 10
4.6040547794763
 20
-149.70813305960041
 30
0.0
 40
1.950000000000002
  0
ARC
  5
231
  8
DATA
 62
     7
 10
4.6040547794763711
 20
-149.70813305960041
 30
0.0
 40
2.4342623788956841
 50
104.3678851558609
 51
158.54788396268489
  0
CIRCLE
  5
232
  8
DATA
 62
     7
 10
45.001187459949399
 20
-149.70813305960041
 30
0.0
 40
1.950000000000002
  0
CIRCLE
  5
233
  8
DATA
 62
     7
 10
34.91118745994941
 20
-149.70813305960041
 30
0.0
 40
1.9500000000000159
  0
CIRCLE
  5
234
  8
DATA
 62
     7
 10
24.821187459949421
 20
-149.70813305960041
 30
0.0
 40
1.950000000000002
  0
CIRCLE
  5
235
  8
DATA
 62
     7
 10
14.73118745994941
 20
-149.70813305960041
 30
0.0
 40
1.950000000000002
  0
TEXT
  5
236
  8
DATA
 62
     7
 10
52.94315745308846
 20
-154.2203333333334
 30
0.0
 40
1.6288411458333329
  1
+18
 41
0.8
 11
52.94315745308846
 21
-152.59149218749999
 31
0.0
 73
     3
  0
TEXT
  5
237
  8
DATA
 62
     7
 10
42.85315745308845
 20
-154.2203333333334
 30
0.0
 40
1.6288411458333329
  1
+12
 41
0.8
 11
42.85315745308845
 21
-152.59149218749999
 31
0.0
 73
     3
  0
TEXT
  5
238
  8
DATA
 62
     7
 10
33.620635557381561
 20
-154.2203333333334
 30
0.0
 40
1.6288411458333329
  1
+6
 41
0.8
 11
33.620635557381561
 21
-152.59149218749999
 31
0.0
 73
     3
  0
TEXT
  5
239
  8
DATA
 62
     7
 10
24.33767377318685
 20
-154.2203333333334
 30
0.0
 40
1.6288411458333329
  1
0
 41
0.8
 11
24.33767377318685
 21
-152.59149218749999
 31
0.0
 73
     3
  0
TEXT
  5
23A
  8
DATA
 62
     7
 10
12.583157453088459
 20
-154.2203333333334
 30
0.0
 40
1.6288411458333329
  1
-10
 41
0.8
 11
12.583157453088459
 21
-152.59149218749999
 31
0.0
 73
     3
  0
TEXT
  5
23B
  8
DATA
 62
     7
 10
2.493157453088457
 20
-154.2203333333334
 30
0.0
 40
1.6288411458333329
  1
-20
 41
0.8
 11
2.493157453088457
 21
-152.59149218749999
 31
0.0
 73
     3
  0
TEXT
  5
23C
  8
DATA
 62
     7
 10
14.310861660684189
 20
-146.3186727788335
 30
0.0
 40
2.4975564236111101
  1
OUTPUT LEVEL METER
 41
0.8
 11
14.310861660684189
 21
-143.82111635522239
 31
0.0
 73
     3
  0
LINE
  5
23D
  8
DATA
 62
     7
 10
-108.9999999999998
 20
-119.4999999999999
 30
0.0
 11
77.000000000000199
 21
-119.4999999999999
 31
0.0
  0
LINE
  5
23E
  8
DATA
 62
     7
 10
-108.9999999999998
 20
-120.9999999999999
 30
0.0
 11
77.000000000000199
 21
-120.9999999999999
 31
0.0
  0
LINE
  5
23F
  8
DATA
 62
     7
 10
-108.9999999999998
 20
-120.9999999999999
 30
0.0
 11
-108.9999999999998
 21
-119.5
 31
0.0
  0
TEXT
  5
240
  8
DATA
 62
     7
 10
-105.9328126435297
 20
-156.39335441514589
 30
0.0
 40
4.3435763888888879
  1
SHURE
 41
0.8
 11
-105.9328126435297
 21
-152.049778026257
 31
0.0
 73
     3
  0
TEXT
  5
241
  8
DATA
 62
     7
 10
-88.493501883983555
 20
-156.3717733051468
 30
0.0
 40
2.7147352430555549
  1
SCM268 
 41
0.8
 11
-88.493501883983555
 21
-153.6570380620912
 31
0.0
 73
     3
  0
TEXT
  5
242
  8
DATA
 62
     7
 10
-76.422048494277092
 20
-156.23388888888891
 30
0.0
 40
2.7147352430555549
  1
microphone mixer
 41
0.8
 11
-76.422048494277092
 21
-153.51915364583331
 31
0.0
 73
     3
  0
LINE
  5
243
  8
DATA
 62
     7
 10
77.000000000000199
 20
-120.9999999999999
 30
0.0
 11
77.000000000000199
 21
-119.48
 31
0.0
  0
LINE
  5
244
  8
DATA
 62
     7
 10
-103.44956152595449
 20
-57.899999999999991
 30
0.0
 11
-104.3996321325334
 21
-42.899999999999977
 31
0.0
  0
LINE
  5
245
  8
DATA
 62
     7
 10
-93.552780326261555
 20
-57.899999999999991
 30
0.0
 11
-92.649921222211461
 21
-42.899999999999977
 31
0.0
  0
LINE
  5
246
  8
DATA
 62
     7
 10
-104.3996321325334
 20
-42.899999999999977
 30
0.0
 11
-92.649921222211461
 21
-42.899999999999977
 31
0.0
  0
POLYLINE
  5
247
  8
DATA
 62
     7
 66
     1
 10
0.0
 20
0.0
 30
0.0
 70
     1
  0
VERTEX
  5
64B
  8
DATA
 62
     7
 10
-103.95
 20
-39.999999999999957
 30
0.0
  0
VERTEX
  5
64C
  8
DATA
 62
     7
 10
-93.050000000000026
 20
-39.999999999999957
 30
0.0
  0
VERTEX
  5
64D
  8
DATA
 62
     7
 10
-93.050000000000026
 20
-41.499999999999957
 30
0.0
  0
VERTEX
  5
64E
  8
DATA
 62
     7
 10
-103.95
 20
-41.499999999999957
 30
0.0
  0
SEQEND
  5
64F
  8
DATA
 62
     7
  0
LINE
  5
24E
  8
DATA
 62
     7
 10
-103.44956152595449
 20
-57.899999999999991
 30
0.0
 11
-93.552780326261555
 21
-57.899999999999991
 31
0.0
  0
LINE
  5
24F
  8
DATA
 62
     7
 10
-97.999999999999986
 20
-57.999999999999972
 30
0.0
 11
-103.4432277219107
 21
-57.999999999999972
 31
0.0
  0
LINE
  5
250
  8
DATA
 62
     7
 10
-103.44956152595449
 20
-57.899999999999991
 30
0.0
 11
-103.4432277219107
 21
-57.999999999999972
 31
0.0
  0
LINE
  5
251
  8
DATA
 62
     7
 10
-97.999999999999986
 20
-57.899999999999991
 30
0.0
 11
-97.999999999999986
 21
-57.999999999999972
 31
0.0
  0
LINE
  5
252
  8
DATA
 62
     7
 10
-80.449561525954564
 20
-57.899999999999991
 30
0.0
 11
-81.399632132533412
 21
-42.899999999999977
 31
0.0
  0
LINE
  5
253
  8
DATA
 62
     7
 10
-70.552780326261555
 20
-57.899999999999991
 30
0.0
 11
-69.649921222211461
 21
-42.899999999999977
 31
0.0
  0
LINE
  5
254
  8
DATA
 62
     7
 10
-81.399632132533412
 20
-42.899999999999977
 30
0.0
 11
-69.649921222211461
 21
-42.899999999999977
 31
0.0
  0
POLYLINE
  5
255
  8
DATA
 62
     7
 66
     1
 10
0.0
 20
0.0
 30
0.0
 70
     1
  0
VERTEX
  5
650
  8
DATA
 62
     7
 10
-80.950000000000003
 20
-39.999999999999957
 30
0.0
  0
VERTEX
  5
651
  8
DATA
 62
     7
 10
-70.050000000000026
 20
-39.999999999999957
 30
0.0
  0
VERTEX
  5
652
  8
DATA
 62
     7
 10
-70.050000000000026
 20
-41.499999999999957
 30
0.0
  0
VERTEX
  5
653
  8
DATA
 62
     7
 10
-80.950000000000003
 20
-41.499999999999957
 30
0.0
  0
SEQEND
  5
654
  8
DATA
 62
     7
  0
LINE
  5
25C
  8
DATA
 62
     7
 10
-80.449561525954564
 20
-57.899999999999991
 30
0.0
 11
-70.552780326261555
 21
-57.899999999999991
 31
0.0
  0
LINE
  5
25D
  8
DATA
 62
     7
 10
-74.999999999999986
 20
-57.999999999999972
 30
0.0
 11
-80.443227721910731
 21
-57.999999999999972
 31
0.0
  0
LINE
  5
25E
  8
DATA
 62
     7
 10
-80.449561525954564
 20
-57.899999999999991
 30
0.0
 11
-80.443227721910716
 21
-57.999999999999972
 31
0.0
  0
LINE
  5
25F
  8
DATA
 62
     7
 10
-74.999999999999986
 20
-57.899999999999991
 30
0.0
 11
-74.999999999999986
 21
-57.999999999999972
 31
0.0
  0
LINE
  5
260
  8
DATA
 62
     7
 10
-57.449561525954557
 20
-57.899999999999991
 30
0.0
 11
-58.399632132533398
 21
-42.899999999999977
 31
0.0
  0
LINE
  5
261
  8
DATA
 62
     7
 10
-47.552780326261562
 20
-57.899999999999991
 30
0.0
 11
-46.649921222211447
 21
-42.899999999999977
 31
0.0
  0
LINE
  5
262
  8
DATA
 62
     7
 10
-58.399632132533398
 20
-42.899999999999977
 30
0.0
 11
-46.649921222211447
 21
-42.899999999999977
 31
0.0
  0
POLYLINE
  5
263
  8
DATA
 62
     7
 66
     1
 10
0.0
 20
0.0
 30
0.0
 70
     1
  0
VERTEX
  5
655
  8
DATA
 62
     7
 10
-57.950000000000003
 20
-39.999999999999957
 30
0.0
  0
VERTEX
  5
656
  8
DATA
 62
     7
 10
-47.050000000000011
 20
-39.999999999999957
 30
0.0
  0
VERTEX
  5
657
  8
DATA
 62
     7
 10
-47.050000000000011
 20
-41.499999999999957
 30
0.0
  0
VERTEX
  5
658
  8
DATA
 62
     7
 10
-57.950000000000003
 20
-41.499999999999957
 30
0.0
  0
SEQEND
  5
659
  8
DATA
 62
     7
  0
LINE
  5
26A
  8
DATA
 62
     7
 10
-57.449561525954557
 20
-57.899999999999991
 30
0.0
 11
-47.552780326261562
 21
-57.899999999999991
 31
0.0
  0
LINE
  5
26B
  8
DATA
 62
     7
 10
-51.999999999999993
 20
-57.999999999999972
 30
0.0
 11
-57.443227721910723
 21
-57.999999999999972
 31
0.0
  0
LINE
  5
26C
  8
DATA
 62
     7
 10
-57.449561525954557
 20
-57.899999999999991
 30
0.0
 11
-57.443227721910702
 21
-57.999999999999972
 31
0.0
  0
LINE
  5
26D
  8
DATA
 62
     7
 10
-51.999999999999993
 20
-57.899999999999991
 30
0.0
 11
-51.999999999999993
 21
-57.999999999999972
 31
0.0
  0
LINE
  5
26E
  8
DATA
 62
     7
 10
-34.449561525954572
 20
-57.899999999999991
 30
0.0
 11
-35.399632132533398
 21
-42.899999999999977
 31
0.0
  0
LINE
  5
26F
  8
DATA
 62
     7
 10
-24.552780326261558
 20
-57.899999999999991
 30
0.0
 11
-23.649921222211461
 21
-42.899999999999977
 31
0.0
  0
LINE
  5
270
  8
DATA
 62
     7
 10
-35.399632132533398
 20
-42.899999999999977
 30
0.0
 11
-23.649921222211461
 21
-42.899999999999977
 31
0.0
  0
POLYLINE
  5
271
  8
DATA
 62
     7
 66
     1
 10
0.0
 20
0.0
 30
0.0
 70
     1
  0
VERTEX
  5
65A
  8
DATA
 62
     7
 10
-34.950000000000003
 20
-39.999999999999957
 30
0.0
  0
VERTEX
  5
65B
  8
DATA
 62
     7
 10
-24.050000000000029
 20
-39.999999999999957
 30
0.0
  0
VERTEX
  5
65C
  8
DATA
 62
     7
 10
-24.050000000000029
 20
-41.499999999999957
 30
0.0
  0
VERTEX
  5
65D
  8
DATA
 62
     7
 10
-34.950000000000003
 20
-41.499999999999957
 30
0.0
  0
SEQEND
  5
65E
  8
DATA
 62
     7
  0
LINE
  5
278
  8
DATA
 62
     7
 10
-34.449561525954572
 20
-57.899999999999991
 30
0.0
 11
-24.552780326261569
 21
-57.899999999999991
 31
0.0
  0
LINE
  5
279
  8
DATA
 62
     7
 10
-28.999999999999979
 20
-57.999999999999972
 30
0.0
 11
-34.443227721910731
 21
-57.999999999999972
 31
0.0
  0
LINE
  5
27A
  8
DATA
 62
     7
 10
-34.449561525954572
 20
-57.899999999999991
 30
0.0
 11
-34.443227721910702
 21
-57.999999999999972
 31
0.0
  0
LINE
  5
27B
  8
DATA
 62
     7
 10
-28.999999999999979
 20
-57.899999999999991
 30
0.0
 11
-28.999999999999979
 21
-57.999999999999972
 31
0.0
  0
LINE
  5
27C
  8
DATA
 62
     7
 10
-11.449561525954559
 20
-57.899999999999991
 30
0.0
 11
-12.3996321325334
 21
-42.899999999999977
 31
0.0
  0
LINE
  5
27D
  8
DATA
 62
     7
 10
-1.552780326261554
 20
-57.899999999999991
 30
0.0
 11
-0.6499212222114608
 21
-42.899999999999977
 31
0.0
  0
LINE
  5
27E
  8
DATA
 62
     7
 10
-12.3996321325334
 20
-42.899999999999977
 30
0.0
 11
-0.6499212222114608
 21
-42.899999999999977
 31
0.0
  0
POLYLINE
  5
27F
  8
DATA
 62
     7
 66
     1
 10
0.0
 20
0.0
 30
0.0
 70
     1
  0
VERTEX
  5
65F
  8
DATA
 62
     7
 10
-11.949999999999999
 20
-39.999999999999957
 30
0.0
  0
VERTEX
  5
660
  8
DATA
 62
     7
 10
-1.0500000000000249
 20
-39.999999999999957
 30
0.0
  0
VERTEX
  5
661
  8
DATA
 62
     7
 10
-1.0500000000000249
 20
-41.499999999999957
 30
0.0
  0
VERTEX
  5
662
  8
DATA
 62
     7
 10
-11.949999999999999
 20
-41.499999999999957
 30
0.0
  0
SEQEND
  5
663
  8
DATA
 62
     7
  0
LINE
  5
286
  8
DATA
 62
     7
 10
-11.449561525954559
 20
-57.899999999999991
 30
0.0
 11
-1.552780326261554
 21
-57.899999999999991
 31
0.0
  0
LINE
  5
287
  8
DATA
 62
     7
 10
-5.9999999999999849
 20
-57.999999999999972
 30
0.0
 11
-11.443227721910731
 21
-57.999999999999972
 31
0.0
  0
LINE
  5
288
  8
DATA
 62
     7
 10
-11.449561525954559
 20
-57.899999999999991
 30
0.0
 11
-11.4432277219107
 21
-57.999999999999972
 31
0.0
  0
LINE
  5
289
  8
DATA
 62
     7
 10
-5.9999999999999849
 20
-57.899999999999991
 30
0.0
 11
-5.9999999999999849
 21
-57.999999999999972
 31
0.0
  0
LINE
  5
28A
  8
DATA
 62
     7
 10
61.550438474045428
 20
-57.899999999999991
 30
0.0
 11
60.600367867466602
 21
-42.899999999999977
 31
0.0
  0
LINE
  5
28B
  8
DATA
 62
     7
 10
71.447219673738445
 20
-57.899999999999991
 30
0.0
 11
72.350078777788539
 21
-42.899999999999977
 31
0.0
  0
LINE
  5
28C
  8
DATA
 62
     7
 10
60.600367867466602
 20
-42.899999999999977
 30
0.0
 11
72.350078777788539
 21
-42.899999999999977
 31
0.0
  0
POLYLINE
  5
28D
  8
DATA
 62
     7
 66
     1
 10
0.0
 20
0.0
 30
0.0
 70
     1
  0
VERTEX
  5
664
  8
DATA
 62
     7
 10
61.049999999999997
 20
-39.999999999999957
 30
0.0
  0
VERTEX
  5
665
  8
DATA
 62
     7
 10
71.949999999999974
 20
-39.999999999999957
 30
0.0
  0
VERTEX
  5
666
  8
DATA
 62
     7
 10
71.949999999999974
 20
-41.499999999999957
 30
0.0
  0
VERTEX
  5
667
  8
DATA
 62
     7
 10
61.049999999999997
 20
-41.499999999999957
 30
0.0
  0
SEQEND
  5
668
  8
DATA
 62
     7
  0
LINE
  5
294
  8
DATA
 62
     7
 10
61.550438474045428
 20
-57.899999999999991
 30
0.0
 11
71.447219673738445
 21
-57.899999999999991
 31
0.0
  0
LINE
  5
295
  8
DATA
 62
     7
 10
67.000000000000014
 20
-57.999999999999972
 30
0.0
 11
61.556772278089277
 21
-57.999999999999972
 31
0.0
  0
LINE
  5
296
  8
DATA
 62
     7
 10
61.550438474045428
 20
-57.899999999999991
 30
0.0
 11
61.556772278089291
 21
-57.999999999999972
 31
0.0
  0
LINE
  5
297
  8
DATA
 62
     7
 10
67.000000000000014
 20
-57.899999999999991
 30
0.0
 11
67.000000000000014
 21
-57.999999999999972
 31
0.0
  0
ARC
  5
298
  8
DATA
 62
     7
 10
-115.4999999999999
 20
94.353505983436847
 30
0.0
 40
4.972603383458547
 50
47.099290550296807
 51
132.90070944970341
  0
LINE
  5
299
  8
DATA
 62
     7
 10
-118.88499999999991
 20
97.996109366895368
 30
0.0
 11
-118.88499999999991
 21
96.000000000000043
 31
0.0
  0
LINE
  5
29A
  8
DATA
 62
     7
 10
-112.1149999999999
 20
97.996109366895368
 30
0.0
 11
-112.1149999999999
 21
95.996109366895354
 31
0.0
  0
ARC
  5
29B
  8
DATA
 62
     7
 10
94.500000000000043
 20
94.353505983436847
 30
0.0
 40
4.972603383458547
 50
47.099290550296807
 51
132.90070944970341
  0
LINE
  5
29C
  8
DATA
 62
     7
 10
91.115000000000023
 20
97.996109366895368
 30
0.0
 11
91.115000000000023
 21
95.996109366895354
 31
0.0
  0
LINE
  5
29D
  8
DATA
 62
     7
 10
97.885000000000034
 20
97.996109366895368
 30
0.0
 11
97.885000000000034
 21
95.996109366895354
 31
0.0
  0
LINE
  5
29E
  8
DATA
 62
     7
 10
-119.9999999999999
 20
244.00000000000011
 30
0.0
 11
100.0
 21
244.00000000000011
 31
0.0
  0
LINE
  5
29F
  8
DATA
 62
     7
 10
100.0
 20
200.00000000000011
 30
0.0
 11
-119.9999999999999
 21
200.00000000000011
 31
0.0
  0
CIRCLE
  5
2A0
  8
DATA
 62
     7
 10
95.000000000000057
 20
208.0
 30
0.0
 40
3.1500000000000048
  0
LINE
  5
2A1
  8
DATA
 62
     7
 10
96.714642819946164
 20
208.34999999999999
 30
0.0
 11
96.714642819946164
 21
207.65000000000001
 31
0.0
  0
LINE
  5
2A2
  8
DATA
 62
     7
 10
93.285357180053893
 20
208.34999999999999
 30
0.0
 11
93.285357180053893
 21
207.65000000000001
 31
0.0
  0
LINE
  5
2A3
  8
DATA
 62
     7
 10
94.650000000000034
 20
206.28535718005179
 30
0.0
 11
95.350000000000051
 21
206.28535718005179
 31
0.0
  0
LINE
  5
2A4
  8
DATA
 62
     7
 10
94.650000000000034
 20
209.7146428199481
 30
0.0
 11
95.350000000000051
 21
209.7146428199481
 31
0.0
  0
LINE
  5
2A5
  8
DATA
 62
     7
 10
95.350000000000051
 20
209.7146428199481
 30
0.0
 11
95.350000000000051
 21
208.70715237874589
 31
0.0
  0
LINE
  5
2A6
  8
DATA
 62
     7
 10
95.350000000000051
 20
207.29284762129501
 30
0.0
 11
95.350000000000051
 21
206.28000000000009
 31
0.0
  0
LINE
  5
2A7
  8
DATA
 62
     7
 10
94.650000000000034
 20
209.7146428199481
 30
0.0
 11
94.650000000000034
 21
208.70715237861091
 31
0.0
  0
LINE
  5
2A8
  8
DATA
 62
     7
 10
94.650000000000034
 20
207.29255022090879
 30
0.0
 11
94.650000000000034
 21
206.28535718005179
 31
0.0
  0
LINE
  5
2A9
  8
DATA
 62
     7
 10
96.714642819946164
 20
207.65000000000001
 30
0.0
 11
95.707152378727727
 21
207.65000000000001
 31
0.0
  0
LINE
  5
2AA
  8
DATA
 62
     7
 10
94.292919554480434
 20
207.65000000000001
 30
0.0
 11
93.285357180053893
 21
207.65000000000001
 31
0.0
  0
LINE
  5
2AB
  8
DATA
 62
     7
 10
93.285357180053893
 20
208.34999999999999
 30
0.0
 11
94.292847621452836
 21
208.34999999999999
 31
0.0
  0
LINE
  5
2AC
  8
DATA
 62
     7
 10
95.707152378756874
 20
208.34999999999999
 30
0.0
 11
96.72000000000007
 21
208.34999999999999
 31
0.0
  0
ARC
  5
2AD
  8
DATA
 62
     7
 10
95.782499259400623
 20
208.78249925939889
 30
0.0
 40
0.4390133959299923
 50
189.88247328414209
 51
260.11752671701038
  0
ARC
  5
2AE
  8
DATA
 62
     7
 10
94.217500740668044
 20
208.78249925933039
 30
0.0
 40
0.4390133958741574
 50
279.88247330265631
 51
350.11752670578619
  0
ARC
  5
2AF
  8
DATA
 62
     7
 10
94.217536707231631
 20
207.21761440546479
 30
0.0
 40
0.4389075939506917
 50
9.8304141412123531
 51
80.110354624520212
  0
ARC
  5
2B0
  8
DATA
 62
     7
 10
95.7824992593779
 20
207.21750074062379
 30
0.0
 40
0.4390133959114193
 50
99.882473284319715
 51
170.117526713019
  0
CIRCLE
  5
2B1
  8
DATA
 62
     7
 10
95.000000000000057
 20
236.0
 30
0.0
 40
3.1500000000000048
  0
LINE
  5
2B2
  8
DATA
 62
     7
 10
96.714642819946164
 20
236.34999999999999
 30
0.0
 11
96.714642819946164
 21
235.65000000000001
 31
0.0
  0
LINE
  5
2B3
  8
DATA
 62
     7
 10
93.285357180053893
 20
236.34999999999999
 30
0.0
 11
93.285357180053893
 21
235.65000000000001
 31
0.0
  0
LINE
  5
2B4
  8
DATA
 62
     7
 10
94.650000000000034
 20
234.28535718005179
 30
0.0
 11
95.350000000000051
 21
234.28535718005179
 31
0.0
  0
LINE
  5
2B5
  8
DATA
 62
     7
 10
94.650000000000034
 20
237.7146428199481
 30
0.0
 11
95.350000000000051
 21
237.7146428199481
 31
0.0
  0
LINE
  5
2B6
  8
DATA
 62
     7
 10
95.350000000000051
 20
237.7146428199481
 30
0.0
 11
95.350000000000051
 21
236.70715237874589
 31
0.0
  0
LINE
  5
2B7
  8
DATA
 62
     7
 10
95.350000000000051
 20
235.29284762129501
 30
0.0
 11
95.350000000000051
 21
234.28000000000009
 31
0.0
  0
LINE
  5
2B8
  8
DATA
 62
     7
 10
94.650000000000034
 20
237.7146428199481
 30
0.0
 11
94.650000000000034
 21
236.70715237861091
 31
0.0
  0
LINE
  5
2B9
  8
DATA
 62
     7
 10
94.650000000000034
 20
235.29255022090879
 30
0.0
 11
94.650000000000034
 21
234.28535718005179
 31
0.0
  0
LINE
  5
2BA
  8
DATA
 62
     7
 10
96.714642819946164
 20
235.65000000000001
 30
0.0
 11
95.707152378727727
 21
235.65000000000001
 31
0.0
  0
LINE
  5
2BB
  8
DATA
 62
     7
 10
94.292919554480434
 20
235.65000000000001
 30
0.0
 11
93.285357180053893
 21
235.65000000000001
 31
0.0
  0
LINE
  5
2BC
  8
DATA
 62
     7
 10
93.285357180053893
 20
236.34999999999999
 30
0.0
 11
94.292847621452836
 21
236.34999999999999
 31
0.0
  0
LINE
  5
2BD
  8
DATA
 62
     7
 10
95.707152378756874
 20
236.34999999999999
 30
0.0
 11
96.72000000000007
 21
236.34999999999999
 31
0.0
  0
ARC
  5
2BE
  8
DATA
 62
     7
 10
95.782499259400623
 20
236.78249925939889
 30
0.0
 40
0.4390133959299923
 50
189.88247328414209
 51
260.11752671701038
  0
ARC
  5
2BF
  8
DATA
 62
     7
 10
94.217500740668044
 20
236.78249925933039
 30
0.0
 40
0.4390133958741574
 50
279.88247330265631
 51
350.11752670578619
  0
ARC
  5
2C0
  8
DATA
 62
     7
 10
94.217536707231631
 20
235.21761440546479
 30
0.0
 40
0.4389075939506917
 50
9.8304141412123531
 51
80.110354624520212
  0
ARC
  5
2C1
  8
DATA
 62
     7
 10
95.7824992593779
 20
235.2175007406239
 30
0.0
 40
0.4390133959114193
 50
99.882473284319715
 51
170.117526713019
  0
CIRCLE
  5
2C2
  8
DATA
 62
     7
 10
-114.9999999999999
 20
208.0
 30
0.0
 40
3.1500000000000048
  0
LINE
  5
2C3
  8
DATA
 62
     7
 10
-113.28535718005379
 20
208.34999999999999
 30
0.0
 11
-113.28535718005379
 21
207.65000000000001
 31
0.0
  0
LINE
  5
2C4
  8
DATA
 62
     7
 10
-116.71464281994611
 20
208.34999999999999
 30
0.0
 11
-116.71464281994611
 21
207.65000000000001
 31
0.0
  0
LINE
  5
2C5
  8
DATA
 62
     7
 10
-115.34999999999989
 20
206.28535718005179
 30
0.0
 11
-114.64999999999991
 21
206.28535718005179
 31
0.0
  0
LINE
  5
2C6
  8
DATA
 62
     7
 10
-115.34999999999989
 20
209.7146428199481
 30
0.0
 11
-114.64999999999991
 21
209.7146428199481
 31
0.0
  0
LINE
  5
2C7
  8
DATA
 62
     7
 10
-114.64999999999991
 20
209.7146428199481
 30
0.0
 11
-114.64999999999991
 21
208.70715237874589
 31
0.0
  0
LINE
  5
2C8
  8
DATA
 62
     7
 10
-114.64999999999991
 20
207.29284762129501
 30
0.0
 11
-114.64999999999991
 21
206.28000000000009
 31
0.0
  0
LINE
  5
2C9
  8
DATA
 62
     7
 10
-115.34999999999989
 20
209.7146428199481
 30
0.0
 11
-115.34999999999989
 21
208.70715237861091
 31
0.0
  0
LINE
  5
2CA
  8
DATA
 62
     7
 10
-115.34999999999989
 20
207.29255022090879
 30
0.0
 11
-115.34999999999989
 21
206.28535718005179
 31
0.0
  0
LINE
  5
2CB
  8
DATA
 62
     7
 10
-113.28535718005379
 20
207.65000000000001
 30
0.0
 11
-114.2928476212722
 21
207.65000000000001
 31
0.0
  0
LINE
  5
2CC
  8
DATA
 62
     7
 10
-115.70708044551949
 20
207.65000000000001
 30
0.0
 11
-116.71464281994611
 21
207.65000000000001
 31
0.0
  0
LINE
  5
2CD
  8
DATA
 62
     7
 10
-116.71464281994611
 20
208.34999999999999
 30
0.0
 11
-115.70715237854709
 21
208.34999999999999
 31
0.0
  0
LINE
  5
2CE
  8
DATA
 62
     7
 10
-114.2928476212431
 20
208.34999999999999
 30
0.0
 11
-113.2799999999999
 21
208.34999999999999
 31
0.0
  0
ARC
  5
2CF
  8
DATA
 62
     7
 10
-114.21750074059931
 20
208.78249925939889
 30
0.0
 40
0.4390133959299923
 50
189.88247328414209
 51
260.11752671701038
  0
ARC
  5
2D0
  8
DATA
 62
     7
 10
-115.7824992593319
 20
208.78249925933039
 30
0.0
 40
0.4390133958741574
 50
279.88247330265631
 51
350.11752670578619
  0
ARC
  5
2D1
  8
DATA
 62
     7
 10
-115.7824632927684
 20
207.21761440546479
 30
0.0
 40
0.4389075939506917
 50
9.8304141412123531
 51
80.110354624520212
  0
ARC
  5
2D2
  8
DATA
 62
     7
 10
-114.2175007406221
 20
207.21750074062379
 30
0.0
 40
0.4390133959114193
 50
99.882473284319715
 51
170.117526713019
  0
CIRCLE
  5
2D3
  8
DATA
 62
     7
 10
-114.9999999999999
 20
236.0
 30
0.0
 40
3.1500000000000048
  0
LINE
  5
2D4
  8
DATA
 62
     7
 10
-113.28535718005379
 20
236.34999999999999
 30
0.0
 11
-113.28535718005379
 21
235.65000000000001
 31
0.0
  0
LINE
  5
2D5
  8
DATA
 62
     7
 10
-116.71464281994611
 20
236.34999999999999
 30
0.0
 11
-116.71464281994611
 21
235.65000000000001
 31
0.0
  0
LINE
  5
2D6
  8
DATA
 62
     7
 10
-115.34999999999989
 20
234.28535718005179
 30
0.0
 11
-114.64999999999991
 21
234.28535718005179
 31
0.0
  0
LINE
  5
2D7
  8
DATA
 62
     7
 10
-115.34999999999989
 20
237.7146428199481
 30
0.0
 11
-114.64999999999991
 21
237.7146428199481
 31
0.0
  0
LINE
  5
2D8
  8
DATA
 62
     7
 10
-114.64999999999991
 20
237.7146428199481
 30
0.0
 11
-114.64999999999991
 21
236.70715237874589
 31
0.0
  0
LINE
  5
2D9
  8
DATA
 62
     7
 10
-114.64999999999991
 20
235.29284762129501
 30
0.0
 11
-114.64999999999991
 21
234.28000000000009
 31
0.0
  0
LINE
  5
2DA
  8
DATA
 62
     7
 10
-115.34999999999989
 20
237.7146428199481
 30
0.0
 11
-115.34999999999989
 21
236.70715237861091
 31
0.0
  0
LINE
  5
2DB
  8
DATA
 62
     7
 10
-115.34999999999989
 20
235.29255022090879
 30
0.0
 11
-115.34999999999989
 21
234.28535718005179
 31
0.0
  0
LINE
  5
2DC
  8
DATA
 62
     7
 10
-113.28535718005379
 20
235.65000000000001
 30
0.0
 11
-114.2928476212722
 21
235.65000000000001
 31
0.0
  0
LINE
  5
2DD
  8
DATA
 62
     7
 10
-115.70708044551949
 20
235.65000000000001
 30
0.0
 11
-116.71464281994611
 21
235.65000000000001
 31
0.0
  0
LINE
  5
2DE
  8
DATA
 62
     7
 10
-116.71464281994611
 20
236.34999999999999
 30
0.0
 11
-115.70715237854709
 21
236.34999999999999
 31
0.0
  0
LINE
  5
2DF
  8
DATA
 62
     7
 10
-114.2928476212431
 20
236.34999999999999
 30
0.0
 11
-113.2799999999999
 21
236.34999999999999
 31
0.0
  0
ARC
  5
2E0
  8
DATA
 62
     7
 10
-114.21750074059931
 20
236.78249925939889
 30
0.0
 40
0.4390133959299923
 50
189.88247328414209
 51
260.11752671701038
  0
ARC
  5
2E1
  8
DATA
 62
     7
 10
-115.7824992593319
 20
236.78249925933039
 30
0.0
 40
0.4390133958741574
 50
279.88247330265631
 51
350.11752670578619
  0
ARC
  5
2E2
  8
DATA
 62
     7
 10
-115.7824632927684
 20
235.21761440546479
 30
0.0
 40
0.4389075939506917
 50
9.8304141412123531
 51
80.110354624520212
  0
ARC
  5
2E3
  8
DATA
 62
     7
 10
-114.2175007406221
 20
235.2175007406239
 30
0.0
 40
0.4390133959114193
 50
99.882473284319715
 51
170.117526713019
  0
LINE
  5
2E4
  8
DATA
 62
     7
 10
90.000000000000057
 20
233.00000000000011
 30
0.0
 11
90.000000000000057
 21
203.00000000000011
 31
0.0
  0
LINE
  5
2E5
  8
DATA
 62
     7
 10
68.800000000000054
 20
233.00000000000011
 30
0.0
 11
68.800000000000054
 21
203.00000000000011
 31
0.0
  0
LINE
  5
2E6
  8
DATA
 62
     7
 10
90.000000000000057
 20
203.00000000000011
 30
0.0
 11
68.800000000000054
 21
203.00000000000011
 31
0.0
  0
LINE
  5
2E7
  8
DATA
 62
     7
 10
90.000000000000057
 20
233.00000000000011
 30
0.0
 11
68.800000000000054
 21
233.00000000000011
 31
0.0
  0
LINE
  5
2E8
  8
DATA
 62
     7
 10
71.500000000000043
 20
230.00000000000011
 30
0.0
 11
71.500000000000043
 21
206.00000000000011
 31
0.0
  0
LINE
  5
2E9
  8
DATA
 62
     7
 10
87.300000000000026
 20
225.60000000000011
 30
0.0
 11
87.300000000000026
 21
210.40000000000001
 31
0.0
  0
LINE
  5
2EA
  8
DATA
 62
     7
 10
82.600000000000122
 20
230.00000000000011
 30
0.0
 11
71.500000000000043
 21
230.00000000000011
 31
0.0
  0
LINE
  5
2EB
  8
DATA
 62
     7
 10
82.600000000000136
 20
206.00000000000011
 30
0.0
 11
71.500000000000043
 21
206.00000000000011
 31
0.0
  0
LINE
  5
2EC
  8
DATA
 62
     7
 10
87.300000000000026
 20
210.40000000000001
 30
0.0
 11
82.600000000000122
 21
206.00000000000011
 31
0.0
  0
LINE
  5
2ED
  8
DATA
 62
     7
 10
82.600000000000122
 20
230.00000000000011
 30
0.0
 11
87.300000000000026
 21
225.60000000000011
 31
0.0
  0
POLYLINE
  5
2EE
  8
DATA
 62
     7
 66
     1
 10
0.0
 20
0.0
 30
0.0
 70
     1
  0
VERTEX
  5
669
  8
DATA
 62
     7
 10
79.40000000000002
 20
219.00000000000011
 30
0.0
  0
VERTEX
  5
66A
  8
DATA
 62
     7
 10
84.400000000000034
 20
219.00000000000011
 30
0.0
  0
VERTEX
  5
66B
  8
DATA
 62
     7
 10
84.400000000000034
 20
217.00000000000011
 30
0.0
  0
VERTEX
  5
66C
  8
DATA
 62
     7
 10
79.40000000000002
 20
217.00000000000011
 30
0.0
  0
SEQEND
  5
66D
  8
DATA
 62
     7
  0
POLYLINE
  5
2F5
  8
DATA
 62
     7
 66
     1
 10
0.0
 20
0.0
 30
0.0
 70
     1
  0
VERTEX
  5
66E
  8
DATA
 62
     7
 10
75.600000000000065
 20
212.00000000000011
 30
0.0
  0
VERTEX
  5
66F
  8
DATA
 62
     7
 10
80.600000000000065
 20
212.00000000000011
 30
0.0
  0
VERTEX
  5
670
  8
DATA
 62
     7
 10
80.600000000000065
 20
210.00000000000011
 30
0.0
  0
VERTEX
  5
671
  8
DATA
 62
     7
 10
75.600000000000065
 20
210.00000000000011
 30
0.0
  0
SEQEND
  5
672
  8
DATA
 62
     7
  0
POLYLINE
  5
2FC
  8
DATA
 62
     7
 66
     1
 10
0.0
 20
0.0
 30
0.0
 70
     1
  0
VERTEX
  5
673
  8
DATA
 62
     7
 10
75.600000000000065
 20
226.00000000000011
 30
0.0
  0
VERTEX
  5
674
  8
DATA
 62
     7
 10
80.600000000000065
 20
226.00000000000011
 30
0.0
  0
VERTEX
  5
675
  8
DATA
 62
     7
 10
80.600000000000065
 20
224.00000000000011
 30
0.0
  0
VERTEX
  5
676
  8
DATA
 62
     7
 10
75.600000000000065
 20
224.00000000000011
 30
0.0
  0
SEQEND
  5
677
  8
DATA
 62
     7
  0
CIRCLE
  5
303
  8
DATA
 62
     7
 10
-98.010556155193285
 20
222.06039909669269
 30
0.0
 40
9.8499999999998806
  0
CIRCLE
  5
304
  8
DATA
 62
     7
 10
-98.010556155193285
 20
222.06039909669269
 30
0.0
 40
7.8499999999998789
  0
CIRCLE
  5
305
  8
DATA
 62
     7
 10
-98.010556155193285
 20
225.98153711783519
 30
0.0
 40
1.264999999999957
  0
CIRCLE
  5
306
  8
DATA
 62
     7
 10
-94.079074569307195
 20
222.06039909669269
 30
0.0
 40
1.264999999999957
  0
CIRCLE
  5
307
  8
DATA
 62
     7
 10
-101.9450005745805
 20
222.06039909669269
 30
0.0
 40
1.264999999999957
  0
CIRCLE
  5
308
  8
DATA
 62
     7
 10
-107.5174215680894
 20
231.6136242338998
 30
0.0
 40
2.0006999999999939
  0
POLYLINE
  5
309
  8
DATA
 62
     7
 66
     1
 10
0.0
 20
0.0
 30
0.0
  0
VERTEX
  5
678
  8
DATA
 62
     7
 10
-107.7097965680894
 20
231.8059992338998
 30
0.0
  0
VERTEX
  5
679
  8
DATA
 62
     7
 10
-107.7097965680894
 20
233.1526242338997
 30
0.0
  0
VERTEX
  5
67A
  8
DATA
 62
     7
 10
-107.32504656808941
 20
233.1526242338997
 30
0.0
  0
VERTEX
  5
67B
  8
DATA
 62
     7
 10
-107.32504656808941
 20
231.8059992338998
 30
0.0
  0
SEQEND
  5
67C
  8
DATA
 62
     7
  0
POLYLINE
  5
310
  8
DATA
 62
     7
 66
     1
 10
0.0
 20
0.0
 30
0.0
  0
VERTEX
  5
67D
  8
DATA
 62
     7
 10
-107.7097965680894
 20
231.4212492338998
 30
0.0
  0
VERTEX
  5
67E
  8
DATA
 62
     7
 10
-107.7097965680894
 20
230.0746242338997
 30
0.0
  0
VERTEX
  5
67F
  8
DATA
 62
     7
 10
-107.32504656808941
 20
230.0746242338997
 30
0.0
  0
VERTEX
  5
680
  8
DATA
 62
     7
 10
-107.32504656808941
 20
231.4212492338998
 30
0.0
  0
SEQEND
  5
681
  8
DATA
 62
     7
  0
POLYLINE
  5
317
  8
DATA
 62
     7
 66
     1
 10
0.0
 20
0.0
 30
0.0
  0
VERTEX
  5
682
  8
DATA
 62
     7
 10
-107.32504656808941
 20
231.8059992338998
 30
0.0
  0
VERTEX
  5
683
  8
DATA
 62
     7
 10
-105.9784215680894
 20
231.8059992338998
 30
0.0
  0
VERTEX
  5
684
  8
DATA
 62
     7
 10
-105.9784215680894
 20
231.4212492338998
 30
0.0
  0
VERTEX
  5
685
  8
DATA
 62
     7
 10
-107.32504656808941
 20
231.4212492338998
 30
0.0
  0
SEQEND
  5
686
  8
DATA
 62
     7
  0
POLYLINE
  5
31E
  8
DATA
 62
     7
 66
     1
 10
0.0
 20
0.0
 30
0.0
  0
VERTEX
  5
687
  8
DATA
 62
     7
 10
-107.7097965680894
 20
231.8059992338998
 30
0.0
  0
VERTEX
  5
688
  8
DATA
 62
     7
 10
-109.05642156808941
 20
231.8059992338998
 30
0.0
  0
VERTEX
  5
689
  8
DATA
 62
     7
 10
-109.05642156808941
 20
231.4212492338998
 30
0.0
  0
VERTEX
  5
68A
  8
DATA
 62
     7
 10
-107.7097965680894
 20
231.4212492338998
 30
0.0
  0
SEQEND
  5
68B
  8
DATA
 62
     7
  0
CIRCLE
  5
325
  8
DATA
 62
     7
 10
-88.377044161366115
 20
212.4732468271761
 30
0.0
 40
2.000699999999938
  0
POLYLINE
  5
326
  8
DATA
 62
     7
 66
     1
 10
0.0
 20
0.0
 30
0.0
  0
VERTEX
  5
68C
  8
DATA
 62
     7
 10
-88.569419161366142
 20
212.66562182717601
 30
0.0
  0
VERTEX
  5
68D
  8
DATA
 62
     7
 10
-88.569419161366142
 20
214.01224682717611
 30
0.0
  0
VERTEX
  5
68E
  8
DATA
 62
     7
 10
-88.184669161366159
 20
214.01224682717611
 30
0.0
  0
VERTEX
  5
68F
  8
DATA
 62
     7
 10
-88.184669161366159
 20
212.66562182717601
 30
0.0
  0
SEQEND
  5
690
  8
DATA
 62
     7
  0
POLYLINE
  5
32D
  8
DATA
 62
     7
 66
     1
 10
0.0
 20
0.0
 30
0.0
  0
VERTEX
  5
691
  8
DATA
 62
     7
 10
-88.569419161366142
 20
212.28087182717599
 30
0.0
  0
VERTEX
  5
692
  8
DATA
 62
     7
 10
-88.569419161366142
 20
210.93424682717611
 30
0.0
  0
VERTEX
  5
693
  8
DATA
 62
     7
 10
-88.184669161366159
 20
210.93424682717611
 30
0.0
  0
VERTEX
  5
694
  8
DATA
 62
     7
 10
-88.184669161366159
 20
212.28087182717599
 30
0.0
  0
SEQEND
  5
695
  8
DATA
 62
     7
  0
POLYLINE
  5
334
  8
DATA
 62
     7
 66
     1
 10
0.0
 20
0.0
 30
0.0
  0
VERTEX
  5
696
  8
DATA
 62
     7
 10
-88.184669161366159
 20
212.66562182717601
 30
0.0
  0
VERTEX
  5
697
  8
DATA
 62
     7
 10
-86.83804416136617
 20
212.66562182717601
 30
0.0
  0
VERTEX
  5
698
  8
DATA
 62
     7
 10
-86.83804416136617
 20
212.28087182717599
 30
0.0
  0
VERTEX
  5
699
  8
DATA
 62
     7
 10
-88.184669161366159
 20
212.28087182717599
 30
0.0
  0
SEQEND
  5
69A
  8
DATA
 62
     7
  0
POLYLINE
  5
33B
  8
DATA
 62
     7
 66
     1
 10
0.0
 20
0.0
 30
0.0
  0
VERTEX
  5
69B
  8
DATA
 62
     7
 10
-88.569419161366142
 20
212.66562182717601
 30
0.0
  0
VERTEX
  5
69C
  8
DATA
 62
     7
 10
-89.916044161366145
 20
212.66562182717601
 30
0.0
  0
VERTEX
  5
69D
  8
DATA
 62
     7
 10
-89.916044161366145
 20
212.28087182717599
 30
0.0
  0
VERTEX
  5
69E
  8
DATA
 62
     7
 10
-88.569419161366142
 20
212.28087182717599
 30
0.0
  0
SEQEND
  5
69F
  8
DATA
 62
     7
  0
ARC
  5
342
  8
DATA
 62
     7
 10
-98.010556155193285
 20
222.06039909669269
 30
0.0
 40
10.899999999999981
 50
282.98939147050169
 51
257.01060852923302
  0
LINE
  5
343
  8
DATA
 62
     7
 10
-95.560556155217895
 20
212.51995885527199
 30
0.0
 11
-95.560556155217895
 21
210.63677615427699
 31
0.0
  0
LINE
  5
344
  8
DATA
 62
     7
 10
-100.4605561552178
 20
212.5199588552845
 30
0.0
 11
-100.4605561552178
 21
210.6367761542671
 31
0.0
  0
CIRCLE
  5
345
  8
DATA
 62
     7
 10
54.82651604449994
 20
221.05135915238839
 30
0.0
 40
11.0
  0
CIRCLE
  5
346
  8
DATA
 62
     7
 10
54.82651604449994
 20
221.05135915238839
 30
0.0
 40
8.25
  0
CIRCLE
  5
347
  8
DATA
 62
     7
 10
54.82651604449994
 20
225.24069981627119
 30
0.0
 40
1.25
  0
CIRCLE
  5
348
  8
DATA
 62
     7
 10
50.576516044499932
 20
221.05135915238839
 30
0.0
 40
1.25
  0
CIRCLE
  5
349
  8
DATA
 62
     7
 10
59.07651604449994
 20
221.05135915238839
 30
0.0
 40
1.25
  0
CIRCLE
  5
34A
  8
DATA
 62
     7
 10
45.288759748700883
 20
230.6564224851623
 30
0.0
 40
2.0006999999999939
  0
POLYLINE
  5
34B
  8
DATA
 62
     7
 66
     1
 10
0.0
 20
0.0
 30
0.0
  0
VERTEX
  5
6A0
  8
DATA
 62
     7
 10
45.096384748700899
 20
230.84879748516229
 30
0.0
  0
VERTEX
  5
6A1
  8
DATA
 62
     7
 10
45.096384748700899
 20
232.19542248516231
 30
0.0
  0
VERTEX
  5
6A2
  8
DATA
 62
     7
 10
45.481134748700903
 20
232.19542248516231
 30
0.0
  0
VERTEX
  5
6A3
  8
DATA
 62
     7
 10
45.481134748700903
 20
230.84879748516229
 30
0.0
  0
SEQEND
  5
6A4
  8
DATA
 62
     7
  0
POLYLINE
  5
352
  8
DATA
 62
     7
 66
     1
 10
0.0
 20
0.0
 30
0.0
  0
VERTEX
  5
6A5
  8
DATA
 62
     7
 10
45.096384748700899
 20
230.46404748516241
 30
0.0
  0
VERTEX
  5
6A6
  8
DATA
 62
     7
 10
45.096384748700899
 20
229.11742248516231
 30
0.0
  0
VERTEX
  5
6A7
  8
DATA
 62
     7
 10
45.481134748700903
 20
229.11742248516231
 30
0.0
  0
VERTEX
  5
6A8
  8
DATA
 62
     7
 10
45.481134748700903
 20
230.46404748516241
 30
0.0
  0
SEQEND
  5
6A9
  8
DATA
 62
     7
  0
POLYLINE
  5
359
  8
DATA
 62
     7
 66
     1
 10
0.0
 20
0.0
 30
0.0
  0
VERTEX
  5
6AA
  8
DATA
 62
     7
 10
45.481134748700903
 20
230.84879748516229
 30
0.0
  0
VERTEX
  5
6AB
  8
DATA
 62
     7
 10
46.827759748700927
 20
230.84879748516229
 30
0.0
  0
VERTEX
  5
6AC
  8
DATA
 62
     7
 10
46.827759748700927
 20
230.46404748516241
 30
0.0
  0
VERTEX
  5
6AD
  8
DATA
 62
     7
 10
45.481134748700903
 20
230.46404748516241
 30
0.0
  0
SEQEND
  5
6AE
  8
DATA
 62
     7
  0
POLYLINE
  5
360
  8
DATA
 62
     7
 66
     1
 10
0.0
 20
0.0
 30
0.0
  0
VERTEX
  5
6AF
  8
DATA
 62
     7
 10
45.096384748700899
 20
230.84879748516229
 30
0.0
  0
VERTEX
  5
6B0
  8
DATA
 62
     7
 10
43.749759748700889
 20
230.84879748516229
 30
0.0
  0
VERTEX
  5
6B1
  8
DATA
 62
     7
 10
43.749759748700889
 20
230.46404748516241
 30
0.0
  0
VERTEX
  5
6B2
  8
DATA
 62
     7
 10
45.096384748700899
 20
230.46404748516241
 30
0.0
  0
SEQEND
  5
6B3
  8
DATA
 62
     7
  0
CIRCLE
  5
367
  8
DATA
 62
     7
 10
64.42913715542457
 20
211.51604507843859
 30
0.0
 40
2.0006999999999939
  0
POLYLINE
  5
368
  8
DATA
 62
     7
 66
     1
 10
0.0
 20
0.0
 30
0.0
  0
VERTEX
  5
6B4
  8
DATA
 62
     7
 10
64.236762155424572
 20
211.70842007843859
 30
0.0
  0
VERTEX
  5
6B5
  8
DATA
 62
     7
 10
64.236762155424572
 20
213.05504507843861
 30
0.0
  0
VERTEX
  5
6B6
  8
DATA
 62
     7
 10
64.621512155424568
 20
213.05504507843861
 30
0.0
  0
VERTEX
  5
6B7
  8
DATA
 62
     7
 10
64.621512155424568
 20
211.70842007843859
 30
0.0
  0
SEQEND
  5
6B8
  8
DATA
 62
     7
  0
POLYLINE
  5
36F
  8
DATA
 62
     7
 66
     1
 10
0.0
 20
0.0
 30
0.0
  0
VERTEX
  5
6B9
  8
DATA
 62
     7
 10
64.236762155424572
 20
211.3236700784386
 30
0.0
  0
VERTEX
  5
6BA
  8
DATA
 62
     7
 10
64.236762155424572
 20
209.97704507843861
 30
0.0
  0
VERTEX
  5
6BB
  8
DATA
 62
     7
 10
64.621512155424568
 20
209.97704507843861
 30
0.0
  0
VERTEX
  5
6BC
  8
DATA
 62
     7
 10
64.621512155424568
 20
211.3236700784386
 30
0.0
  0
SEQEND
  5
6BD
  8
DATA
 62
     7
  0
POLYLINE
  5
376
  8
DATA
 62
     7
 66
     1
 10
0.0
 20
0.0
 30
0.0
  0
VERTEX
  5
6BE
  8
DATA
 62
     7
 10
64.621512155424568
 20
211.70842007843859
 30
0.0
  0
VERTEX
  5
6BF
  8
DATA
 62
     7
 10
65.968137155424571
 20
211.70842007843859
 30
0.0
  0
VERTEX
  5
6C0
  8
DATA
 62
     7
 10
65.968137155424571
 20
211.3236700784386
 30
0.0
  0
VERTEX
  5
6C1
  8
DATA
 62
     7
 10
64.621512155424568
 20
211.3236700784386
 30
0.0
  0
SEQEND
  5
6C2
  8
DATA
 62
     7
  0
POLYLINE
  5
37D
  8
DATA
 62
     7
 66
     1
 10
0.0
 20
0.0
 30
0.0
  0
VERTEX
  5
6C3
  8
DATA
 62
     7
 10
64.236762155424572
 20
211.70842007843859
 30
0.0
  0
VERTEX
  5
6C4
  8
DATA
 62
     7
 10
62.89013715542454
 20
211.70842007843859
 30
0.0
  0
VERTEX
  5
6C5
  8
DATA
 62
     7
 10
62.89013715542454
 20
211.3236700784386
 30
0.0
  0
VERTEX
  5
6C6
  8
DATA
 62
     7
 10
64.236762155424572
 20
211.3236700784386
 30
0.0
  0
SEQEND
  5
6C7
  8
DATA
 62
     7
  0
ARC
  5
384
  8
DATA
 62
     7
 10
54.82651604449994
 20
221.05135915238839
 30
0.0
 40
8.0000000000000071
 50
247.97568716295791
 51
292.02431283704209
  0
LINE
  5
385
  8
DATA
 62
     7
 10
51.826516044499932
 20
213.63516066529269
 30
0.0
 11
51.826516044499932
 21
213.3661460779187
 31
0.0
  0
LINE
  5
386
  8
DATA
 62
     7
 10
57.82651604449994
 20
213.63516066529269
 30
0.0
 11
57.82651604449994
 21
213.3661460779187
 31
0.0
  0
LINE
  5
387
  8
DATA
 62
     7
 10
-93.011678490682925
 20
208.6390117427278
 30
0.0
 11
-93.011678490682925
 21
206.8324623673395
 31
0.0
  0
LINE
  5
388
  8
DATA
 62
     7
 10
-103.0094338197036
 20
208.6457887542783
 30
0.0
 11
-103.0094338197036
 21
206.8324623673395
 31
0.0
  0
LINE
  5
389
  8
DATA
 62
     7
 10
-101.50798113779619
 20
210.1457880508498
 30
0.0
 11
-94.510225808775616
 21
210.13901103929939
 31
0.0
  0
ARC
  5
38A
  8
DATA
 62
     7
 10
-98.010556155193285
 20
222.73135491411361
 30
0.0
 40
17.77934056173887
 50
257.58872717029561
 51
282.41127282970439
  0
LINE
  5
38B
  8
DATA
 62
     7
 10
-95.560556155217895
 20
210.63677615427699
 30
0.0
 11
-95.560556155217895
 21
210.14002823703709
 31
0.0
  0
LINE
  5
38C
  8
DATA
 62
     7
 10
-100.4605561552178
 20
210.6367761542671
 30
0.0
 11
-100.4610326370689
 21
210.1447741282777
 31
0.0
  0
ARC
  5
38D
  8
DATA
 62
     7
 10
-101.5094338197036
 20
208.6457887542783
 30
0.0
 40
1.4999999999999929
 50
89.944511629815324
 51
180.0
  0
ARC
  5
38E
  8
DATA
 62
     7
 10
-94.511678490682925
 20
208.6390117427278
 30
0.0
 40
1.5
 50
0.0
 51
89.944511629816418
  0
ARC
  5
38F
  8
DATA
 62
     7
 10
-94.511678490682925
 20
206.8324623673395
 30
0.0
 40
1.4999999999999909
 50
282.41127282970388
 51
0.0
  0
ARC
  5
390
  8
DATA
 62
     7
 10
-101.5094338197036
 20
206.8324623673395
 30
0.0
 40
1.5
 50
180.0
 51
257.5887271702951
  0
CIRCLE
  5
391
  8
DATA
 62
     7
 10
-75.410556155193305
 20
222.06039909669269
 30
0.0
 40
9.8499999999998806
  0
CIRCLE
  5
392
  8
DATA
 62
     7
 10
-75.410556155193305
 20
222.06039909669269
 30
0.0
 40
7.8499999999998789
  0
CIRCLE
  5
393
  8
DATA
 62
     7
 10
-75.410556155193305
 20
225.98153711783519
 30
0.0
 40
1.264999999999957
  0
CIRCLE
  5
394
  8
DATA
 62
     7
 10
-71.479074569307173
 20
222.06039909669269
 30
0.0
 40
1.2649999999999859
  0
CIRCLE
  5
395
  8
DATA
 62
     7
 10
-79.345000574580538
 20
222.06039909669269
 30
0.0
 40
1.2649999999999291
  0
CIRCLE
  5
396
  8
DATA
 62
     7
 10
-84.917421568089438
 20
231.6136242338998
 30
0.0
 40
2.0006999999999939
  0
POLYLINE
  5
397
  8
DATA
 62
     7
 66
     1
 10
0.0
 20
0.0
 30
0.0
  0
VERTEX
  5
6C8
  8
DATA
 62
     7
 10
-85.109796568089394
 20
231.8059992338998
 30
0.0
  0
VERTEX
  5
6C9
  8
DATA
 62
     7
 10
-85.109796568089394
 20
233.1526242338997
 30
0.0
  0
VERTEX
  5
6CA
  8
DATA
 62
     7
 10
-84.725046568089425
 20
233.1526242338997
 30
0.0
  0
VERTEX
  5
6CB
  8
DATA
 62
     7
 10
-84.725046568089425
 20
231.8059992338998
 30
0.0
  0
SEQEND
  5
6CC
  8
DATA
 62
     7
  0
POLYLINE
  5
39E
  8
DATA
 62
     7
 66
     1
 10
0.0
 20
0.0
 30
0.0
  0
VERTEX
  5
6CD
  8
DATA
 62
     7
 10
-85.109796568089394
 20
231.4212492338998
 30
0.0
  0
VERTEX
  5
6CE
  8
DATA
 62
     7
 10
-85.109796568089394
 20
230.0746242338997
 30
0.0
  0
VERTEX
  5
6CF
  8
DATA
 62
     7
 10
-84.725046568089425
 20
230.0746242338997
 30
0.0
  0
VERTEX
  5
6D0
  8
DATA
 62
     7
 10
-84.725046568089425
 20
231.4212492338998
 30
0.0
  0
SEQEND
  5
6D1
  8
DATA
 62
     7
  0
POLYLINE
  5
3A5
  8
DATA
 62
     7
 66
     1
 10
0.0
 20
0.0
 30
0.0
  0
VERTEX
  5
6D2
  8
DATA
 62
     7
 10
-84.725046568089425
 20
231.8059992338998
 30
0.0
  0
VERTEX
  5
6D3
  8
DATA
 62
     7
 10
-83.378421568089394
 20
231.8059992338998
 30
0.0
  0
VERTEX
  5
6D4
  8
DATA
 62
     7
 10
-83.378421568089394
 20
231.4212492338998
 30
0.0
  0
VERTEX
  5
6D5
  8
DATA
 62
     7
 10
-84.725046568089425
 20
231.4212492338998
 30
0.0
  0
SEQEND
  5
6D6
  8
DATA
 62
     7
  0
POLYLINE
  5
3AC
  8
DATA
 62
     7
 66
     1
 10
0.0
 20
0.0
 30
0.0
  0
VERTEX
  5
6D7
  8
DATA
 62
     7
 10
-85.109796568089394
 20
231.8059992338998
 30
0.0
  0
VERTEX
  5
6D8
  8
DATA
 62
     7
 10
-86.456421568089425
 20
231.8059992338998
 30
0.0
  0
VERTEX
  5
6D9
  8
DATA
 62
     7
 10
-86.456421568089425
 20
231.4212492338998
 30
0.0
  0
VERTEX
  5
6DA
  8
DATA
 62
     7
 10
-85.109796568089394
 20
231.4212492338998
 30
0.0
  0
SEQEND
  5
6DB
  8
DATA
 62
     7
  0
CIRCLE
  5
3B3
  8
DATA
 62
     7
 10
-65.777044161366135
 20
212.4732468271761
 30
0.0
 40
2.000699999999938
  0
POLYLINE
  5
3B4
  8
DATA
 62
     7
 66
     1
 10
0.0
 20
0.0
 30
0.0
  0
VERTEX
  5
6DC
  8
DATA
 62
     7
 10
-65.969419161366162
 20
212.66562182717601
 30
0.0
  0
VERTEX
  5
6DD
  8
DATA
 62
     7
 10
-65.969419161366162
 20
214.01224682717611
 30
0.0
  0
VERTEX
  5
6DE
  8
DATA
 62
     7
 10
-65.584669161366179
 20
214.01224682717611
 30
0.0
  0
VERTEX
  5
6DF
  8
DATA
 62
     7
 10
-65.584669161366179
 20
212.66562182717601
 30
0.0
  0
SEQEND
  5
6E0
  8
DATA
 62
     7
  0
POLYLINE
  5
3BB
  8
DATA
 62
     7
 66
     1
 10
0.0
 20
0.0
 30
0.0
  0
VERTEX
  5
6E1
  8
DATA
 62
     7
 10
-65.969419161366162
 20
212.28087182717599
 30
0.0
  0
VERTEX
  5
6E2
  8
DATA
 62
     7
 10
-65.969419161366162
 20
210.93424682717611
 30
0.0
  0
VERTEX
  5
6E3
  8
DATA
 62
     7
 10
-65.584669161366179
 20
210.93424682717611
 30
0.0
  0
VERTEX
  5
6E4
  8
DATA
 62
     7
 10
-65.584669161366179
 20
212.28087182717599
 30
0.0
  0
SEQEND
  5
6E5
  8
DATA
 62
     7
  0
POLYLINE
  5
3C2
  8
DATA
 62
     7
 66
     1
 10
0.0
 20
0.0
 30
0.0
  0
VERTEX
  5
6E6
  8
DATA
 62
     7
 10
-65.584669161366179
 20
212.66562182717601
 30
0.0
  0
VERTEX
  5
6E7
  8
DATA
 62
     7
 10
-64.238044161366176
 20
212.66562182717601
 30
0.0
  0
VERTEX
  5
6E8
  8
DATA
 62
     7
 10
-64.238044161366176
 20
212.28087182717599
 30
0.0
  0
VERTEX
  5
6E9
  8
DATA
 62
     7
 10
-65.584669161366179
 20
212.28087182717599
 30
0.0
  0
SEQEND
  5
6EA
  8
DATA
 62
     7
  0
POLYLINE
  5
3C9
  8
DATA
 62
     7
 66
     1
 10
0.0
 20
0.0
 30
0.0
  0
VERTEX
  5
6EB
  8
DATA
 62
     7
 10
-65.969419161366162
 20
212.66562182717601
 30
0.0
  0
VERTEX
  5
6EC
  8
DATA
 62
     7
 10
-67.316044161366122
 20
212.66562182717601
 30
0.0
  0
VERTEX
  5
6ED
  8
DATA
 62
     7
 10
-67.316044161366122
 20
212.28087182717599
 30
0.0
  0
VERTEX
  5
6EE
  8
DATA
 62
     7
 10
-65.969419161366162
 20
212.28087182717599
 30
0.0
  0
SEQEND
  5
6EF
  8
DATA
 62
     7
  0
ARC
  5
3D0
  8
DATA
 62
     7
 10
-75.410556155193305
 20
222.06039909669269
 30
0.0
 40
10.89999999999999
 50
282.9893914705018
 51
257.01060852923302
  0
LINE
  5
3D1
  8
DATA
 62
     7
 10
-72.96055615521793
 20
212.51995885527199
 30
0.0
 11
-72.96055615521793
 21
210.63677615427699
 31
0.0
  0
LINE
  5
3D2
  8
DATA
 62
     7
 10
-77.860556155217793
 20
212.5199588552845
 30
0.0
 11
-77.860556155217793
 21
210.6367761542671
 31
0.0
  0
LINE
  5
3D3
  8
DATA
 62
     7
 10
-70.411678490682959
 20
208.6390117427278
 30
0.0
 11
-70.411678490682959
 21
206.8324623673395
 31
0.0
  0
LINE
  5
3D4
  8
DATA
 62
     7
 10
-80.409433819703636
 20
208.6457887542783
 30
0.0
 11
-80.409433819703636
 21
206.8324623673395
 31
0.0
  0
LINE
  5
3D5
  8
DATA
 62
     7
 10
-78.90798113779627
 20
210.1457880508498
 30
0.0
 11
-71.910225808775593
 21
210.13901103929939
 31
0.0
  0
ARC
  5
3D6
  8
DATA
 62
     7
 10
-75.410556155193305
 20
222.73135491411361
 30
0.0
 40
17.779340561738859
 50
257.58872717029573
 51
282.41127282970439
  0
LINE
  5
3D7
  8
DATA
 62
     7
 10
-72.96055615521793
 20
210.63677615427699
 30
0.0
 11
-72.96055615521793
 21
210.14002823703709
 31
0.0
  0
LINE
  5
3D8
  8
DATA
 62
     7
 10
-77.860556155217793
 20
210.6367761542671
 30
0.0
 11
-77.861032637068945
 21
210.1447741282777
 31
0.0
  0
ARC
  5
3D9
  8
DATA
 62
     7
 10
-78.909433819703622
 20
208.6457887542783
 30
0.0
 40
1.4999999999999929
 50
89.944511629815324
 51
180.0
  0
ARC
  5
3DA
  8
DATA
 62
     7
 10
-71.911678490682959
 20
208.6390117427278
 30
0.0
 40
1.5
 50
0.0
 51
89.944511629815324
  0
ARC
  5
3DB
  8
DATA
 62
     7
 10
-71.911678490682931
 20
206.8324623673395
 30
0.0
 40
1.4999999999999849
 50
282.4112728297028
 51
0.0
  0
ARC
  5
3DC
  8
DATA
 62
     7
 10
-78.909433819703622
 20
206.8324623673395
 30
0.0
 40
1.5
 50
180.0
 51
257.58872717029612
  0
CIRCLE
  5
3DD
  8
DATA
 62
     7
 10
-52.810556155193311
 20
222.06039909669269
 30
0.0
 40
9.8499999999998806
  0
CIRCLE
  5
3DE
  8
DATA
 62
     7
 10
-52.810556155193311
 20
222.06039909669269
 30
0.0
 40
7.8499999999998789
  0
CIRCLE
  5
3DF
  8
DATA
 62
     7
 10
-52.810556155193311
 20
225.98153711783519
 30
0.0
 40
1.264999999999957
  0
CIRCLE
  5
3E0
  8
DATA
 62
     7
 10
-48.879074569307193
 20
222.06039909669269
 30
0.0
 40
1.264999999999957
  0
CIRCLE
  5
3E1
  8
DATA
 62
     7
 10
-56.745000574580523
 20
222.06039909669269
 30
0.0
 40
1.264999999999957
  0
CIRCLE
  5
3E2
  8
DATA
 62
     7
 10
-62.317421568089443
 20
231.6136242338998
 30
0.0
 40
2.0006999999999939
  0
POLYLINE
  5
3E3
  8
DATA
 62
     7
 66
     1
 10
0.0
 20
0.0
 30
0.0
  0
VERTEX
  5
6F0
  8
DATA
 62
     7
 10
-62.509796568089399
 20
231.8059992338998
 30
0.0
  0
VERTEX
  5
6F1
  8
DATA
 62
     7
 10
-62.509796568089399
 20
233.1526242338997
 30
0.0
  0
VERTEX
  5
6F2
  8
DATA
 62
     7
 10
-62.125046568089417
 20
233.1526242338997
 30
0.0
  0
VERTEX
  5
6F3
  8
DATA
 62
     7
 10
-62.125046568089417
 20
231.8059992338998
 30
0.0
  0
SEQEND
  5
6F4
  8
DATA
 62
     7
  0
POLYLINE
  5
3EA
  8
DATA
 62
     7
 66
     1
 10
0.0
 20
0.0
 30
0.0
  0
VERTEX
  5
6F5
  8
DATA
 62
     7
 10
-62.509796568089399
 20
231.4212492338998
 30
0.0
  0
VERTEX
  5
6F6
  8
DATA
 62
     7
 10
-62.509796568089399
 20
230.0746242338997
 30
0.0
  0
VERTEX
  5
6F7
  8
DATA
 62
     7
 10
-62.125046568089417
 20
230.0746242338997
 30
0.0
  0
VERTEX
  5
6F8
  8
DATA
 62
     7
 10
-62.125046568089417
 20
231.4212492338998
 30
0.0
  0
SEQEND
  5
6F9
  8
DATA
 62
     7
  0
POLYLINE
  5
3F1
  8
DATA
 62
     7
 66
     1
 10
0.0
 20
0.0
 30
0.0
  0
VERTEX
  5
6FA
  8
DATA
 62
     7
 10
-62.125046568089417
 20
231.8059992338998
 30
0.0
  0
VERTEX
  5
6FB
  8
DATA
 62
     7
 10
-60.778421568089399
 20
231.8059992338998
 30
0.0
  0
VERTEX
  5
6FC
  8
DATA
 62
     7
 10
-60.778421568089399
 20
231.4212492338998
 30
0.0
  0
VERTEX
  5
6FD
  8
DATA
 62
     7
 10
-62.125046568089417
 20
231.4212492338998
 30
0.0
  0
SEQEND
  5
6FE
  8
DATA
 62
     7
  0
POLYLINE
  5
3F8
  8
DATA
 62
     7
 66
     1
 10
0.0
 20
0.0
 30
0.0
  0
VERTEX
  5
6FF
  8
DATA
 62
     7
 10
-62.509796568089399
 20
231.8059992338998
 30
0.0
  0
VERTEX
  5
700
  8
DATA
 62
     7
 10
-63.856421568089431
 20
231.8059992338998
 30
0.0
  0
VERTEX
  5
701
  8
DATA
 62
     7
 10
-63.856421568089431
 20
231.4212492338998
 30
0.0
  0
VERTEX
  5
702
  8
DATA
 62
     7
 10
-62.509796568089399
 20
231.4212492338998
 30
0.0
  0
SEQEND
  5
703
  8
DATA
 62
     7
  0
CIRCLE
  5
3FF
  8
DATA
 62
     7
 10
-43.177044161366112
 20
212.4732468271761
 30
0.0
 40
2.000699999999966
  0
POLYLINE
  5
400
  8
DATA
 62
     7
 66
     1
 10
0.0
 20
0.0
 30
0.0
  0
VERTEX
  5
704
  8
DATA
 62
     7
 10
-43.369419161366132
 20
212.66562182717601
 30
0.0
  0
VERTEX
  5
705
  8
DATA
 62
     7
 10
-43.369419161366132
 20
214.01224682717611
 30
0.0
  0
VERTEX
  5
706
  8
DATA
 62
     7
 10
-42.98466916136617
 20
214.01224682717611
 30
0.0
  0
VERTEX
  5
707
  8
DATA
 62
     7
 10
-42.98466916136617
 20
212.66562182717601
 30
0.0
  0
SEQEND
  5
708
  8
DATA
 62
     7
  0
POLYLINE
  5
407
  8
DATA
 62
     7
 66
     1
 10
0.0
 20
0.0
 30
0.0
  0
VERTEX
  5
709
  8
DATA
 62
     7
 10
-43.369419161366132
 20
212.28087182717599
 30
0.0
  0
VERTEX
  5
70A
  8
DATA
 62
     7
 10
-43.369419161366132
 20
210.93424682717611
 30
0.0
  0
VERTEX
  5
70B
  8
DATA
 62
     7
 10
-42.98466916136617
 20
210.93424682717611
 30
0.0
  0
VERTEX
  5
70C
  8
DATA
 62
     7
 10
-42.98466916136617
 20
212.28087182717599
 30
0.0
  0
SEQEND
  5
70D
  8
DATA
 62
     7
  0
POLYLINE
  5
40E
  8
DATA
 62
     7
 66
     1
 10
0.0
 20
0.0
 30
0.0
  0
VERTEX
  5
70E
  8
DATA
 62
     7
 10
-42.98466916136617
 20
212.66562182717601
 30
0.0
  0
VERTEX
  5
70F
  8
DATA
 62
     7
 10
-41.638044161366167
 20
212.66562182717601
 30
0.0
  0
VERTEX
  5
710
  8
DATA
 62
     7
 10
-41.638044161366167
 20
212.28087182717599
 30
0.0
  0
VERTEX
  5
711
  8
DATA
 62
     7
 10
-42.98466916136617
 20
212.28087182717599
 30
0.0
  0
SEQEND
  5
712
  8
DATA
 62
     7
  0
POLYLINE
  5
415
  8
DATA
 62
     7
 66
     1
 10
0.0
 20
0.0
 30
0.0
  0
VERTEX
  5
713
  8
DATA
 62
     7
 10
-43.369419161366132
 20
212.66562182717601
 30
0.0
  0
VERTEX
  5
714
  8
DATA
 62
     7
 10
-44.716044161366128
 20
212.66562182717601
 30
0.0
  0
VERTEX
  5
715
  8
DATA
 62
     7
 10
-44.716044161366128
 20
212.28087182717599
 30
0.0
  0
VERTEX
  5
716
  8
DATA
 62
     7
 10
-43.369419161366132
 20
212.28087182717599
 30
0.0
  0
SEQEND
  5
717
  8
DATA
 62
     7
  0
ARC
  5
41C
  8
DATA
 62
     7
 10
-52.810556155193311
 20
222.06039909669269
 30
0.0
 40
10.89999999999999
 50
282.9893914705018
 51
257.01060852923302
  0
LINE
  5
41D
  8
DATA
 62
     7
 10
-50.360556155217928
 20
212.51995885527199
 30
0.0
 11
-50.360556155217928
 21
210.63677615427699
 31
0.0
  0
LINE
  5
41E
  8
DATA
 62
     7
 10
-55.260556155217799
 20
212.5199588552845
 30
0.0
 11
-55.260556155217799
 21
210.6367761542671
 31
0.0
  0
LINE
  5
41F
  8
DATA
 62
     7
 10
-47.811678490682951
 20
208.6390117427278
 30
0.0
 11
-47.811678490682951
 21
206.8324623673395
 31
0.0
  0
LINE
  5
420
  8
DATA
 62
     7
 10
-57.809433819703607
 20
208.6457887542783
 30
0.0
 11
-57.809433819703607
 21
206.8324623673395
 31
0.0
  0
LINE
  5
421
  8
DATA
 62
     7
 10
-56.307981137796261
 20
210.1457880508498
 30
0.0
 11
-49.310225808775598
 21
210.13901103929939
 31
0.0
  0
ARC
  5
422
  8
DATA
 62
     7
 10
-52.810556155193311
 20
222.73135491411361
 30
0.0
 40
17.779340561738859
 50
257.58872717029573
 51
282.4112728297045
  0
LINE
  5
423
  8
DATA
 62
     7
 10
-50.360556155217928
 20
210.63677615427699
 30
0.0
 11
-50.360556155217928
 21
210.14002823703709
 31
0.0
  0
LINE
  5
424
  8
DATA
 62
     7
 10
-55.260556155217799
 20
210.6367761542671
 30
0.0
 11
-55.261032637068929
 21
210.1447741282777
 31
0.0
  0
ARC
  5
425
  8
DATA
 62
     7
 10
-56.309433819703607
 20
208.6457887542783
 30
0.0
 40
1.4999999999999929
 50
89.944511629815324
 51
180.0
  0
ARC
  5
426
  8
DATA
 62
     7
 10
-49.311678490682951
 20
208.6390117427278
 30
0.0
 40
1.5
 50
0.0
 51
89.944511629815324
  0
ARC
  5
427
  8
DATA
 62
     7
 10
-49.31167849068293
 20
206.8324623673395
 30
0.0
 40
1.4999999999999909
 50
282.41127282970388
 51
0.0
  0
ARC
  5
428
  8
DATA
 62
     7
 10
-56.309433819703607
 20
206.8324623673395
 30
0.0
 40
1.5
 50
180.0
 51
257.58872717029612
  0
CIRCLE
  5
429
  8
DATA
 62
     7
 10
-30.210556155193292
 20
222.06039909669269
 30
0.0
 40
9.8499999999998806
  0
CIRCLE
  5
42A
  8
DATA
 62
     7
 10
-30.210556155193292
 20
222.06039909669269
 30
0.0
 40
7.8499999999998789
  0
CIRCLE
  5
42B
  8
DATA
 62
     7
 10
-30.210556155193292
 20
225.98153711783519
 30
0.0
 40
1.264999999999957
  0
CIRCLE
  5
42C
  8
DATA
 62
     7
 10
-26.279074569307191
 20
222.06039909669269
 30
0.0
 40
1.264999999999957
  0
CIRCLE
  5
42D
  8
DATA
 62
     7
 10
-34.145000574580521
 20
222.06039909669269
 30
0.0
 40
1.264999999999957
  0
CIRCLE
  5
42E
  8
DATA
 62
     7
 10
-39.717421568089421
 20
231.6136242338998
 30
0.0
 40
2.0006999999999939
  0
POLYLINE
  5
42F
  8
DATA
 62
     7
 66
     1
 10
0.0
 20
0.0
 30
0.0
  0
VERTEX
  5
718
  8
DATA
 62
     7
 10
-39.909796568089391
 20
231.8059992338998
 30
0.0
  0
VERTEX
  5
719
  8
DATA
 62
     7
 10
-39.909796568089391
 20
233.1526242338997
 30
0.0
  0
VERTEX
  5
71A
  8
DATA
 62
     7
 10
-39.525046568089387
 20
233.1526242338997
 30
0.0
  0
VERTEX
  5
71B
  8
DATA
 62
     7
 10
-39.525046568089387
 20
231.8059992338998
 30
0.0
  0
SEQEND
  5
71C
  8
DATA
 62
     7
  0
POLYLINE
  5
436
  8
DATA
 62
     7
 66
     1
 10
0.0
 20
0.0
 30
0.0
  0
VERTEX
  5
71D
  8
DATA
 62
     7
 10
-39.909796568089391
 20
231.4212492338998
 30
0.0
  0
VERTEX
  5
71E
  8
DATA
 62
     7
 10
-39.909796568089391
 20
230.0746242338997
 30
0.0
  0
VERTEX
  5
71F
  8
DATA
 62
     7
 10
-39.525046568089387
 20
230.0746242338997
 30
0.0
  0
VERTEX
  5
720
  8
DATA
 62
     7
 10
-39.525046568089387
 20
231.4212492338998
 30
0.0
  0
SEQEND
  5
721
  8
DATA
 62
     7
  0
POLYLINE
  5
43D
  8
DATA
 62
     7
 66
     1
 10
0.0
 20
0.0
 30
0.0
  0
VERTEX
  5
722
  8
DATA
 62
     7
 10
-39.525046568089387
 20
231.8059992338998
 30
0.0
  0
VERTEX
  5
723
  8
DATA
 62
     7
 10
-38.178421568089377
 20
231.8059992338998
 30
0.0
  0
VERTEX
  5
724
  8
DATA
 62
     7
 10
-38.178421568089377
 20
231.4212492338998
 30
0.0
  0
VERTEX
  5
725
  8
DATA
 62
     7
 10
-39.525046568089387
 20
231.4212492338998
 30
0.0
  0
SEQEND
  5
726
  8
DATA
 62
     7
  0
POLYLINE
  5
444
  8
DATA
 62
     7
 66
     1
 10
0.0
 20
0.0
 30
0.0
  0
VERTEX
  5
727
  8
DATA
 62
     7
 10
-39.909796568089391
 20
231.8059992338998
 30
0.0
  0
VERTEX
  5
728
  8
DATA
 62
     7
 10
-41.256421568089401
 20
231.8059992338998
 30
0.0
  0
VERTEX
  5
729
  8
DATA
 62
     7
 10
-41.256421568089401
 20
231.4212492338998
 30
0.0
  0
VERTEX
  5
72A
  8
DATA
 62
     7
 10
-39.909796568089391
 20
231.4212492338998
 30
0.0
  0
SEQEND
  5
72B
  8
DATA
 62
     7
  0
CIRCLE
  5
44B
  8
DATA
 62
     7
 10
-20.577044161366121
 20
212.4732468271761
 30
0.0
 40
2.000699999999938
  0
POLYLINE
  5
44C
  8
DATA
 62
     7
 66
     1
 10
0.0
 20
0.0
 30
0.0
  0
VERTEX
  5
72C
  8
DATA
 62
     7
 10
-20.769419161366152
 20
212.66562182717601
 30
0.0
  0
VERTEX
  5
72D
  8
DATA
 62
     7
 10
-20.769419161366152
 20
214.01224682717611
 30
0.0
  0
VERTEX
  5
72E
  8
DATA
 62
     7
 10
-20.384669161366151
 20
214.01224682717611
 30
0.0
  0
VERTEX
  5
72F
  8
DATA
 62
     7
 10
-20.384669161366151
 20
212.66562182717601
 30
0.0
  0
SEQEND
  5
730
  8
DATA
 62
     7
  0
POLYLINE
  5
453
  8
DATA
 62
     7
 66
     1
 10
0.0
 20
0.0
 30
0.0
  0
VERTEX
  5
731
  8
DATA
 62
     7
 10
-20.769419161366152
 20
212.28087182717599
 30
0.0
  0
VERTEX
  5
732
  8
DATA
 62
     7
 10
-20.769419161366152
 20
210.93424682717611
 30
0.0
  0
VERTEX
  5
733
  8
DATA
 62
     7
 10
-20.384669161366151
 20
210.93424682717611
 30
0.0
  0
VERTEX
  5
734
  8
DATA
 62
     7
 10
-20.384669161366151
 20
212.28087182717599
 30
0.0
  0
SEQEND
  5
735
  8
DATA
 62
     7
  0
POLYLINE
  5
45A
  8
DATA
 62
     7
 66
     1
 10
0.0
 20
0.0
 30
0.0
  0
VERTEX
  5
736
  8
DATA
 62
     7
 10
-20.384669161366151
 20
212.66562182717601
 30
0.0
  0
VERTEX
  5
737
  8
DATA
 62
     7
 10
-19.038044161366159
 20
212.66562182717601
 30
0.0
  0
VERTEX
  5
738
  8
DATA
 62
     7
 10
-19.038044161366159
 20
212.28087182717599
 30
0.0
  0
VERTEX
  5
739
  8
DATA
 62
     7
 10
-20.384669161366151
 20
212.28087182717599
 30
0.0
  0
SEQEND
  5
73A
  8
DATA
 62
     7
  0
POLYLINE
  5
461
  8
DATA
 62
     7
 66
     1
 10
0.0
 20
0.0
 30
0.0
  0
VERTEX
  5
73B
  8
DATA
 62
     7
 10
-20.769419161366152
 20
212.66562182717601
 30
0.0
  0
VERTEX
  5
73C
  8
DATA
 62
     7
 10
-22.11604416136613
 20
212.66562182717601
 30
0.0
  0
VERTEX
  5
73D
  8
DATA
 62
     7
 10
-22.11604416136613
 20
212.28087182717599
 30
0.0
  0
VERTEX
  5
73E
  8
DATA
 62
     7
 10
-20.769419161366152
 20
212.28087182717599
 30
0.0
  0
SEQEND
  5
73F
  8
DATA
 62
     7
  0
ARC
  5
468
  8
DATA
 62
     7
 10
-30.210556155193292
 20
222.06039909669269
 30
0.0
 40
10.899999999999981
 50
282.98939147050169
 51
257.01060852923302
  0
LINE
  5
469
  8
DATA
 62
     7
 10
-27.76055615521792
 20
212.51995885527199
 30
0.0
 11
-27.76055615521792
 21
210.63677615427699
 31
0.0
  0
LINE
  5
46A
  8
DATA
 62
     7
 10
-32.660556155217769
 20
212.5199588552845
 30
0.0
 11
-32.660556155217769
 21
210.6367761542671
 31
0.0
  0
LINE
  5
46B
  8
DATA
 62
     7
 10
-25.211678490682932
 20
208.6390117427278
 30
0.0
 11
-25.211678490682932
 21
206.8324623673395
 31
0.0
  0
LINE
  5
46C
  8
DATA
 62
     7
 10
-35.209433819703591
 20
208.6457887542783
 30
0.0
 11
-35.209433819703591
 21
206.8324623673395
 31
0.0
  0
LINE
  5
46D
  8
DATA
 62
     7
 10
-33.707981137796239
 20
210.1457880508498
 30
0.0
 11
-26.710225808775611
 21
210.13901103929939
 31
0.0
  0
ARC
  5
46E
  8
DATA
 62
     7
 10
-30.210556155193292
 20
222.73135491411361
 30
0.0
 40
17.77934056173887
 50
257.58872717029561
 51
282.41127282970439
  0
LINE
  5
46F
  8
DATA
 62
     7
 10
-27.76055615521792
 20
210.63677615427699
 30
0.0
 11
-27.76055615521792
 21
210.14002823703709
 31
0.0
  0
LINE
  5
470
  8
DATA
 62
     7
 10
-32.660556155217769
 20
210.6367761542671
 30
0.0
 11
-32.661032637068921
 21
210.1447741282777
 31
0.0
  0
ARC
  5
471
  8
DATA
 62
     7
 10
-33.709433819703591
 20
208.6457887542783
 30
0.0
 40
1.4999999999999929
 50
89.944511629815324
 51
180.0
  0
ARC
  5
472
  8
DATA
 62
     7
 10
-26.711678490682932
 20
208.6390117427278
 30
0.0
 40
1.5
 50
0.0
 51
89.944511629816418
  0
ARC
  5
473
  8
DATA
 62
     7
 10
-26.711678490682932
 20
206.8324623673395
 30
0.0
 40
1.4999999999999909
 50
282.41127282970388
 51
0.0
  0
ARC
  5
474
  8
DATA
 62
     7
 10
-33.709433819703591
 20
206.8324623673395
 30
0.0
 40
1.5
 50
180.0
 51
257.5887271702951
  0
CIRCLE
  5
475
  8
DATA
 62
     7
 10
-3.9999999999999569
 20
213.2000000000001
 30
0.0
 40
4.164999999999992
  0
CIRCLE
  5
476
  8
DATA
 62
     7
 10
-3.9999999999999569
 20
213.2000000000001
 30
0.0
 40
1.650000000000005
  0
CIRCLE
  5
477
  8
DATA
 62
     7
 10
-3.9999999999999569
 20
213.2000000000001
 30
0.0
 40
3.0
  0
CIRCLE
  5
478
  8
DATA
 62
     7
 10
-3.9999999999999569
 20
226.8000000000001
 30
0.0
 40
4.164999999999992
  0
CIRCLE
  5
479
  8
DATA
 62
     7
 10
-3.9999999999999569
 20
226.8000000000001
 30
0.0
 40
1.650000000000005
  0
CIRCLE
  5
47A
  8
DATA
 62
     7
 10
-3.9999999999999569
 20
226.8000000000001
 30
0.0
 40
3.0
  0
CIRCLE
  5
47B
  8
DATA
 62
     7
 10
9.0000000000000409
 20
213.2000000000001
 30
0.0
 40
4.164999999999992
  0
CIRCLE
  5
47C
  8
DATA
 62
     7
 10
9.0000000000000409
 20
213.2000000000001
 30
0.0
 40
1.650000000000005
  0
CIRCLE
  5
47D
  8
DATA
 62
     7
 10
9.0000000000000409
 20
213.2000000000001
 30
0.0
 40
3.0
  0
CIRCLE
  5
47E
  8
DATA
 62
     7
 10
9.0000000000000409
 20
226.8000000000001
 30
0.0
 40
4.164999999999992
  0
CIRCLE
  5
47F
  8
DATA
 62
     7
 10
9.0000000000000409
 20
226.8000000000001
 30
0.0
 40
1.650000000000005
  0
CIRCLE
  5
480
  8
DATA
 62
     7
 10
9.0000000000000409
 20
226.8000000000001
 30
0.0
 40
3.0
  0
CIRCLE
  5
481
  8
DATA
 62
     7
 10
22.00000000000005
 20
213.2000000000001
 30
0.0
 40
4.164999999999992
  0
CIRCLE
  5
482
  8
DATA
 62
     7
 10
22.00000000000005
 20
213.2000000000001
 30
0.0
 40
1.650000000000005
  0
CIRCLE
  5
483
  8
DATA
 62
     7
 10
22.00000000000005
 20
213.2000000000001
 30
0.0
 40
3.0
  0
CIRCLE
  5
484
  8
DATA
 62
     7
 10
22.00000000000005
 20
226.8000000000001
 30
0.0
 40
4.164999999999992
  0
CIRCLE
  5
485
  8
DATA
 62
     7
 10
22.00000000000005
 20
226.8000000000001
 30
0.0
 40
1.650000000000005
  0
CIRCLE
  5
486
  8
DATA
 62
     7
 10
22.00000000000005
 20
226.8000000000001
 30
0.0
 40
3.0
  0
CIRCLE
  5
487
  8
DATA
 62
     7
 10
15.50000000000024
 20
220.0
 30
0.0
 40
2.0006999999999939
  0
POLYLINE
  5
488
  8
DATA
 62
     7
 66
     1
 10
0.0
 20
0.0
 30
0.0
  0
VERTEX
  5
740
  8
DATA
 62
     7
 10
15.30762500000027
 20
220.192375
 30
0.0
  0
VERTEX
  5
741
  8
DATA
 62
     7
 10
15.30762500000027
 20
221.53899999999999
 30
0.0
  0
VERTEX
  5
742
  8
DATA
 62
     7
 10
15.69237500000026
 20
221.53899999999999
 30
0.0
  0
VERTEX
  5
743
  8
DATA
 62
     7
 10
15.69237500000026
 20
220.192375
 30
0.0
  0
SEQEND
  5
744
  8
DATA
 62
     7
  0
POLYLINE
  5
48F
  8
DATA
 62
     7
 66
     1
 10
0.0
 20
0.0
 30
0.0
  0
VERTEX
  5
745
  8
DATA
 62
     7
 10
15.30762500000027
 20
219.807625
 30
0.0
  0
VERTEX
  5
746
  8
DATA
 62
     7
 10
15.30762500000027
 20
218.46100000000001
 30
0.0
  0
VERTEX
  5
747
  8
DATA
 62
     7
 10
15.69237500000026
 20
218.46100000000001
 30
0.0
  0
VERTEX
  5
748
  8
DATA
 62
     7
 10
15.69237500000026
 20
219.807625
 30
0.0
  0
SEQEND
  5
749
  8
DATA
 62
     7
  0
POLYLINE
  5
496
  8
DATA
 62
     7
 66
     1
 10
0.0
 20
0.0
 30
0.0
  0
VERTEX
  5
74A
  8
DATA
 62
     7
 10
15.69237500000026
 20
220.192375
 30
0.0
  0
VERTEX
  5
74B
  8
DATA
 62
     7
 10
17.039000000000279
 20
220.192375
 30
0.0
  0
VERTEX
  5
74C
  8
DATA
 62
     7
 10
17.039000000000279
 20
219.807625
 30
0.0
  0
VERTEX
  5
74D
  8
DATA
 62
     7
 10
15.69237500000026
 20
219.807625
 30
0.0
  0
SEQEND
  5
74E
  8
DATA
 62
     7
  0
POLYLINE
  5
49D
  8
DATA
 62
     7
 66
     1
 10
0.0
 20
0.0
 30
0.0
  0
VERTEX
  5
74F
  8
DATA
 62
     7
 10
15.30762500000027
 20
220.192375
 30
0.0
  0
VERTEX
  5
750
  8
DATA
 62
     7
 10
13.961000000000251
 20
220.192375
 30
0.0
  0
VERTEX
  5
751
  8
DATA
 62
     7
 10
13.961000000000251
 20
219.807625
 30
0.0
  0
VERTEX
  5
752
  8
DATA
 62
     7
 10
15.30762500000027
 20
219.807625
 30
0.0
  0
SEQEND
  5
753
  8
DATA
 62
     7
  0
CIRCLE
  5
4A4
  8
DATA
 62
     7
 10
2.5000000000002118
 20
220.0
 30
0.0
 40
2.0006999999999939
  0
POLYLINE
  5
4A5
  8
DATA
 62
     7
 66
     1
 10
0.0
 20
0.0
 30
0.0
  0
VERTEX
  5
754
  8
DATA
 62
     7
 10
2.3076250000002432
 20
220.192375
 30
0.0
  0
VERTEX
  5
755
  8
DATA
 62
     7
 10
2.3076250000002432
 20
221.53899999999999
 30
0.0
  0
VERTEX
  5
756
  8
DATA
 62
     7
 10
2.6923750000002391
 20
221.53899999999999
 30
0.0
  0
VERTEX
  5
757
  8
DATA
 62
     7
 10
2.6923750000002391
 20
220.192375
 30
0.0
  0
SEQEND
  5
758
  8
DATA
 62
     7
  0
POLYLINE
  5
4AC
  8
DATA
 62
     7
 66
     1
 10
0.0
 20
0.0
 30
0.0
  0
VERTEX
  5
759
  8
DATA
 62
     7
 10
2.3076250000002432
 20
219.807625
 30
0.0
  0
VERTEX
  5
75A
  8
DATA
 62
     7
 10
2.3076250000002432
 20
218.46100000000001
 30
0.0
  0
VERTEX
  5
75B
  8
DATA
 62
     7
 10
2.6923750000002391
 20
218.46100000000001
 30
0.0
  0
VERTEX
  5
75C
  8
DATA
 62
     7
 10
2.6923750000002391
 20
219.807625
 30
0.0
  0
SEQEND
  5
75D
  8
DATA
 62
     7
  0
POLYLINE
  5
4B3
  8
DATA
 62
     7
 66
     1
 10
0.0
 20
0.0
 30
0.0
  0
VERTEX
  5
75E
  8
DATA
 62
     7
 10
2.6923750000002391
 20
220.192375
 30
0.0
  0
VERTEX
  5
75F
  8
DATA
 62
     7
 10
4.0390000000002564
 20
220.192375
 30
0.0
  0
VERTEX
  5
760
  8
DATA
 62
     7
 10
4.0390000000002564
 20
219.807625
 30
0.0
  0
VERTEX
  5
761
  8
DATA
 62
     7
 10
2.6923750000002391
 20
219.807625
 30
0.0
  0
SEQEND
  5
762
  8
DATA
 62
     7
  0
POLYLINE
  5
4BA
  8
DATA
 62
     7
 66
     1
 10
0.0
 20
0.0
 30
0.0
  0
VERTEX
  5
763
  8
DATA
 62
     7
 10
2.3076250000002432
 20
220.192375
 30
0.0
  0
VERTEX
  5
764
  8
DATA
 62
     7
 10
0.961000000000226
 20
220.192375
 30
0.0
  0
VERTEX
  5
765
  8
DATA
 62
     7
 10
0.961000000000226
 20
219.807625
 30
0.0
  0
VERTEX
  5
766
  8
DATA
 62
     7
 10
2.3076250000002432
 20
219.807625
 30
0.0
  0
SEQEND
  5
767
  8
DATA
 62
     7
  0
CIRCLE
  5
4C1
  8
DATA
 62
     7
 10
38.431186031612
 20
227.4494890342996
 30
0.0
 40
2.9000000000000048
  0
CIRCLE
  5
4C2
  8
DATA
 62
     7
 10
-13.792650488055539
 20
228.89991514789179
 30
0.0
 40
2.25
  0
TEXT
  5
4C3
  8
DATA
 62
     7
 10
-97.174067600249785
 20
237.31582887402931
 30
0.0
 40
3.2576822916666659
  1
1
 50
180.0
 41
0.8
 11
-97.174067600249785
 21
234.05814658236261
 31
0.0
 73
     3
  0
TEXT
  5
4C4
  8
DATA
 62
     7
 10
-74.374067600249774
 20
237.36396407452901
 30
0.0
 40
3.2576822916666659
  1
2
 50
180.0
 41
0.8
 11
-74.374067600249774
 21
234.10628178286231
 31
0.0
 73
     3
  0
TEXT
  5
4C5
  8
DATA
 62
     7
 10
-51.856374006578172
 20
237.4007535209798
 30
0.0
 40
3.2576822916666659
  1
3
 50
180.0
 41
0.8
 11
-51.856374006578172
 21
234.14307122931319
 31
0.0
 73
     3
  0
TEXT
  5
4C6
  8
DATA
 62
     7
 10
-28.546806942334669
 20
237.51117997045191
 30
0.0
 40
3.2576822916666659
  1
4
 50
180.0
 41
0.8
 11
-28.546806942334669
 21
234.25349767878529
 31
0.0
 73
     3
  0
TEXT
  5
4C7
  8
DATA
 62
     7
 10
-46.564618879700227
 20
204.02008930670419
 30
0.0
 40
3.2576822916666659
  1
MIC LEVEL INPUTS
 50
180.0
 41
0.8
 11
-46.564618879700227
 21
200.7624070150375
 31
0.0
 73
     3
  0
TEXT
  5
4C8
  8
DATA
 62
     7
 10
-10.565544775748331
 20
238.05832860784179
 30
0.0
 40
2.7147352430555549
  1
12V
 50
180.0
 41
0.8
 11
-10.565544775748331
 21
235.3435933647863
 31
0.0
 73
     3
  0
TEXT
  5
4C9
  8
DATA
 62
     7
 10
-7.1876240149439763
 20
242.06777971457859
 30
0.0
 40
2.7147352430555549
  1
PHANTOM
 50
180.0
 41
0.8
 11
-7.1876240149439772
 21
239.35304447152299
 31
0.0
 73
     3
  0
LINE
  5
4CA
  8
DATA
 62
     7
 10
-10.84633823812227
 20
225.831896193256
 30
0.0
 11
-12.34633823812227
 21
225.831896193256
 31
0.0
  0
LINE
  5
4CB
  8
DATA
 62
     7
 10
-10.84633823812227
 20
225.831896193256
 30
0.0
 11
-11.19633823812226
 21
222.331896193256
 31
0.0
  0
LINE
  5
4CC
  8
DATA
 62
     7
 10
-12.34633823812227
 20
225.831896193256
 30
0.0
 11
-11.99633823812227
 21
222.331896193256
 31
0.0
  0
LINE
  5
4CD
  8
DATA
 62
     7
 10
-11.19633823812226
 20
222.331896193256
 30
0.0
 11
-11.99633823812227
 21
222.331896193256
 31
0.0
  0
LINE
  5
4CE
  8
DATA
 62
     7
 10
-13.96875346509883
 20
225.831896193256
 30
0.0
 11
-14.96875346509883
 21
225.831896193256
 31
0.0
  0
LINE
  5
4CF
  8
DATA
 62
     7
 10
-13.96875346509883
 20
225.831896193256
 30
0.0
 11
-14.16875346509881
 21
223.331896193256
 31
0.0
  0
LINE
  5
4D0
  8
DATA
 62
     7
 10
-14.96875346509883
 20
225.831896193256
 30
0.0
 11
-14.768753465098809
 21
223.331896193256
 31
0.0
  0
LINE
  5
4D1
  8
DATA
 62
     7
 10
-14.16875346509881
 20
223.331896193256
 30
0.0
 11
-14.75991609318036
 21
223.331896193256
 31
0.0
  0
TEXT
  5
4D2
  8
DATA
 62
     7
 10
-8.4723986840643164
 20
222.01448214099329
 30
0.0
 40
1.8460199652777769
  1
OFF
 50
180.0
 41
0.8
 11
-8.4723986840643164
 21
220.16846217571549
 31
0.0
 73
     3
  0
TEXT
  5
4D3
  8
DATA
 62
     7
 10
-13.52654245321885
 20
222.06949232171419
 30
0.0
 40
1.8460199652777769
  1
ON
 50
180.0
 41
0.8
 11
-13.52654245321885
 21
220.22347235643639
 31
0.0
 73
     3
  0
TEXT
  5
4D4
  8
DATA
 62
     7
 10
-3.140848528097691
 20
208.53618144321049
 30
0.0
 40
2.3889670138888879
  1
1
 50
180.0
 41
0.8
 11
-3.140848528097691
 21
206.14721442932159
 31
0.0
 73
     3
  0
TEXT
  5
4D5
  8
DATA
 62
     7
 10
-3.4988795654729601
 20
234.17038243948579
 30
0.0
 40
2.3889670138888879
  1
2
 50
180.0
 41
0.8
 11
-3.498879565472961
 21
231.78141542559689
 31
0.0
 73
     3
  0
TEXT
  5
4D6
  8
DATA
 62
     7
 10
9.8011204345270482
 20
208.48496195993781
 30
0.0
 40
2.3889670138888879
  1
3
 50
180.0
 41
0.8
 11
9.8011204345270482
 21
206.0959949460489
 31
0.0
 73
     3
  0
TEXT
  5
4D7
  8
DATA
 62
     7
 10
10.051021385781141
 20
234.37907274287051
 30
0.0
 40
2.3889670138888879
  1
4
 50
180.0
 41
0.8
 11
10.051021385781141
 21
231.9901057289816
 31
0.0
 73
     3
  0
TEXT
  5
4D8
  8
DATA
 62
     7
 10
26.877067750341311
 20
208.53281583429339
 30
0.0
 40
2.3889670138888879
  1
AUX IN
 50
180.0
 41
0.8
 11
26.877067750341311
 21
206.14384882040449
 31
0.0
 73
     3
  0
TEXT
  5
4D9
  8
DATA
 62
     7
 10
24.201475395464929
 20
234.24814437884379
 30
0.0
 40
2.3889670138888879
  1
AUX
 50
180.0
 41
0.8
 11
24.201475395464929
 21
231.8591773649548
 31
0.0
 73
     3
  0
TEXT
  5
4DA
  8
DATA
 62
     7
 10
24.201475395464929
 20
237.3525888232883
 30
0.0
 40
2.3889670138888879
  1
OUT
 50
180.0
 41
0.8
 11
24.201475395464929
 21
234.9636218093994
 31
0.0
 73
     3
  0
TEXT
  5
4DB
  8
DATA
 62
     7
 10
25.875077419710252
 20
204.265279568116
 30
0.0
 40
3.2576822916666659
  1
AUX LEVEL INPUTS
 50
180.0
 41
0.8
 11
25.875077419710252
 21
201.0075972764493
 31
0.0
 73
     3
  0
LINE
  5
4DC
  8
DATA
 62
     7
 10
41.026404729190453
 20
223.41815275118611
 30
0.0
 11
39.526404729190453
 21
223.41815275118611
 31
0.0
  0
LINE
  5
4DD
  8
DATA
 62
     7
 10
41.026404729190453
 20
223.41815275118611
 30
0.0
 11
40.676404729190473
 21
219.9181527511862
 31
0.0
  0
LINE
  5
4DE
  8
DATA
 62
     7
 10
39.526404729190453
 20
223.41815275118611
 30
0.0
 11
39.876404729190469
 21
219.9181527511862
 31
0.0
  0
LINE
  5
4DF
  8
DATA
 62
     7
 10
40.676404729190473
 20
219.9181527511862
 30
0.0
 11
39.876404729190469
 21
219.9181527511862
 31
0.0
  0
LINE
  5
4E0
  8
DATA
 62
     7
 10
37.703645218965548
 20
223.41815275118611
 30
0.0
 11
36.703645218965548
 21
223.41815275118611
 31
0.0
  0
LINE
  5
4E1
  8
DATA
 62
     7
 10
37.703645218965548
 20
223.41815275118611
 30
0.0
 11
37.503645218965573
 21
220.91815275118611
 31
0.0
  0
LINE
  5
4E2
  8
DATA
 62
     7
 10
36.703645218965548
 20
223.41815275118611
 30
0.0
 11
36.903645218965593
 21
220.91815275118611
 31
0.0
  0
LINE
  5
4E3
  8
DATA
 62
     7
 10
37.503645218965573
 20
220.91815275118611
 30
0.0
 11
36.912482590884039
 21
220.91815275118611
 31
0.0
  0
TEXT
  5
4E4
  8
DATA
 62
     7
 10
43.088955872841218
 20
218.93399534240089
 30
0.0
 40
1.8460199652777769
  1
LINE
 50
180.0
 41
0.8
 11
43.088955872841218
 21
217.0879753771232
 31
0.0
 73
     3
  0
TEXT
  5
4E5
  8
DATA
 62
     7
 10
37.123767976527823
 20
218.95875070993799
 30
0.0
 40
1.8460199652777769
  1
MIC
 50
180.0
 41
0.8
 11
37.123767976527823
 21
217.11273074466021
 31
0.0
 73
     3
  0
LINE
  5
4E6
  8
DATA
 62
     7
 10
67.200000000000102
 20
204.01718595552839
 30
0.0
 11
67.200000000000102
 21
241.60000000000011
 31
0.0
  0
TEXT
  5
4E7
  8
DATA
 62
     7
 10
89.724836833613907
 20
239.61268429279249
 30
0.0
 40
2.1717881944444439
  1
100-120 Vac
 50
180.0
 41
0.8
 11
89.724836833613907
 21
237.44089609834811
 31
0.0
 73
     3
  0
TEXT
  5
4E8
  8
DATA
 62
     7
 10
89.734162260135307
 20
243.19357054607741
 30
0.0
 40
2.1717881944444439
  1
50/60 Hz 60mA
 50
180.0
 41
0.8
 11
89.734162260135307
 21
241.02178235163299
 31
0.0
 73
     3
  0
TEXT
  5
4E9
  8
DATA
 62
     7
 10
84.400000000000063
 20
202.7607158881595
 30
0.0
 40
2.1717881944444439
  1
SCM268
 50
180.0
 41
0.8
 11
84.400000000000063
 21
200.58892769371499
 31
0.0
 73
     3
  0
TEXT
  5
4EA
  8
DATA
 62
     7
 10
61.679864378672008
 20
204.74620396253189
 30
0.0
 40
3.2576822916666659
  1
OUTPUTS
 50
180.0
 41
0.8
 11
61.679864378672008
 21
201.48852167086531
 31
0.0
 73
     3
  0
LINE
  5
4EB
  8
DATA
 62
     7
 10
18.40000000000008
 20
220.10000000000011
 30
0.0
 11
29.10000000000009
 21
220.10000000000011
 31
0.0
  0
LINE
  5
4EC
  8
DATA
 62
     7
 10
29.10000000000009
 20
220.10000000000011
 30
0.0
 11
29.10000000000009
 21
204.1276046814906
 31
0.0
  0
LINE
  5
4ED
  8
DATA
 62
     7
 10
15.40000000000007
 20
222.8000000000001
 30
0.0
 11
15.40000000000007
 21
241.60000000000011
 31
0.0
  0
LINE
  5
4EE
  8
DATA
 62
     7
 10
66.200000000000102
 20
242.60000000000011
 30
0.0
 11
16.40000000000007
 21
242.60000000000011
 31
0.0
  0
LINE
  5
4EF
  8
DATA
 62
     7
 10
66.200000000000102
 20
203.01718595552839
 30
0.0
 11
62.200000000000088
 21
203.01718595552839
 31
0.0
  0
LINE
  5
4F0
  8
DATA
 62
     7
 10
30.10000000000009
 20
203.1276046814906
 30
0.0
 11
46.200000000000088
 21
203.1276046814906
 31
0.0
  0
ARC
  5
4F1
  8
DATA
 62
     7
 10
66.200000000000102
 20
204.01718595552839
 30
0.0
 40
1.0
 50
270.0
 51
0.0
  0
ARC
  5
4F2
  8
DATA
 62
     7
 10
30.10000000000009
 20
204.1276046814906
 30
0.0
 40
1.0
 50
180.0
 51
270.0
  0
ARC
  5
4F3
  8
DATA
 62
     7
 10
66.200000000000102
 20
241.60000000000011
 30
0.0
 40
1.0
 50
0.0
 51
90.0
  0
ARC
  5
4F4
  8
DATA
 62
     7
 10
16.40000000000007
 20
241.60000000000011
 30
0.0
 40
1.0
 50
90.0
 51
180.0
  0
LINE
  5
4F5
  8
DATA
 62
     7
 10
53.82651604449994
 20
237.12498568821729
 30
0.0
 11
39.400000000000077
 21
237.12498568821729
 31
0.0
  0
LINE
  5
4F6
  8
DATA
 62
     7
 10
38.400000000000077
 20
231.00000000000011
 30
0.0
 11
38.400000000000077
 21
236.12498568821729
 31
0.0
  0
LINE
  5
4F7
  8
DATA
 62
     7
 10
54.82651604449994
 20
232.05135915238839
 30
0.0
 11
54.82651604449994
 21
236.12498568821729
 31
0.0
  0
TEXT
  5
4F8
  8
DATA
 62
     7
 10
61.360579675343011
 20
241.37240585278491
 30
0.0
 40
2.1717881944444439
  1
MIC/LINE OUT
 50
180.0
 41
0.8
 11
61.360579675343011
 21
239.20061765834049
 31
0.0
 73
     3
  0
ARC
  5
4F9
  8
DATA
 62
     7
 10
53.82651604449994
 20
236.12498568821729
 30
0.0
 40
1.0
 50
0.0
 51
90.0
  0
ARC
  5
4FA
  8
DATA
 62
     7
 10
39.400000000000077
 20
236.12498568821729
 30
0.0
 40
1.0
 50
90.0
 51
180.0
  0
LINE
  5
4FB
  8
DATA
 62
     7
 10
68.300000000000054
 20
100.0
 30
0.0
 11
89.500000000000043
 21
100.0
 31
0.0
  0
LINE
  5
4FC
  8
DATA
 62
     7
 10
68.300000000000054
 20
100.0
 30
0.0
 11
68.300000000000054
 21
96.000000000000043
 31
0.0
  0
LINE
  5
4FD
  8
DATA
 62
     7
 10
89.500000000000043
 20
100.0
 30
0.0
 11
89.500000000000043
 21
96.000000000000043
 31
0.0
  0
LINE
  5
4FE
  8
DATA
 62
     7
 10
43.32651604449994
 20
97.500000000000057
 30
0.0
 11
65.32651604449994
 21
97.500000000000057
 31
0.0
  0
LINE
  5
4FF
  8
DATA
 62
     7
 10
43.32651604449994
 20
97.500000000000057
 30
0.0
 11
43.32651604449994
 21
96.000000000000043
 31
0.0
  0
LINE
  5
500
  8
DATA
 62
     7
 10
65.32651604449994
 20
97.500000000000057
 30
0.0
 11
65.32651604449994
 21
97.172603958082064
 31
0.0
  0
ARC
  5
501
  8
DATA
 62
     7
 10
63.929137155424577
 20
94.354183215182005
 30
0.0
 40
3.1458167848180461
 50
50.506739563987779
 51
129.49326043601221
  0
LINE
  5
502
  8
DATA
 62
     7
 10
61.928437155424582
 20
96.781808135478187
 30
0.0
 11
61.928437155424582
 21
96.000000000000043
 31
0.0
  0
LINE
  5
503
  8
DATA
 62
     7
 10
65.929837155424579
 20
96.781808135478187
 30
0.0
 11
65.929837155424579
 21
96.000000000000043
 31
0.0
  0
ARC
  5
504
  8
DATA
 62
     7
 10
44.789137155424569
 20
94.354183215182005
 30
0.0
 40
3.1458167848180492
 50
117.7064430135928
 51
129.49326043601221
  0
LINE
  5
505
  8
DATA
 62
     7
 10
42.788437155424589
 20
96.781808135478187
 30
0.0
 11
42.788437155424589
 21
96.000000000000043
 31
0.0
  0
LINE
  5
506
  8
DATA
 62
     7
 10
-8.6649999999999494
 20
102.5
 30
0.0
 11
-8.6649999999999494
 21
96.000000000000043
 31
0.0
  0
LINE
  5
507
  8
DATA
 62
     7
 10
-0.3349999999999653
 20
102.5
 30
0.0
 11
-0.3349999999999653
 21
96.000000000000043
 31
0.0
  0
LINE
  5
508
  8
DATA
 62
     7
 10
4.3350000000000497
 20
102.5
 30
0.0
 11
4.3350000000000497
 21
96.000000000000043
 31
0.0
  0
LINE
  5
509
  8
DATA
 62
     7
 10
12.665000000000029
 20
102.5
 30
0.0
 11
12.665000000000029
 21
96.000000000000043
 31
0.0
  0
LINE
  5
50A
  8
DATA
 62
     7
 10
17.335000000000051
 20
102.5
 30
0.0
 11
17.335000000000051
 21
96.000000000000043
 31
0.0
  0
LINE
  5
50B
  8
DATA
 62
     7
 10
25.665000000000038
 20
102.5
 30
0.0
 11
25.665000000000038
 21
96.000000000000043
 31
0.0
  0
LINE
  5
50C
  8
DATA
 62
     7
 10
-103.5094338197036
 20
101.0
 30
0.0
 11
-93.511678490682925
 21
101.0
 31
0.0
  0
LINE
  5
50D
  8
DATA
 62
     7
 10
-103.5094338197036
 20
100.2
 30
0.0
 11
-93.511678490682925
 21
100.2
 31
0.0
  0
LINE
  5
50E
  8
DATA
 62
     7
 10
-103.5094338197036
 20
96.000000000000043
 30
0.0
 11
-93.511678490682925
 21
96.000000000000043
 31
0.0
  0
LINE
  5
50F
  8
DATA
 62
     7
 10
-100.91055615519331
 20
97.500000000000057
 30
0.0
 11
-100.91055615519331
 21
100.2
 31
0.0
  0
LINE
  5
510
  8
DATA
 62
     7
 10
-96.110556155193265
 20
97.500000000000057
 30
0.0
 11
-96.110556155193265
 21
100.2
 31
0.0
  0
LINE
  5
511
  8
DATA
 62
     7
 10
-103.5094338197036
 20
100.2
 30
0.0
 11
-103.5094338197036
 21
101.0
 31
0.0
  0
LINE
  5
512
  8
DATA
 62
     7
 10
-93.511678490682925
 20
100.2
 30
0.0
 11
-93.511678490682925
 21
101.0
 31
0.0
  0
LINE
  5
513
  8
DATA
 62
     7
 10
-106.37862366890791
 20
97.500000000000057
 30
0.0
 11
-100.91055615519331
 21
97.500000000000057
 31
0.0
  0
LINE
  5
514
  8
DATA
 62
     7
 10
-96.110556155193265
 20
97.500000000000057
 30
0.0
 11
-89.769189849204295
 21
97.500000000000057
 31
0.0
  0
LINE
  5
515
  8
DATA
 62
     7
 10
-106.37862366890791
 20
97.500000000000057
 30
0.0
 11
-109.55
 21
97.500000000000057
 31
0.0
  0
LINE
  5
516
  8
DATA
 62
     7
 10
-89.769189849204295
 20
97.500000000000057
 30
0.0
 11
-87.510556155193314
 21
97.500000000000057
 31
0.0
  0
LINE
  5
517
  8
DATA
 62
     7
 10
-109.55
 20
97.500000000000057
 30
0.0
 11
-109.55
 21
96.000000000000043
 31
0.0
  0
LINE
  5
518
  8
DATA
 62
     7
 10
-87.510556155193314
 20
97.500000000000057
 30
0.0
 11
-87.510556155193314
 21
97.187709952770362
 31
0.0
  0
ARC
  5
519
  8
DATA
 62
     7
 10
-88.877044161366115
 20
94.354183215182147
 30
0.0
 40
3.1458167848178791
 50
50.506739563986599
 51
129.4932604360134
  0
LINE
  5
51A
  8
DATA
 62
     7
 10
-90.877744161366067
 20
96.781808135478187
 30
0.0
 11
-90.877744161366067
 21
96.000000000000043
 31
0.0
  0
LINE
  5
51B
  8
DATA
 62
     7
 10
-86.876344161366191
 20
96.781808135478187
 30
0.0
 11
-86.876344161366191
 21
96.000000000000043
 31
0.0
  0
ARC
  5
51C
  8
DATA
 62
     7
 10
-108.0174215680894
 20
94.354183215182033
 30
0.0
 40
3.145816784818003
 50
119.155386780904
 51
129.49326043601289
  0
LINE
  5
51D
  8
DATA
 62
     7
 10
-110.0181215680894
 20
96.781808135478187
 30
0.0
 11
-110.0181215680894
 21
96.000000000000043
 31
0.0
  0
LINE
  5
51E
  8
DATA
 62
     7
 10
-103.5094338197036
 20
96.000000000000043
 30
0.0
 11
-103.5094338197036
 21
97.500000000000057
 31
0.0
  0
LINE
  5
51F
  8
DATA
 62
     7
 10
-93.511678490682925
 20
96.000000000000043
 30
0.0
 11
-93.511678490682925
 21
97.500000000000057
 31
0.0
  0
LINE
  5
520
  8
DATA
 62
     7
 10
-80.759433819703588
 20
101.0
 30
0.0
 11
-70.761678490682939
 21
101.0
 31
0.0
  0
LINE
  5
521
  8
DATA
 62
     7
 10
-80.759433819703588
 20
100.2
 30
0.0
 11
-70.761678490682939
 21
100.2
 31
0.0
  0
LINE
  5
522
  8
DATA
 62
     7
 10
-80.759433819703588
 20
96.000000000000043
 30
0.0
 11
-70.761678490682939
 21
96.000000000000043
 31
0.0
  0
LINE
  5
523
  8
DATA
 62
     7
 10
-78.160556155193262
 20
97.500000000000057
 30
0.0
 11
-78.160556155193262
 21
100.2
 31
0.0
  0
LINE
  5
524
  8
DATA
 62
     7
 10
-73.360556155193265
 20
97.500000000000057
 30
0.0
 11
-73.360556155193265
 21
100.2
 31
0.0
  0
LINE
  5
525
  8
DATA
 62
     7
 10
-80.759433819703588
 20
100.2
 30
0.0
 11
-80.759433819703588
 21
101.0
 31
0.0
  0
LINE
  5
526
  8
DATA
 62
     7
 10
-70.761678490682939
 20
100.2
 30
0.0
 11
-70.761678490682939
 21
101.0
 31
0.0
  0
LINE
  5
527
  8
DATA
 62
     7
 10
-83.628623668907935
 20
97.500000000000057
 30
0.0
 11
-78.160556155193262
 21
97.500000000000057
 31
0.0
  0
LINE
  5
528
  8
DATA
 62
     7
 10
-73.360556155193265
 20
97.500000000000057
 30
0.0
 11
-67.019189849204324
 21
97.500000000000057
 31
0.0
  0
LINE
  5
529
  8
DATA
 62
     7
 10
-83.628623668907935
 20
97.500000000000057
 30
0.0
 11
-86.799999999999969
 21
97.500000000000057
 31
0.0
  0
LINE
  5
52A
  8
DATA
 62
     7
 10
-67.019189849204324
 20
97.500000000000057
 30
0.0
 11
-64.760556155193299
 21
97.500000000000057
 31
0.0
  0
LINE
  5
52B
  8
DATA
 62
     7
 10
-86.799999999999969
 20
97.500000000000057
 30
0.0
 11
-86.799999999999969
 21
96.000000000000043
 31
0.0
  0
LINE
  5
52C
  8
DATA
 62
     7
 10
-64.760556155193299
 20
97.500000000000057
 30
0.0
 11
-64.760556155193299
 21
97.187709952770362
 31
0.0
  0
ARC
  5
52D
  8
DATA
 62
     7
 10
-66.127044161366129
 20
94.354183215182147
 30
0.0
 40
3.1458167848178791
 50
50.506739563986599
 51
129.4932604360134
  0
LINE
  5
52E
  8
DATA
 62
     7
 10
-68.127744161366067
 20
96.781808135478187
 30
0.0
 11
-68.127744161366067
 21
96.000000000000043
 31
0.0
  0
LINE
  5
52F
  8
DATA
 62
     7
 10
-64.126344161366191
 20
96.781808135478187
 30
0.0
 11
-64.126344161366191
 21
96.000000000000043
 31
0.0
  0
LINE
  5
530
  8
DATA
 62
     7
 10
-80.759433819703588
 20
96.000000000000043
 30
0.0
 11
-80.759433819703588
 21
97.500000000000057
 31
0.0
  0
LINE
  5
531
  8
DATA
 62
     7
 10
-70.761678490682939
 20
96.000000000000043
 30
0.0
 11
-70.761678490682939
 21
97.500000000000057
 31
0.0
  0
LINE
  5
532
  8
DATA
 62
     7
 10
-58.009433819703588
 20
101.0
 30
0.0
 11
-48.011678490682932
 21
101.0
 31
0.0
  0
LINE
  5
533
  8
DATA
 62
     7
 10
-58.009433819703588
 20
100.2
 30
0.0
 11
-48.011678490682932
 21
100.2
 31
0.0
  0
LINE
  5
534
  8
DATA
 62
     7
 10
-58.009433819703588
 20
96.000000000000043
 30
0.0
 11
-48.011678490682932
 21
96.000000000000043
 31
0.0
  0
LINE
  5
535
  8
DATA
 62
     7
 10
-55.410556155193277
 20
97.500000000000057
 30
0.0
 11
-55.410556155193277
 21
100.2
 31
0.0
  0
LINE
  5
536
  8
DATA
 62
     7
 10
-50.610556155193272
 20
97.500000000000057
 30
0.0
 11
-50.610556155193272
 21
100.2
 31
0.0
  0
LINE
  5
537
  8
DATA
 62
     7
 10
-58.009433819703588
 20
100.2
 30
0.0
 11
-58.009433819703588
 21
101.0
 31
0.0
  0
LINE
  5
538
  8
DATA
 62
     7
 10
-48.011678490682932
 20
100.2
 30
0.0
 11
-48.011678490682932
 21
101.0
 31
0.0
  0
LINE
  5
539
  8
DATA
 62
     7
 10
-60.878623668907927
 20
97.500000000000057
 30
0.0
 11
-55.410556155193277
 21
97.500000000000057
 31
0.0
  0
LINE
  5
53A
  8
DATA
 62
     7
 10
-50.610556155193272
 20
97.500000000000057
 30
0.0
 11
-44.269189849204317
 21
97.500000000000057
 31
0.0
  0
LINE
  5
53B
  8
DATA
 62
     7
 10
-60.878623668907927
 20
97.500000000000057
 30
0.0
 11
-64.049999999999997
 21
97.500000000000057
 31
0.0
  0
LINE
  5
53C
  8
DATA
 62
     7
 10
-44.269189849204317
 20
97.500000000000057
 30
0.0
 11
-42.010556155193292
 21
97.500000000000057
 31
0.0
  0
LINE
  5
53D
  8
DATA
 62
     7
 10
-64.049999999999997
 20
97.500000000000057
 30
0.0
 11
-64.049999999999997
 21
96.000000000000043
 31
0.0
  0
LINE
  5
53E
  8
DATA
 62
     7
 10
-42.010556155193292
 20
97.500000000000057
 30
0.0
 11
-42.010556155193292
 21
97.187709952770362
 31
0.0
  0
ARC
  5
53F
  8
DATA
 62
     7
 10
-43.377044161366122
 20
94.354183215182147
 30
0.0
 40
3.1458167848178791
 50
50.506739563986599
 51
129.4932604360134
  0
LINE
  5
540
  8
DATA
 62
     7
 10
-45.377744161366067
 20
96.781808135478187
 30
0.0
 11
-45.377744161366067
 21
96.000000000000043
 31
0.0
  0
LINE
  5
541
  8
DATA
 62
     7
 10
-41.376344161366177
 20
96.781808135478187
 30
0.0
 11
-41.376344161366177
 21
96.000000000000043
 31
0.0
  0
LINE
  5
542
  8
DATA
 62
     7
 10
-58.009433819703588
 20
96.000000000000043
 30
0.0
 11
-58.009433819703588
 21
97.500000000000057
 31
0.0
  0
LINE
  5
543
  8
DATA
 62
     7
 10
-48.011678490682932
 20
96.000000000000043
 30
0.0
 11
-48.011678490682932
 21
97.500000000000057
 31
0.0
  0
LINE
  5
544
  8
DATA
 62
     7
 10
-35.259433819703602
 20
101.0
 30
0.0
 11
-25.261678490682939
 21
101.0
 31
0.0
  0
LINE
  5
545
  8
DATA
 62
     7
 10
-35.259433819703602
 20
100.2
 30
0.0
 11
-25.261678490682939
 21
100.2
 31
0.0
  0
LINE
  5
546
  8
DATA
 62
     7
 10
-35.259433819703602
 20
96.000000000000043
 30
0.0
 11
-25.261678490682939
 21
96.000000000000043
 31
0.0
  0
LINE
  5
547
  8
DATA
 62
     7
 10
-32.660556155193277
 20
97.500000000000057
 30
0.0
 11
-32.660556155193277
 21
100.2
 31
0.0
  0
LINE
  5
548
  8
DATA
 62
     7
 10
-27.860556155193269
 20
97.500000000000057
 30
0.0
 11
-27.860556155193269
 21
100.2
 31
0.0
  0
LINE
  5
549
  8
DATA
 62
     7
 10
-35.259433819703602
 20
100.2
 30
0.0
 11
-35.259433819703602
 21
101.0
 31
0.0
  0
LINE
  5
54A
  8
DATA
 62
     7
 10
-25.261678490682939
 20
100.2
 30
0.0
 11
-25.261678490682939
 21
101.0
 31
0.0
  0
LINE
  5
54B
  8
DATA
 62
     7
 10
-38.128623668907942
 20
97.500000000000057
 30
0.0
 11
-32.660556155193277
 21
97.500000000000057
 31
0.0
  0
LINE
  5
54C
  8
DATA
 62
     7
 10
-27.860556155193269
 20
97.500000000000057
 30
0.0
 11
-21.519189849204331
 21
97.500000000000057
 31
0.0
  0
LINE
  5
54D
  8
DATA
 62
     7
 10
-38.128623668907942
 20
97.500000000000057
 30
0.0
 11
-41.29999999999999
 21
97.500000000000057
 31
0.0
  0
LINE
  5
54E
  8
DATA
 62
     7
 10
-21.519189849204331
 20
97.500000000000057
 30
0.0
 11
-19.260556155193299
 21
97.500000000000057
 31
0.0
  0
LINE
  5
54F
  8
DATA
 62
     7
 10
-41.29999999999999
 20
97.500000000000057
 30
0.0
 11
-41.29999999999999
 21
96.000000000000043
 31
0.0
  0
LINE
  5
550
  8
DATA
 62
     7
 10
-19.260556155193299
 20
97.500000000000057
 30
0.0
 11
-19.260556155193299
 21
97.187709952770362
 31
0.0
  0
ARC
  5
551
  8
DATA
 62
     7
 10
-20.627044161366129
 20
94.354183215182147
 30
0.0
 40
3.1458167848178791
 50
50.506739563986599
 51
129.4932604360134
  0
LINE
  5
552
  8
DATA
 62
     7
 10
-22.627744161366071
 20
96.781808135478187
 30
0.0
 11
-22.627744161366071
 21
96.000000000000043
 31
0.0
  0
LINE
  5
553
  8
DATA
 62
     7
 10
-18.626344161366191
 20
96.781808135478187
 30
0.0
 11
-18.626344161366191
 21
96.000000000000043
 31
0.0
  0
LINE
  5
554
  8
DATA
 62
     7
 10
-35.259433819703602
 20
96.000000000000043
 30
0.0
 11
-35.259433819703602
 21
97.500000000000057
 31
0.0
  0
LINE
  5
555
  8
DATA
 62
     7
 10
-25.261678490682939
 20
96.000000000000043
 30
0.0
 11
-25.261678490682939
 21
97.500000000000057
 31
0.0
  0
ARC
  5
556
  8
DATA
 62
     7
 10
1.995802060154644
 20
94.354183215182147
 30
0.0
 40
3.1458167848178791
 50
50.506739563986599
 51
129.4932604360134
  0
LINE
  5
557
  8
DATA
 62
     7
 10
-0.0048979398452929
 20
96.781808135478187
 30
0.0
 11
-0.0048979398452929
 21
96.000000000000043
 31
0.0
  0
LINE
  5
558
  8
DATA
 62
     7
 10
3.9965020601545831
 20
96.781808135478187
 30
0.0
 11
3.9965020601545831
 21
96.000000000000043
 31
0.0
  0
ARC
  5
559
  8
DATA
 62
     7
 10
15.00416329522638
 20
94.354183215182147
 30
0.0
 40
3.1458167848178791
 50
50.506739563986599
 51
129.4932604360134
  0
LINE
  5
55A
  8
DATA
 62
     7
 10
13.003463295226441
 20
96.781808135478187
 30
0.0
 11
13.003463295226441
 21
96.000000000000043
 31
0.0
  0
LINE
  5
55B
  8
DATA
 62
     7
 10
17.004863295226311
 20
96.781808135478187
 30
0.0
 11
17.004863295226311
 21
96.000000000000043
 31
0.0
  0
POLYLINE
  5
55C
  8
DATA
 62
     7
 66
     1
 10
0.0
 20
0.0
 30
0.0
 70
     1
  0
VERTEX
  5
768
  8
DATA
 62
     7
 10
190.0
 20
-116.0
 30
0.0
  0
VERTEX
  5
769
  8
DATA
 62
     7
 10
326.0
 20
-116.0
 30
0.0
  0
VERTEX
  5
76A
  8
DATA
 62
     7
 10
326.0
 20
-160.0
 30
0.0
  0
VERTEX
  5
76B
  8
DATA
 62
     7
 10
190.0
 20
-160.0
 30
0.0
  0
SEQEND
  5
76C
  8
DATA
 62
     7
  0
LINE
  5
563
  8
DATA
 62
     7
 10
191.5
 20
-160.0
 30
0.0
 11
191.5
 21
-116.0
 31
0.0
  0
LINE
  5
564
  8
DATA
 62
     7
 10
324.80000000000001
 20
-160.0
 30
0.0
 11
324.80000000000001
 21
-116.0
 31
0.0
  0
LINE
  5
565
  8
DATA
 62
     7
 10
191.5
 20
-118.5
 30
0.0
 11
324.80000000000001
 21
-118.5
 31
0.0
  0
LINE
  5
566
  8
DATA
 62
     7
 10
324.80000000000001
 20
-157.5
 30
0.0
 11
191.5
 21
-157.5
 31
0.0
  0
LINE
  5
567
  8
DATA
 62
     7
 10
319.8257640337543
 20
-126.45
 30
0.0
 11
191.5
 21
-126.45
 31
0.0
  0
LINE
  5
568
  8
DATA
 62
     7
 10
191.5
 20
-125.64999999999991
 30
0.0
 11
319.8257640337543
 21
-125.64999999999991
 31
0.0
  0
LINE
  5
569
  8
DATA
 62
     7
 10
191.5
 20
-142.09999999999991
 30
0.0
 11
324.80000000000001
 21
-142.09999999999991
 31
0.0
  0
LINE
  5
56A
  8
DATA
 62
     7
 10
324.80000000000001
 20
-142.89999999999989
 30
0.0
 11
191.5
 21
-142.89999999999989
 31
0.0
  0
LINE
  5
56B
  8
DATA
 62
     7
 10
191.5
 20
-144.59999999999991
 30
0.0
 11
324.80000000000001
 21
-144.59999999999991
 31
0.0
  0
LINE
  5
56C
  8
DATA
 62
     7
 10
324.80000000000001
 20
-145.39999999999989
 30
0.0
 11
191.5
 21
-145.39999999999989
 31
0.0
  0
LINE
  5
56D
  8
DATA
 62
     7
 10
319.8257640337543
 20
-125.64999999999991
 30
0.0
 11
324.80000000000001
 21
-125.64999999999991
 31
0.0
  0
LINE
  5
56E
  8
DATA
 62
     7
 10
319.8257640337543
 20
-126.45
 30
0.0
 11
324.80000000000001
 21
-126.45
 31
0.0
  0
LINE
  5
56F
  8
DATA
 62
     7
 10
172.095380571167
 20
-132.0473278275222
 30
0.0
 11
187.095380571167
 21
-131.09725722094331
 31
0.0
  0
LINE
  5
570
  8
DATA
 62
     7
 10
172.095380571167
 20
-141.94410902721609
 30
0.0
 11
187.095380571167
 21
-142.84696813126629
 31
0.0
  0
LINE
  5
571
  8
DATA
 62
     7
 10
187.095380571167
 20
-131.09725722094331
 30
0.0
 11
187.095380571167
 21
-142.84696813126629
 31
0.0
  0
POLYLINE
  5
572
  8
DATA
 62
     7
 66
     1
 10
0.0
 20
0.0
 30
0.0
  0
VERTEX
  5
76D
  8
DATA
 62
     7
 10
190.095380571167
 20
-142.4468893534777
 30
0.0
  0
VERTEX
  5
76E
  8
DATA
 62
     7
 10
188.595380571167
 20
-142.4468893534777
 30
0.0
  0
VERTEX
  5
76F
  8
DATA
 62
     7
 10
188.595380571167
 20
-131.5468893534767
 30
0.0
  0
VERTEX
  5
770
  8
DATA
 62
     7
 10
190.095380571167
 20
-131.5468893534767
 30
0.0
  0
SEQEND
  5
771
  8
DATA
 62
     7
  0
LINE
  5
579
  8
DATA
 62
     7
 10
187.095380571167
 20
-132.7468893534768
 30
0.0
 11
188.595380571167
 21
-132.7468893534768
 31
0.0
  0
LINE
  5
57A
  8
DATA
 62
     7
 10
187.095380571167
 20
-141.2468893534776
 30
0.0
 11
188.595380571167
 21
-141.2468893534776
 31
0.0
  0
LINE
  5
57B
  8
DATA
 62
     7
 10
172.095380571167
 20
-132.0473278275222
 30
0.0
 11
172.095380571167
 21
-141.94410902721609
 31
0.0
  0
LINE
  5
57C
  8
DATA
 62
     7
 10
171.995380571167
 20
-137.49688935347729
 30
0.0
 11
171.995380571167
 21
-132.053661631566
 31
0.0
  0
LINE
  5
57D
  8
DATA
 62
     7
 10
172.095380571167
 20
-132.0473278275222
 30
0.0
 11
171.995380571167
 21
-132.05366163156609
 31
0.0
  0
LINE
  5
57E
  8
DATA
 62
     7
 10
172.095380571167
 20
-137.49688935347729
 30
0.0
 11
171.995380571167
 21
-137.49688935347729
 31
0.0
  0
ARC
  5
57F
  8
DATA
 62
     7
 10
191.16634615384609
 20
-123.9999999999998
 30
0.0
 40
4.4663461538460734
 50
135.14827615729581
 51
224.8517238427043
  0
ARC
  5
580
  8
DATA
 62
     7
 10
191.16634615384609
 20
-151.9999999999998
 30
0.0
 40
4.4663461538460734
 50
135.14827615729581
 51
224.8517238427043
  0
LINE
  5
581
  8
DATA
 62
     7
 10
188.0
 20
-148.84999999999991
 30
0.0
 11
190.0
 21
-148.84999999999991
 31
0.0
  0
LINE
  5
582
  8
DATA
 62
     7
 10
188.0
 20
-155.14999999999981
 30
0.0
 11
190.0
 21
-155.14999999999981
 31
0.0
  0
LINE
  5
583
  8
DATA
 62
     7
 10
188.0
 20
-120.84999999999989
 30
0.0
 11
190.0
 21
-120.84999999999989
 31
0.0
  0
LINE
  5
584
  8
DATA
 62
     7
 10
188.0
 20
-127.14999999999981
 30
0.0
 11
190.0
 21
-127.14999999999981
 31
0.0
  0
ARC
  5
585
  8
DATA
 62
     7
 10
324.83182011864602
 20
-123.9999999999998
 30
0.0
 40
4.4663461538461133
 50
315.14827615729632
 51
44.85172384270367
  0
ARC
  5
586
  8
DATA
 62
     7
 10
324.83182011864602
 20
-151.9999999999998
 30
0.0
 40
4.4663461538461133
 50
315.14827615729632
 51
44.85172384270367
  0
LINE
  5
587
  8
DATA
 62
     7
 10
327.99816627249209
 20
-148.84999999999991
 30
0.0
 11
325.99816627249209
 21
-148.84999999999991
 31
0.0
  0
LINE
  5
588
  8
DATA
 62
     7
 10
327.99816627249209
 20
-155.14999999999981
 30
0.0
 11
325.99816627249209
 21
-155.14999999999981
 31
0.0
  0
LINE
  5
589
  8
DATA
 62
     7
 10
327.99816627249209
 20
-120.84999999999989
 30
0.0
 11
325.99816627249209
 21
-120.84999999999989
 31
0.0
  0
LINE
  5
58A
  8
DATA
 62
     7
 10
327.99816627249209
 20
-127.14999999999981
 30
0.0
 11
325.99816627249209
 21
-127.14999999999981
 31
0.0
  0
ARC
  5
58B
  8
DATA
 62
     7
 10
191.79371879821841
 20
-149.64495097205341
 30
0.0
 40
2.6495145078075151
 50
132.6095807793607
 51
162.54020657437411
  0
LINE
  5
58C
  8
DATA
 62
     7
 10
330.0
 20
-119.0
 30
0.0
 11
330.0
 21
-149.0
 31
0.0
  0
LINE
  5
58D
  8
DATA
 62
     7
 10
330.0
 20
-149.0
 30
0.0
 11
328.14063379819589
 21
-149.0
 31
0.0
  0
LINE
  5
58E
  8
DATA
 62
     7
 10
330.0
 20
-119.0
 30
0.0
 11
326.0
 21
-119.0
 31
0.0
  0
LINE
  5
58F
  8
DATA
 62
     7
 10
332.5
 20
-133.3705709435016
 30
0.0
 11
332.5
 21
-125.04057094350161
 31
0.0
  0
LINE
  5
590
  8
DATA
 62
     7
 10
332.5
 20
-146.9705709435016
 30
0.0
 11
332.5
 21
-138.64057094350159
 31
0.0
  0
LINE
  5
591
  8
DATA
 62
     7
 10
332.5
 20
-125.04057094350161
 30
0.0
 11
330.0
 21
-125.04057094350161
 31
0.0
  0
LINE
  5
592
  8
DATA
 62
     7
 10
332.5
 20
-133.3705709435016
 30
0.0
 11
330.0
 21
-133.3705709435016
 31
0.0
  0
LINE
  5
593
  8
DATA
 62
     7
 10
332.5
 20
-138.64057094350159
 30
0.0
 11
330.0
 21
-138.64057094350159
 31
0.0
  0
LINE
  5
594
  8
DATA
 62
     7
 10
332.5
 20
-146.9705709435016
 30
0.0
 11
330.0
 21
-146.9705709435016
 31
0.0
  0
LINE
  5
595
  8
DATA
 62
     7
 10
-102.75
 20
-41.499999999999957
 30
0.0
 11
-102.75
 21
-42.899999999999977
 31
0.0
  0
LINE
  5
596
  8
DATA
 62
     7
 10
-94.25
 20
-41.499999999999957
 30
0.0
 11
-94.25
 21
-42.899999999999977
 31
0.0
  0
LINE
  5
597
  8
DATA
 62
     7
 10
-79.750000000000014
 20
-41.499999999999957
 30
0.0
 11
-79.750000000000014
 21
-42.899999999999977
 31
0.0
  0
LINE
  5
598
  8
DATA
 62
     7
 10
-71.250000000000014
 20
-41.499999999999957
 30
0.0
 11
-71.250000000000014
 21
-42.899999999999977
 31
0.0
  0
LINE
  5
599
  8
DATA
 62
     7
 10
-56.750000000000021
 20
-41.512077893705239
 30
0.0
 11
-56.750000000000021
 21
-42.899999999999977
 31
0.0
  0
LINE
  5
59A
  8
DATA
 62
     7
 10
-48.250000000000021
 20
-41.499999999999957
 30
0.0
 11
-48.250000000000021
 21
-42.899999999999977
 31
0.0
  0
LINE
  5
59B
  8
DATA
 62
     7
 10
-33.750000000000007
 20
-41.499999999999957
 30
0.0
 11
-33.750000000000007
 21
-42.899999999999977
 31
0.0
  0
LINE
  5
59C
  8
DATA
 62
     7
 10
-25.250000000000011
 20
-41.499999999999957
 30
0.0
 11
-25.250000000000011
 21
-42.899999999999977
 31
0.0
  0
LINE
  5
59D
  8
DATA
 62
     7
 10
-10.750000000000011
 20
-41.499999999999957
 30
0.0
 11
-10.750000000000011
 21
-42.899999999999977
 31
0.0
  0
LINE
  5
59E
  8
DATA
 62
     7
 10
-2.2500000000000142
 20
-41.499999999999957
 30
0.0
 11
-2.2500000000000142
 21
-42.899999999999977
 31
0.0
  0
LINE
  5
59F
  8
DATA
 62
     7
 10
62.249999999999993
 20
-41.499999999999957
 30
0.0
 11
62.249999999999993
 21
-42.899999999999977
 31
0.0
  0
LINE
  5
5A0
  8
DATA
 62
     7
 10
70.749999999999986
 20
-41.499999999999957
 30
0.0
 11
70.749999999999986
 21
-42.899999999999977
 31
0.0
  0
LINE
  5
5A1
  8
DATA
 62
     7
 10
-8.6649999999999494
 20
102.5
 30
0.0
 11
-8.6649999999999494
 21
103.0
 31
0.0
  0
LINE
  5
5A2
  8
DATA
 62
     7
 10
-0.3349999999999653
 20
102.5
 30
0.0
 11
-0.3349999999999653
 21
103.0
 31
0.0
  0
LINE
  5
5A3
  8
DATA
 62
     7
 10
4.3350000000000497
 20
102.5
 30
0.0
 11
4.3350000000000497
 21
103.0
 31
0.0
  0
LINE
  5
5A4
  8
DATA
 62
     7
 10
12.665000000000029
 20
102.5
 30
0.0
 11
12.665000000000029
 21
103.0
 31
0.0
  0
LINE
  5
5A5
  8
DATA
 62
     7
 10
17.335000000000051
 20
102.5
 30
0.0
 11
17.335000000000051
 21
103.0
 31
0.0
  0
LINE
  5
5A6
  8
DATA
 62
     7
 10
25.665000000000038
 20
102.5
 30
0.0
 11
25.665000000000038
 21
103.0
 31
0.0
  0
LINE
  5
5A7
  8
DATA
 62
     7
 10
-119.4999999999999
 20
96.000000000000043
 30
0.0
 11
-119.4999999999999
 21
94.800000000000026
 31
0.0
  0
LINE
  5
5A8
  8
DATA
 62
     7
 10
100.0
 20
96.000000000000043
 30
0.0
 11
100.0
 21
-39.999999999999957
 31
0.0
  0
LINE
  5
5A9
  8
DATA
 62
     7
 10
100.0
 20
244.00000000000011
 30
0.0
 11
100.0
 21
200.00000000000011
 31
0.0
  0
LINE
  5
5AA
  8
DATA
 62
     7
 10
-119.9999999999999
 20
-159.99999999999989
 30
0.0
 11
-119.9999999999999
 21
-115.9999999999999
 31
0.0
  0
LINE
  5
5AB
  8
DATA
 62
     7
 10
-119.9999999999999
 20
-39.999999999999957
 30
0.0
 11
-119.9999999999999
 21
96.000000000000043
 31
0.0
  0
LINE
  5
5AC
  8
DATA
 62
     7
 10
-119.9999999999999
 20
200.00000000000011
 30
0.0
 11
-119.9999999999999
 21
244.00000000000011
 31
0.0
  0
LINE
  5
5AD
  8
DATA
 62
     7
 10
100.0
 20
-159.99999999999989
 30
0.0
 11
100.0
 21
-115.9999999999999
 31
0.0
  0
LINE
  5
5AE
  8
DATA
 62
     7
 10
-8.6649999999999494
 20
103.0
 30
0.0
 11
-8.6649999999999494
 21
104.0
 31
0.0
  0
LINE
  5
5AF
  8
DATA
 62
     7
 10
-0.3349999999999653
 20
103.0
 30
0.0
 11
-0.3349999999999653
 21
104.0
 31
0.0
  0
LINE
  5
5B0
  8
DATA
 62
     7
 10
4.3350000000000497
 20
103.0
 30
0.0
 11
4.3350000000000497
 21
104.0
 31
0.0
  0
LINE
  5
5B1
  8
DATA
 62
     7
 10
12.665000000000029
 20
103.0
 30
0.0
 11
12.665000000000029
 21
104.0
 31
0.0
  0
LINE
  5
5B2
  8
DATA
 62
     7
 10
17.335000000000051
 20
103.0
 30
0.0
 11
17.335000000000051
 21
104.0
 31
0.0
  0
LINE
  5
5B3
  8
DATA
 62
     7
 10
25.665000000000038
 20
103.0
 30
0.0
 11
25.665000000000038
 21
104.0
 31
0.0
  0
LINE
  5
5B4
  8
DATA
 62
     7
 10
-8.6649999999999494
 20
104.0
 30
0.0
 11
-0.3349999999999653
 21
104.0
 31
0.0
  0
LINE
  5
5B5
  8
DATA
 62
     7
 10
4.3350000000000497
 20
104.0
 30
0.0
 11
12.665000000000029
 21
104.0
 31
0.0
  0
LINE
  5
5B6
  8
DATA
 62
     7
 10
25.665000000000038
 20
104.0
 30
0.0
 11
17.335000000000051
 21
104.0
 31
0.0
  0
ENDSEC
  0
EOF
