  0
SECTION
  2
HEADER
  9
$ACADVER
  1
AC1009
  9
$INSBASE
 10
0.0
 20
0.0
 30
0.0
  9
$EXTMIN
 10
-133.73295646984201
 20
-273.33231651668763
 30
-0.0015258207003583
  9
$EXTMAX
 10
946.33296149898467
 20
1332.048896107671
 30
0.0000000349246037
  9
$LIMMIN
 10
0.0
 20
0.0
  9
$LIMMAX
 10
0.0
 20
0.0
  9
$ORTHOMODE
 70
     0
  9
$REGENMODE
 70
     1
  9
$FILLMODE
 70
     1
  9
$QTEXTMODE
 70
     0
  9
$MIRRTEXT
 70
     1
  9
$DRAGMODE
 70
     2
  9
$LTSCALE
 40
30.48
  9
$OSMODE
 70
   231
  9
$ATTMODE
 70
     1
  9
$TEXTSIZE
 40
0.0
  9
$TRACEWID
 40
1.0
  9
$TEXTSTYLE
  7
STANDARD
  9
$CLAYER
  8
DATA
  9
$CELTYPE
  6
BYLAYER
  9
$CECOLOR
 62
   256
  9
$DIMSCALE
 40
1.0
  9
$DIMASZ
 40
0.18
  9
$DIMEXO
 40
0.0625
  9
$DIMDLI
 40
0.38
  9
$DIMRND
 40
0.0
  9
$DIMDLE
 40
0.0
  9
$DIMEXE
 40
0.18
  9
$DIMTP
 40
0.0
  9
$DIMTM
 40
0.0
  9
$DIMTXT
 40
0.18
  9
$DIMCEN
 40
0.09
  9
$DIMTSZ
 40
0.0
  9
$DIMTOL
 70
     0
  9
$DIMLIM
 70
     0
  9
$DIMTIH
 70
     1
  9
$DIMTOH
 70
     1
  9
$DIMSE1
 70
     0
  9
$DIMSE2
 70
     0
  9
$DIMTAD
 70
     0
  9
$DIMZIN
 70
     0
  9
$DIMBLK
  1

  9
$DIMASO
 70
     1
  9
$DIMSHO
 70
     1
  9
$DIMPOST
  1

  9
$DIMAPOST
  1

  9
$DIMALT
 70
     0
  9
$DIMALTD
 70
     2
  9
$DIMALTF
 40
25.399999999999999
  9
$DIMLFAC
 40
1.0
  9
$DIMTOFL
 70
     0
  9
$DIMTVP
 40
0.0
  9
$DIMTIX
 70
     0
  9
$DIMSOXD
 70
     0
  9
$DIMSAH
 70
     0
  9
$DIMBLK1
  1

  9
$DIMBLK2
  1

  9
$DIMSTYLE
  2
STANDARD
  9
$DIMCLRD
 70
     0
  9
$DIMCLRE
 70
     0
  9
$DIMCLRT
 70
     0
  9
$DIMTFAC
 40
1.0
  9
$DIMGAP
 40
0.09
  9
$LUNITS
 70
     2
  9
$LUPREC
 70
     4
  9
$SKETCHINC
 40
0.1
  9
$FILLETRAD
 40
0.0
  9
$AUNITS
 70
     0
  9
$AUPREC
 70
     0
  9
$MENU
  1
acad
  9
$ELEVATION
 40
0.0
  9
$PELEVATION
 40
0.0
  9
$THICKNESS
 40
0.0
  9
$LIMCHECK
 70
     0
  9
$BLIPMODE
 70
     0
  9
$CHAMFERA
 40
0.0
  9
$CHAMFERB
 40
0.0
  9
$SKPOLY
 70
     0
  9
$TDCREATE
 40
2455610.5489930562
  9
$TDUPDATE
 40
2455610.5495748729
  9
$TDINDWG
 40
0.0004508102
  9
$TDUSRTIMER
 40
0.000450625
  9
$USRTIMER
 70
     1
  9
$ANGBASE
 50
0.0
  9
$ANGDIR
 70
     0
  9
$PDMODE
 70
     1
  9
$PDSIZE
 40
-2.0
  9
$PLINEWID
 40
0.0
  9
$COORDS
 70
     1
  9
$SPLFRAME
 70
     0
  9
$SPLINETYPE
 70
     6
  9
$SPLINESEGS
 70
     8
  9
$ATTDIA
 70
     0
  9
$ATTREQ
 70
     1
  9
$HANDLING
 70
     1
  9
$HANDSEED
  5
653
  9
$SURFTAB1
 70
     6
  9
$SURFTAB2
 70
     6
  9
$SURFTYPE
 70
     6
  9
$SURFU
 70
     6
  9
$SURFV
 70
     6
  9
$UCSNAME
  2

  9
$UCSORG
 10
0.0
 20
0.0
 30
0.0
  9
$UCSXDIR
 10
1.0
 20
0.0
 30
0.0
  9
$UCSYDIR
 10
0.0
 20
1.0
 30
0.0
  9
$PUCSNAME
  2

  9
$PUCSORG
 10
0.0
 20
0.0
 30
0.0
  9
$PUCSXDIR
 10
1.0
 20
0.0
 30
0.0
  9
$PUCSYDIR
 10
0.0
 20
1.0
 30
0.0
  9
$USERI1
 70
     0
  9
$USERI2
 70
     0
  9
$USERI3
 70
     0
  9
$USERI4
 70
     0
  9
$USERI5
 70
     0
  9
$USERR1
 40
0.0
  9
$USERR2
 40
0.0
  9
$USERR3
 40
0.0
  9
$USERR4
 40
0.0
  9
$USERR5
 40
0.0
  9
$WORLDVIEW
 70
     1
  9
$SHADEDGE
 70
     3
  9
$SHADEDIF
 70
    70
  9
$TILEMODE
 70
     1
  9
$MAXACTVP
 70
    64
  9
$PLIMCHECK
 70
     0
  9
$PEXTMIN
 10
1.0000000000000000E+020
 20
1.0000000000000000E+020
 30
1.0000000000000000E+020
  9
$PEXTMAX
 10
-1.0000000000000000E+020
 20
-1.0000000000000000E+020
 30
-1.0000000000000000E+020
  9
$PLIMMIN
 10
0.0
 20
0.0
  9
$PLIMMAX
 10
12.0
 20
9.0
  9
$UNITMODE
 70
     0
  9
$VISRETAIN
 70
     0
  9
$PLINEGEN
 70
     1
  9
$PSLTSCALE
 70
     0
  0
ENDSEC
  0
SECTION
  2
TABLES
  0
TABLE
  2
VPORT
 70
     1
  0
VPORT
  2
*ACTIVE
 70
     0
 10
0.0
 20
0.0
 11
1.0
 21
1.0
 12
406.3000025145713
 22
529.35828979549137
 13
0.0
 23
0.0
 14
1.0
 24
1.0
 15
0.0
 25
0.0
 16
0.0
 26
0.0
 36
1.0
 17
0.0
 27
0.0
 37
0.0
 40
1617.1999700179119
 41
1.9619164619164611
 42
50.0
 43
0.0
 44
0.0
 50
0.0
 51
0.0
 71
     0
 72
  2000
 73
     1
 74
     1
 75
     0
 76
     0
 77
     0
 78
     0
  0
ENDTAB
  0
TABLE
  2
LTYPE
 70
    11
  0
LTYPE
  2
CONTINUOUS
 70
     0
  3
Solid line
 72
    65
 73
     0
 40
0.0
  0
ENDTAB
  0
TABLE
  2
LAYER
 70
     5
  0
LAYER
  2
0
 70
     0
 62
     7
  6
CONTINUOUS
  0
LAYER
  2
DATA
 70
     0
 62
     7
  6
CONTINUOUS
  0
LAYER
  2
HIBINO-BASE
 70
     0
 62
     7
  6
CONTINUOUS
  0
LAYER
  2
SPEC
 70
     0
 62
     7
  6
CONTINUOUS
  0
LAYER
  2
DIMNSIONS
 70
     0
 62
     7
  6
CONTINUOUS
  0
ENDTAB
  0
TABLE
  2
STYLE
 70
     3
  0
STYLE
  2
STANDARD
 70
     0
 40
0.0
 41
1.0
 50
0.0
 71
     0
 42
0.0
  3
txt
  4
BIGFONT.SHX
  0
ENDTAB
  0
TABLE
  2
VIEW
 70
     0
  0
ENDTAB
  0
TABLE
  2
UCS
 70
     0
  0
ENDTAB
  0
TABLE
  2
APPID
 70
     3
  0
APPID
  2
ACAD
 70
     0
  0
APPID
  2
ACADANNOTATIVE
 70
     0
  0
APPID
  2
ACAD_MLEADERVER
 70
     0
  0
ENDTAB
  0
TABLE
  2
DIMSTYLE
 70
     2
  0
DIMSTYLE
  2
STANDARD
 70
     0
  3

  4

  5

  6

  7

 40
1.0
 41
0.18
 42
0.0625
 43
0.38
 44
0.18
 45
0.0
 46
0.0
 47
0.0
 48
0.0
140
0.18
141
0.09
142
0.0
143
25.399999999999999
144
1.0
145
0.0
146
1.0
147
0.09
 71
     0
 72
     0
 73
     1
 74
     1
 75
     0
 76
     0
 77
     0
 78
     0
170
     0
171
     2
172
     0
173
     0
174
     0
175
     0
176
     0
177
     0
178
     0
  0
ENDTAB
  0
ENDSEC
  0
SECTION
  2
BLOCKS
  0
BLOCK
  8
0
  2
$MODEL_SPACE
 70
     0
 10
0.0
 20
0.0
 30
0.0
  3
$MODEL_SPACE
  1

  0
ENDBLK
  5
5C7
  8
0
  0
BLOCK
 67
     1
  8
0
  2
$PAPER_SPACE
 70
     0
 10
0.0
 20
0.0
 30
0.0
  3
$PAPER_SPACE
  1

  0
ENDBLK
  5
5C3
 67
     1
  8
0
  0
ENDSEC
  0
SECTION
  2
ENTITIES
  0
LINE
  5
2C
  8
HIBINO-BASE
  6
CONTINUOUS
 62
     7
 10
-133.69999999999999
 20
1332.0
 30
0.0
 11
946.29999999999973
 21
1332.0
 31
0.0
  0
LINE
  5
2D
  8
HIBINO-BASE
  6
CONTINUOUS
 62
     7
 10
946.29999999999973
 20
-228.0
 30
0.0
 11
-133.69999999999999
 21
-228.0
 31
0.0
  0
LINE
  5
2E
  8
HIBINO-BASE
  6
CONTINUOUS
 62
     7
 10
-133.69999999999999
 20
-228.0
 30
0.0
 11
-133.69999999999999
 21
1332.0
 31
0.0
  0
LINE
  5
2F
  8
HIBINO-BASE
  6
CONTINUOUS
 62
     7
 10
946.29999999999973
 20
1332.0
 30
0.0
 11
946.29999999999973
 21
-228.0
 31
0.0
  0
LINE
  5
30
  8
HIBINO-BASE
  6
CONTINUOUS
 62
     7
 10
406.29999999999978
 20
-92.999999999999886
 30
0.0
 11
946.29999999999973
 21
-92.999999999999886
 31
0.0
  0
LINE
  5
31
  8
HIBINO-BASE
  6
CONTINUOUS
 62
     7
 10
406.29999999999978
 20
-228.0
 30
0.0
 11
406.29999999999978
 21
-92.999999999999886
 31
0.0
  0
TEXT
  5
32
  8
HIBINO-BASE
 62
     7
 10
411.69999999999987
 20
-108.05216
 30
0.0
 40
9.7730468749999986
  1
NOTE
 41
0.7
 11
411.69999999999987
 21
-98.279113124999995
 31
0.0
 73
     3
  0
LINE
  5
33
  8
HIBINO-BASE
  6
CONTINUOUS
 62
     7
 10
616.29999999999995
 20
-228.0
 30
0.0
 11
616.29999999999995
 21
-92.999999999999886
 31
0.0
  0
TEXT
  5
34
  8
HIBINO-BASE
 62
     7
 10
621.69999999999982
 20
-108.05216
 30
0.0
 40
9.7730468749999986
  1
TITLE
 41
0.7
 11
621.69999999999982
 21
-98.279113124999995
 31
0.0
 73
     3
  0
LINE
  5
35
  8
HIBINO-BASE
  6
CONTINUOUS
 62
     7
 10
406.29999999999978
 20
-167.9999999999998
 30
0.0
 11
946.29999999999973
 21
-167.9999999999998
 31
0.0
  0
TEXT
  5
36
  8
HIBINO-BASE
 62
     7
 10
696.69999999999982
 20
-182.7142399999999
 30
0.0
 40
9.7730468749999986
  1
DRAWN
 41
0.7
 11
696.69999999999982
 21
-172.9411931249999
 31
0.0
 73
     3
  0
TEXT
  5
37
  8
HIBINO-BASE
 62
     7
 10
546.69999999999993
 20
-182.7142399999999
 30
0.0
 40
9.7730468749999986
  1
DATE
 41
0.7
 11
546.69999999999993
 21
-172.9411931249999
 31
0.0
 73
     3
  0
TEXT
  5
38
  8
HIBINO-BASE
 62
     7
 10
412.89999999999992
 20
-183.7167371999999
 30
0.0
 40
9.7730622656249988
  1
図面サイズ
 41
0.7
 11
412.89999999999992
 21
-173.94367493437491
 31
0.0
 73
     3
  0
TEXT
  5
39
  8
HIBINO-BASE
 62
     7
 10
486.69999999999987
 20
-182.7142399999999
 30
0.0
 40
9.7730468749999986
  1
SCALE
 41
0.7
 11
486.69999999999987
 21
-172.9411931249999
 31
0.0
 73
     3
  0
TEXT
  5
3A
  8
HIBINO-BASE
 62
     7
 10
621.69999999999982
 20
-182.7142399999999
 30
0.0
 40
9.7730468749999986
  1
DESIGN
 41
0.7
 11
621.69999999999982
 21
-172.9411931249999
 31
0.0
 73
     3
  0
TEXT
  5
3B
  8
HIBINO-BASE
 62
     7
 10
846.69999999999982
 20
-182.7142399999999
 30
0.0
 40
9.7730468749999986
  1
DRAWING NO.
 41
0.7
 11
846.69999999999982
 21
-172.9411931249999
 31
0.0
 73
     3
  0
TEXT
  5
3C
  8
HIBINO-BASE
 62
     7
 10
771.69999999999982
 20
-182.7142399999999
 30
0.0
 40
9.7730468749999986
  1
CHECK
 41
0.7
 11
771.69999999999982
 21
-172.9411931249999
 31
0.0
 73
     3
  0
LINE
  5
3D
  8
HIBINO-BASE
  6
CONTINUOUS
 62
     7
 10
492.54999999999978
 20
-220.5
 30
0.0
 11
515.04999999999995
 21
-197.99999999999989
 31
0.0
  0
TEXT
  5
3E
  8
HIBINO-BASE
 62
     7
 10
488.79999999999978
 20
-204.65366
 30
0.0
 40
9.7730468749999986
  1
1
 41
0.7
 11
488.79999999999978
 21
-194.880613125
 31
0.0
 73
     3
  0
LINE
  5
3F
  8
HIBINO-BASE
  6
CONTINUOUS
 62
     7
 10
481.29999999999978
 20
-228.0
 30
0.0
 11
481.29999999999978
 21
-167.9999999999998
 31
0.0
  0
LINE
  5
40
  8
HIBINO-BASE
  6
CONTINUOUS
 62
     7
 10
541.29999999999984
 20
-228.0
 30
0.0
 11
541.29999999999984
 21
-167.9999999999998
 31
0.0
  0
LINE
  5
41
  8
HIBINO-BASE
  6
CONTINUOUS
 62
     7
 10
691.29999999999984
 20
-167.9999999999998
 30
0.0
 11
691.29999999999984
 21
-228.0
 31
0.0
  0
LINE
  5
42
  8
HIBINO-BASE
  6
CONTINUOUS
 62
     7
 10
841.29999999999984
 20
-167.9999999999998
 30
0.0
 11
841.29999999999984
 21
-228.0
 31
0.0
  0
LINE
  5
43
  8
HIBINO-BASE
  6
CONTINUOUS
 62
     7
 10
766.29999999999984
 20
-228.0
 30
0.0
 11
766.29999999999984
 21
-167.9999999999998
 31
0.0
  0
TEXT
  5
44
  8
HIBINO-BASE
 62
     7
 10
546.43923999999993
 20
-210.81812000000011
 30
0.0
 40
9.7730468749999986
  1
'11.01.
 41
0.7
 11
546.43923999999993
 21
-201.0450731250001
 31
0.0
 73
     3
  0
TEXT
  5
45
  8
HIBINO-BASE
 62
     7
 10
511.29999999999978
 20
-215.90366
 30
0.0
 40
9.7730468749999986
  1
6
 41
0.7
 11
511.29999999999978
 21
-206.130613125
 31
0.0
 73
     3
  0
TEXT
  5
46
  8
HIBINO-BASE
 62
     7
 10
429.60000000000002
 20
-216.14400000000001
 30
0.0
 40
19.546093750000001
  1
A4
 41
0.7
 11
429.60000000000002
 21
-196.59790624999991
 31
0.0
 73
     3
  0
TEXT
  5
47
  8
HIBINO-BASE
 62
     7
 10
700.33486006620763
 20
-210.81812000000011
 30
0.0
 40
9.7730468749999986
  1
N.Sasaki
 41
0.7
 11
700.33486006620763
 21
-201.0450731250001
 31
0.0
 73
     3
  0
TEXT
  5
48
  8
HIBINO-BASE
 62
     7
 10
-90.596000000000004
 20
-266.25308999999999
 30
0.0
 40
21.174934895833331
  1
Hibino-Intersound Corporation
 41
0.7
 11
-90.596000000000004
 21
-245.07815510416671
 31
0.0
 73
     3
  0
TEXT
  5
49
  8
HIBINO-BASE
 62
     7
 10
490.44600500345848
 20
-266.25308999999999
 30
0.0
 40
21.174934895833331
  1
ヒビノインターサウンド株式会社
 41
0.7
 11
490.44600500345848
 21
-245.07815510416671
 31
0.0
 73
     3
  0
TEXT
  5
4A
  8
SPEC
 62
     7
 10
-81.200000000000003
 20
1280.3596199999999
 30
0.0
 40
14.6595703125
  1
仕様
 41
0.7
 11
-81.200000000000003
 21
1295.0191903125001
 31
0.0
 73
     3
  0
LINE
  5
4B
  8
SPEC
  6
CONTINUOUS
 62
     7
 10
-88.700000000000088
 20
1272.0
 30
0.0
 11
850.0
 21
1272.0
 31
0.0
  0
LINE
  5
4C
  8
SPEC
  6
CONTINUOUS
 62
     7
 10
-88.700000000000017
 20
1272.0
 30
0.0
 11
-88.700000000000017
 21
844.5
 31
0.0
  0
TEXT
  5
4D
  8
SPEC
 62
     7
 10
-83.300000000000068
 20
1255.415986666666
 30
0.0
 40
11.401888020833329
  1
受信周波数
 41
0.7
 11
-83.300000000000068
 21
1266.8178746875001
 31
0.0
 73
     3
  0
LINE
  5
4E
  8
SPEC
  6
CONTINUOUS
 62
     7
 10
130.0
 20
1272.0
 30
0.0
 11
130.0
 21
844.5
 31
0.0
  0
LINE
  5
4F
  8
SPEC
  6
CONTINUOUS
 62
     7
 10
850.0
 20
1272.0
 30
0.0
 11
850.0
 21
844.5
 31
0.0
  0
LINE
  5
50
  8
SPEC
  6
CONTINUOUS
 62
     7
 10
129.99999999999989
 20
1204.5
 30
0.0
 11
850.00000000000011
 21
1204.5
 31
0.0
  0
TEXT
  5
51
  8
SPEC
 62
     7
 10
141.69999999999979
 20
1187.915986666666
 30
0.0
 40
11.401888020833329
  1
コネクタ:BNC
 41
0.7
 11
141.69999999999979
 21
1199.3178746875001
 31
0.0
 73
     3
  0
TEXT
  5
52
  8
SPEC
 62
     7
 10
141.69999999999979
 20
1210.4159866666671
 30
0.0
 40
11.401888020833329
  1
実効インピーダンス:50\U+03A9
 41
0.7
 11
141.69999999999979
 21
1221.8178746875001
 31
0.0
 73
     3
  0
TEXT
  5
53
  8
SPEC
 62
     7
 10
141.69999999999979
 20
1165.415986666666
 30
0.0
 40
11.401888020833329
  1
アクティブアンテナ用電源電圧:DC12V、150mA(最大)
 41
0.7
 11
141.69999999999979
 21
1176.8178746875001
 31
0.0
 73
     3
  0
LINE
  5
54
  8
SPEC
  6
CONTINUOUS
 62
     7
 10
129.9999999999998
 20
1182.0
 30
0.0
 11
850.00000000000011
 21
1182.0
 31
0.0
  0
LINE
  5
55
  8
SPEC
  6
CONTINUOUS
 62
     7
 10
-88.700000000000088
 20
1227.0
 30
0.0
 11
850.0
 21
1227.0
 31
0.0
  0
TEXT
  5
56
  8
SPEC
 62
     7
 10
-83.300000000000068
 20
1210.4159866666671
 30
0.0
 40
11.401888020833329
  1
アンテナ入力
 41
0.7
 11
-83.300000000000068
 21
1221.8178746875001
 31
0.0
 73
     3
  0
TEXT
  5
57
  8
SPEC
 62
     7
 10
141.69999999999979
 20
1232.9159866666671
 30
0.0
 40
11.401888020833329
  1
合計172チャンネルの内任意の1チャンネル
 41
0.7
 11
141.69999999999979
 21
1244.3178746875001
 31
0.0
 73
     3
  0
TEXT
  5
58
  8
SPEC
 62
     7
 10
141.69999999999979
 20
1255.415986666666
 30
0.0
 40
11.401888020833329
  1
B型 (806～810MHz)30チャンネル、A型 (797～806MHz)71チャンネル、A2型(779～788MHz)71チャンネル。
 41
0.7
 11
141.69999999999979
 21
1266.8178746875001
 31
0.0
 73
     3
  0
LINE
  5
59
  8
SPEC
  6
CONTINUOUS
 62
     7
 10
-88.700000000000088
 20
1159.5
 30
0.0
 11
850.0
 21
1159.5
 31
0.0
  0
TEXT
  5
5A
  8
SPEC
 62
     7
 10
141.69999999999979
 20
1052.9159866666671
 30
0.0
 40
11.401888020833329
  1
バランス(XLR3ピン、オス)/アンバランス(フォーンジャック)
 41
0.7
 11
141.69999999999979
 21
1064.3178746875001
 31
0.0
 73
     3
  0
LINE
  5
5B
  8
SPEC
  6
CONTINUOUS
 62
     7
 10
130.0
 20
1002.0
 30
0.0
 11
850.0
 21
1002.0
 31
0.0
  0
TEXT
  5
5C
  8
SPEC
 62
     7
 10
-4.7999999999999554
 20
1007.915986666666
 30
0.0
 40
11.401888020833329
  1
最大出力レベル
 41
0.7
 11
-4.7999999999999536
 21
1019.3178746875
 31
0.0
 73
     3
  0
LINE
  5
5D
  8
SPEC
  6
CONTINUOUS
 62
     7
 10
-88.700000000000017
 20
957.0
 30
0.0
 11
850.0
 21
957.0
 31
0.0
  0
TEXT
  5
5E
  8
SPEC
 62
     7
 10
141.6999999999999
 20
985.41598666666641
 30
0.0
 40
11.401888020833329
  1
アンバランス:+18dBu
 41
0.7
 11
141.6999999999999
 21
996.81787468749985
 31
0.0
 73
     3
  0
LINE
  5
5F
  8
SPEC
  6
CONTINUOUS
 62
     7
 10
-88.700000000000017
 20
912.0
 30
0.0
 11
850.0
 21
912.0
 31
0.0
  0
TEXT
  5
60
  8
SPEC
 62
     7
 10
-83.300000000000026
 20
940.41598666666653
 30
0.0
 40
11.401888020833329
  1
電源
 41
0.7
 11
-83.300000000000026
 21
951.81787468749985
 31
0.0
 73
     3
  0
TEXT
  5
61
  8
SPEC
 62
     7
 10
141.6999999999999
 20
940.41598666666653
 30
0.0
 40
11.401888020833329
  1
AC100V、50/60Hz、最大0.8A
 41
0.7
 11
141.6999999999999
 21
951.81787468749985
 31
0.0
 73
     3
  0
LINE
  5
62
  8
SPEC
  6
CONTINUOUS
 62
     7
 10
-88.700000000000017
 20
889.49999999999989
 30
0.0
 11
850.0
 21
889.49999999999989
 31
0.0
  0
TEXT
  5
63
  8
SPEC
 62
     7
 10
-83.300000000000026
 20
917.91598666666653
 30
0.0
 40
11.401888020833329
  1
寸法(W\U+00D7H\U+00D7D)
 41
0.7
 11
-83.300000000000026
 21
929.31787468749985
 31
0.0
 73
     3
  0
TEXT
  5
64
  8
SPEC
 62
     7
 10
141.6999999999999
 20
917.91598666666653
 30
0.0
 40
11.401888020833329
  1
483\U+00D744\U+00D7339mm(奥行はラックマウント面より。コネクタ ・突起含まず)
 41
0.7
 11
141.6999999999999
 21
929.31787468749985
 31
0.0
 73
     3
  0
TEXT
  5
65
  8
SPEC
 62
     7
 10
-83.300000000000026
 20
895.41598666666664
 30
0.0
 40
11.401888020833329
  1
質量
 41
0.7
 11
-83.300000000000026
 21
906.81787468749985
 31
0.0
 73
     3
  0
TEXT
  5
66
  8
SPEC
 62
     7
 10
141.6999999999999
 20
895.41598666666664
 30
0.0
 40
11.401888020833329
  1
約4.9kg
 41
0.7
 11
141.6999999999999
 21
906.81787468749985
 31
0.0
 73
     3
  0
TEXT
  5
67
  8
SPEC
 62
     7
 10
141.69999999999979
 20
1075.4159866666671
 30
0.0
 40
11.401888020833329
  1
-110dBm(typical)
 41
0.7
 11
141.69999999999979
 21
1086.8178746875001
 31
0.0
 73
     3
  0
LINE
  5
68
  8
SPEC
  6
CONTINUOUS
 62
     7
 10
-10.00000000000005
 20
1047.0
 30
0.0
 11
850.0
 21
1047.0
 31
0.0
  0
LINE
  5
69
  8
SPEC
  6
CONTINUOUS
 62
     7
 10
-88.700000000000159
 20
1069.5
 30
0.0
 11
850.0
 21
1069.5
 31
0.0
  0
LINE
  5
6A
  8
SPEC
  6
CONTINUOUS
 62
     7
 10
-88.700000000000088
 20
1092.0
 30
0.0
 11
850.0
 21
1092.0
 31
0.0
  0
TEXT
  5
6B
  8
SPEC
 62
     7
 10
141.6999999999999
 20
1007.915986666666
 30
0.0
 40
11.401888020833329
  1
バランス:+24dBu(ライン)、-6dBu(マイク)
 41
0.7
 11
141.6999999999999
 21
1019.3178746875
 31
0.0
 73
     3
  0
LINE
  5
6C
  8
SPEC
  6
CONTINUOUS
 62
     7
 10
-10.0
 20
1024.5
 30
0.0
 11
850.0
 21
1024.5
 31
0.0
  0
LINE
  5
6D
  8
SPEC
  6
CONTINUOUS
 62
     7
 10
-88.700000000000017
 20
934.5
 30
0.0
 11
850.0
 21
934.5
 31
0.0
  0
TEXT
  5
6E
  8
SPEC
 62
     7
 10
-83.300000000000068
 20
1075.4159866666671
 30
0.0
 40
11.401888020833329
  1
RF感度(12dB SINAD)
 41
0.7
 11
-83.300000000000068
 21
1086.8178746875001
 31
0.0
 73
     3
  0
TEXT
  5
6F
  8
SPEC
 62
     7
 10
-83.300000000000068
 20
1052.9159866666671
 30
0.0
 40
11.401888020833329
  1
音声出力
 41
0.7
 11
-83.300000000000068
 21
1064.3178746875001
 31
0.0
 73
     3
  0
TEXT
  5
70
  8
SPEC
 62
     7
 10
-4.8000000000000691
 20
1030.415986666666
 30
0.0
 40
11.401888020833329
  1
インピーダンス
 41
0.7
 11
-4.8000000000000682
 21
1041.8178746875001
 31
0.0
 73
     3
  0
LINE
  5
71
  8
SPEC
  6
CONTINUOUS
 62
     7
 10
-88.700000000000017
 20
979.49999999999989
 30
0.0
 11
850.0
 21
979.49999999999989
 31
0.0
  0
TEXT
  5
72
  8
SPEC
 62
     7
 10
-83.300000000000026
 20
962.91598666666653
 30
0.0
 40
11.401888020833329
  1
PC/ネットワーク用コネクタ  
 41
0.7
 11
-83.300000000000026
 21
974.31787468749985
 31
0.0
 73
     3
  0
TEXT
  5
73
  8
SPEC
 62
     7
 10
141.6999999999999
 20
962.91598666666653
 30
0.0
 40
11.401888020833329
  1
イーサネット:RJ-45、USB:シリーズB
 41
0.7
 11
141.6999999999999
 21
974.31787468749985
 31
0.0
 73
     3
  0
LINE
  5
74
  8
SPEC
  6
CONTINUOUS
 62
     7
 10
-10.0
 20
1069.5
 30
0.0
 11
-10.0
 21
979.49999999999989
 31
0.0
  0
TEXT
  5
75
  8
SPEC
 62
     7
 10
-4.8000000000000691
 20
1052.9159866666671
 30
0.0
 40
11.401888020833329
  1
コネクタ 
 41
0.7
 11
-4.8000000000000682
 21
1064.3178746875001
 31
0.0
 73
     3
  0
LINE
  5
76
  8
SPEC
  6
CONTINUOUS
 62
     7
 10
-88.700000000000017
 20
844.5
 30
0.0
 11
850.0
 21
844.5
 31
0.0
  0
TEXT
  5
77
  8
SPEC
 62
     7
 10
-83.300000000000026
 20
872.91598666666641
 30
0.0
 40
11.401888020833329
  1
付属品
 41
0.7
 11
-83.300000000000026
 21
884.31787468749985
 31
0.0
 73
     3
  0
TEXT
  5
78
  8
SPEC
 62
     7
 10
141.6999999999999
 20
872.91598666666641
 30
0.0
 40
11.401888020833329
  1
1/2波長アンテナ\U+00D72、アンテナケーブル\U+00D72、電源ケーブル、イーサネットケーブル(RJ-45)、
 41
0.7
 11
141.6999999999999
 21
884.31787468749985
 31
0.0
 73
     3
  0
TEXT
  5
79
  8
SPEC
 62
     7
 10
141.6999999999999
 20
850.41598666666653
 30
0.0
 40
11.401888020833329
  1
アンテナホールキャップ\U+00D72、ラックマウントネジ\U+00D74、ソフトウェアCD-ROM
 41
0.7
 11
141.6999999999999
 21
861.81787468749985
 31
0.0
 73
     3
  0
LINE
  5
7A
  8
SPEC
  6
CONTINUOUS
 62
     7
 10
129.99999999999989
 20
1137.0
 30
0.0
 11
850.00000000000011
 21
1137.0
 31
0.0
  0
TEXT
  5
7B
  8
SPEC
 62
     7
 10
141.69999999999979
 20
1120.415986666666
 30
0.0
 40
11.401888020833329
  1
コネクタ:BNC
 41
0.7
 11
141.69999999999979
 21
1131.8178746875001
 31
0.0
 73
     3
  0
TEXT
  5
7C
  8
SPEC
 62
     7
 10
141.69999999999979
 20
1142.915986666666
 30
0.0
 40
11.401888020833329
  1
実効インピーダンス:50\U+03A9
 41
0.7
 11
141.69999999999979
 21
1154.3178746875001
 31
0.0
 73
     3
  0
TEXT
  5
7D
  8
SPEC
 62
     7
 10
141.69999999999979
 20
1097.9159866666671
 30
0.0
 40
11.401888020833329
  1
アクティブアンテナ用電源電圧:DC12V、150mA(最大)
 41
0.7
 11
141.69999999999979
 21
1109.3178746875001
 31
0.0
 73
     3
  0
LINE
  5
7E
  8
SPEC
  6
CONTINUOUS
 62
     7
 10
129.9999999999998
 20
1114.5
 30
0.0
 11
850.00000000000011
 21
1114.5
 31
0.0
  0
LINE
  5
7F
  8
SPEC
  6
CONTINUOUS
 62
     7
 10
-88.700000000000088
 20
1159.5
 30
0.0
 11
850.0
 21
1159.5
 31
0.0
  0
TEXT
  5
80
  8
SPEC
 62
     7
 10
-83.300000000000068
 20
1142.915986666666
 30
0.0
 40
11.401888020833329
  1
アンテナ出力
 41
0.7
 11
-83.300000000000068
 21
1154.3178746875001
 31
0.0
 73
     3
  0
TEXT
  5
81
  8
SPEC
 62
     7
 10
141.69999999999979
 20
1030.415986666666
 30
0.0
 40
11.401888020833329
  1
XLR(電子バランス):200\U+03A9(ライン)、150\U+03A9(マイク)、フォーン(インピーダンスバランス):200\U+03A9
 41
0.7
 11
141.69999999999979
 21
1041.8178746875001
 31
0.0
 73
     3
  0
TEXT
  5
82
  8
DIMNSIONS
 62
     7
 10
286.2999999999999
 20
-156.20339333333331
 30
0.0
 40
16.288411458333329
  1
(単位：mm)
 41
0.7
 11
286.2999999999999
 21
-139.91498187499991
 31
0.0
 73
     3
  0
LINE
  5
83
  8
DIMNSIONS
  6
CONTINUOUS
 62
     7
 10
0.0
 20
55.500000000000107
 30
0.0
 11
0.0
 21
112.0
 31
0.0
  0
LINE
  5
84
  8
DIMNSIONS
  6
CONTINUOUS
 62
     7
 10
482.5
 20
55.500000000000107
 30
0.0
 11
482.5
 21
112.0
 31
0.0
  0
LINE
  5
85
  8
DIMNSIONS
  6
CONTINUOUS
 62
     7
 10
0.0
 20
100.0
 30
0.0
 11
482.5
 21
100.0
 31
0.0
  0
LINE
  5
86
  8
DIMNSIONS
  6
CONTINUOUS
 62
     7
 10
0.0
 20
100.0
 30
0.0
 11
15.00373535156251
 21
104.0202387709015
 31
0.0
  0
LINE
  5
87
  8
DIMNSIONS
  6
CONTINUOUS
 62
     7
 10
0.0
 20
100.0
 30
0.0
 11
15.00373535156251
 21
95.979761229098514
 31
0.0
  0
LINE
  5
88
  8
DIMNSIONS
  6
CONTINUOUS
 62
     7
 10
482.5
 20
100.0
 30
0.0
 11
467.49626464843749
 21
95.979761229098514
 31
0.0
  0
LINE
  5
89
  8
DIMNSIONS
  6
CONTINUOUS
 62
     7
 10
482.5
 20
100.0
 30
0.0
 11
467.49626464843749
 21
104.0202387709015
 31
0.0
  0
TEXT
  5
8A
  8
DIMNSIONS
 62
     7
 10
225.375
 20
105.9633333333333
 30
0.0
 40
16.288411458333329
  1
483
 41
0.7
 11
225.375
 21
122.2517447916667
 31
0.0
 73
     3
  0
LINE
  5
8B
  8
DIMNSIONS
  6
CONTINUOUS
 62
     7
 10
-12.0
 20
43.500000000000107
 30
0.0
 11
-62.0
 21
43.500000000000107
 31
0.0
  0
LINE
  5
8C
  8
DIMNSIONS
  6
CONTINUOUS
 62
     7
 10
-12.0
 20
0.0
 30
0.0
 11
-62.0
 21
0.0
 31
0.0
  0
LINE
  5
8D
  8
DIMNSIONS
  6
CONTINUOUS
 62
     7
 10
-50.0
 20
43.500000000000107
 30
0.0
 11
-50.0
 21
0.0
 31
0.0
  0
LINE
  5
8E
  8
DIMNSIONS
  6
CONTINUOUS
 62
     7
 10
-50.0
 20
43.500000000000107
 30
0.0
 11
-45.979761229098528
 21
28.496264648437659
 31
0.0
  0
LINE
  5
8F
  8
DIMNSIONS
  6
CONTINUOUS
 62
     7
 10
-50.0
 20
43.500000000000107
 30
0.0
 11
-54.020238770901472
 21
28.496264648437659
 31
0.0
  0
LINE
  5
90
  8
DIMNSIONS
  6
CONTINUOUS
 62
     7
 10
-50.0
 20
0.0
 30
0.0
 11
-54.020238770901472
 21
15.003735351562449
 31
0.0
  0
LINE
  5
91
  8
DIMNSIONS
  6
CONTINUOUS
 62
     7
 10
-50.0
 20
0.0
 30
0.0
 11
-45.979761229098528
 21
15.003735351562449
 31
0.0
  0
TEXT
  5
92
  8
DIMNSIONS
 62
     7
 10
-55.963333333333303
 20
11.16666666666662
 30
0.0
 40
16.288411458333329
  1
44
 50
90.0
 41
0.7
 11
-72.251744791666624
 21
11.16666666666662
 31
0.0
 73
     3
  0
LINE
  5
93
  8
DIMNSIONS
  6
CONTINUOUS
 62
     7
 10
-12.0
 20
204.0
 30
0.0
 11
-62.0
 21
204.0
 31
0.0
  0
LINE
  5
94
  8
DIMNSIONS
  6
CONTINUOUS
 62
     7
 10
25.75
 20
177.5
 30
0.0
 11
-62.0
 21
177.5
 31
0.0
  0
LINE
  5
95
  8
DIMNSIONS
  6
CONTINUOUS
 62
     7
 10
-50.0
 20
177.5
 30
0.0
 11
-50.0
 21
204.0
 31
0.0
  0
LINE
  5
96
  8
DIMNSIONS
  6
CONTINUOUS
 62
     7
 10
-50.0
 20
204.0
 30
0.0
 11
-50.0
 21
234.0
 31
0.0
  0
LINE
  5
97
  8
DIMNSIONS
  6
CONTINUOUS
 62
     7
 10
-50.0
 20
204.0
 30
0.0
 11
-54.020238770901472
 21
219.00373535156251
 31
0.0
  0
LINE
  5
98
  8
DIMNSIONS
  6
CONTINUOUS
 62
     7
 10
-50.0
 20
204.0
 30
0.0
 11
-45.979761229098528
 21
219.00373535156251
 31
0.0
  0
LINE
  5
99
  8
DIMNSIONS
  6
CONTINUOUS
 62
     7
 10
-50.0
 20
177.5
 30
0.0
 11
-50.0
 21
147.5
 31
0.0
  0
LINE
  5
9A
  8
DIMNSIONS
  6
CONTINUOUS
 62
     7
 10
-50.0
 20
177.5
 30
0.0
 11
-45.979761229098528
 21
162.4962646484374
 31
0.0
  0
LINE
  5
9B
  8
DIMNSIONS
  6
CONTINUOUS
 62
     7
 10
-50.0
 20
177.5
 30
0.0
 11
-54.020238770901472
 21
162.4962646484374
 31
0.0
  0
TEXT
  5
9C
  8
DIMNSIONS
 62
     7
 10
-55.963333333333303
 20
180.16666666666671
 30
0.0
 40
16.288411458333329
  1
27
 50
90.0
 41
0.7
 11
-72.251744791666624
 21
180.16666666666671
 31
0.0
 73
     3
  0
LINE
  5
9D
  8
DIMNSIONS
  6
CONTINUOUS
 62
     7
 10
-12.0
 20
204.0
 30
0.0
 11
-62.0
 21
204.0
 31
0.0
  0
LINE
  5
9E
  8
DIMNSIONS
  6
CONTINUOUS
 62
     7
 10
23.0
 20
542.49999999999989
 30
0.0
 11
-62.0
 21
542.49999999999989
 31
0.0
  0
LINE
  5
9F
  8
DIMNSIONS
  6
CONTINUOUS
 62
     7
 10
-50.0
 20
204.0
 30
0.0
 11
-50.0
 21
542.49999999999989
 31
0.0
  0
LINE
  5
A0
  8
DIMNSIONS
  6
CONTINUOUS
 62
     7
 10
-50.0
 20
204.0
 30
0.0
 11
-54.020238770901472
 21
219.00373535156251
 31
0.0
  0
LINE
  5
A1
  8
DIMNSIONS
  6
CONTINUOUS
 62
     7
 10
-50.0
 20
204.0
 30
0.0
 11
-45.979761229098528
 21
219.00373535156251
 31
0.0
  0
LINE
  5
A2
  8
DIMNSIONS
  6
CONTINUOUS
 62
     7
 10
-50.0
 20
542.49999999999989
 30
0.0
 11
-45.979761229098528
 21
527.49626464843755
 31
0.0
  0
LINE
  5
A3
  8
DIMNSIONS
  6
CONTINUOUS
 62
     7
 10
-50.0
 20
542.49999999999989
 30
0.0
 11
-54.020238770901472
 21
527.49626464843755
 31
0.0
  0
TEXT
  5
A4
  8
DIMNSIONS
 62
     7
 10
-55.963333333333303
 20
357.375
 30
0.0
 40
16.288411458333329
  1
339
 50
90.0
 41
0.7
 11
-72.251744791666624
 21
357.375
 31
0.0
 73
     3
  0
LINE
  5
A5
  8
DIMNSIONS
  6
CONTINUOUS
 62
     7
 10
32.0
 20
534.49999999999989
 30
0.0
 11
32.0
 21
592.0
 31
0.0
  0
LINE
  5
A6
  8
DIMNSIONS
  6
CONTINUOUS
 62
     7
 10
450.49999999999989
 20
534.49999999999989
 30
0.0
 11
450.49999999999989
 21
592.0
 31
0.0
  0
LINE
  5
A7
  8
DIMNSIONS
  6
CONTINUOUS
 62
     7
 10
32.0
 20
580.0
 30
0.0
 11
450.49999999999989
 21
580.0
 31
0.0
  0
LINE
  5
A8
  8
DIMNSIONS
  6
CONTINUOUS
 62
     7
 10
32.0
 20
580.0
 30
0.0
 11
47.003735351562511
 21
584.02023877090153
 31
0.0
  0
LINE
  5
A9
  8
DIMNSIONS
  6
CONTINUOUS
 62
     7
 10
32.0
 20
580.0
 30
0.0
 11
47.003735351562511
 21
575.97976122909836
 31
0.0
  0
LINE
  5
AA
  8
DIMNSIONS
  6
CONTINUOUS
 62
     7
 10
450.49999999999989
 20
580.0
 30
0.0
 11
435.49626464843737
 21
575.97976122909836
 31
0.0
  0
LINE
  5
AB
  8
DIMNSIONS
  6
CONTINUOUS
 62
     7
 10
450.49999999999989
 20
580.0
 30
0.0
 11
435.49626464843737
 21
584.02023877090153
 31
0.0
  0
TEXT
  5
AC
  8
DIMNSIONS
 62
     7
 10
225.375
 20
585.96333333333314
 30
0.0
 40
16.288411458333329
  1
419
 41
0.7
 11
225.375
 21
602.25174479166651
 31
0.0
 73
     3
  0
TEXT
  5
AD
  8
DATA
 62
     7
 10
706.29999999999984
 20
-117.5063266666675
 30
0.0
 40
14.6595703125
  1
SHURE
 41
0.7
 11
706.29999999999984
 21
-102.8467563541675
 31
0.0
 73
     3
  0
TEXT
  5
AE
  8
DATA
 62
     7
 10
-73.700000000000003
 20
-202.57199999999989
 30
0.0
 40
9.7730468749999986
  1
仕様および外観は予告なく変更されることがありますので、ご了承ください。
 41
0.7
 11
-73.700000000000003
 21
-192.79895312499991
 31
0.0
 73
     3
  0
TEXT
  5
AF
  8
DATA
 62
     7
 10
640.29999999999984
 20
-137.5823266666672
 30
0.0
 40
11.401888020833329
  1
デュアルチャンネル・ダイバーシティ受信機
 41
0.7
 11
640.29999999999984
 21
-126.1804386458339
 31
0.0
 73
     3
  0
LINE
  5
B0
  8
DATA
  6
CONTINUOUS
 62
     7
 10
0.0
 20
0.0
 30
0.0
 11
482.5
 21
0.0
 31
0.0
  0
LINE
  5
B1
  8
DATA
  6
CONTINUOUS
 62
     7
 10
0.0
 20
0.0
 30
0.0
 11
0.0
 21
43.500000000000107
 31
0.0
  0
LINE
  5
B2
  8
DATA
  6
CONTINUOUS
 62
     7
 10
482.5
 20
0.0
 30
0.0
 11
482.5
 21
43.500000000000107
 31
0.0
  0
LINE
  5
B3
  8
DATA
  6
CONTINUOUS
 62
     7
 10
0.0
 20
43.500000000000107
 30
0.0
 11
482.5
 21
43.500000000000107
 31
0.0
  0
ARC
  5
B4
  8
DATA
  6
CONTINUOUS
 62
     7
 10
6.4999999999999432
 20
5.75
 30
0.0
 40
3.5000000000001128
 50
90.0
 51
270.0
  0
ARC
  5
B5
  8
DATA
  6
CONTINUOUS
 62
     7
 10
9.5
 20
5.75
 30
0.0
 40
3.4999999999998859
 50
270.0
 51
90.0
  0
LINE
  5
B6
  8
DATA
  6
CONTINUOUS
 62
     7
 10
6.4999999999999432
 20
9.2500000000001101
 30
0.0
 11
9.5
 21
9.2500000000001101
 31
0.0
  0
LINE
  5
B7
  8
DATA
  6
CONTINUOUS
 62
     7
 10
6.4999999999999432
 20
2.2500000000001128
 30
0.0
 11
9.5
 21
2.2500000000001128
 31
0.0
  0
ARC
  5
B8
  8
DATA
  6
CONTINUOUS
 62
     7
 10
6.4999999999999432
 20
37.750000000000107
 30
0.0
 40
3.4999999999998859
 50
90.0
 51
270.0
  0
ARC
  5
B9
  8
DATA
  6
CONTINUOUS
 62
     7
 10
9.5
 20
37.750000000000107
 30
0.0
 40
3.5
 50
270.0
 51
90.0
  0
LINE
  5
BA
  8
DATA
  6
CONTINUOUS
 62
     7
 10
6.4999999999999432
 20
34.250000000000107
 30
0.0
 11
9.5
 21
34.250000000000107
 31
0.0
  0
LINE
  5
BB
  8
DATA
  6
CONTINUOUS
 62
     7
 10
6.4999999999999432
 20
41.25
 30
0.0
 11
9.5
 21
41.25
 31
0.0
  0
ARC
  5
BC
  8
DATA
  6
CONTINUOUS
 62
     7
 10
476.0
 20
5.75
 30
0.0
 40
3.4999999999998859
 50
270.0
 51
90.0
  0
ARC
  5
BD
  8
DATA
  6
CONTINUOUS
 62
     7
 10
473.0
 20
5.75
 30
0.0
 40
3.5000000000001128
 50
90.0
 51
270.0
  0
LINE
  5
BE
  8
DATA
  6
CONTINUOUS
 62
     7
 10
476.0
 20
9.2500000000001101
 30
0.0
 11
473.0
 21
9.2500000000001101
 31
0.0
  0
LINE
  5
BF
  8
DATA
  6
CONTINUOUS
 62
     7
 10
476.0
 20
2.2500000000001128
 30
0.0
 11
473.0
 21
2.2500000000001128
 31
0.0
  0
ARC
  5
C0
  8
DATA
  6
CONTINUOUS
 62
     7
 10
476.0
 20
37.750000000000107
 30
0.0
 40
3.5
 50
270.0
 51
90.0
  0
ARC
  5
C1
  8
DATA
  6
CONTINUOUS
 62
     7
 10
473.0
 20
37.750000000000107
 30
0.0
 40
3.4999999999998859
 50
90.0
 51
270.0
  0
LINE
  5
C2
  8
DATA
  6
CONTINUOUS
 62
     7
 10
476.0
 20
34.250000000000107
 30
0.0
 11
473.0
 21
34.250000000000107
 31
0.0
  0
LINE
  5
C3
  8
DATA
  6
CONTINUOUS
 62
     7
 10
476.0
 20
41.25
 30
0.0
 11
473.0
 21
41.25
 31
0.0
  0
TEXT
  5
C4
  8
DATA
 62
     7
 10
44.0
 20
24.388000000000009
 30
0.0
 40
3.232031249999999
  1
UR4S＋
 41
0.7
 11
44.0
 21
27.620031250000011
 31
0.0
 73
     3
  0
ARC
  5
C5
  8
DATA
  6
CONTINUOUS
 62
     7
 10
27.49999999999989
 20
22.50000000000011
 30
0.0
 40
6.4999999999999956
 50
117.79577249604939
 51
62.204227503951941
  0
LINE
  5
C6
  8
DATA
  6
CONTINUOUS
 62
     7
 10
30.531088913248141
 20
28.250000000000121
 30
0.0
 11
24.468911086751518
 21
28.250000000000121
 31
0.0
  0
ARC
  5
C7
  8
DATA
  6
CONTINUOUS
 62
     7
 10
455.0
 20
21.75000000000011
 30
0.0
 40
6.4999999999999698
 50
297.79577249604893
 51
242.2042275039507
  0
LINE
  5
C8
  8
DATA
  6
CONTINUOUS
 62
     7
 10
458.03108891324831
 20
16.00000000000011
 30
0.0
 11
451.9689110867518
 21
16.00000000000011
 31
0.0
  0
LINE
  5
C9
  8
DATA
  6
CONTINUOUS
 62
     7
 10
40.0
 20
43.500000000000107
 30
0.0
 11
40.0
 21
0.0
 31
0.0
  0
LINE
  5
CA
  8
DATA
  6
CONTINUOUS
 62
     7
 10
35.5
 20
42.500000000000099
 30
0.0
 11
35.5
 21
1.0
 31
0.0
  0
LINE
  5
CB
  8
DATA
  6
CONTINUOUS
 62
     7
 10
30.0
 20
43.500000000000107
 30
0.0
 11
30.0
 21
37.476342934359302
 31
0.0
  0
LINE
  5
CC
  8
DATA
  6
CONTINUOUS
 62
     7
 10
30.0
 20
-0.0000000000001137
 30
0.0
 11
30.0
 21
6.0236570656408039
 31
0.0
  0
ARC
  5
CD
  8
DATA
  6
CONTINUOUS
 62
     7
 10
36.5
 20
42.500000000000099
 30
0.0
 40
1.0
 50
90.0
 51
180.0
  0
ARC
  5
CE
  8
DATA
  6
CONTINUOUS
 62
     7
 10
36.5
 20
1.0
 30
0.0
 40
1.0
 50
180.0
 51
270.0
  0
ARC
  5
CF
  8
DATA
  6
CONTINUOUS
 62
     7
 10
39.0
 20
42.500000000000099
 30
0.0
 40
1.0
 50
0.0
 51
90.0
  0
ARC
  5
D0
  8
DATA
  6
CONTINUOUS
 62
     7
 10
39.0
 20
1.0
 30
0.0
 40
1.0
 50
270.0
 51
0.0
  0
LINE
  5
D1
  8
DATA
  6
CONTINUOUS
 62
     7
 10
442.49999999999989
 20
43.500000000000107
 30
0.0
 11
442.49999999999989
 21
0.0
 31
0.0
  0
LINE
  5
D2
  8
DATA
  6
CONTINUOUS
 62
     7
 10
447.0
 20
42.500000000000099
 30
0.0
 11
447.0
 21
1.0
 31
0.0
  0
LINE
  5
D3
  8
DATA
  6
CONTINUOUS
 62
     7
 10
452.5
 20
43.500000000000107
 30
0.0
 11
452.5
 21
37.476342934359302
 31
0.0
  0
LINE
  5
D4
  8
DATA
  6
CONTINUOUS
 62
     7
 10
452.5
 20
-0.0000000000001137
 30
0.0
 11
452.5
 21
6.0236570656408039
 31
0.0
  0
ARC
  5
D5
  8
DATA
  6
CONTINUOUS
 62
     7
 10
446.0
 20
42.500000000000099
 30
0.0
 40
1.0
 50
0.0
 51
90.0
  0
ARC
  5
D6
  8
DATA
  6
CONTINUOUS
 62
     7
 10
446.0
 20
1.0
 30
0.0
 40
1.0
 50
270.0
 51
0.0
  0
ARC
  5
D7
  8
DATA
  6
CONTINUOUS
 62
     7
 10
443.5
 20
42.500000000000099
 30
0.0
 40
1.0
 50
90.0
 51
180.0
  0
ARC
  5
D8
  8
DATA
  6
CONTINUOUS
 62
     7
 10
443.5
 20
1.0
 30
0.0
 40
1.0
 50
180.0
 51
270.0
  0
LINE
  5
D9
  8
DATA
  6
CONTINUOUS
 62
     7
 10
45.0
 20
3.5
 30
0.0
 11
53.5
 21
3.5
 31
0.0
  0
LINE
  5
DA
  8
DATA
  6
CONTINUOUS
 62
     7
 10
44.0
 20
4.5
 30
0.0
 11
44.0
 21
6.5
 31
0.0
  0
LINE
  5
DB
  8
DATA
  6
CONTINUOUS
 62
     7
 10
45.0
 20
7.5
 30
0.0
 11
53.5
 21
7.5
 31
0.0
  0
LINE
  5
DC
  8
DATA
  6
CONTINUOUS
 62
     7
 10
54.5
 20
6.5
 30
0.0
 11
54.5
 21
4.5
 31
0.0
  0
ARC
  5
DD
  8
DATA
  6
CONTINUOUS
 62
     7
 10
45.0
 20
6.5
 30
0.0
 40
1.0
 50
90.0
 51
180.0
  0
ARC
  5
DE
  8
DATA
  6
CONTINUOUS
 62
     7
 10
53.5
 20
6.5
 30
0.0
 40
1.0
 50
0.0
 51
90.0
  0
ARC
  5
DF
  8
DATA
  6
CONTINUOUS
 62
     7
 10
45.0
 20
4.5
 30
0.0
 40
1.0
 50
180.0
 51
270.0
  0
ARC
  5
E0
  8
DATA
  6
CONTINUOUS
 62
     7
 10
53.5
 20
4.5
 30
0.0
 40
1.0
 50
270.0
 51
0.0
  0
TEXT
  5
E1
  8
DATA
 62
     7
 10
55.93333333333333
 20
4.3880000000000097
 30
0.0
 40
3.232031249999999
  1
sync
 41
0.7
 11
55.93333333333333
 21
7.62003125000001
 31
0.0
 73
     3
  0
LINE
  5
E2
  8
DATA
  6
CONTINUOUS
 62
     7
 10
199.5
 20
5.5
 30
0.0
 11
199.5
 21
38.0
 31
0.0
  0
LINE
  5
E3
  8
DATA
  6
CONTINUOUS
 62
     7
 10
201.5
 20
3.5
 30
0.0
 11
314.5
 21
3.5
 31
0.0
  0
LINE
  5
E4
  8
DATA
  6
CONTINUOUS
 62
     7
 10
201.5
 20
40.0
 30
0.0
 11
314.5
 21
40.0
 31
0.0
  0
LINE
  5
E5
  8
DATA
  6
CONTINUOUS
 62
     7
 10
316.5
 20
38.0
 30
0.0
 11
316.5
 21
5.5
 31
0.0
  0
ARC
  5
E6
  8
DATA
  6
CONTINUOUS
 62
     7
 10
201.5
 20
38.0
 30
0.0
 40
2.0
 50
90.0
 51
180.0
  0
ARC
  5
E7
  8
DATA
  6
CONTINUOUS
 62
     7
 10
314.5
 20
38.0
 30
0.0
 40
2.0
 50
0.0
 51
90.0
  0
ARC
  5
E8
  8
DATA
  6
CONTINUOUS
 62
     7
 10
201.5
 20
5.5
 30
0.0
 40
2.0
 50
180.0
 51
270.0
  0
ARC
  5
E9
  8
DATA
  6
CONTINUOUS
 62
     7
 10
314.5
 20
5.5
 30
0.0
 40
2.0
 50
270.0
 51
0.0
  0
CIRCLE
  5
EA
  8
DATA
  6
CONTINUOUS
 62
     7
 10
205.5
 20
9.0
 30
0.0
 40
1.000000000000016
  0
CIRCLE
  5
EB
  8
DATA
  6
CONTINUOUS
 62
     7
 10
205.5
 20
12.20000000000004
 30
0.0
 40
1.000000000000016
  0
CIRCLE
  5
EC
  8
DATA
  6
CONTINUOUS
 62
     7
 10
205.5
 20
15.39999999999997
 30
0.0
 40
1.000000000000016
  0
CIRCLE
  5
ED
  8
DATA
  6
CONTINUOUS
 62
     7
 10
205.5
 20
18.600000000000019
 30
0.0
 40
1.000000000000016
  0
CIRCLE
  5
EE
  8
DATA
  6
CONTINUOUS
 62
     7
 10
205.5
 20
21.799999999999951
 30
0.0
 40
1.000000000000016
  0
CIRCLE
  5
EF
  8
DATA
  6
CONTINUOUS
 62
     7
 10
205.5
 20
25.0
 30
0.0
 40
1.000000000000016
  0
CIRCLE
  5
F0
  8
DATA
  6
CONTINUOUS
 62
     7
 10
205.5
 20
31.399999999999981
 30
0.0
 40
1.000000000000016
  0
CIRCLE
  5
F1
  8
DATA
  6
CONTINUOUS
 62
     7
 10
212.5
 20
9.0
 30
0.0
 40
1.000000000000016
  0
CIRCLE
  5
F2
  8
DATA
  6
CONTINUOUS
 62
     7
 10
212.5
 20
12.20000000000004
 30
0.0
 40
1.000000000000016
  0
CIRCLE
  5
F3
  8
DATA
  6
CONTINUOUS
 62
     7
 10
212.5
 20
15.39999999999997
 30
0.0
 40
1.000000000000016
  0
CIRCLE
  5
F4
  8
DATA
  6
CONTINUOUS
 62
     7
 10
212.5
 20
18.600000000000019
 30
0.0
 40
1.000000000000016
  0
CIRCLE
  5
F5
  8
DATA
  6
CONTINUOUS
 62
     7
 10
212.5
 20
21.799999999999951
 30
0.0
 40
1.000000000000016
  0
CIRCLE
  5
F6
  8
DATA
  6
CONTINUOUS
 62
     7
 10
212.5
 20
25.0
 30
0.0
 40
1.000000000000016
  0
CIRCLE
  5
F7
  8
DATA
  6
CONTINUOUS
 62
     7
 10
212.5
 20
31.399999999999981
 30
0.0
 40
1.000000000000016
  0
CIRCLE
  5
F8
  8
DATA
  6
CONTINUOUS
 62
     7
 10
219.5
 20
9.0
 30
0.0
 40
1.000000000000016
  0
CIRCLE
  5
F9
  8
DATA
  6
CONTINUOUS
 62
     7
 10
219.5
 20
12.20000000000004
 30
0.0
 40
1.000000000000016
  0
CIRCLE
  5
FA
  8
DATA
  6
CONTINUOUS
 62
     7
 10
219.5
 20
15.39999999999997
 30
0.0
 40
1.000000000000016
  0
CIRCLE
  5
FB
  8
DATA
  6
CONTINUOUS
 62
     7
 10
219.5
 20
18.600000000000019
 30
0.0
 40
1.000000000000016
  0
CIRCLE
  5
FC
  8
DATA
  6
CONTINUOUS
 62
     7
 10
219.5
 20
21.799999999999951
 30
0.0
 40
1.000000000000016
  0
CIRCLE
  5
FD
  8
DATA
  6
CONTINUOUS
 62
     7
 10
219.5
 20
25.0
 30
0.0
 40
1.000000000000016
  0
CIRCLE
  5
FE
  8
DATA
  6
CONTINUOUS
 62
     7
 10
219.5
 20
31.399999999999981
 30
0.0
 40
1.000000000000016
  0
CIRCLE
  5
FF
  8
DATA
  6
CONTINUOUS
 62
     7
 10
219.5
 20
28.200000000000049
 30
0.0
 40
1.000000000000016
  0
LINE
  5
100
  8
DATA
  6
CONTINUOUS
 62
     7
 10
203.0
 20
6.5
 30
0.0
 11
215.0
 21
6.5
 31
0.0
  0
LINE
  5
101
  8
DATA
  6
CONTINUOUS
 62
     7
 10
203.0
 20
6.5
 30
0.0
 11
203.0
 21
34.0
 31
0.0
  0
LINE
  5
102
  8
DATA
  6
CONTINUOUS
 62
     7
 10
203.0
 20
34.0
 30
0.0
 11
215.0
 21
34.0
 31
0.0
  0
LINE
  5
103
  8
DATA
  6
CONTINUOUS
 62
     7
 10
215.0
 20
34.0
 30
0.0
 11
215.0
 21
6.5
 31
0.0
  0
LINE
  5
104
  8
DATA
  6
CONTINUOUS
 62
     7
 10
217.25
 20
6.5
 30
0.0
 11
221.75
 21
6.5
 31
0.0
  0
LINE
  5
105
  8
DATA
  6
CONTINUOUS
 62
     7
 10
217.25
 20
6.5
 30
0.0
 11
217.25
 21
34.0
 31
0.0
  0
LINE
  5
106
  8
DATA
  6
CONTINUOUS
 62
     7
 10
221.75
 20
6.5
 30
0.0
 11
221.75
 21
34.0
 31
0.0
  0
LINE
  5
107
  8
DATA
  6
CONTINUOUS
 62
     7
 10
217.25
 20
34.0
 30
0.0
 11
221.75
 21
34.0
 31
0.0
  0
LINE
  5
108
  8
DATA
  6
CONTINUOUS
 62
     7
 10
234.0
 20
8.0
 30
0.0
 11
234.0
 21
32.0
 31
0.0
  0
LINE
  5
109
  8
DATA
  6
CONTINUOUS
 62
     7
 10
234.5
 20
7.5
 30
0.0
 11
297.0
 21
7.5
 31
0.0
  0
LINE
  5
10A
  8
DATA
  6
CONTINUOUS
 62
     7
 10
234.5
 20
32.5
 30
0.0
 11
297.0
 21
32.5
 31
0.0
  0
LINE
  5
10B
  8
DATA
  6
CONTINUOUS
 62
     7
 10
297.5
 20
32.0
 30
0.0
 11
297.5
 21
8.0
 31
0.0
  0
LINE
  5
10C
  8
DATA
  6
CONTINUOUS
 62
     7
 10
233.0
 20
7.5
 30
0.0
 11
233.0
 21
32.5
 31
0.0
  0
LINE
  5
10D
  8
DATA
  6
CONTINUOUS
 62
     7
 10
298.5
 20
32.5
 30
0.0
 11
298.5
 21
7.5
 31
0.0
  0
LINE
  5
10E
  8
DATA
  6
CONTINUOUS
 62
     7
 10
234.0
 20
33.5
 30
0.0
 11
297.5
 21
33.5
 31
0.0
  0
LINE
  5
10F
  8
DATA
  6
CONTINUOUS
 62
     7
 10
234.0
 20
6.5
 30
0.0
 11
297.5
 21
6.5
 31
0.0
  0
ARC
  5
110
  8
DATA
  6
CONTINUOUS
 62
     7
 10
234.0
 20
32.5
 30
0.0
 40
1.0
 50
90.0
 51
180.0
  0
ARC
  5
111
  8
DATA
  6
CONTINUOUS
 62
     7
 10
234.0
 20
7.5
 30
0.0
 40
1.0
 50
180.0
 51
270.0
  0
ARC
  5
112
  8
DATA
  6
CONTINUOUS
 62
     7
 10
297.5
 20
32.5
 30
0.0
 40
1.0
 50
0.0
 51
90.0
  0
ARC
  5
113
  8
DATA
  6
CONTINUOUS
 62
     7
 10
297.5
 20
7.5
 30
0.0
 40
1.0
 50
270.0
 51
0.0
  0
ARC
  5
114
  8
DATA
  6
CONTINUOUS
 62
     7
 10
234.5
 20
32.0
 30
0.0
 40
0.5
 50
90.0
 51
180.0
  0
ARC
  5
115
  8
DATA
  6
CONTINUOUS
 62
     7
 10
234.5
 20
8.0
 30
0.0
 40
0.5
 50
180.0
 51
270.0
  0
ARC
  5
116
  8
DATA
  6
CONTINUOUS
 62
     7
 10
297.0
 20
32.0
 30
0.0
 40
0.5
 50
0.0
 51
90.0
  0
ARC
  5
117
  8
DATA
  6
CONTINUOUS
 62
     7
 10
297.0
 20
8.0
 30
0.0
 40
0.5
 50
270.0
 51
0.0
  0
LINE
  5
118
  8
DATA
  6
CONTINUOUS
 62
     7
 10
303.0
 20
8.5
 30
0.0
 11
312.5
 21
8.5
 31
0.0
  0
LINE
  5
119
  8
DATA
  6
CONTINUOUS
 62
     7
 10
303.0
 20
8.5
 30
0.0
 11
303.0
 21
13.0
 31
0.0
  0
LINE
  5
11A
  8
DATA
  6
CONTINUOUS
 62
     7
 10
303.0
 20
13.0
 30
0.0
 11
312.5
 21
13.0
 31
0.0
  0
LINE
  5
11B
  8
DATA
  6
CONTINUOUS
 62
     7
 10
312.5
 20
13.0
 30
0.0
 11
312.5
 21
8.5
 31
0.0
  0
LINE
  5
11C
  8
DATA
  6
CONTINUOUS
 62
     7
 10
303.0
 20
15.0
 30
0.0
 11
312.5
 21
15.0
 31
0.0
  0
LINE
  5
11D
  8
DATA
  6
CONTINUOUS
 62
     7
 10
303.0
 20
15.0
 30
0.0
 11
303.0
 21
19.5
 31
0.0
  0
LINE
  5
11E
  8
DATA
  6
CONTINUOUS
 62
     7
 10
303.0
 20
19.5
 30
0.0
 11
312.5
 21
19.5
 31
0.0
  0
LINE
  5
11F
  8
DATA
  6
CONTINUOUS
 62
     7
 10
312.5
 20
19.5
 30
0.0
 11
312.5
 21
15.0
 31
0.0
  0
LINE
  5
120
  8
DATA
  6
CONTINUOUS
 62
     7
 10
303.0
 20
21.5
 30
0.0
 11
312.5
 21
21.5
 31
0.0
  0
LINE
  5
121
  8
DATA
  6
CONTINUOUS
 62
     7
 10
303.0
 20
21.5
 30
0.0
 11
303.0
 21
26.0
 31
0.0
  0
LINE
  5
122
  8
DATA
  6
CONTINUOUS
 62
     7
 10
303.0
 20
26.0
 30
0.0
 11
312.5
 21
26.0
 31
0.0
  0
LINE
  5
123
  8
DATA
  6
CONTINUOUS
 62
     7
 10
312.5
 20
26.0
 30
0.0
 11
312.5
 21
21.5
 31
0.0
  0
LINE
  5
124
  8
DATA
  6
CONTINUOUS
 62
     7
 10
303.0
 20
28.0
 30
0.0
 11
312.5
 21
28.0
 31
0.0
  0
LINE
  5
125
  8
DATA
  6
CONTINUOUS
 62
     7
 10
303.0
 20
28.0
 30
0.0
 11
303.0
 21
32.5
 31
0.0
  0
LINE
  5
126
  8
DATA
  6
CONTINUOUS
 62
     7
 10
303.0
 20
32.5
 30
0.0
 11
312.5
 21
32.5
 31
0.0
  0
LINE
  5
127
  8
DATA
  6
CONTINUOUS
 62
     7
 10
312.5
 20
32.5
 30
0.0
 11
312.5
 21
28.0
 31
0.0
  0
TEXT
  5
128
  8
DATA
 62
     7
 10
204.74999997913841
 20
3.9199999999999591
 30
0.0
 40
2.30859375
  1
A
 41
0.7
 11
204.74999997913841
 21
6.2285937499999591
 31
0.0
 73
     3
  0
TEXT
  5
129
  8
DATA
 62
     7
 10
211.74999997913841
 20
3.9199999999999591
 30
0.0
 40
2.30859375
  1
B
 41
0.7
 11
211.74999997913841
 21
6.2285937499999591
 31
0.0
 73
     3
  0
TEXT
  5
12A
  8
DATA
 62
     7
 10
207.74999997913841
 20
23.919999999999959
 30
0.0
 40
2.30859375
  1
OL
 41
0.7
 11
207.74999997913841
 21
26.228593749999959
 31
0.0
 73
     3
  0
TEXT
  5
12B
  8
DATA
 62
     7
 10
207.74999997913841
 20
35.919999999999959
 30
0.0
 40
2.30859375
  1
RF
 41
0.7
 11
207.74999997913841
 21
38.228593749999959
 31
0.0
 73
     3
  0
TEXT
  5
12C
  8
DATA
 62
     7
 10
215.74999997913841
 20
35.919999999999959
 30
0.0
 40
2.30859375
  1
audio
 41
0.7
 11
215.74999997913841
 21
38.228593749999959
 31
0.0
 73
     3
  0
TEXT
  5
12D
  8
DATA
 62
     7
 10
301.74999997913829
 20
35.919999999999959
 30
0.0
 40
2.30859375
  1
navigate
 41
0.7
 11
301.74999997913829
 21
38.228593749999959
 31
0.0
 73
     3
  0
LINE
  5
12E
  8
DATA
  6
CONTINUOUS
 62
     7
 10
417.49999999999989
 20
5.0
 30
0.0
 11
430.49999999999989
 21
5.0
 31
0.0
  0
LINE
  5
12F
  8
DATA
  6
CONTINUOUS
 62
     7
 10
431.5
 20
6.0
 30
0.0
 11
431.5
 21
34.0
 31
0.0
  0
LINE
  5
130
  8
DATA
  6
CONTINUOUS
 62
     7
 10
430.49999999999989
 20
35.0
 30
0.0
 11
417.49999999999989
 21
35.0
 31
0.0
  0
LINE
  5
131
  8
DATA
  6
CONTINUOUS
 62
     7
 10
416.5
 20
34.0
 30
0.0
 11
416.5
 21
6.0
 31
0.0
  0
LINE
  5
132
  8
DATA
  6
CONTINUOUS
 62
     7
 10
421.0
 20
9.5
 30
0.0
 11
427.0
 21
9.5
 31
0.0
  0
LINE
  5
133
  8
DATA
  6
CONTINUOUS
 62
     7
 10
419.0
 20
11.5
 30
0.0
 11
419.0
 21
28.5
 31
0.0
  0
LINE
  5
134
  8
DATA
  6
CONTINUOUS
 62
     7
 10
421.0
 20
30.5
 30
0.0
 11
427.0
 21
30.5
 31
0.0
  0
LINE
  5
135
  8
DATA
  6
CONTINUOUS
 62
     7
 10
429.0
 20
28.5
 30
0.0
 11
429.0
 21
11.5
 31
0.0
  0
ARC
  5
136
  8
DATA
  6
CONTINUOUS
 62
     7
 10
421.0
 20
28.5
 30
0.0
 40
2.0
 50
90.0
 51
180.0
  0
ARC
  5
137
  8
DATA
  6
CONTINUOUS
 62
     7
 10
427.0
 20
28.5
 30
0.0
 40
2.0
 50
0.0
 51
90.0
  0
ARC
  5
138
  8
DATA
  6
CONTINUOUS
 62
     7
 10
421.0
 20
11.5
 30
0.0
 40
2.0
 50
180.0
 51
270.0
  0
ARC
  5
139
  8
DATA
  6
CONTINUOUS
 62
     7
 10
427.0
 20
11.5
 30
0.0
 40
2.0
 50
270.0
 51
0.0
  0
ARC
  5
13A
  8
DATA
  6
CONTINUOUS
 62
     7
 10
421.0
 20
15.5
 30
0.0
 40
2.0
 50
180.0
 51
270.0
  0
ARC
  5
13B
  8
DATA
  6
CONTINUOUS
 62
     7
 10
427.0
 20
15.5
 30
0.0
 40
2.0
 50
270.0
 51
0.0
  0
LINE
  5
13C
  8
DATA
  6
CONTINUOUS
 62
     7
 10
421.0
 20
13.5
 30
0.0
 11
427.0
 21
13.5
 31
0.0
  0
ARC
  5
13D
  8
DATA
  6
CONTINUOUS
 62
     7
 10
417.49999999999989
 20
34.0
 30
0.0
 40
1.0
 50
90.0
 51
180.0
  0
ARC
  5
13E
  8
DATA
  6
CONTINUOUS
 62
     7
 10
430.49999999999989
 20
34.0
 30
0.0
 40
1.0
 50
0.0
 51
90.0
  0
ARC
  5
13F
  8
DATA
  6
CONTINUOUS
 62
     7
 10
430.49999999999989
 20
6.0
 30
0.0
 40
1.0
 50
270.0
 51
0.0
  0
ARC
  5
140
  8
DATA
  6
CONTINUOUS
 62
     7
 10
417.49999999999989
 20
6.0
 30
0.0
 40
1.0
 50
180.0
 51
270.0
  0
LINE
  5
141
  8
DATA
  6
CONTINUOUS
 62
     7
 10
424.0
 20
29.0
 30
0.0
 11
424.0
 21
25.0
 31
0.0
  0
CIRCLE
  5
142
  8
DATA
  6
CONTINUOUS
 62
     7
 10
424.0
 20
16.0
 30
0.0
 40
1.500000000000016
  0
TEXT
  5
143
  8
DATA
 62
     7
 10
419.0833333333332
 20
37.164460997024641
 30
0.0
 40
3.232031249999999
  1
power
 41
0.7
 11
419.0833333333332
 21
40.396492247024639
 31
0.0
 73
     3
  0
CIRCLE
  5
144
  8
DATA
  6
CONTINUOUS
 62
     7
 10
395.0
 20
27.5
 30
0.0
 40
7.0
  0
CIRCLE
  5
145
  8
DATA
  6
CONTINUOUS
 62
     7
 10
395.0
 20
27.5
 30
0.0
 40
6.5
  0
LINE
  5
146
  8
DATA
  6
CONTINUOUS
 62
     7
 10
393.61324865405197
 20
25.098076211353259
 30
0.0
 11
392.11324865405197
 21
22.5
 31
0.0
  0
CIRCLE
  5
147
  8
DATA
  6
CONTINUOUS
 62
     7
 10
395.0
 20
10.0
 30
0.0
 40
4.0
  0
CIRCLE
  5
148
  8
DATA
  6
CONTINUOUS
 62
     7
 10
395.0
 20
10.0
 30
0.0
 40
3.0
  0
TEXT
  5
149
  8
DATA
 62
     7
 10
379.5833333333332
 20
17.180460997024671
 30
0.0
 40
2.7703125000000002
  1
monitor clip
 41
0.7
 11
379.5833333333332
 21
19.95077349702467
 31
0.0
 73
     3
  0
CIRCLE
  5
14A
  8
DATA
  6
CONTINUOUS
 62
     7
 10
381.5
 20
15.0
 30
0.0
 40
1.5000000000000191
  0
TEXT
  5
14B
  8
DATA
 62
     7
 10
388.08333333333331
 20
37.164460997024641
 30
0.0
 40
3.232031249999999
  1
monitor
 41
0.7
 11
388.08333333333331
 21
40.396492247024639
 31
0.0
 73
     3
  0
CIRCLE
  5
14C
  8
DATA
  6
CONTINUOUS
 62
     7
 10
381.5
 20
27.0
 30
0.0
 40
1.5000000000000191
  0
CIRCLE
  5
14D
  8
DATA
  6
CONTINUOUS
 62
     7
 10
381.5
 20
32.0
 30
0.0
 40
1.5000000000000191
  0
TEXT
  5
14E
  8
DATA
 62
     7
 10
384.99999995827682
 20
30.919999999999959
 30
0.0
 40
2.30859375
  1
1
 41
0.7
 11
384.99999995827682
 21
33.228593749999959
 31
0.0
 73
     3
  0
TEXT
  5
14F
  8
DATA
 62
     7
 10
384.99999995827682
 20
25.65974902534105
 30
0.0
 40
2.30859375
  1
2
 41
0.7
 11
384.99999995827682
 21
27.96834277534105
 31
0.0
 73
     3
  0
TEXT
  5
150
  8
DATA
 62
     7
 10
382.49999995827682
 20
22.659749025341061
 30
0.0
 40
2.30859375
  1
push
 41
0.7
 11
382.49999995827682
 21
24.968342775341061
 31
0.0
 73
     3
  0
LINE
  5
151
  8
DATA
  6
CONTINUOUS
 62
     7
 10
381.5
 20
30.5
 30
0.0
 11
381.5
 21
28.5
 31
0.0
  0
LINE
  5
152
  8
DATA
  6
CONTINUOUS
 62
     7
 10
381.5
 20
25.5
 30
0.0
 11
381.5
 21
23.5
 31
0.0
  0
LINE
  5
153
  8
DATA
  6
CONTINUOUS
 62
     7
 10
381.5
 20
23.5
 30
0.0
 11
382.49999995827682
 21
23.5
 31
0.0
  0
LINE
  5
154
  8
DATA
  6
CONTINUOUS
 62
     7
 10
388.5
 20
23.5
 30
0.0
 11
389.0
 21
24.0
 31
0.0
  0
ARC
  5
155
  8
DATA
  6
CONTINUOUS
 62
     7
 10
402.5
 20
10.0
 30
0.0
 40
1.5
 50
0.0
 51
180.0
  0
ARC
  5
156
  8
DATA
  6
CONTINUOUS
 62
     7
 10
401.49148145657222
 20
9.3147047612756086
 30
0.0
 40
0.5000000000000152
 50
105.0000000000007
 51
285.00000000000398
  0
LINE
  5
157
  8
DATA
  6
CONTINUOUS
 62
     7
 10
401.362071934021
 20
9.7976676744201541
 30
0.0
 11
401.62089097912349
 21
8.8317418481311734
 31
0.0
  0
ARC
  5
158
  8
DATA
  6
CONTINUOUS
 62
     7
 10
403.50851854342761
 20
9.3147047612756086
 30
0.0
 40
0.4999999999999054
 50
254.99999999999591
 51
74.999999999999261
  0
LINE
  5
159
  8
DATA
  6
CONTINUOUS
 62
     7
 10
403.63792806597888
 20
9.7976676744201541
 30
0.0
 11
403.3791090208764
 21
8.8317418481311734
 31
0.0
  0
CIRCLE
  5
15A
  8
DATA
  6
CONTINUOUS
 62
     7
 10
355.5
 20
21.5
 30
0.0
 40
12.749999999999989
  0
CIRCLE
  5
15B
  8
DATA
  6
CONTINUOUS
 62
     7
 10
355.5
 20
21.5
 30
0.0
 40
12.25
  0
CIRCLE
  5
15C
  8
DATA
  6
CONTINUOUS
 62
     7
 10
355.5
 20
14.5
 30
0.0
 40
3.999999999999988
  0
TEXT
  5
15D
  8
DATA
 62
     7
 10
355.58333333333331
 20
37.164460997024641
 30
0.0
 40
3.232031249999999
  1
control
 41
0.7
 11
355.58333333333331
 21
40.396492247024639
 31
0.0
 73
     3
  0
TEXT
  5
15E
  8
DATA
 62
     7
 10
337.58333333333331
 20
7.18046099702467
 30
0.0
 40
2.7703125000000002
  1
push
 41
0.7
 11
337.58333333333331
 21
9.9507734970246702
 31
0.0
 73
     3
  0
LINE
  5
15F
  8
DATA
  6
CONTINUOUS
 62
     7
 10
345.5
 20
8.0
 30
0.0
 11
350.0
 21
8.0
 31
0.0
  0
LINE
  5
160
  8
DATA
  6
CONTINUOUS
 62
     7
 10
350.68946468675261
 20
9.6923224129380952
 30
0.0
 11
350.0
 21
8.0
 31
0.0
  0
LINE
  5
161
  8
DATA
  6
CONTINUOUS
 62
     7
 10
326.5
 20
11.5
 30
0.0
 11
336.0
 21
11.5
 31
0.0
  0
LINE
  5
162
  8
DATA
  6
CONTINUOUS
 62
     7
 10
326.5
 20
11.5
 30
0.0
 11
326.5
 21
17.5
 31
0.0
  0
LINE
  5
163
  8
DATA
  6
CONTINUOUS
 62
     7
 10
326.5
 20
17.5
 30
0.0
 11
336.0
 21
17.5
 31
0.0
  0
LINE
  5
164
  8
DATA
  6
CONTINUOUS
 62
     7
 10
336.0
 20
17.5
 30
0.0
 11
336.0
 21
11.5
 31
0.0
  0
LINE
  5
165
  8
DATA
  6
CONTINUOUS
 62
     7
 10
326.5
 20
25.0
 30
0.0
 11
336.0
 21
25.0
 31
0.0
  0
LINE
  5
166
  8
DATA
  6
CONTINUOUS
 62
     7
 10
326.5
 20
25.0
 30
0.0
 11
326.5
 21
31.0
 31
0.0
  0
LINE
  5
167
  8
DATA
  6
CONTINUOUS
 62
     7
 10
326.5
 20
31.0
 30
0.0
 11
336.0
 21
31.0
 31
0.0
  0
LINE
  5
168
  8
DATA
  6
CONTINUOUS
 62
     7
 10
336.0
 20
31.0
 30
0.0
 11
336.0
 21
25.0
 31
0.0
  0
TEXT
  5
169
  8
DATA
 62
     7
 10
326.98974915249761
 20
26.704000000000001
 30
0.0
 40
2.7703125000000002
  1
enter
 41
0.7
 11
326.98974915249761
 21
29.4743125
 31
0.0
 73
     3
  0
TEXT
  5
16A
  8
DATA
 62
     7
 10
327.98974915249772
 20
13.20399999999999
 30
0.0
 40
2.7703125000000002
  1
exit
 41
0.7
 11
327.98974915249772
 21
15.974312499999989
 31
0.0
 73
     3
  0
LINE
  5
16B
  8
DATA
  6
CONTINUOUS
 62
     7
 10
0.0
 20
200.0
 30
0.0
 11
29.99999999999995
 21
200.0
 31
0.0
  0
LINE
  5
16C
  8
DATA
  6
CONTINUOUS
 62
     7
 10
40.0
 20
200.0
 30
0.0
 11
442.49999999999989
 21
200.0
 31
0.0
  0
LINE
  5
16D
  8
DATA
  6
CONTINUOUS
 62
     7
 10
452.5
 20
200.0
 30
0.0
 11
482.5
 21
200.0
 31
0.0
  0
LINE
  5
16E
  8
DATA
  6
CONTINUOUS
 62
     7
 10
0.0
 20
200.0
 30
0.0
 11
0.0
 21
204.0
 31
0.0
  0
LINE
  5
16F
  8
DATA
  6
CONTINUOUS
 62
     7
 10
0.0
 20
204.0
 30
0.0
 11
20.0
 21
204.0
 31
0.0
  0
LINE
  5
170
  8
DATA
  6
CONTINUOUS
 62
     7
 10
40.0
 20
177.5
 30
0.0
 11
40.0
 21
518.0
 31
0.0
  0
LINE
  5
171
  8
DATA
  6
CONTINUOUS
 62
     7
 10
35.5
 20
177.5
 30
0.0
 11
35.5
 21
186.5
 31
0.0
  0
LINE
  5
172
  8
DATA
  6
CONTINUOUS
 62
     7
 10
40.0
 20
177.5
 30
0.0
 11
35.5
 21
177.5
 31
0.0
  0
LINE
  5
173
  8
DATA
  6
CONTINUOUS
 62
     7
 10
30.0
 20
200.0
 30
0.0
 11
35.5
 21
186.5
 31
0.0
  0
LINE
  5
174
  8
DATA
  6
CONTINUOUS
 62
     7
 10
32.0
 20
216.0
 30
0.0
 11
32.0
 21
522.5
 31
0.0
  0
LINE
  5
175
  8
DATA
  6
CONTINUOUS
 62
     7
 10
20.0
 20
204.0
 30
0.0
 11
32.0
 21
216.0
 31
0.0
  0
LINE
  5
176
  8
DATA
  6
CONTINUOUS
 62
     7
 10
482.5
 20
200.0
 30
0.0
 11
482.5
 21
204.0
 31
0.0
  0
LINE
  5
177
  8
DATA
  6
CONTINUOUS
 62
     7
 10
482.5
 20
204.0
 30
0.0
 11
462.5
 21
204.0
 31
0.0
  0
LINE
  5
178
  8
DATA
  6
CONTINUOUS
 62
     7
 10
447.0
 20
177.5
 30
0.0
 11
447.0
 21
186.5
 31
0.0
  0
LINE
  5
179
  8
DATA
  6
CONTINUOUS
 62
     7
 10
442.49999999999989
 20
177.5
 30
0.0
 11
447.0
 21
177.5
 31
0.0
  0
LINE
  5
17A
  8
DATA
  6
CONTINUOUS
 62
     7
 10
452.5
 20
200.0
 30
0.0
 11
447.0
 21
186.5
 31
0.0
  0
LINE
  5
17B
  8
DATA
  6
CONTINUOUS
 62
     7
 10
462.5
 20
204.0
 30
0.0
 11
450.49999999999989
 21
216.0
 31
0.0
  0
LINE
  5
17C
  8
DATA
  6
CONTINUOUS
 62
     7
 10
442.49999999999989
 20
177.5
 30
0.0
 11
442.49999999999989
 21
518.0
 31
0.0
  0
LINE
  5
17D
  8
DATA
  6
CONTINUOUS
 62
     7
 10
450.49999999999989
 20
216.0
 30
0.0
 11
450.49999999999989
 21
522.5
 31
0.0
  0
LINE
  5
17E
  8
DATA
  6
CONTINUOUS
 62
     7
 10
40.0
 20
218.0
 30
0.0
 11
442.49999999999989
 21
218.0
 31
0.0
  0
LINE
  5
17F
  8
DATA
  6
CONTINUOUS
 62
     7
 10
303.0
 20
198.0
 30
0.0
 11
303.0
 21
200.0
 31
0.0
  0
LINE
  5
180
  8
DATA
  6
CONTINUOUS
 62
     7
 10
312.5
 20
198.0
 30
0.0
 11
312.5
 21
200.0
 31
0.0
  0
LINE
  5
181
  8
DATA
  6
CONTINUOUS
 62
     7
 10
303.0
 20
198.0
 30
0.0
 11
312.5
 21
198.0
 31
0.0
  0
LINE
  5
182
  8
DATA
  6
CONTINUOUS
 62
     7
 10
326.5
 20
198.0
 30
0.0
 11
326.5
 21
200.0
 31
0.0
  0
LINE
  5
183
  8
DATA
  6
CONTINUOUS
 62
     7
 10
336.0
 20
198.0
 30
0.0
 11
336.0
 21
200.0
 31
0.0
  0
LINE
  5
184
  8
DATA
  6
CONTINUOUS
 62
     7
 10
326.5
 20
198.0
 30
0.0
 11
336.0
 21
198.0
 31
0.0
  0
LINE
  5
185
  8
DATA
  6
CONTINUOUS
 62
     7
 10
342.75
 20
185.5
 30
0.0
 11
342.75
 21
198.5
 31
0.0
  0
LINE
  5
186
  8
DATA
  6
CONTINUOUS
 62
     7
 10
368.25
 20
185.5
 30
0.0
 11
368.25
 21
198.5
 31
0.0
  0
LINE
  5
187
  8
DATA
  6
CONTINUOUS
 62
     7
 10
342.75
 20
185.5
 30
0.0
 11
368.25
 21
185.5
 31
0.0
  0
LINE
  5
188
  8
DATA
  6
CONTINUOUS
 62
     7
 10
342.75
 20
198.5
 30
0.0
 11
368.25
 21
198.5
 31
0.0
  0
LINE
  5
189
  8
DATA
  6
CONTINUOUS
 62
     7
 10
350.0
 20
198.5
 30
0.0
 11
350.0
 21
200.0
 31
0.0
  0
LINE
  5
18A
  8
DATA
  6
CONTINUOUS
 62
     7
 10
361.0
 20
198.5
 30
0.0
 11
361.0
 21
200.0
 31
0.0
  0
LINE
  5
18B
  8
DATA
  6
CONTINUOUS
 62
     7
 10
343.25
 20
185.5
 30
0.0
 11
343.25
 21
198.5
 31
0.0
  0
LINE
  5
18C
  8
DATA
  6
CONTINUOUS
 62
     7
 10
343.75
 20
185.5
 30
0.0
 11
343.75
 21
198.5
 31
0.0
  0
LINE
  5
18D
  8
DATA
  6
CONTINUOUS
 62
     7
 10
344.25
 20
185.5
 30
0.0
 11
344.25
 21
198.5
 31
0.0
  0
LINE
  5
18E
  8
DATA
  6
CONTINUOUS
 62
     7
 10
344.75
 20
185.5
 30
0.0
 11
344.75
 21
198.5
 31
0.0
  0
LINE
  5
18F
  8
DATA
  6
CONTINUOUS
 62
     7
 10
345.25
 20
185.5
 30
0.0
 11
345.25
 21
198.5
 31
0.0
  0
LINE
  5
190
  8
DATA
  6
CONTINUOUS
 62
     7
 10
345.75
 20
185.5
 30
0.0
 11
345.75
 21
198.5
 31
0.0
  0
LINE
  5
191
  8
DATA
  6
CONTINUOUS
 62
     7
 10
346.25
 20
185.5
 30
0.0
 11
346.25
 21
198.5
 31
0.0
  0
LINE
  5
192
  8
DATA
  6
CONTINUOUS
 62
     7
 10
346.75
 20
185.5
 30
0.0
 11
346.75
 21
198.5
 31
0.0
  0
LINE
  5
193
  8
DATA
  6
CONTINUOUS
 62
     7
 10
347.25
 20
185.5
 30
0.0
 11
347.25
 21
198.5
 31
0.0
  0
LINE
  5
194
  8
DATA
  6
CONTINUOUS
 62
     7
 10
347.75
 20
185.5
 30
0.0
 11
347.75
 21
198.5
 31
0.0
  0
LINE
  5
195
  8
DATA
  6
CONTINUOUS
 62
     7
 10
348.25
 20
185.5
 30
0.0
 11
348.25
 21
198.5
 31
0.0
  0
LINE
  5
196
  8
DATA
  6
CONTINUOUS
 62
     7
 10
348.75
 20
185.5
 30
0.0
 11
348.75
 21
198.5
 31
0.0
  0
LINE
  5
197
  8
DATA
  6
CONTINUOUS
 62
     7
 10
349.25
 20
185.5
 30
0.0
 11
349.25
 21
198.5
 31
0.0
  0
LINE
  5
198
  8
DATA
  6
CONTINUOUS
 62
     7
 10
349.75
 20
185.5
 30
0.0
 11
349.75
 21
198.5
 31
0.0
  0
LINE
  5
199
  8
DATA
  6
CONTINUOUS
 62
     7
 10
350.25
 20
185.5
 30
0.0
 11
350.25
 21
198.5
 31
0.0
  0
LINE
  5
19A
  8
DATA
  6
CONTINUOUS
 62
     7
 10
350.75
 20
185.5
 30
0.0
 11
350.75
 21
198.5
 31
0.0
  0
LINE
  5
19B
  8
DATA
  6
CONTINUOUS
 62
     7
 10
351.25
 20
185.5
 30
0.0
 11
351.25
 21
198.5
 31
0.0
  0
LINE
  5
19C
  8
DATA
  6
CONTINUOUS
 62
     7
 10
351.75
 20
185.5
 30
0.0
 11
351.75
 21
198.5
 31
0.0
  0
LINE
  5
19D
  8
DATA
  6
CONTINUOUS
 62
     7
 10
352.25
 20
185.5
 30
0.0
 11
352.25
 21
198.5
 31
0.0
  0
LINE
  5
19E
  8
DATA
  6
CONTINUOUS
 62
     7
 10
352.75
 20
185.5
 30
0.0
 11
352.75
 21
198.5
 31
0.0
  0
LINE
  5
19F
  8
DATA
  6
CONTINUOUS
 62
     7
 10
353.25
 20
185.5
 30
0.0
 11
353.25
 21
198.5
 31
0.0
  0
LINE
  5
1A0
  8
DATA
  6
CONTINUOUS
 62
     7
 10
353.75
 20
185.5
 30
0.0
 11
353.75
 21
198.5
 31
0.0
  0
LINE
  5
1A1
  8
DATA
  6
CONTINUOUS
 62
     7
 10
354.25
 20
185.5
 30
0.0
 11
354.25
 21
198.5
 31
0.0
  0
LINE
  5
1A2
  8
DATA
  6
CONTINUOUS
 62
     7
 10
354.75
 20
185.5
 30
0.0
 11
354.75
 21
198.5
 31
0.0
  0
LINE
  5
1A3
  8
DATA
  6
CONTINUOUS
 62
     7
 10
355.25
 20
185.5
 30
0.0
 11
355.25
 21
198.5
 31
0.0
  0
LINE
  5
1A4
  8
DATA
  6
CONTINUOUS
 62
     7
 10
355.75
 20
185.5
 30
0.0
 11
355.75
 21
198.5
 31
0.0
  0
LINE
  5
1A5
  8
DATA
  6
CONTINUOUS
 62
     7
 10
356.25
 20
185.5
 30
0.0
 11
356.25
 21
198.5
 31
0.0
  0
LINE
  5
1A6
  8
DATA
  6
CONTINUOUS
 62
     7
 10
356.75
 20
185.5
 30
0.0
 11
356.75
 21
198.5
 31
0.0
  0
LINE
  5
1A7
  8
DATA
  6
CONTINUOUS
 62
     7
 10
357.25
 20
185.5
 30
0.0
 11
357.25
 21
198.5
 31
0.0
  0
LINE
  5
1A8
  8
DATA
  6
CONTINUOUS
 62
     7
 10
357.75
 20
185.5
 30
0.0
 11
357.75
 21
198.5
 31
0.0
  0
LINE
  5
1A9
  8
DATA
  6
CONTINUOUS
 62
     7
 10
358.25
 20
185.5
 30
0.0
 11
358.25
 21
198.5
 31
0.0
  0
LINE
  5
1AA
  8
DATA
  6
CONTINUOUS
 62
     7
 10
358.75
 20
185.5
 30
0.0
 11
358.75
 21
198.5
 31
0.0
  0
LINE
  5
1AB
  8
DATA
  6
CONTINUOUS
 62
     7
 10
359.25
 20
185.5
 30
0.0
 11
359.25
 21
198.5
 31
0.0
  0
LINE
  5
1AC
  8
DATA
  6
CONTINUOUS
 62
     7
 10
359.75
 20
185.5
 30
0.0
 11
359.75
 21
198.5
 31
0.0
  0
LINE
  5
1AD
  8
DATA
  6
CONTINUOUS
 62
     7
 10
360.25
 20
185.5
 30
0.0
 11
360.25
 21
198.5
 31
0.0
  0
LINE
  5
1AE
  8
DATA
  6
CONTINUOUS
 62
     7
 10
360.75
 20
185.5
 30
0.0
 11
360.75
 21
198.5
 31
0.0
  0
LINE
  5
1AF
  8
DATA
  6
CONTINUOUS
 62
     7
 10
361.25
 20
185.5
 30
0.0
 11
361.25
 21
198.5
 31
0.0
  0
LINE
  5
1B0
  8
DATA
  6
CONTINUOUS
 62
     7
 10
361.75
 20
185.5
 30
0.0
 11
361.75
 21
198.5
 31
0.0
  0
LINE
  5
1B1
  8
DATA
  6
CONTINUOUS
 62
     7
 10
362.25
 20
185.5
 30
0.0
 11
362.25
 21
198.5
 31
0.0
  0
LINE
  5
1B2
  8
DATA
  6
CONTINUOUS
 62
     7
 10
362.75
 20
185.5
 30
0.0
 11
362.75
 21
198.5
 31
0.0
  0
LINE
  5
1B3
  8
DATA
  6
CONTINUOUS
 62
     7
 10
363.25
 20
185.5
 30
0.0
 11
363.25
 21
198.5
 31
0.0
  0
LINE
  5
1B4
  8
DATA
  6
CONTINUOUS
 62
     7
 10
363.75
 20
185.5
 30
0.0
 11
363.75
 21
198.5
 31
0.0
  0
LINE
  5
1B5
  8
DATA
  6
CONTINUOUS
 62
     7
 10
364.25
 20
185.5
 30
0.0
 11
364.25
 21
198.5
 31
0.0
  0
LINE
  5
1B6
  8
DATA
  6
CONTINUOUS
 62
     7
 10
364.75
 20
185.5
 30
0.0
 11
364.75
 21
198.5
 31
0.0
  0
LINE
  5
1B7
  8
DATA
  6
CONTINUOUS
 62
     7
 10
365.25
 20
185.5
 30
0.0
 11
365.25
 21
198.5
 31
0.0
  0
LINE
  5
1B8
  8
DATA
  6
CONTINUOUS
 62
     7
 10
365.75
 20
185.5
 30
0.0
 11
365.75
 21
198.5
 31
0.0
  0
LINE
  5
1B9
  8
DATA
  6
CONTINUOUS
 62
     7
 10
366.25
 20
185.5
 30
0.0
 11
366.25
 21
198.5
 31
0.0
  0
LINE
  5
1BA
  8
DATA
  6
CONTINUOUS
 62
     7
 10
366.75
 20
185.5
 30
0.0
 11
366.75
 21
198.5
 31
0.0
  0
LINE
  5
1BB
  8
DATA
  6
CONTINUOUS
 62
     7
 10
367.25
 20
185.5
 30
0.0
 11
367.25
 21
198.5
 31
0.0
  0
LINE
  5
1BC
  8
DATA
  6
CONTINUOUS
 62
     7
 10
367.75
 20
185.5
 30
0.0
 11
367.75
 21
198.5
 31
0.0
  0
LINE
  5
1BD
  8
DATA
  6
CONTINUOUS
 62
     7
 10
388.0
 20
188.5
 30
0.0
 11
388.0
 21
197.5
 31
0.0
  0
LINE
  5
1BE
  8
DATA
  6
CONTINUOUS
 62
     7
 10
402.0
 20
188.5
 30
0.0
 11
402.0
 21
197.5
 31
0.0
  0
LINE
  5
1BF
  8
DATA
  6
CONTINUOUS
 62
     7
 10
388.0
 20
188.5
 30
0.0
 11
402.0
 21
188.5
 31
0.0
  0
LINE
  5
1C0
  8
DATA
  6
CONTINUOUS
 62
     7
 10
388.0
 20
197.5
 30
0.0
 11
402.0
 21
197.5
 31
0.0
  0
LINE
  5
1C1
  8
DATA
  6
CONTINUOUS
 62
     7
 10
392.5
 20
197.5
 30
0.0
 11
392.5
 21
198.5
 31
0.0
  0
LINE
  5
1C2
  8
DATA
  6
CONTINUOUS
 62
     7
 10
397.5
 20
197.5
 30
0.0
 11
397.5
 21
198.5
 31
0.0
  0
LINE
  5
1C3
  8
DATA
  6
CONTINUOUS
 62
     7
 10
392.5
 20
198.5
 30
0.0
 11
397.5
 21
198.5
 31
0.0
  0
LINE
  5
1C4
  8
DATA
  6
CONTINUOUS
 62
     7
 10
393.75
 20
198.5
 30
0.0
 11
393.75
 21
200.0
 31
0.0
  0
LINE
  5
1C5
  8
DATA
  6
CONTINUOUS
 62
     7
 10
396.25
 20
198.5
 30
0.0
 11
396.25
 21
200.0
 31
0.0
  0
LINE
  5
1C6
  8
DATA
  6
CONTINUOUS
 62
     7
 10
388.5
 20
188.5
 30
0.0
 11
388.5
 21
197.5
 31
0.0
  0
LINE
  5
1C7
  8
DATA
  6
CONTINUOUS
 62
     7
 10
389.0
 20
188.5
 30
0.0
 11
389.0
 21
197.5
 31
0.0
  0
LINE
  5
1C8
  8
DATA
  6
CONTINUOUS
 62
     7
 10
389.5
 20
188.5
 30
0.0
 11
389.5
 21
197.5
 31
0.0
  0
LINE
  5
1C9
  8
DATA
  6
CONTINUOUS
 62
     7
 10
390.0
 20
188.5
 30
0.0
 11
390.0
 21
197.5
 31
0.0
  0
LINE
  5
1CA
  8
DATA
  6
CONTINUOUS
 62
     7
 10
390.5
 20
188.5
 30
0.0
 11
390.5
 21
197.5
 31
0.0
  0
LINE
  5
1CB
  8
DATA
  6
CONTINUOUS
 62
     7
 10
391.0
 20
188.5
 30
0.0
 11
391.0
 21
197.5
 31
0.0
  0
LINE
  5
1CC
  8
DATA
  6
CONTINUOUS
 62
     7
 10
391.5
 20
188.5
 30
0.0
 11
391.5
 21
197.5
 31
0.0
  0
LINE
  5
1CD
  8
DATA
  6
CONTINUOUS
 62
     7
 10
392.0
 20
188.5
 30
0.0
 11
392.0
 21
197.5
 31
0.0
  0
LINE
  5
1CE
  8
DATA
  6
CONTINUOUS
 62
     7
 10
392.5
 20
188.5
 30
0.0
 11
392.5
 21
197.5
 31
0.0
  0
LINE
  5
1CF
  8
DATA
  6
CONTINUOUS
 62
     7
 10
393.0
 20
188.5
 30
0.0
 11
393.0
 21
197.5
 31
0.0
  0
LINE
  5
1D0
  8
DATA
  6
CONTINUOUS
 62
     7
 10
393.5
 20
188.5
 30
0.0
 11
393.5
 21
197.5
 31
0.0
  0
LINE
  5
1D1
  8
DATA
  6
CONTINUOUS
 62
     7
 10
394.0
 20
188.5
 30
0.0
 11
394.0
 21
197.5
 31
0.0
  0
LINE
  5
1D2
  8
DATA
  6
CONTINUOUS
 62
     7
 10
394.5
 20
188.5
 30
0.0
 11
394.5
 21
197.5
 31
0.0
  0
LINE
  5
1D3
  8
DATA
  6
CONTINUOUS
 62
     7
 10
395.0
 20
188.5
 30
0.0
 11
395.0
 21
197.5
 31
0.0
  0
LINE
  5
1D4
  8
DATA
  6
CONTINUOUS
 62
     7
 10
395.5
 20
188.5
 30
0.0
 11
395.5
 21
197.5
 31
0.0
  0
LINE
  5
1D5
  8
DATA
  6
CONTINUOUS
 62
     7
 10
396.0
 20
188.5
 30
0.0
 11
396.0
 21
197.5
 31
0.0
  0
LINE
  5
1D6
  8
DATA
  6
CONTINUOUS
 62
     7
 10
396.5
 20
188.5
 30
0.0
 11
396.5
 21
197.5
 31
0.0
  0
LINE
  5
1D7
  8
DATA
  6
CONTINUOUS
 62
     7
 10
397.0
 20
188.5
 30
0.0
 11
397.0
 21
197.5
 31
0.0
  0
LINE
  5
1D8
  8
DATA
  6
CONTINUOUS
 62
     7
 10
397.5
 20
188.5
 30
0.0
 11
397.5
 21
197.5
 31
0.0
  0
LINE
  5
1D9
  8
DATA
  6
CONTINUOUS
 62
     7
 10
398.0
 20
188.5
 30
0.0
 11
398.0
 21
197.5
 31
0.0
  0
LINE
  5
1DA
  8
DATA
  6
CONTINUOUS
 62
     7
 10
398.5
 20
188.5
 30
0.0
 11
398.5
 21
197.5
 31
0.0
  0
LINE
  5
1DB
  8
DATA
  6
CONTINUOUS
 62
     7
 10
399.0
 20
188.5
 30
0.0
 11
399.0
 21
197.5
 31
0.0
  0
LINE
  5
1DC
  8
DATA
  6
CONTINUOUS
 62
     7
 10
399.5
 20
188.5
 30
0.0
 11
399.5
 21
197.5
 31
0.0
  0
LINE
  5
1DD
  8
DATA
  6
CONTINUOUS
 62
     7
 10
400.0
 20
188.5
 30
0.0
 11
400.0
 21
197.5
 31
0.0
  0
LINE
  5
1DE
  8
DATA
  6
CONTINUOUS
 62
     7
 10
400.49999999999989
 20
188.5
 30
0.0
 11
400.49999999999989
 21
197.5
 31
0.0
  0
LINE
  5
1DF
  8
DATA
  6
CONTINUOUS
 62
     7
 10
401.0
 20
188.5
 30
0.0
 11
401.0
 21
197.5
 31
0.0
  0
LINE
  5
1E0
  8
DATA
  6
CONTINUOUS
 62
     7
 10
401.49999999999989
 20
188.5
 30
0.0
 11
401.49999999999989
 21
197.5
 31
0.0
  0
LINE
  5
1E1
  8
DATA
  6
CONTINUOUS
 62
     7
 10
416.5
 20
198.5
 30
0.0
 11
416.5
 21
200.0
 31
0.0
  0
LINE
  5
1E2
  8
DATA
  6
CONTINUOUS
 62
     7
 10
431.5
 20
198.5
 30
0.0
 11
431.5
 21
200.0
 31
0.0
  0
LINE
  5
1E3
  8
DATA
  6
CONTINUOUS
 62
     7
 10
416.5
 20
198.5
 30
0.0
 11
431.5
 21
198.5
 31
0.0
  0
LINE
  5
1E4
  8
DATA
  6
CONTINUOUS
 62
     7
 10
419.0
 20
194.0
 30
0.0
 11
419.0
 21
198.5
 31
0.0
  0
LINE
  5
1E5
  8
DATA
  6
CONTINUOUS
 62
     7
 10
429.0
 20
194.0
 30
0.0
 11
429.0
 21
198.5
 31
0.0
  0
LINE
  5
1E6
  8
DATA
  6
CONTINUOUS
 62
     7
 10
419.0
 20
194.0
 30
0.0
 11
429.0
 21
194.0
 31
0.0
  0
LINE
  5
1E7
  8
DATA
  6
CONTINUOUS
 62
     7
 10
42.0
 20
520.0
 30
0.0
 11
440.5
 21
520.0
 31
0.0
  0
LINE
  5
1E8
  8
DATA
  6
CONTINUOUS
 62
     7
 10
43.0
 20
520.0
 30
0.0
 11
42.0
 21
542.49999999999989
 31
0.0
  0
LINE
  5
1E9
  8
DATA
  6
CONTINUOUS
 62
     7
 10
32.0
 20
522.5
 30
0.0
 11
35.0
 21
542.49999999999989
 31
0.0
  0
LINE
  5
1EA
  8
DATA
  6
CONTINUOUS
 62
     7
 10
42.0
 20
542.49999999999989
 30
0.0
 11
35.0
 21
542.49999999999989
 31
0.0
  0
LINE
  5
1EB
  8
DATA
  6
CONTINUOUS
 62
     7
 10
43.0
 20
520.0
 30
0.0
 11
42.0
 21
520.0
 31
0.0
  0
ARC
  5
1EC
  8
DATA
  6
CONTINUOUS
 62
     7
 10
42.0
 20
518.0
 30
0.0
 40
2.0
 50
90.0
 51
180.0
  0
LINE
  5
1ED
  8
DATA
  6
CONTINUOUS
 62
     7
 10
439.5
 20
520.0
 30
0.0
 11
440.5
 21
542.49999999999989
 31
0.0
  0
LINE
  5
1EE
  8
DATA
  6
CONTINUOUS
 62
     7
 10
450.49999999999989
 20
522.5
 30
0.0
 11
447.5
 21
542.49999999999989
 31
0.0
  0
LINE
  5
1EF
  8
DATA
  6
CONTINUOUS
 62
     7
 10
440.5
 20
542.49999999999989
 30
0.0
 11
447.5
 21
542.49999999999989
 31
0.0
  0
LINE
  5
1F0
  8
DATA
  6
CONTINUOUS
 62
     7
 10
439.5
 20
520.0
 30
0.0
 11
440.5
 21
520.0
 31
0.0
  0
ARC
  5
1F1
  8
DATA
  6
CONTINUOUS
 62
     7
 10
440.5
 20
518.0
 30
0.0
 40
2.0
 50
0.0
 51
90.0
  0
CIRCLE
  5
1F2
  8
DATA
  6
CONTINUOUS
 62
     7
 10
47.0
 20
368.0
 30
0.0
 40
3.0000000000000062
  0
LINE
  5
1F3
  8
DATA
  6
CONTINUOUS
 62
     7
 10
45.58578643762695
 20
366.58578643762689
 30
0.0
 11
48.414213562373149
 21
369.41421356237311
 31
0.0
  0
LINE
  5
1F4
  8
DATA
  6
CONTINUOUS
 62
     7
 10
48.414213562373149
 20
366.58578643762689
 30
0.0
 11
45.585786437627
 21
369.41421356237311
 31
0.0
  0
CIRCLE
  5
1F5
  8
DATA
  6
CONTINUOUS
 62
     7
 10
47.0
 20
485.5
 30
0.0
 40
3.0000000000000062
  0
LINE
  5
1F6
  8
DATA
  6
CONTINUOUS
 62
     7
 10
45.58578643762695
 20
484.08578643762678
 30
0.0
 11
48.414213562373149
 21
486.91421356237299
 31
0.0
  0
LINE
  5
1F7
  8
DATA
  6
CONTINUOUS
 62
     7
 10
48.414213562373149
 20
484.08578643762678
 30
0.0
 11
45.585786437627
 21
486.91421356237299
 31
0.0
  0
CIRCLE
  5
1F8
  8
DATA
  6
CONTINUOUS
 62
     7
 10
47.0
 20
250.5
 30
0.0
 40
3.0000000000000062
  0
LINE
  5
1F9
  8
DATA
  6
CONTINUOUS
 62
     7
 10
45.58578643762695
 20
249.08578643762689
 30
0.0
 11
48.414213562373149
 21
251.91421356237299
 31
0.0
  0
LINE
  5
1FA
  8
DATA
  6
CONTINUOUS
 62
     7
 10
48.414213562373149
 20
249.08578643762689
 30
0.0
 11
45.585786437627
 21
251.91421356237311
 31
0.0
  0
CIRCLE
  5
1FB
  8
DATA
  6
CONTINUOUS
 62
     7
 10
435.5
 20
368.0
 30
0.0
 40
3.0000000000000062
  0
LINE
  5
1FC
  8
DATA
  6
CONTINUOUS
 62
     7
 10
436.91421356237299
 20
366.58578643762689
 30
0.0
 11
434.08578643762678
 21
369.41421356237311
 31
0.0
  0
LINE
  5
1FD
  8
DATA
  6
CONTINUOUS
 62
     7
 10
434.08578643762678
 20
366.58578643762689
 30
0.0
 11
436.91421356237299
 21
369.41421356237311
 31
0.0
  0
CIRCLE
  5
1FE
  8
DATA
  6
CONTINUOUS
 62
     7
 10
435.5
 20
485.5
 30
0.0
 40
3.0000000000000062
  0
LINE
  5
1FF
  8
DATA
  6
CONTINUOUS
 62
     7
 10
436.91421356237299
 20
484.08578643762678
 30
0.0
 11
434.08578643762678
 21
486.91421356237299
 31
0.0
  0
LINE
  5
200
  8
DATA
  6
CONTINUOUS
 62
     7
 10
434.08578643762678
 20
484.08578643762678
 30
0.0
 11
436.91421356237299
 21
486.91421356237299
 31
0.0
  0
CIRCLE
  5
201
  8
DATA
  6
CONTINUOUS
 62
     7
 10
435.5
 20
250.5
 30
0.0
 40
3.0000000000000062
  0
LINE
  5
202
  8
DATA
  6
CONTINUOUS
 62
     7
 10
436.91421356237299
 20
249.08578643762689
 30
0.0
 11
434.08578643762678
 21
251.91421356237299
 31
0.0
  0
LINE
  5
203
  8
DATA
  6
CONTINUOUS
 62
     7
 10
434.08578643762678
 20
249.08578643762689
 30
0.0
 11
436.91421356237299
 21
251.91421356237311
 31
0.0
  0
CIRCLE
  5
204
  8
DATA
  6
CONTINUOUS
 62
     7
 10
241.25
 20
225.0
 30
0.0
 40
3.0000000000000071
  0
LINE
  5
205
  8
DATA
  6
CONTINUOUS
 62
     7
 10
239.83578643762689
 20
223.58578643762681
 30
0.0
 11
242.66421356237311
 21
226.41421356237311
 31
0.0
  0
LINE
  5
206
  8
DATA
  6
CONTINUOUS
 62
     7
 10
242.66421356237319
 20
223.58578643762681
 30
0.0
 11
239.83578643762701
 21
226.41421356237311
 31
0.0
  0
CIRCLE
  5
207
  8
DATA
  6
CONTINUOUS
 62
     7
 10
332.25
 20
225.0
 30
0.0
 40
3.0000000000000071
  0
LINE
  5
208
  8
DATA
  6
CONTINUOUS
 62
     7
 10
330.83578643762701
 20
223.58578643762681
 30
0.0
 11
333.66421356237311
 21
226.41421356237311
 31
0.0
  0
LINE
  5
209
  8
DATA
  6
CONTINUOUS
 62
     7
 10
333.66421356237322
 20
223.58578643762681
 30
0.0
 11
330.83578643762701
 21
226.41421356237311
 31
0.0
  0
CIRCLE
  5
20A
  8
DATA
  6
CONTINUOUS
 62
     7
 10
150.25
 20
225.0
 30
0.0
 40
3.0000000000000071
  0
LINE
  5
20B
  8
DATA
  6
CONTINUOUS
 62
     7
 10
148.83578643762701
 20
223.58578643762681
 30
0.0
 11
151.66421356237311
 21
226.41421356237311
 31
0.0
  0
LINE
  5
20C
  8
DATA
  6
CONTINUOUS
 62
     7
 10
151.66421356237311
 20
223.58578643762681
 30
0.0
 11
148.83578643762701
 21
226.41421356237311
 31
0.0
  0
CIRCLE
  5
20D
  8
DATA
  6
CONTINUOUS
 62
     7
 10
241.25
 20
513.0
 30
0.0
 40
3.0000000000000071
  0
LINE
  5
20E
  8
DATA
  6
CONTINUOUS
 62
     7
 10
239.83578643762689
 20
511.58578643762689
 30
0.0
 11
242.66421356237311
 21
514.41421356237311
 31
0.0
  0
LINE
  5
20F
  8
DATA
  6
CONTINUOUS
 62
     7
 10
242.66421356237319
 20
511.58578643762689
 30
0.0
 11
239.83578643762701
 21
514.41421356237311
 31
0.0
  0
CIRCLE
  5
210
  8
DATA
  6
CONTINUOUS
 62
     7
 10
332.25
 20
513.0
 30
0.0
 40
3.0000000000000071
  0
LINE
  5
211
  8
DATA
  6
CONTINUOUS
 62
     7
 10
330.83578643762701
 20
511.58578643762689
 30
0.0
 11
333.66421356237311
 21
514.41421356237311
 31
0.0
  0
LINE
  5
212
  8
DATA
  6
CONTINUOUS
 62
     7
 10
333.66421356237322
 20
511.58578643762689
 30
0.0
 11
330.83578643762701
 21
514.41421356237311
 31
0.0
  0
CIRCLE
  5
213
  8
DATA
  6
CONTINUOUS
 62
     7
 10
150.25
 20
513.0
 30
0.0
 40
3.0000000000000071
  0
LINE
  5
214
  8
DATA
  6
CONTINUOUS
 62
     7
 10
148.83578643762701
 20
511.58578643762689
 30
0.0
 11
151.66421356237311
 21
514.41421356237311
 31
0.0
  0
LINE
  5
215
  8
DATA
  6
CONTINUOUS
 62
     7
 10
151.66421356237311
 20
511.58578643762689
 30
0.0
 11
148.83578643762701
 21
514.41421356237311
 31
0.0
  0
LINE
  5
216
  8
DATA
  6
CONTINUOUS
 62
     7
 10
181.0000000000004
 20
521.0
 30
0.0
 11
181.0000000000004
 21
520.0
 31
0.0
  0
LINE
  5
217
  8
DATA
  6
CONTINUOUS
 62
     7
 10
179.5
 20
521.0
 30
0.0
 11
179.5
 21
520.0
 31
0.0
  0
ARC
  5
218
  8
DATA
  6
CONTINUOUS
 62
     7
 10
181.97474487139161
 20
515.1256378215212
 30
0.0
 40
6.3743621784788127
 50
67.155334460625653
 51
112.8446655393743
  0
LINE
  5
219
  8
DATA
  6
CONTINUOUS
 62
     7
 10
199.5
 20
521.0
 30
0.0
 11
199.5
 21
520.0
 31
0.0
  0
LINE
  5
21A
  8
DATA
  6
CONTINUOUS
 62
     7
 10
204.44948974278319
 20
521.0
 30
0.0
 11
204.44948974278319
 21
520.0
 31
0.0
  0
ARC
  5
21B
  8
DATA
  6
CONTINUOUS
 62
     7
 10
201.97474487139161
 20
515.1256378215212
 30
0.0
 40
6.3743621784788127
 50
67.155334460625653
 51
112.8446655393743
  0
LINE
  5
21C
  8
DATA
  6
CONTINUOUS
 62
     7
 10
181.0000000000004
 20
521.0
 30
0.0
 11
189.5
 21
521.0
 31
0.0
  0
LINE
  5
21D
  8
DATA
  6
CONTINUOUS
 62
     7
 10
194.5
 20
521.0
 30
0.0
 11
199.5
 21
521.0
 31
0.0
  0
LINE
  5
21E
  8
DATA
  6
CONTINUOUS
 62
     7
 10
189.5
 20
524.5
 30
0.0
 11
189.5
 21
521.0
 31
0.0
  0
LINE
  5
21F
  8
DATA
  6
CONTINUOUS
 62
     7
 10
194.5
 20
524.5
 30
0.0
 11
194.5
 21
521.0
 31
0.0
  0
LINE
  5
220
  8
DATA
  6
CONTINUOUS
 62
     7
 10
187.0
 20
525.0
 30
0.0
 11
187.0
 21
524.5
 31
0.0
  0
LINE
  5
221
  8
DATA
  6
CONTINUOUS
 62
     7
 10
197.0
 20
525.0
 30
0.0
 11
197.0
 21
524.5
 31
0.0
  0
LINE
  5
222
  8
DATA
  6
CONTINUOUS
 62
     7
 10
187.0
 20
525.0
 30
0.0
 11
197.0
 21
525.0
 31
0.0
  0
LINE
  5
223
  8
DATA
  6
CONTINUOUS
 62
     7
 10
187.0
 20
524.5
 30
0.0
 11
197.0
 21
524.5
 31
0.0
  0
LINE
  5
224
  8
DATA
  6
CONTINUOUS
 62
     7
 10
236.0
 20
520.5
 30
0.0
 11
236.0
 21
520.0
 31
0.0
  0
LINE
  5
225
  8
DATA
  6
CONTINUOUS
 62
     7
 10
252.0
 20
520.5
 30
0.0
 11
252.0
 21
520.0
 31
0.0
  0
LINE
  5
226
  8
DATA
  6
CONTINUOUS
 62
     7
 10
236.0
 20
520.5
 30
0.0
 11
252.0
 21
520.5
 31
0.0
  0
LINE
  5
227
  8
DATA
  6
CONTINUOUS
 62
     7
 10
237.0717967697245
 20
522.5
 30
0.0
 11
237.0717967697245
 21
520.5
 31
0.0
  0
LINE
  5
228
  8
DATA
  6
CONTINUOUS
 62
     7
 10
250.92820323027561
 20
522.5
 30
0.0
 11
250.92820323027561
 21
520.5
 31
0.0
  0
LINE
  5
229
  8
DATA
  6
CONTINUOUS
 62
     7
 10
244.24999997814501
 20
522.5
 30
0.0
 11
244.24999997814501
 21
520.5
 31
0.0
  0
LINE
  5
22A
  8
DATA
  6
CONTINUOUS
 62
     7
 10
237.0717967697245
 20
522.5
 30
0.0
 11
250.92820323027561
 21
522.5
 31
0.0
  0
LINE
  5
22B
  8
DATA
  6
CONTINUOUS
 62
     7
 10
239.15000000000001
 20
524.0
 30
0.0
 11
239.15000000000001
 21
522.5
 31
0.0
  0
LINE
  5
22C
  8
DATA
  6
CONTINUOUS
 62
     7
 10
248.84999999999999
 20
524.0
 30
0.0
 11
248.84999999999999
 21
522.5
 31
0.0
  0
LINE
  5
22D
  8
DATA
  6
CONTINUOUS
 62
     7
 10
248.84999999999999
 20
524.0
 30
0.0
 11
239.15000000000001
 21
524.0
 31
0.0
  0
LINE
  5
22E
  8
DATA
  6
CONTINUOUS
 62
     7
 10
239.15000000000001
 20
522.5
 30
0.0
 11
248.84999999999999
 21
523.5
 31
0.0
  0
LINE
  5
22F
  8
DATA
  6
CONTINUOUS
 62
     7
 10
239.15000000000001
 20
523.5
 30
0.0
 11
244.5
 21
524.0
 31
0.0
  0
LINE
  5
230
  8
DATA
  6
CONTINUOUS
 62
     7
 10
258.75
 20
520.75
 30
0.0
 11
258.75
 21
520.0
 31
0.0
  0
LINE
  5
231
  8
DATA
  6
CONTINUOUS
 62
     7
 10
261.25
 20
520.75
 30
0.0
 11
261.25
 21
520.0
 31
0.0
  0
ARC
  5
232
  8
DATA
  6
CONTINUOUS
 62
     7
 10
260.0
 20
520.75
 30
0.0
 40
1.25
 50
359.99999999999937
 51
180.0000000000006
  0
LINE
  5
233
  8
DATA
  6
CONTINUOUS
 62
     7
 10
290.0
 20
521.0
 30
0.0
 11
290.0
 21
520.0
 31
0.0
  0
LINE
  5
234
  8
DATA
  6
CONTINUOUS
 62
     7
 10
271.5
 20
521.0
 30
0.0
 11
290.0
 21
521.0
 31
0.0
  0
LINE
  5
235
  8
DATA
  6
CONTINUOUS
 62
     7
 10
266.55051025721679
 20
521.0
 30
0.0
 11
266.55051025721679
 21
520.0
 31
0.0
  0
LINE
  5
236
  8
DATA
  6
CONTINUOUS
 62
     7
 10
271.5
 20
521.0
 30
0.0
 11
271.5
 21
520.0
 31
0.0
  0
ARC
  5
237
  8
DATA
  6
CONTINUOUS
 62
     7
 10
269.02525512860842
 20
515.1256378215212
 30
0.0
 40
6.3743621784788127
 50
67.155334460625653
 51
112.8446655393743
  0
LINE
  5
238
  8
DATA
  6
CONTINUOUS
 62
     7
 10
291.5
 20
521.0
 30
0.0
 11
291.5
 21
520.0
 31
0.0
  0
ARC
  5
239
  8
DATA
  6
CONTINUOUS
 62
     7
 10
289.02525512860842
 20
515.1256378215212
 30
0.0
 40
6.3743621784788127
 50
67.155334460625653
 51
112.8446655393743
  0
LINE
  5
23A
  8
DATA
  6
CONTINUOUS
 62
     7
 10
296.75
 20
520.75
 30
0.0
 11
296.75
 21
520.0
 31
0.0
  0
LINE
  5
23B
  8
DATA
  6
CONTINUOUS
 62
     7
 10
299.25
 20
520.75
 30
0.0
 11
299.25
 21
520.0
 31
0.0
  0
ARC
  5
23C
  8
DATA
  6
CONTINUOUS
 62
     7
 10
298.0
 20
520.75
 30
0.0
 40
1.25
 50
359.99999999999937
 51
180.0000000000006
  0
LINE
  5
23D
  8
DATA
  6
CONTINUOUS
 62
     7
 10
301.0
 20
520.5
 30
0.0
 11
317.0
 21
520.5
 31
0.0
  0
LINE
  5
23E
  8
DATA
  6
CONTINUOUS
 62
     7
 10
317.0
 20
522.50000000000011
 30
0.0
 11
317.0
 21
520.00000000000011
 31
0.0
  0
LINE
  5
23F
  8
DATA
  6
CONTINUOUS
 62
     7
 10
317.0
 20
522.50000000000011
 30
0.0
 11
301.00000000000011
 21
522.5
 31
0.0
  0
LINE
  5
240
  8
DATA
  6
CONTINUOUS
 62
     7
 10
303.25000000000011
 20
525.49999999999989
 30
0.0
 11
303.25000000000011
 21
522.5
 31
0.0
  0
LINE
  5
241
  8
DATA
  6
CONTINUOUS
 62
     7
 10
314.74999999999989
 20
525.49999999999989
 30
0.0
 11
314.74999999999989
 21
522.5
 31
0.0
  0
LINE
  5
242
  8
DATA
  6
CONTINUOUS
 62
     7
 10
303.25000000000011
 20
525.49999999999989
 30
0.0
 11
314.74999999999989
 21
525.49999999999989
 31
0.0
  0
LINE
  5
243
  8
DATA
  6
CONTINUOUS
 62
     7
 10
303.25000000000011
 20
525.0
 30
0.0
 11
314.74999999999989
 21
525.49999999999989
 31
0.0
  0
LINE
  5
244
  8
DATA
  6
CONTINUOUS
 62
     7
 10
303.25000000000011
 20
524.0
 30
0.0
 11
314.74999999999989
 21
524.5
 31
0.0
  0
LINE
  5
245
  8
DATA
  6
CONTINUOUS
 62
     7
 10
303.25000000000011
 20
523.00000000000011
 30
0.0
 11
314.74999999999989
 21
523.50000000000011
 31
0.0
  0
LINE
  5
246
  8
DATA
  6
CONTINUOUS
 62
     7
 10
304.15000000000009
 20
536.0
 30
0.0
 11
304.15000000000009
 21
525.49999999999989
 31
0.0
  0
LINE
  5
247
  8
DATA
  6
CONTINUOUS
 62
     7
 10
313.85000000000002
 20
536.0
 30
0.0
 11
313.85000000000002
 21
525.49999999999989
 31
0.0
  0
LINE
  5
248
  8
DATA
  6
CONTINUOUS
 62
     7
 10
304.15000000000009
 20
536.0
 30
0.0
 11
313.85000000000002
 21
536.0
 31
0.0
  0
LINE
  5
249
  8
DATA
  6
CONTINUOUS
 62
     7
 10
301.00000000000011
 20
522.5
 30
0.0
 11
301.00000000000011
 21
520.0
 31
0.0
  0
LINE
  5
24A
  8
DATA
  6
CONTINUOUS
 62
     7
 10
305.00000000000011
 20
522.5
 30
0.0
 11
305.00000000000011
 21
520.5
 31
0.0
  0
LINE
  5
24B
  8
DATA
  6
CONTINUOUS
 62
     7
 10
313.00000000000011
 20
522.5
 30
0.0
 11
313.00000000000011
 21
520.5
 31
0.0
  0
LINE
  5
24C
  8
DATA
  6
CONTINUOUS
 62
     7
 10
303.44999999999999
 20
532.5
 30
0.0
 11
303.44999999999999
 21
531.0
 31
0.0
  0
LINE
  5
24D
  8
DATA
  6
CONTINUOUS
 62
     7
 10
303.44999999999999
 20
531.0
 30
0.0
 11
304.15000000000009
 21
531.0
 31
0.0
  0
LINE
  5
24E
  8
DATA
  6
CONTINUOUS
 62
     7
 10
313.85000000000002
 20
531.0
 30
0.0
 11
314.55000000000001
 21
531.0
 31
0.0
  0
LINE
  5
24F
  8
DATA
  6
CONTINUOUS
 62
     7
 10
314.55000000000001
 20
532.5
 30
0.0
 11
314.55000000000001
 21
531.0
 31
0.0
  0
LINE
  5
250
  8
DATA
  6
CONTINUOUS
 62
     7
 10
303.44999999999999
 20
532.5
 30
0.0
 11
304.15000000000009
 21
532.5
 31
0.0
  0
LINE
  5
251
  8
DATA
  6
CONTINUOUS
 62
     7
 10
313.85000000000002
 20
532.5
 30
0.0
 11
314.55000000000001
 21
532.5
 31
0.0
  0
LINE
  5
252
  8
DATA
  6
CONTINUOUS
 62
     7
 10
350.0
 20
523.0
 30
0.0
 11
350.0
 21
520.0
 31
0.0
  0
LINE
  5
253
  8
DATA
  6
CONTINUOUS
 62
     7
 10
382.0
 20
523.0
 30
0.0
 11
382.0
 21
520.0
 31
0.0
  0
LINE
  5
254
  8
DATA
  6
CONTINUOUS
 62
     7
 10
404.0
 20
523.0
 30
0.0
 11
404.0
 21
520.0
 31
0.0
  0
LINE
  5
255
  8
DATA
  6
CONTINUOUS
 62
     7
 10
350.0
 20
523.0
 30
0.0
 11
404.0
 21
523.0
 31
0.0
  0
LINE
  5
256
  8
DATA
  6
CONTINUOUS
 62
     7
 10
572.5
 20
0.0
 30
0.0
 11
892.5
 21
0.0
 31
0.0
  0
LINE
  5
257
  8
DATA
  6
CONTINUOUS
 62
     7
 10
572.5
 20
43.500000000000107
 30
0.0
 11
892.49999999999966
 21
43.500000000000107
 31
0.0
  0
LINE
  5
258
  8
DATA
  6
CONTINUOUS
 62
     7
 10
550.0
 20
36.009676267692491
 30
0.0
 11
550.0
 21
7.490323732307389
 31
0.0
  0
LINE
  5
259
  8
DATA
  6
CONTINUOUS
 62
     7
 10
572.5
 20
43.500000000000107
 30
0.0
 11
572.5
 21
0.0
 31
0.0
  0
LINE
  5
25A
  8
DATA
  6
CONTINUOUS
 62
     7
 10
576.49999999999989
 20
43.500000000000107
 30
0.0
 11
576.49999999999989
 21
0.0
 31
0.0
  0
LINE
  5
25B
  8
DATA
  6
CONTINUOUS
 62
     7
 10
555.46876125829715
 20
41.986112111848563
 30
0.0
 11
572.5
 21
43.500000000000107
 31
0.0
  0
LINE
  5
25C
  8
DATA
  6
CONTINUOUS
 62
     7
 10
555.46876125829726
 20
1.513887888151316
 30
0.0
 11
572.5
 21
0.0
 31
0.0
  0
ARC
  5
25D
  8
DATA
  6
CONTINUOUS
 62
     7
 10
556.0
 20
36.009676267692612
 30
0.0
 40
5.9999999999998437
 50
95.079607860015244
 51
180.00000000000111
  0
ARC
  5
25E
  8
DATA
  6
CONTINUOUS
 62
     7
 10
556.0
 20
7.490323732307389
 30
0.0
 40
6.0000000000000284
 50
180.0
 51
264.9203921399851
  0
LINE
  5
25F
  8
DATA
  6
CONTINUOUS
 62
     7
 10
556.0
 20
33.26451440153869
 30
0.0
 11
556.0
 21
10.235485598461191
 31
0.0
  0
LINE
  5
260
  8
DATA
  6
CONTINUOUS
 62
     7
 10
558.73438062914863
 20
36.252732323616783
 30
0.0
 11
572.5
 21
37.476342934359302
 31
0.0
  0
LINE
  5
261
  8
DATA
  6
CONTINUOUS
 62
     7
 10
558.73438062914863
 20
7.2472676763831023
 30
0.0
 11
572.5
 21
6.0236570656408039
 31
0.0
  0
ARC
  5
262
  8
DATA
  6
CONTINUOUS
 62
     7
 10
559.0
 20
33.26451440153869
 30
0.0
 40
3.0000000000000342
 50
95.079607860014761
 51
180.0
  0
ARC
  5
263
  8
DATA
  6
CONTINUOUS
 62
     7
 10
559.0
 20
10.235485598461191
 30
0.0
 40
3.0
 50
180.0
 51
264.92039213998572
  0
LINE
  5
264
  8
DATA
  6
CONTINUOUS
 62
     7
 10
452.5
 20
37.476342934359302
 30
0.0
 11
447.0
 21
37.476342934359302
 31
0.0
  0
LINE
  5
265
  8
DATA
  6
CONTINUOUS
 62
     7
 10
452.5
 20
6.0236570656408039
 30
0.0
 11
447.0
 21
6.0236570656408039
 31
0.0
  0
LINE
  5
266
  8
DATA
  6
CONTINUOUS
 62
     7
 10
35.5
 20
6.0236570656408039
 30
0.0
 11
30.0
 21
6.0236570656408039
 31
0.0
  0
LINE
  5
267
  8
DATA
  6
CONTINUOUS
 62
     7
 10
35.5
 20
37.476342934359302
 30
0.0
 11
30.0
 21
37.476342934359302
 31
0.0
  0
LINE
  5
268
  8
DATA
  6
CONTINUOUS
 62
     7
 10
915.0
 20
36.009676267692612
 30
0.0
 11
915.0
 21
7.4903237323075
 31
0.0
  0
LINE
  5
269
  8
DATA
  6
CONTINUOUS
 62
     7
 10
895.5
 20
7.0
 30
0.0
 11
895.5
 21
36.500000000000107
 31
0.0
  0
LINE
  5
26A
  8
DATA
  6
CONTINUOUS
 62
     7
 10
892.5
 20
43.500000000000107
 30
0.0
 11
909.53123874170285
 21
41.98611211184879
 31
0.0
  0
LINE
  5
26B
  8
DATA
  6
CONTINUOUS
 62
     7
 10
892.5
 20
0.0
 30
0.0
 11
909.53123874170285
 21
1.5138878881514299
 31
0.0
  0
LINE
  5
26C
  8
DATA
  6
CONTINUOUS
 62
     7
 10
909.0
 20
36.500000000000107
 30
0.0
 11
909.0
 21
7.0
 31
0.0
  0
ARC
  5
26D
  8
DATA
  6
CONTINUOUS
 62
     7
 10
909.0
 20
36.009676267692612
 30
0.0
 40
5.9999999999999432
 50
0.0
 51
84.920392139985779
  0
ARC
  5
26E
  8
DATA
  6
CONTINUOUS
 62
     7
 10
909.0
 20
7.4903237323076137
 30
0.0
 40
6.0000000000000684
 50
275.07960786001479
 51
359.99999999999881
  0
LINE
  5
26F
  8
DATA
  6
CONTINUOUS
 62
     7
 10
588.49999999999989
 20
43.500000000000107
 30
0.0
 11
588.49999999999989
 21
39.500000000000107
 31
0.0
  0
LINE
  5
270
  8
DATA
  6
CONTINUOUS
 62
     7
 10
588.49999999999989
 20
4.0
 30
0.0
 11
588.49999999999989
 21
0.0
 31
0.0
  0
LINE
  5
271
  8
DATA
  6
CONTINUOUS
 62
     7
 10
906.0
 20
4.0
 30
0.0
 11
898.49999999999989
 21
4.0
 31
0.0
  0
LINE
  5
272
  8
DATA
  6
CONTINUOUS
 62
     7
 10
898.49999999999989
 20
4.0
 30
0.0
 11
576.49999999999989
 21
4.0
 31
0.0
  0
LINE
  5
273
  8
DATA
  6
CONTINUOUS
 62
     7
 10
906.0
 20
39.500000000000107
 30
0.0
 11
898.49999999999989
 21
39.500000000000107
 31
0.0
  0
LINE
  5
274
  8
DATA
  6
CONTINUOUS
 62
     7
 10
898.49999999999989
 20
39.500000000000107
 30
0.0
 11
576.49999999999989
 21
39.500000000000107
 31
0.0
  0
ARC
  5
275
  8
DATA
  6
CONTINUOUS
 62
     7
 10
906.0
 20
36.500000000000107
 30
0.0
 40
3.0
 50
0.0
 51
90.0
  0
ARC
  5
276
  8
DATA
  6
CONTINUOUS
 62
     7
 10
906.0
 20
7.0
 30
0.0
 40
3.0
 50
270.0
 51
0.0
  0
ARC
  5
277
  8
DATA
  6
CONTINUOUS
 62
     7
 10
898.49999999999989
 20
36.500000000000107
 30
0.0
 40
3.0
 50
90.0
 51
180.0
  0
ARC
  5
278
  8
DATA
  6
CONTINUOUS
 62
     7
 10
898.49999999999989
 20
7.0
 30
0.0
 40
3.0
 50
180.0
 51
270.0
  0
LINE
  5
279
  8
DATA
  6
CONTINUOUS
 62
     7
 10
617.0
 20
32.75
 30
0.0
 11
617.0
 21
10.75
 31
0.0
  0
LINE
  5
27A
  8
DATA
  6
CONTINUOUS
 62
     7
 10
620.4000000000002
 20
32.75
 30
0.0
 11
620.4000000000002
 21
10.75
 31
0.0
  0
ARC
  5
27B
  8
DATA
  6
CONTINUOUS
 62
     7
 10
618.70000000000016
 20
32.75
 30
0.0
 40
1.700000000000045
 50
0.0
 51
180.0
  0
ARC
  5
27C
  8
DATA
  6
CONTINUOUS
 62
     7
 10
618.70000000000016
 20
10.75
 30
0.0
 40
1.7000000000000171
 50
180.0
 51
0.0
  0
LINE
  5
27D
  8
DATA
  6
CONTINUOUS
 62
     7
 10
624.5
 20
32.75
 30
0.0
 11
624.5
 21
10.75
 31
0.0
  0
LINE
  5
27E
  8
DATA
  6
CONTINUOUS
 62
     7
 10
627.9000000000002
 20
32.75
 30
0.0
 11
627.9000000000002
 21
10.75
 31
0.0
  0
ARC
  5
27F
  8
DATA
  6
CONTINUOUS
 62
     7
 10
626.20000000000005
 20
32.75
 30
0.0
 40
1.700000000000045
 50
0.0
 51
180.0
  0
ARC
  5
280
  8
DATA
  6
CONTINUOUS
 62
     7
 10
626.20000000000005
 20
10.75
 30
0.0
 40
1.7000000000000171
 50
180.0
 51
0.0
  0
LINE
  5
281
  8
DATA
  6
CONTINUOUS
 62
     7
 10
632.0
 20
32.75
 30
0.0
 11
632.0
 21
10.75
 31
0.0
  0
LINE
  5
282
  8
DATA
  6
CONTINUOUS
 62
     7
 10
635.40000000000009
 20
32.75
 30
0.0
 11
635.40000000000009
 21
10.75
 31
0.0
  0
ARC
  5
283
  8
DATA
  6
CONTINUOUS
 62
     7
 10
633.70000000000005
 20
32.75
 30
0.0
 40
1.700000000000045
 50
0.0
 51
180.0
  0
ARC
  5
284
  8
DATA
  6
CONTINUOUS
 62
     7
 10
633.70000000000005
 20
10.75
 30
0.0
 40
1.7000000000000171
 50
180.0
 51
0.0
  0
LINE
  5
285
  8
DATA
  6
CONTINUOUS
 62
     7
 10
639.5
 20
32.75
 30
0.0
 11
639.5
 21
10.75
 31
0.0
  0
LINE
  5
286
  8
DATA
  6
CONTINUOUS
 62
     7
 10
642.9000000000002
 20
32.75
 30
0.0
 11
642.9000000000002
 21
10.75
 31
0.0
  0
ARC
  5
287
  8
DATA
  6
CONTINUOUS
 62
     7
 10
641.20000000000005
 20
32.75
 30
0.0
 40
1.700000000000045
 50
0.0
 51
180.0
  0
ARC
  5
288
  8
DATA
  6
CONTINUOUS
 62
     7
 10
641.20000000000005
 20
10.75
 30
0.0
 40
1.7000000000000171
 50
180.0
 51
0.0
  0
LINE
  5
289
  8
DATA
  6
CONTINUOUS
 62
     7
 10
646.49999999999989
 20
32.199999999999932
 30
0.0
 11
646.49999999999989
 21
11.299999999999949
 31
0.0
  0
LINE
  5
28A
  8
DATA
  6
CONTINUOUS
 62
     7
 10
651.0
 20
32.199999999999932
 30
0.0
 11
651.0
 21
11.299999999999949
 31
0.0
  0
ARC
  5
28B
  8
DATA
  6
CONTINUOUS
 62
     7
 10
648.74999999999989
 20
32.199999999999932
 30
0.0
 40
2.25
 50
0.0
 51
180.0
  0
ARC
  5
28C
  8
DATA
  6
CONTINUOUS
 62
     7
 10
648.74999999999989
 20
11.299999999999949
 30
0.0
 40
2.25
 50
180.0
 51
0.0
  0
LINE
  5
28D
  8
DATA
  6
CONTINUOUS
 62
     7
 10
654.20000000000005
 20
32.199999999999932
 30
0.0
 11
654.20000000000005
 21
11.299999999999949
 31
0.0
  0
LINE
  5
28E
  8
DATA
  6
CONTINUOUS
 62
     7
 10
658.70000000000005
 20
32.199999999999932
 30
0.0
 11
658.70000000000005
 21
11.299999999999949
 31
0.0
  0
ARC
  5
28F
  8
DATA
  6
CONTINUOUS
 62
     7
 10
656.45000000000005
 20
32.199999999999932
 30
0.0
 40
2.25
 50
0.0
 51
180.0
  0
ARC
  5
290
  8
DATA
  6
CONTINUOUS
 62
     7
 10
656.45000000000005
 20
11.299999999999949
 30
0.0
 40
2.25
 50
180.0
 51
0.0
  0
LINE
  5
291
  8
DATA
  6
CONTINUOUS
 62
     7
 10
661.89999999999986
 20
32.199999999999932
 30
0.0
 11
661.89999999999986
 21
11.299999999999949
 31
0.0
  0
LINE
  5
292
  8
DATA
  6
CONTINUOUS
 62
     7
 10
666.39999999999986
 20
32.199999999999932
 30
0.0
 11
666.39999999999986
 21
11.299999999999949
 31
0.0
  0
ARC
  5
293
  8
DATA
  6
CONTINUOUS
 62
     7
 10
664.14999999999986
 20
32.199999999999932
 30
0.0
 40
2.25
 50
0.0
 51
180.0
  0
ARC
  5
294
  8
DATA
  6
CONTINUOUS
 62
     7
 10
664.14999999999986
 20
11.299999999999949
 30
0.0
 40
2.249999999999972
 50
180.0
 51
0.0
  0
LINE
  5
295
  8
DATA
  6
CONTINUOUS
 62
     7
 10
669.60000000000002
 20
32.199999999999932
 30
0.0
 11
669.60000000000002
 21
11.299999999999949
 31
0.0
  0
LINE
  5
296
  8
DATA
  6
CONTINUOUS
 62
     7
 10
674.10000000000002
 20
32.199999999999932
 30
0.0
 11
674.10000000000002
 21
11.299999999999949
 31
0.0
  0
ARC
  5
297
  8
DATA
  6
CONTINUOUS
 62
     7
 10
671.85000000000002
 20
32.199999999999932
 30
0.0
 40
2.25
 50
0.0
 51
180.0
  0
ARC
  5
298
  8
DATA
  6
CONTINUOUS
 62
     7
 10
671.85000000000002
 20
11.299999999999949
 30
0.0
 40
2.25
 50
180.0
 51
0.0
  0
LINE
  5
299
  8
DATA
  6
CONTINUOUS
 62
     7
 10
677.29999999999995
 20
32.199999999999932
 30
0.0
 11
677.29999999999995
 21
11.299999999999949
 31
0.0
  0
LINE
  5
29A
  8
DATA
  6
CONTINUOUS
 62
     7
 10
681.79999999999995
 20
32.199999999999932
 30
0.0
 11
681.79999999999995
 21
11.299999999999949
 31
0.0
  0
ARC
  5
29B
  8
DATA
  6
CONTINUOUS
 62
     7
 10
679.54999999999995
 20
32.199999999999932
 30
0.0
 40
2.25
 50
0.0
 51
180.0
  0
ARC
  5
29C
  8
DATA
  6
CONTINUOUS
 62
     7
 10
679.54999999999995
 20
11.299999999999949
 30
0.0
 40
2.25
 50
180.0
 51
0.0
  0
LINE
  5
29D
  8
DATA
  6
CONTINUOUS
 62
     7
 10
685.0
 20
32.199999999999932
 30
0.0
 11
685.0
 21
11.299999999999949
 31
0.0
  0
LINE
  5
29E
  8
DATA
  6
CONTINUOUS
 62
     7
 10
689.5
 20
32.199999999999932
 30
0.0
 11
689.5
 21
11.299999999999949
 31
0.0
  0
ARC
  5
29F
  8
DATA
  6
CONTINUOUS
 62
     7
 10
687.25
 20
32.199999999999932
 30
0.0
 40
2.25
 50
0.0
 51
180.0
  0
ARC
  5
2A0
  8
DATA
  6
CONTINUOUS
 62
     7
 10
687.25
 20
11.299999999999949
 30
0.0
 40
2.25
 50
180.0
 51
0.0
  0
LINE
  5
2A1
  8
DATA
  6
CONTINUOUS
 62
     7
 10
692.70000000000005
 20
32.199999999999932
 30
0.0
 11
692.70000000000005
 21
11.299999999999949
 31
0.0
  0
LINE
  5
2A2
  8
DATA
  6
CONTINUOUS
 62
     7
 10
697.20000000000005
 20
32.199999999999932
 30
0.0
 11
697.20000000000005
 21
11.299999999999949
 31
0.0
  0
ARC
  5
2A3
  8
DATA
  6
CONTINUOUS
 62
     7
 10
694.95000000000005
 20
32.199999999999932
 30
0.0
 40
2.25
 50
0.0
 51
180.0
  0
ARC
  5
2A4
  8
DATA
  6
CONTINUOUS
 62
     7
 10
694.95000000000005
 20
11.299999999999949
 30
0.0
 40
2.25
 50
180.0
 51
0.0
  0
LINE
  5
2A5
  8
DATA
  6
CONTINUOUS
 62
     7
 10
700.49999999999989
 20
32.75
 30
0.0
 11
700.49999999999989
 21
10.75
 31
0.0
  0
LINE
  5
2A6
  8
DATA
  6
CONTINUOUS
 62
     7
 10
703.9000000000002
 20
32.75
 30
0.0
 11
703.9000000000002
 21
10.75
 31
0.0
  0
ARC
  5
2A7
  8
DATA
  6
CONTINUOUS
 62
     7
 10
702.20000000000016
 20
32.75
 30
0.0
 40
1.700000000000045
 50
0.0
 51
180.0
  0
ARC
  5
2A8
  8
DATA
  6
CONTINUOUS
 62
     7
 10
702.20000000000016
 20
10.75
 30
0.0
 40
1.699999999999988
 50
180.0
 51
0.0
  0
LINE
  5
2A9
  8
DATA
  6
CONTINUOUS
 62
     7
 10
708.10000000000014
 20
32.75
 30
0.0
 11
708.10000000000014
 21
10.75
 31
0.0
  0
LINE
  5
2AA
  8
DATA
  6
CONTINUOUS
 62
     7
 10
711.5
 20
32.75
 30
0.0
 11
711.5
 21
10.75
 31
0.0
  0
ARC
  5
2AB
  8
DATA
  6
CONTINUOUS
 62
     7
 10
709.80000000000007
 20
32.75
 30
0.0
 40
1.700000000000045
 50
0.0
 51
180.0
  0
ARC
  5
2AC
  8
DATA
  6
CONTINUOUS
 62
     7
 10
709.80000000000007
 20
10.75
 30
0.0
 40
1.699999999999988
 50
180.0
 51
0.0
  0
LINE
  5
2AD
  8
DATA
  6
CONTINUOUS
 62
     7
 10
715.70000000000005
 20
32.75
 30
0.0
 11
715.70000000000005
 21
10.75
 31
0.0
  0
LINE
  5
2AE
  8
DATA
  6
CONTINUOUS
 62
     7
 10
719.10000000000002
 20
32.75
 30
0.0
 11
719.10000000000002
 21
10.75
 31
0.0
  0
ARC
  5
2AF
  8
DATA
  6
CONTINUOUS
 62
     7
 10
717.4000000000002
 20
32.75
 30
0.0
 40
1.700000000000045
 50
0.0
 51
180.0
  0
ARC
  5
2B0
  8
DATA
  6
CONTINUOUS
 62
     7
 10
717.4000000000002
 20
10.75
 30
0.0
 40
1.699999999999988
 50
180.0
 51
0.0
  0
LINE
  5
2B1
  8
DATA
  6
CONTINUOUS
 62
     7
 10
723.29999999999995
 20
32.75
 30
0.0
 11
723.29999999999995
 21
10.75
 31
0.0
  0
LINE
  5
2B2
  8
DATA
  6
CONTINUOUS
 62
     7
 10
726.70000000000005
 20
32.75
 30
0.0
 11
726.70000000000005
 21
10.75
 31
0.0
  0
ARC
  5
2B3
  8
DATA
  6
CONTINUOUS
 62
     7
 10
725.0
 20
32.75
 30
0.0
 40
1.700000000000045
 50
0.0
 51
180.0
  0
ARC
  5
2B4
  8
DATA
  6
CONTINUOUS
 62
     7
 10
725.0
 20
10.75
 30
0.0
 40
1.699999999999988
 50
180.0
 51
0.0
  0
LINE
  5
2B5
  8
DATA
  6
CONTINUOUS
 62
     7
 10
730.90000000000009
 20
32.75
 30
0.0
 11
730.90000000000009
 21
10.75
 31
0.0
  0
LINE
  5
2B6
  8
DATA
  6
CONTINUOUS
 62
     7
 10
734.29999999999984
 20
32.75
 30
0.0
 11
734.29999999999984
 21
10.75
 31
0.0
  0
ARC
  5
2B7
  8
DATA
  6
CONTINUOUS
 62
     7
 10
732.60000000000002
 20
32.75
 30
0.0
 40
1.700000000000045
 50
0.0
 51
180.0
  0
ARC
  5
2B8
  8
DATA
  6
CONTINUOUS
 62
     7
 10
732.60000000000002
 20
10.75
 30
0.0
 40
1.699999999999988
 50
180.0
 51
0.0
  0
LINE
  5
2B9
  8
DATA
  6
CONTINUOUS
 62
     7
 10
738.49999999999989
 20
32.75
 30
0.0
 11
738.49999999999989
 21
10.75
 31
0.0
  0
LINE
  5
2BA
  8
DATA
  6
CONTINUOUS
 62
     7
 10
741.9000000000002
 20
32.75
 30
0.0
 11
741.9000000000002
 21
10.75
 31
0.0
  0
ARC
  5
2BB
  8
DATA
  6
CONTINUOUS
 62
     7
 10
740.20000000000005
 20
32.75
 30
0.0
 40
1.700000000000045
 50
0.0
 51
180.0
  0
ARC
  5
2BC
  8
DATA
  6
CONTINUOUS
 62
     7
 10
740.20000000000005
 20
10.75
 30
0.0
 40
1.699999999999988
 50
180.0
 51
0.0
  0
LINE
  5
2BD
  8
DATA
  6
CONTINUOUS
 62
     7
 10
746.10000000000014
 20
32.75
 30
0.0
 11
746.10000000000014
 21
10.75
 31
0.0
  0
LINE
  5
2BE
  8
DATA
  6
CONTINUOUS
 62
     7
 10
749.5
 20
32.75
 30
0.0
 11
749.5
 21
10.75
 31
0.0
  0
ARC
  5
2BF
  8
DATA
  6
CONTINUOUS
 62
     7
 10
747.79999999999995
 20
32.75
 30
0.0
 40
1.700000000000045
 50
0.0
 51
180.0
  0
ARC
  5
2C0
  8
DATA
  6
CONTINUOUS
 62
     7
 10
747.79999999999995
 20
10.75
 30
0.0
 40
1.699999999999988
 50
180.0
 51
0.0
  0
LINE
  5
2C1
  8
DATA
  6
CONTINUOUS
 62
     7
 10
753.70000000000005
 20
32.75
 30
0.0
 11
753.70000000000005
 21
10.75
 31
0.0
  0
LINE
  5
2C2
  8
DATA
  6
CONTINUOUS
 62
     7
 10
757.10000000000002
 20
32.75
 30
0.0
 11
757.10000000000002
 21
10.75
 31
0.0
  0
ARC
  5
2C3
  8
DATA
  6
CONTINUOUS
 62
     7
 10
755.4000000000002
 20
32.75
 30
0.0
 40
1.700000000000045
 50
0.0
 51
180.0
  0
ARC
  5
2C4
  8
DATA
  6
CONTINUOUS
 62
     7
 10
755.4000000000002
 20
10.75
 30
0.0
 40
1.699999999999988
 50
180.0
 51
0.0
  0
LINE
  5
2C5
  8
DATA
  6
CONTINUOUS
 62
     7
 10
761.29999999999995
 20
32.75
 30
0.0
 11
761.29999999999995
 21
10.75
 31
0.0
  0
LINE
  5
2C6
  8
DATA
  6
CONTINUOUS
 62
     7
 10
764.70000000000005
 20
32.75
 30
0.0
 11
764.70000000000005
 21
10.75
 31
0.0
  0
ARC
  5
2C7
  8
DATA
  6
CONTINUOUS
 62
     7
 10
763.0
 20
32.75
 30
0.0
 40
1.700000000000045
 50
0.0
 51
180.0
  0
ARC
  5
2C8
  8
DATA
  6
CONTINUOUS
 62
     7
 10
763.0
 20
10.75
 30
0.0
 40
1.699999999999988
 50
180.0
 51
0.0
  0
LINE
  5
2C9
  8
DATA
  6
CONTINUOUS
 62
     7
 10
768.90000000000009
 20
32.75
 30
0.0
 11
768.90000000000009
 21
10.75
 31
0.0
  0
LINE
  5
2CA
  8
DATA
  6
CONTINUOUS
 62
     7
 10
772.29999999999984
 20
32.75
 30
0.0
 11
772.29999999999984
 21
10.75
 31
0.0
  0
ARC
  5
2CB
  8
DATA
  6
CONTINUOUS
 62
     7
 10
770.60000000000014
 20
32.75
 30
0.0
 40
1.700000000000045
 50
0.0
 51
180.0
  0
ARC
  5
2CC
  8
DATA
  6
CONTINUOUS
 62
     7
 10
770.60000000000014
 20
10.75
 30
0.0
 40
1.700000000000045
 50
180.0
 51
0.0
  0
LINE
  5
2CD
  8
DATA
  6
CONTINUOUS
 62
     7
 10
776.5
 20
32.75
 30
0.0
 11
776.5
 21
10.75
 31
0.0
  0
LINE
  5
2CE
  8
DATA
  6
CONTINUOUS
 62
     7
 10
779.9000000000002
 20
32.75
 30
0.0
 11
779.9000000000002
 21
10.75
 31
0.0
  0
ARC
  5
2CF
  8
DATA
  6
CONTINUOUS
 62
     7
 10
778.20000000000005
 20
32.75
 30
0.0
 40
1.700000000000045
 50
0.0
 51
180.0
  0
ARC
  5
2D0
  8
DATA
  6
CONTINUOUS
 62
     7
 10
778.20000000000005
 20
10.75
 30
0.0
 40
1.699999999999988
 50
180.0
 51
0.0
  0
LINE
  5
2D1
  8
DATA
  6
CONTINUOUS
 62
     7
 10
784.10000000000014
 20
32.75
 30
0.0
 11
784.10000000000014
 21
10.75
 31
0.0
  0
LINE
  5
2D2
  8
DATA
  6
CONTINUOUS
 62
     7
 10
787.5
 20
32.75
 30
0.0
 11
787.5
 21
10.75
 31
0.0
  0
ARC
  5
2D3
  8
DATA
  6
CONTINUOUS
 62
     7
 10
785.79999999999984
 20
32.75
 30
0.0
 40
1.700000000000045
 50
0.0
 51
180.0
  0
ARC
  5
2D4
  8
DATA
  6
CONTINUOUS
 62
     7
 10
785.79999999999984
 20
10.75
 30
0.0
 40
1.6999999999999309
 50
180.0
 51
0.0
  0
LINE
  5
2D5
  8
DATA
  6
CONTINUOUS
 62
     7
 10
791.70000000000005
 20
32.75
 30
0.0
 11
791.70000000000005
 21
10.75
 31
0.0
  0
LINE
  5
2D6
  8
DATA
  6
CONTINUOUS
 62
     7
 10
795.10000000000002
 20
32.75
 30
0.0
 11
795.10000000000002
 21
10.75
 31
0.0
  0
ARC
  5
2D7
  8
DATA
  6
CONTINUOUS
 62
     7
 10
793.40000000000009
 20
32.75
 30
0.0
 40
1.700000000000045
 50
0.0
 51
180.0
  0
ARC
  5
2D8
  8
DATA
  6
CONTINUOUS
 62
     7
 10
793.40000000000009
 20
10.75
 30
0.0
 40
1.699999999999988
 50
180.0
 51
0.0
  0
LINE
  5
2D9
  8
DATA
  6
CONTINUOUS
 62
     7
 10
799.29999999999984
 20
32.75
 30
0.0
 11
799.29999999999984
 21
10.75
 31
0.0
  0
LINE
  5
2DA
  8
DATA
  6
CONTINUOUS
 62
     7
 10
802.70000000000005
 20
32.75
 30
0.0
 11
802.70000000000005
 21
10.75
 31
0.0
  0
ARC
  5
2DB
  8
DATA
  6
CONTINUOUS
 62
     7
 10
801.0
 20
32.75
 30
0.0
 40
1.700000000000045
 50
0.0
 51
180.0
  0
ARC
  5
2DC
  8
DATA
  6
CONTINUOUS
 62
     7
 10
801.0
 20
10.75
 30
0.0
 40
1.700000000000045
 50
180.0
 51
0.0
  0
LINE
  5
2DD
  8
DATA
  6
CONTINUOUS
 62
     7
 10
806.9000000000002
 20
32.75
 30
0.0
 11
806.9000000000002
 21
10.75
 31
0.0
  0
LINE
  5
2DE
  8
DATA
  6
CONTINUOUS
 62
     7
 10
810.29999999999973
 20
32.75
 30
0.0
 11
810.29999999999973
 21
10.75
 31
0.0
  0
ARC
  5
2DF
  8
DATA
  6
CONTINUOUS
 62
     7
 10
808.60000000000002
 20
32.75
 30
0.0
 40
1.700000000000045
 50
0.0
 51
180.0
  0
ARC
  5
2E0
  8
DATA
  6
CONTINUOUS
 62
     7
 10
808.60000000000002
 20
10.75
 30
0.0
 40
1.699999999999988
 50
180.0
 51
0.0
  0
LINE
  5
2E1
  8
DATA
  6
CONTINUOUS
 62
     7
 10
814.49999999999989
 20
32.75
 30
0.0
 11
814.49999999999989
 21
10.75
 31
0.0
  0
LINE
  5
2E2
  8
DATA
  6
CONTINUOUS
 62
     7
 10
817.9000000000002
 20
32.75
 30
0.0
 11
817.9000000000002
 21
10.75
 31
0.0
  0
ARC
  5
2E3
  8
DATA
  6
CONTINUOUS
 62
     7
 10
816.20000000000005
 20
32.75
 30
0.0
 40
1.700000000000045
 50
0.0
 51
180.0
  0
ARC
  5
2E4
  8
DATA
  6
CONTINUOUS
 62
     7
 10
816.20000000000005
 20
10.75
 30
0.0
 40
1.6999999999999309
 50
180.0
 51
0.0
  0
LINE
  5
2E5
  8
DATA
  6
CONTINUOUS
 62
     7
 10
822.10000000000002
 20
32.75
 30
0.0
 11
822.10000000000002
 21
10.75
 31
0.0
  0
LINE
  5
2E6
  8
DATA
  6
CONTINUOUS
 62
     7
 10
825.5
 20
32.75
 30
0.0
 11
825.5
 21
10.75
 31
0.0
  0
ARC
  5
2E7
  8
DATA
  6
CONTINUOUS
 62
     7
 10
823.79999999999973
 20
32.75
 30
0.0
 40
1.700000000000045
 50
0.0
 51
180.0
  0
ARC
  5
2E8
  8
DATA
  6
CONTINUOUS
 62
     7
 10
823.79999999999973
 20
10.75
 30
0.0
 40
1.699999999999988
 50
180.0
 51
0.0
  0
LINE
  5
2E9
  8
DATA
  6
CONTINUOUS
 62
     7
 10
829.70000000000005
 20
32.75
 30
0.0
 11
829.70000000000005
 21
10.75
 31
0.0
  0
LINE
  5
2EA
  8
DATA
  6
CONTINUOUS
 62
     7
 10
833.09999999999968
 20
32.75
 30
0.0
 11
833.09999999999968
 21
10.75
 31
0.0
  0
ARC
  5
2EB
  8
DATA
  6
CONTINUOUS
 62
     7
 10
831.40000000000009
 20
32.75
 30
0.0
 40
1.700000000000045
 50
0.0
 51
180.0
  0
ARC
  5
2EC
  8
DATA
  6
CONTINUOUS
 62
     7
 10
831.40000000000009
 20
10.75
 30
0.0
 40
1.700000000000045
 50
180.0
 51
0.0
  0
LINE
  5
2ED
  8
DATA
  6
CONTINUOUS
 62
     7
 10
837.29999999999995
 20
32.75
 30
0.0
 11
837.29999999999995
 21
10.75
 31
0.0
  0
LINE
  5
2EE
  8
DATA
  6
CONTINUOUS
 62
     7
 10
840.70000000000005
 20
32.75
 30
0.0
 11
840.70000000000005
 21
10.75
 31
0.0
  0
ARC
  5
2EF
  8
DATA
  6
CONTINUOUS
 62
     7
 10
839.0
 20
32.75
 30
0.0
 40
1.700000000000045
 50
0.0
 51
180.0
  0
ARC
  5
2F0
  8
DATA
  6
CONTINUOUS
 62
     7
 10
839.0
 20
10.75
 30
0.0
 40
1.699999999999988
 50
180.0
 51
0.0
  0
LINE
  5
2F1
  8
DATA
  6
CONTINUOUS
 62
     7
 10
844.90000000000009
 20
32.75
 30
0.0
 11
844.90000000000009
 21
10.75
 31
0.0
  0
LINE
  5
2F2
  8
DATA
  6
CONTINUOUS
 62
     7
 10
848.29999999999984
 20
32.75
 30
0.0
 11
848.29999999999984
 21
10.75
 31
0.0
  0
ARC
  5
2F3
  8
DATA
  6
CONTINUOUS
 62
     7
 10
846.59999999999968
 20
32.75
 30
0.0
 40
1.700000000000045
 50
0.0
 51
180.0
  0
ARC
  5
2F4
  8
DATA
  6
CONTINUOUS
 62
     7
 10
846.59999999999968
 20
10.75
 30
0.0
 40
1.6999999999999309
 50
180.0
 51
0.0
  0
CIRCLE
  5
2F5
  8
DATA
  6
CONTINUOUS
 62
     7
 10
588.0
 20
21.75
 30
0.0
 40
3.0
  0
LINE
  5
2F6
  8
DATA
  6
CONTINUOUS
 62
     7
 10
586.0
 20
21.75
 30
0.0
 11
589.5
 21
21.75
 31
0.0
  0
LINE
  5
2F7
  8
DATA
  6
CONTINUOUS
 62
     7
 10
588.0
 20
23.75
 30
0.0
 11
588.0
 21
19.75
 31
0.0
  0
CIRCLE
  5
2F8
  8
DATA
  6
CONTINUOUS
 62
     7
 10
601.0
 20
32.25
 30
0.0
 40
3.0
  0
LINE
  5
2F9
  8
DATA
  6
CONTINUOUS
 62
     7
 10
599.0
 20
32.25
 30
0.0
 11
602.5
 21
32.25
 31
0.0
  0
LINE
  5
2FA
  8
DATA
  6
CONTINUOUS
 62
     7
 10
601.0
 20
34.25
 30
0.0
 11
601.0
 21
30.25
 31
0.0
  0
CIRCLE
  5
2FB
  8
DATA
  6
CONTINUOUS
 62
     7
 10
601.0
 20
11.25
 30
0.0
 40
3.0
  0
LINE
  5
2FC
  8
DATA
  6
CONTINUOUS
 62
     7
 10
599.0
 20
11.25
 30
0.0
 11
602.5
 21
11.25
 31
0.0
  0
LINE
  5
2FD
  8
DATA
  6
CONTINUOUS
 62
     7
 10
601.0
 20
9.25
 30
0.0
 11
601.0
 21
13.25
 31
0.0
  0
CIRCLE
  5
2FE
  8
DATA
  6
CONTINUOUS
 62
     7
 10
861.0
 20
32.25
 30
0.0
 40
3.0
  0
LINE
  5
2FF
  8
DATA
  6
CONTINUOUS
 62
     7
 10
859.0
 20
32.25
 30
0.0
 11
862.5
 21
32.25
 31
0.0
  0
LINE
  5
300
  8
DATA
  6
CONTINUOUS
 62
     7
 10
861.0
 20
34.25
 30
0.0
 11
861.0
 21
30.25
 31
0.0
  0
CIRCLE
  5
301
  8
DATA
  6
CONTINUOUS
 62
     7
 10
861.0
 20
11.25
 30
0.0
 40
3.0
  0
LINE
  5
302
  8
DATA
  6
CONTINUOUS
 62
     7
 10
859.0
 20
11.25
 30
0.0
 11
862.5
 21
11.25
 31
0.0
  0
LINE
  5
303
  8
DATA
  6
CONTINUOUS
 62
     7
 10
861.0
 20
9.25
 30
0.0
 11
861.0
 21
13.25
 31
0.0
  0
CIRCLE
  5
304
  8
DATA
  6
CONTINUOUS
 62
     7
 10
861.0
 20
32.25
 30
0.0
 40
4.75
  0
CIRCLE
  5
305
  8
DATA
  6
CONTINUOUS
 62
     7
 10
861.0
 20
11.25
 30
0.0
 40
4.75
  0
LINE
  5
306
  8
DATA
  6
CONTINUOUS
 62
     7
 10
887.0
 20
39.500000000000107
 30
0.0
 11
887.0
 21
4.0
 31
0.0
  0
LINE
  5
307
  8
DATA
  6
CONTINUOUS
 62
     7
 10
571.0
 20
37.34300960102599
 30
0.0
 11
571.0
 21
6.1569903989741297
 31
0.0
  0
LINE
  5
308
  8
DATA
  6
CONTINUOUS
 62
     7
 10
566.5
 20
13.5
 30
0.0
 11
571.0
 21
9.5
 31
0.0
  0
ARC
  5
309
  8
DATA
  6
CONTINUOUS
 62
     7
 10
544.56222961121534
 20
28.402645102913539
 30
0.0
 40
26.52083333333308
 50
325.81116457608039
 51
355.46412451679311
  0
LINE
  5
30A
  8
DATA
  6
CONTINUOUS
 62
     7
 10
558.0
 20
34.25
 30
0.0
 11
558.0
 21
8.75
 31
0.0
  0
LINE
  5
30B
  8
DATA
  6
CONTINUOUS
 62
     7
 10
558.0
 20
34.25
 30
0.0
 11
561.0
 21
34.25
 31
0.0
  0
LINE
  5
30C
  8
DATA
  6
CONTINUOUS
 62
     7
 10
570.0
 20
34.25
 30
0.0
 11
571.0
 21
34.25
 31
0.0
  0
LINE
  5
30D
  8
DATA
  6
CONTINUOUS
 62
     7
 10
558.0
 20
8.75
 30
0.0
 11
571.0
 21
8.75
 31
0.0
  0
LINE
  5
30E
  8
DATA
  6
CONTINUOUS
 62
     7
 10
558.0
 20
9.25
 30
0.0
 11
571.0
 21
9.25
 31
0.0
  0
LINE
  5
30F
  8
DATA
  6
CONTINUOUS
 62
     7
 10
558.0
 20
9.75
 30
0.0
 11
570.71874999999989
 21
9.75
 31
0.0
  0
LINE
  5
310
  8
DATA
  6
CONTINUOUS
 62
     7
 10
558.0
 20
10.25
 30
0.0
 11
570.15625
 21
10.25
 31
0.0
  0
LINE
  5
311
  8
DATA
  6
CONTINUOUS
 62
     7
 10
558.0
 20
10.75
 30
0.0
 11
569.59375
 21
10.75
 31
0.0
  0
LINE
  5
312
  8
DATA
  6
CONTINUOUS
 62
     7
 10
558.0
 20
11.25
 30
0.0
 11
569.03125
 21
11.25
 31
0.0
  0
LINE
  5
313
  8
DATA
  6
CONTINUOUS
 62
     7
 10
558.0
 20
11.75
 30
0.0
 11
568.46874999999989
 21
11.75
 31
0.0
  0
LINE
  5
314
  8
DATA
  6
CONTINUOUS
 62
     7
 10
558.0
 20
12.25
 30
0.0
 11
567.90624999999989
 21
12.25
 31
0.0
  0
LINE
  5
315
  8
DATA
  6
CONTINUOUS
 62
     7
 10
558.0
 20
12.75
 30
0.0
 11
567.34375
 21
12.75
 31
0.0
  0
LINE
  5
316
  8
DATA
  6
CONTINUOUS
 62
     7
 10
558.0
 20
13.25
 30
0.0
 11
566.78125
 21
13.25
 31
0.0
  0
LINE
  5
317
  8
DATA
  6
CONTINUOUS
 62
     7
 10
558.0
 20
13.75
 30
0.0
 11
566.66776267835712
 21
13.75
 31
0.0
  0
LINE
  5
318
  8
DATA
  6
CONTINUOUS
 62
     7
 10
558.0
 20
14.25
 30
0.0
 11
566.99116710913108
 21
14.25
 31
0.0
  0
LINE
  5
319
  8
DATA
  6
CONTINUOUS
 62
     7
 10
558.0
 20
14.75
 30
0.0
 11
567.29898141063313
 21
14.75
 31
0.0
  0
LINE
  5
31A
  8
DATA
  6
CONTINUOUS
 62
     7
 10
558.0
 20
15.25
 30
0.0
 11
567.59183072567748
 21
15.25
 31
0.0
  0
LINE
  5
31B
  8
DATA
  6
CONTINUOUS
 62
     7
 10
558.0
 20
15.75
 30
0.0
 11
567.87027913480586
 21
15.75
 31
0.0
  0
LINE
  5
31C
  8
DATA
  6
CONTINUOUS
 62
     7
 10
558.0
 20
16.25
 30
0.0
 11
568.13483697011964
 21
16.25
 31
0.0
  0
LINE
  5
31D
  8
DATA
  6
CONTINUOUS
 62
     7
 10
558.0
 20
16.75
 30
0.0
 11
568.38596699223899
 21
16.75
 31
0.0
  0
LINE
  5
31E
  8
DATA
  6
CONTINUOUS
 62
     7
 10
558.0
 20
17.25
 30
0.0
 11
568.62408963705082
 21
17.25
 31
0.0
  0
LINE
  5
31F
  8
DATA
  6
CONTINUOUS
 62
     7
 10
558.0
 20
17.75
 30
0.0
 11
568.8495874956335
 21
17.75
 31
0.0
  0
LINE
  5
320
  8
DATA
  6
CONTINUOUS
 62
     7
 10
558.0
 20
18.25
 30
0.0
 11
569.06280915759999
 21
18.25
 31
0.0
  0
LINE
  5
321
  8
DATA
  6
CONTINUOUS
 62
     7
 10
558.0
 20
18.75
 30
0.0
 11
569.26407252245644
 21
18.75
 31
0.0
  0
LINE
  5
322
  8
DATA
  6
CONTINUOUS
 62
     7
 10
561.0
 20
34.5
 30
0.0
 11
561.0
 21
20.5
 31
0.0
  0
LINE
  5
323
  8
DATA
  6
CONTINUOUS
 62
     7
 10
570.0
 20
34.5
 30
0.0
 11
570.0
 21
20.901016057039211
 31
0.0
  0
LINE
  5
324
  8
DATA
  6
CONTINUOUS
 62
     7
 10
561.0
 20
20.5
 30
0.0
 11
569.87828777736399
 21
20.5
 31
0.0
  0
LINE
  5
325
  8
DATA
  6
CONTINUOUS
 62
     7
 10
561.0
 20
34.0
 30
0.0
 11
570.0
 21
34.0
 31
0.0
  0
LINE
  5
326
  8
DATA
  6
CONTINUOUS
 62
     7
 10
561.0
 20
33.5
 30
0.0
 11
570.0
 21
33.5
 31
0.0
  0
LINE
  5
327
  8
DATA
  6
CONTINUOUS
 62
     7
 10
561.0
 20
33.0
 30
0.0
 11
570.0
 21
33.0
 31
0.0
  0
LINE
  5
328
  8
DATA
  6
CONTINUOUS
 62
     7
 10
561.0
 20
32.5
 30
0.0
 11
570.0
 21
32.5
 31
0.0
  0
LINE
  5
329
  8
DATA
  6
CONTINUOUS
 62
     7
 10
561.0
 20
32.0
 30
0.0
 11
570.0
 21
32.0
 31
0.0
  0
LINE
  5
32A
  8
DATA
  6
CONTINUOUS
 62
     7
 10
561.0
 20
31.5
 30
0.0
 11
570.0
 21
31.5
 31
0.0
  0
LINE
  5
32B
  8
DATA
  6
CONTINUOUS
 62
     7
 10
561.0
 20
31.0
 30
0.0
 11
570.0
 21
31.0
 31
0.0
  0
LINE
  5
32C
  8
DATA
  6
CONTINUOUS
 62
     7
 10
561.0
 20
30.5
 30
0.0
 11
570.0
 21
30.5
 31
0.0
  0
LINE
  5
32D
  8
DATA
  6
CONTINUOUS
 62
     7
 10
561.0
 20
30.0
 30
0.0
 11
570.0
 21
30.0
 31
0.0
  0
LINE
  5
32E
  8
DATA
  6
CONTINUOUS
 62
     7
 10
561.0
 20
29.5
 30
0.0
 11
570.0
 21
29.5
 31
0.0
  0
LINE
  5
32F
  8
DATA
  6
CONTINUOUS
 62
     7
 10
561.0
 20
29.0
 30
0.0
 11
570.0
 21
29.0
 31
0.0
  0
LINE
  5
330
  8
DATA
  6
CONTINUOUS
 62
     7
 10
561.0
 20
28.5
 30
0.0
 11
570.0
 21
28.5
 31
0.0
  0
LINE
  5
331
  8
DATA
  6
CONTINUOUS
 62
     7
 10
561.0
 20
28.0
 30
0.0
 11
570.0
 21
28.0
 31
0.0
  0
LINE
  5
332
  8
DATA
  6
CONTINUOUS
 62
     7
 10
561.0
 20
27.5
 30
0.0
 11
570.0
 21
27.5
 31
0.0
  0
LINE
  5
333
  8
DATA
  6
CONTINUOUS
 62
     7
 10
561.0
 20
27.0
 30
0.0
 11
570.0
 21
27.0
 31
0.0
  0
LINE
  5
334
  8
DATA
  6
CONTINUOUS
 62
     7
 10
561.0
 20
26.5
 30
0.0
 11
570.0
 21
26.5
 31
0.0
  0
LINE
  5
335
  8
DATA
  6
CONTINUOUS
 62
     7
 10
561.0
 20
26.0
 30
0.0
 11
570.0
 21
26.0
 31
0.0
  0
LINE
  5
336
  8
DATA
  6
CONTINUOUS
 62
     7
 10
561.0
 20
25.5
 30
0.0
 11
570.0
 21
25.5
 31
0.0
  0
LINE
  5
337
  8
DATA
  6
CONTINUOUS
 62
     7
 10
561.0
 20
25.0
 30
0.0
 11
570.0
 21
25.0
 31
0.0
  0
LINE
  5
338
  8
DATA
  6
CONTINUOUS
 62
     7
 10
561.0
 20
24.5
 30
0.0
 11
570.0
 21
24.5
 31
0.0
  0
LINE
  5
339
  8
DATA
  6
CONTINUOUS
 62
     7
 10
561.0
 20
24.0
 30
0.0
 11
570.0
 21
24.0
 31
0.0
  0
LINE
  5
33A
  8
DATA
  6
CONTINUOUS
 62
     7
 10
561.0
 20
23.5
 30
0.0
 11
570.0
 21
23.5
 31
0.0
  0
LINE
  5
33B
  8
DATA
  6
CONTINUOUS
 62
     7
 10
561.0
 20
23.0
 30
0.0
 11
570.0
 21
23.0
 31
0.0
  0
LINE
  5
33C
  8
DATA
  6
CONTINUOUS
 62
     7
 10
561.0
 20
22.5
 30
0.0
 11
570.0
 21
22.5
 31
0.0
  0
LINE
  5
33D
  8
DATA
  6
CONTINUOUS
 62
     7
 10
561.0
 20
22.0
 30
0.0
 11
570.0
 21
22.0
 31
0.0
  0
LINE
  5
33E
  8
DATA
  6
CONTINUOUS
 62
     7
 10
561.0
 20
21.5
 30
0.0
 11
570.0
 21
21.5
 31
0.0
  0
LINE
  5
33F
  8
DATA
  6
CONTINUOUS
 62
     7
 10
561.0
 20
21.0
 30
0.0
 11
570.0
 21
21.0
 31
0.0
  0
LINE
  5
340
  8
DATA
  6
CONTINUOUS
 62
     7
 10
561.0
 20
20.5
 30
0.0
 11
569.87828777736399
 21
20.5
 31
0.0
  0
LINE
  5
341
  8
DATA
  6
CONTINUOUS
 62
     7
 10
558.0
 20
19.25
 30
0.0
 11
569.45366766357688
 21
19.25
 31
0.0
  0
LINE
  5
342
  8
DATA
  6
CONTINUOUS
 62
     7
 10
558.0
 20
19.75
 30
0.0
 11
569.63185931365535
 21
19.75
 31
0.0
  0
LINE
  5
343
  8
DATA
  6
CONTINUOUS
 62
     7
 10
558.0
 20
20.25
 30
0.0
 11
569.79888902803145
 21
20.25
 31
0.0
  0
LINE
  5
344
  8
DATA
  6
CONTINUOUS
 62
     7
 10
558.0
 20
20.75
 30
0.0
 11
561.0
 21
20.75
 31
0.0
  0
LINE
  5
345
  8
DATA
  6
CONTINUOUS
 62
     7
 10
558.0
 20
21.25
 30
0.0
 11
561.0
 21
21.25
 31
0.0
  0
LINE
  5
346
  8
DATA
  6
CONTINUOUS
 62
     7
 10
558.0
 20
21.75
 30
0.0
 11
561.0
 21
21.75
 31
0.0
  0
LINE
  5
347
  8
DATA
  6
CONTINUOUS
 62
     7
 10
558.0
 20
22.25
 30
0.0
 11
561.0
 21
22.25
 31
0.0
  0
LINE
  5
348
  8
DATA
  6
CONTINUOUS
 62
     7
 10
558.0
 20
22.75
 30
0.0
 11
561.0
 21
22.75
 31
0.0
  0
LINE
  5
349
  8
DATA
  6
CONTINUOUS
 62
     7
 10
558.0
 20
23.25
 30
0.0
 11
561.0
 21
23.25
 31
0.0
  0
LINE
  5
34A
  8
DATA
  6
CONTINUOUS
 62
     7
 10
558.0
 20
23.75
 30
0.0
 11
561.0
 21
23.75
 31
0.0
  0
LINE
  5
34B
  8
DATA
  6
CONTINUOUS
 62
     7
 10
558.0
 20
24.25
 30
0.0
 11
561.0
 21
24.25
 31
0.0
  0
LINE
  5
34C
  8
DATA
  6
CONTINUOUS
 62
     7
 10
558.0
 20
24.75
 30
0.0
 11
561.0
 21
24.75
 31
0.0
  0
LINE
  5
34D
  8
DATA
  6
CONTINUOUS
 62
     7
 10
558.0
 20
25.25
 30
0.0
 11
561.0
 21
25.25
 31
0.0
  0
LINE
  5
34E
  8
DATA
  6
CONTINUOUS
 62
     7
 10
558.0
 20
25.75
 30
0.0
 11
561.0
 21
25.75
 31
0.0
  0
LINE
  5
34F
  8
DATA
  6
CONTINUOUS
 62
     7
 10
558.0
 20
26.25
 30
0.0
 11
561.0
 21
26.25
 31
0.0
  0
LINE
  5
350
  8
DATA
  6
CONTINUOUS
 62
     7
 10
558.0
 20
26.75
 30
0.0
 11
561.0
 21
26.75
 31
0.0
  0
LINE
  5
351
  8
DATA
  6
CONTINUOUS
 62
     7
 10
558.0
 20
27.25
 30
0.0
 11
561.0
 21
27.25
 31
0.0
  0
LINE
  5
352
  8
DATA
  6
CONTINUOUS
 62
     7
 10
558.0
 20
27.75
 30
0.0
 11
561.0
 21
27.75
 31
0.0
  0
LINE
  5
353
  8
DATA
  6
CONTINUOUS
 62
     7
 10
558.0
 20
28.25
 30
0.0
 11
561.0
 21
28.25
 31
0.0
  0
LINE
  5
354
  8
DATA
  6
CONTINUOUS
 62
     7
 10
558.0
 20
28.75
 30
0.0
 11
561.0
 21
28.75
 31
0.0
  0
LINE
  5
355
  8
DATA
  6
CONTINUOUS
 62
     7
 10
558.0
 20
29.25
 30
0.0
 11
561.0
 21
29.25
 31
0.0
  0
LINE
  5
356
  8
DATA
  6
CONTINUOUS
 62
     7
 10
558.0
 20
29.75
 30
0.0
 11
561.0
 21
29.75
 31
0.0
  0
LINE
  5
357
  8
DATA
  6
CONTINUOUS
 62
     7
 10
558.0
 20
30.25
 30
0.0
 11
561.0
 21
30.25
 31
0.0
  0
LINE
  5
358
  8
DATA
  6
CONTINUOUS
 62
     7
 10
558.0
 20
30.75
 30
0.0
 11
561.0
 21
30.75
 31
0.0
  0
LINE
  5
359
  8
DATA
  6
CONTINUOUS
 62
     7
 10
558.0
 20
31.25
 30
0.0
 11
561.0
 21
31.25
 31
0.0
  0
LINE
  5
35A
  8
DATA
  6
CONTINUOUS
 62
     7
 10
558.0
 20
31.75
 30
0.0
 11
561.0
 21
31.75
 31
0.0
  0
LINE
  5
35B
  8
DATA
  6
CONTINUOUS
 62
     7
 10
558.0
 20
32.25
 30
0.0
 11
561.0
 21
32.25
 31
0.0
  0
LINE
  5
35C
  8
DATA
  6
CONTINUOUS
 62
     7
 10
558.0
 20
32.75
 30
0.0
 11
561.0
 21
32.75
 31
0.0
  0
LINE
  5
35D
  8
DATA
  6
CONTINUOUS
 62
     7
 10
558.0
 20
33.25
 30
0.0
 11
561.0
 21
33.25
 31
0.0
  0
LINE
  5
35E
  8
DATA
  6
CONTINUOUS
 62
     7
 10
558.0
 20
33.75
 30
0.0
 11
561.0
 21
33.75
 31
0.0
  0
LINE
  5
35F
  8
DATA
  6
CONTINUOUS
 62
     7
 10
570.0
 20
33.75
 30
0.0
 11
571.0
 21
33.75
 31
0.0
  0
LINE
  5
360
  8
DATA
  6
CONTINUOUS
 62
     7
 10
570.0
 20
33.25
 30
0.0
 11
571.0
 21
33.25
 31
0.0
  0
LINE
  5
361
  8
DATA
  6
CONTINUOUS
 62
     7
 10
570.0
 20
32.75
 30
0.0
 11
571.0
 21
32.75
 31
0.0
  0
LINE
  5
362
  8
DATA
  6
CONTINUOUS
 62
     7
 10
570.0
 20
32.25
 30
0.0
 11
571.0
 21
32.25
 31
0.0
  0
LINE
  5
363
  8
DATA
  6
CONTINUOUS
 62
     7
 10
570.0
 20
31.75
 30
0.0
 11
571.0
 21
31.75
 31
0.0
  0
LINE
  5
364
  8
DATA
  6
CONTINUOUS
 62
     7
 10
570.0
 20
31.25
 30
0.0
 11
571.0
 21
31.25
 31
0.0
  0
LINE
  5
365
  8
DATA
  6
CONTINUOUS
 62
     7
 10
570.0
 20
30.75
 30
0.0
 11
571.0
 21
30.75
 31
0.0
  0
LINE
  5
366
  8
DATA
  6
CONTINUOUS
 62
     7
 10
570.0
 20
30.25
 30
0.0
 11
571.0
 21
30.25
 31
0.0
  0
LINE
  5
367
  8
DATA
  6
CONTINUOUS
 62
     7
 10
570.0
 20
24.75
 30
0.0
 11
570.83032403099764
 21
24.75
 31
0.0
  0
LINE
  5
368
  8
DATA
  6
CONTINUOUS
 62
     7
 10
570.0
 20
24.25
 30
0.0
 11
570.75593380408748
 21
24.25
 31
0.0
  0
LINE
  5
369
  8
DATA
  6
CONTINUOUS
 62
     7
 10
570.0
 20
23.75
 30
0.0
 11
570.67175841279993
 21
23.75
 31
0.0
  0
LINE
  5
36A
  8
DATA
  6
CONTINUOUS
 62
     7
 10
570.0
 20
23.25
 30
0.0
 11
570.57770287498397
 21
23.25
 31
0.0
  0
LINE
  5
36B
  8
DATA
  6
CONTINUOUS
 62
     7
 10
570.0
 20
22.75
 30
0.0
 11
570.47365959944523
 21
22.75
 31
0.0
  0
LINE
  5
36C
  8
DATA
  6
CONTINUOUS
 62
     7
 10
570.0
 20
22.25
 30
0.0
 11
570.35950774151479
 21
22.25
 31
0.0
  0
LINE
  5
36D
  8
DATA
  6
CONTINUOUS
 62
     7
 10
570.0
 20
21.75
 30
0.0
 11
570.23511246120165
 21
21.75
 31
0.0
  0
LINE
  5
36E
  8
DATA
  6
CONTINUOUS
 62
     7
 10
570.0
 20
21.25
 30
0.0
 11
570.10032407274855
 21
21.25
 31
0.0
  0
LINE
  5
36F
  8
DATA
  6
CONTINUOUS
 62
     7
 10
561.0
 20
34.5
 30
0.0
 11
570.0
 21
34.5
 31
0.0
  0
LINE
  5
370
  8
DATA
  6
CONTINUOUS
 62
     7
 10
571.0
 20
30.0
 30
0.0
 11
570.0
 21
30.0
 31
0.0
  0
LINE
  5
371
  8
DATA
  6
CONTINUOUS
 62
     7
 10
570.86387608055361
 20
25.0
 30
0.0
 11
570.0
 21
25.0
 31
0.0
  0
LINE
  5
372
  8
DATA
  6
CONTINUOUS
 62
     7
 10
908.5
 20
26.349999999999909
 30
0.0
 11
908.5
 21
16.650000000000091
 31
0.0
  0
LINE
  5
373
  8
DATA
  6
CONTINUOUS
 62
     7
 10
908.5
 20
26.349999999999909
 30
0.0
 11
898.0
 21
26.349999999999909
 31
0.0
  0
LINE
  5
374
  8
DATA
  6
CONTINUOUS
 62
     7
 10
908.5
 20
16.650000000000091
 30
0.0
 11
898.0
 21
16.650000000000091
 31
0.0
  0
CIRCLE
  5
375
  8
DATA
  6
CONTINUOUS
 62
     7
 10
904.25
 20
21.5
 30
0.0
 40
1.0
  0
LINE
  5
376
  8
DATA
  6
CONTINUOUS
 62
     7
 10
898.0
 20
27.24999999999989
 30
0.0
 11
898.0
 21
15.75000000000011
 31
0.0
  0
LINE
  5
377
  8
DATA
  6
CONTINUOUS
 62
     7
 10
898.0
 20
15.75000000000011
 30
0.0
 11
895.5
 21
15.75000000000011
 31
0.0
  0
LINE
  5
378
  8
DATA
  6
CONTINUOUS
 62
     7
 10
898.0
 20
27.24999999999989
 30
0.0
 11
895.5
 21
27.24999999999989
 31
0.0
  0
LINE
  5
379
  8
DATA
  6
CONTINUOUS
 62
     7
 10
898.0
 20
15.75000000000011
 30
0.0
 11
897.49999999999989
 21
27.24999999999989
 31
0.0
  0
LINE
  5
37A
  8
DATA
  6
CONTINUOUS
 62
     7
 10
897.0
 20
15.75000000000011
 30
0.0
 11
896.49999999999989
 21
27.24999999999989
 31
0.0
  0
LINE
  5
37B
  8
DATA
  6
CONTINUOUS
 62
     7
 10
896.0
 20
15.75000000000011
 30
0.0
 11
895.5
 21
27.24999999999989
 31
0.0
  0
LINE
  5
37C
  8
DATA
  6
CONTINUOUS
 62
     7
 10
897.49999999999989
 20
39.328427124746327
 30
0.0
 11
897.49999999999989
 21
36.742649177826927
 31
0.0
  0
LINE
  5
37D
  8
DATA
  6
CONTINUOUS
 62
     7
 10
897.49999999999989
 20
36.742649177826927
 30
0.0
 11
895.50982920613251
 21
36.742649177826927
 31
0.0
  0
LINE
  5
37E
  8
DATA
  6
CONTINUOUS
 62
     7
 10
897.0
 20
39.098076211353373
 30
0.0
 11
897.0
 21
36.742649177826927
 31
0.0
  0
LINE
  5
37F
  8
DATA
  6
CONTINUOUS
 62
     7
 10
897.0
 20
37.742649177826927
 30
0.0
 11
895.76946470067708
 21
37.742649177826927
 31
0.0
  0
LINE
  5
380
  8
DATA
  6
CONTINUOUS
 62
     7
 10
50.5
 20
520.5
 30
0.0
 11
66.5
 21
520.5
 31
0.0
  0
LINE
  5
381
  8
DATA
  6
CONTINUOUS
 62
     7
 10
66.5
 20
522.50000000000011
 30
0.0
 11
66.5
 21
520.00000000000011
 31
0.0
  0
LINE
  5
382
  8
DATA
  6
CONTINUOUS
 62
     7
 10
66.5
 20
522.50000000000011
 30
0.0
 11
50.500000000000057
 21
522.5
 31
0.0
  0
LINE
  5
383
  8
DATA
  6
CONTINUOUS
 62
     7
 10
52.750000000000057
 20
525.49999999999989
 30
0.0
 11
52.750000000000057
 21
522.5
 31
0.0
  0
LINE
  5
384
  8
DATA
  6
CONTINUOUS
 62
     7
 10
64.249999999999929
 20
525.49999999999989
 30
0.0
 11
64.249999999999929
 21
522.5
 31
0.0
  0
LINE
  5
385
  8
DATA
  6
CONTINUOUS
 62
     7
 10
52.750000000000057
 20
525.49999999999989
 30
0.0
 11
64.249999999999929
 21
525.49999999999989
 31
0.0
  0
LINE
  5
386
  8
DATA
  6
CONTINUOUS
 62
     7
 10
52.750000000000057
 20
525.0
 30
0.0
 11
64.249999999999929
 21
525.49999999999989
 31
0.0
  0
LINE
  5
387
  8
DATA
  6
CONTINUOUS
 62
     7
 10
52.750000000000057
 20
524.0
 30
0.0
 11
64.249999999999929
 21
524.5
 31
0.0
  0
LINE
  5
388
  8
DATA
  6
CONTINUOUS
 62
     7
 10
52.750000000000057
 20
523.00000000000011
 30
0.0
 11
64.249999999999929
 21
523.50000000000011
 31
0.0
  0
LINE
  5
389
  8
DATA
  6
CONTINUOUS
 62
     7
 10
53.65000000000002
 20
536.0
 30
0.0
 11
53.65000000000002
 21
525.49999999999989
 31
0.0
  0
LINE
  5
38A
  8
DATA
  6
CONTINUOUS
 62
     7
 10
63.349999999999973
 20
536.0
 30
0.0
 11
63.349999999999973
 21
525.49999999999989
 31
0.0
  0
LINE
  5
38B
  8
DATA
  6
CONTINUOUS
 62
     7
 10
53.65000000000002
 20
536.0
 30
0.0
 11
63.349999999999973
 21
536.0
 31
0.0
  0
LINE
  5
38C
  8
DATA
  6
CONTINUOUS
 62
     7
 10
50.500000000000057
 20
522.5
 30
0.0
 11
50.500000000000057
 21
520.0
 31
0.0
  0
LINE
  5
38D
  8
DATA
  6
CONTINUOUS
 62
     7
 10
54.500000000000057
 20
522.5
 30
0.0
 11
54.500000000000057
 21
520.5
 31
0.0
  0
LINE
  5
38E
  8
DATA
  6
CONTINUOUS
 62
     7
 10
62.500000000000071
 20
522.5
 30
0.0
 11
62.500000000000071
 21
520.5
 31
0.0
  0
LINE
  5
38F
  8
DATA
  6
CONTINUOUS
 62
     7
 10
52.949999999999989
 20
532.5
 30
0.0
 11
52.949999999999989
 21
531.0
 31
0.0
  0
LINE
  5
390
  8
DATA
  6
CONTINUOUS
 62
     7
 10
52.949999999999989
 20
531.0
 30
0.0
 11
53.65000000000002
 21
531.0
 31
0.0
  0
LINE
  5
391
  8
DATA
  6
CONTINUOUS
 62
     7
 10
63.349999999999973
 20
531.0
 30
0.0
 11
64.050000000000011
 21
531.0
 31
0.0
  0
LINE
  5
392
  8
DATA
  6
CONTINUOUS
 62
     7
 10
64.050000000000011
 20
532.5
 30
0.0
 11
64.050000000000011
 21
531.0
 31
0.0
  0
LINE
  5
393
  8
DATA
  6
CONTINUOUS
 62
     7
 10
52.949999999999989
 20
532.5
 30
0.0
 11
53.65000000000002
 21
532.5
 31
0.0
  0
LINE
  5
394
  8
DATA
  6
CONTINUOUS
 62
     7
 10
63.349999999999973
 20
532.5
 30
0.0
 11
64.050000000000011
 21
532.5
 31
0.0
  0
LINE
  5
395
  8
DATA
  6
CONTINUOUS
 62
     7
 10
320.0
 20
520.5
 30
0.0
 11
336.0
 21
520.5
 31
0.0
  0
LINE
  5
396
  8
DATA
  6
CONTINUOUS
 62
     7
 10
336.0
 20
522.50000000000011
 30
0.0
 11
336.0
 21
520.00000000000011
 31
0.0
  0
LINE
  5
397
  8
DATA
  6
CONTINUOUS
 62
     7
 10
336.0
 20
522.50000000000011
 30
0.0
 11
320.00000000000011
 21
522.5
 31
0.0
  0
LINE
  5
398
  8
DATA
  6
CONTINUOUS
 62
     7
 10
322.25000000000011
 20
525.49999999999989
 30
0.0
 11
322.25000000000011
 21
522.5
 31
0.0
  0
LINE
  5
399
  8
DATA
  6
CONTINUOUS
 62
     7
 10
333.74999999999989
 20
525.49999999999989
 30
0.0
 11
333.74999999999989
 21
522.5
 31
0.0
  0
LINE
  5
39A
  8
DATA
  6
CONTINUOUS
 62
     7
 10
322.25000000000011
 20
525.49999999999989
 30
0.0
 11
333.74999999999989
 21
525.49999999999989
 31
0.0
  0
LINE
  5
39B
  8
DATA
  6
CONTINUOUS
 62
     7
 10
322.25000000000011
 20
525.0
 30
0.0
 11
333.74999999999989
 21
525.49999999999989
 31
0.0
  0
LINE
  5
39C
  8
DATA
  6
CONTINUOUS
 62
     7
 10
322.25000000000011
 20
524.0
 30
0.0
 11
333.74999999999989
 21
524.5
 31
0.0
  0
LINE
  5
39D
  8
DATA
  6
CONTINUOUS
 62
     7
 10
322.25000000000011
 20
523.00000000000011
 30
0.0
 11
333.74999999999989
 21
523.50000000000011
 31
0.0
  0
LINE
  5
39E
  8
DATA
  6
CONTINUOUS
 62
     7
 10
323.15000000000009
 20
536.0
 30
0.0
 11
323.15000000000009
 21
525.49999999999989
 31
0.0
  0
LINE
  5
39F
  8
DATA
  6
CONTINUOUS
 62
     7
 10
332.85000000000002
 20
536.0
 30
0.0
 11
332.85000000000002
 21
525.49999999999989
 31
0.0
  0
LINE
  5
3A0
  8
DATA
  6
CONTINUOUS
 62
     7
 10
323.15000000000009
 20
536.0
 30
0.0
 11
332.85000000000002
 21
536.0
 31
0.0
  0
LINE
  5
3A1
  8
DATA
  6
CONTINUOUS
 62
     7
 10
320.00000000000011
 20
522.5
 30
0.0
 11
320.00000000000011
 21
520.0
 31
0.0
  0
LINE
  5
3A2
  8
DATA
  6
CONTINUOUS
 62
     7
 10
324.00000000000011
 20
522.5
 30
0.0
 11
324.00000000000011
 21
520.5
 31
0.0
  0
LINE
  5
3A3
  8
DATA
  6
CONTINUOUS
 62
     7
 10
332.00000000000011
 20
522.5
 30
0.0
 11
332.00000000000011
 21
520.5
 31
0.0
  0
LINE
  5
3A4
  8
DATA
  6
CONTINUOUS
 62
     7
 10
322.44999999999999
 20
532.5
 30
0.0
 11
322.44999999999999
 21
531.0
 31
0.0
  0
LINE
  5
3A5
  8
DATA
  6
CONTINUOUS
 62
     7
 10
322.44999999999999
 20
531.0
 30
0.0
 11
323.15000000000009
 21
531.0
 31
0.0
  0
LINE
  5
3A6
  8
DATA
  6
CONTINUOUS
 62
     7
 10
332.85000000000002
 20
531.0
 30
0.0
 11
333.55000000000001
 21
531.0
 31
0.0
  0
LINE
  5
3A7
  8
DATA
  6
CONTINUOUS
 62
     7
 10
333.55000000000001
 20
532.5
 30
0.0
 11
333.55000000000001
 21
531.0
 31
0.0
  0
LINE
  5
3A8
  8
DATA
  6
CONTINUOUS
 62
     7
 10
322.44999999999999
 20
532.5
 30
0.0
 11
323.15000000000009
 21
532.5
 31
0.0
  0
LINE
  5
3A9
  8
DATA
  6
CONTINUOUS
 62
     7
 10
332.85000000000002
 20
532.5
 30
0.0
 11
333.55000000000001
 21
532.5
 31
0.0
  0
TEXT
  5
3AA
  8
DATA
 62
     7
 10
706.29999999999984
 20
-160.70632666666739
 30
0.0
 40
14.6595703125
  1
UR4S＋-ABJ
 41
0.7
 11
706.29999999999984
 21
-146.0467563541674
 31
0.0
 73
     3
  0
LINE
  5
3AB
  8
DATA
  6
CONTINUOUS
 62
     7
 10
0.0
 20
700.0
 30
0.0
 11
33.0
 21
700.0
 31
0.0
  0
LINE
  5
3AC
  8
DATA
  6
CONTINUOUS
 62
     7
 10
43.0
 20
700.0
 30
0.0
 11
482.5
 21
700.0
 31
0.0
  0
LINE
  5
3AD
  8
DATA
  6
CONTINUOUS
 62
     7
 10
33.0
 20
700.0
 30
0.0
 11
43.0
 21
700.0
 31
0.0
  0
LINE
  5
3AE
  8
DATA
  6
CONTINUOUS
 62
     7
 10
0.0
 20
743.5
 30
0.0
 11
33.0
 21
743.5
 31
0.0
  0
LINE
  5
3AF
  8
DATA
  6
CONTINUOUS
 62
     7
 10
43.0
 20
743.5
 30
0.0
 11
482.5
 21
743.5
 31
0.0
  0
LINE
  5
3B0
  8
DATA
  6
CONTINUOUS
 62
     7
 10
33.0
 20
743.5
 30
0.0
 11
43.0
 21
743.5
 31
0.0
  0
LINE
  5
3B1
  8
DATA
  6
CONTINUOUS
 62
     7
 10
0.0
 20
700.0
 30
0.0
 11
0.0
 21
743.5
 31
0.0
  0
ARC
  5
3B2
  8
DATA
  6
CONTINUOUS
 62
     7
 10
6.4999999999999432
 20
705.75
 30
0.0
 40
3.500000000000056
 50
90.0
 51
270.0
  0
ARC
  5
3B3
  8
DATA
  6
CONTINUOUS
 62
     7
 10
9.5
 20
705.75
 30
0.0
 40
3.499999999999972
 50
270.0
 51
90.0
  0
LINE
  5
3B4
  8
DATA
  6
CONTINUOUS
 62
     7
 10
6.4999999999999432
 20
709.25
 30
0.0
 11
9.5
 21
709.25
 31
0.0
  0
LINE
  5
3B5
  8
DATA
  6
CONTINUOUS
 62
     7
 10
6.4999999999999432
 20
702.24999999999989
 30
0.0
 11
9.5
 21
702.24999999999989
 31
0.0
  0
ARC
  5
3B6
  8
DATA
  6
CONTINUOUS
 62
     7
 10
6.4999999999999432
 20
737.75
 30
0.0
 40
3.5
 50
90.0
 51
270.0
  0
ARC
  5
3B7
  8
DATA
  6
CONTINUOUS
 62
     7
 10
9.5
 20
737.75
 30
0.0
 40
3.500000000000056
 50
270.0
 51
90.0
  0
LINE
  5
3B8
  8
DATA
  6
CONTINUOUS
 62
     7
 10
6.4999999999999432
 20
734.25
 30
0.0
 11
9.5
 21
734.25
 31
0.0
  0
LINE
  5
3B9
  8
DATA
  6
CONTINUOUS
 62
     7
 10
6.4999999999999432
 20
741.25
 30
0.0
 11
9.5
 21
741.25
 31
0.0
  0
LINE
  5
3BA
  8
DATA
  6
CONTINUOUS
 62
     7
 10
482.5
 20
700.0
 30
0.0
 11
482.5
 21
743.5
 31
0.0
  0
ARC
  5
3BB
  8
DATA
  6
CONTINUOUS
 62
     7
 10
476.0
 20
705.75
 30
0.0
 40
3.499999999999972
 50
270.0
 51
90.0
  0
ARC
  5
3BC
  8
DATA
  6
CONTINUOUS
 62
     7
 10
473.0
 20
705.75
 30
0.0
 40
3.500000000000056
 50
90.0
 51
270.0
  0
LINE
  5
3BD
  8
DATA
  6
CONTINUOUS
 62
     7
 10
476.0
 20
709.25
 30
0.0
 11
473.0
 21
709.25
 31
0.0
  0
LINE
  5
3BE
  8
DATA
  6
CONTINUOUS
 62
     7
 10
476.0
 20
702.24999999999989
 30
0.0
 11
473.0
 21
702.24999999999989
 31
0.0
  0
ARC
  5
3BF
  8
DATA
  6
CONTINUOUS
 62
     7
 10
476.0
 20
737.75
 30
0.0
 40
3.500000000000056
 50
270.0
 51
90.0
  0
ARC
  5
3C0
  8
DATA
  6
CONTINUOUS
 62
     7
 10
473.0
 20
737.75
 30
0.0
 40
3.5
 50
90.0
 51
270.0
  0
LINE
  5
3C1
  8
DATA
  6
CONTINUOUS
 62
     7
 10
476.0
 20
734.25
 30
0.0
 11
473.0
 21
734.25
 31
0.0
  0
LINE
  5
3C2
  8
DATA
  6
CONTINUOUS
 62
     7
 10
476.0
 20
741.25
 30
0.0
 11
473.0
 21
741.25
 31
0.0
  0
ARC
  5
3C3
  8
DATA
  6
CONTINUOUS
 62
     7
 10
455.0
 20
722.5
 30
0.0
 40
6.4999999999999698
 50
117.7957724960489
 51
62.204227503950719
  0
LINE
  5
3C4
  8
DATA
  6
CONTINUOUS
 62
     7
 10
451.9689110867518
 20
728.24999999999989
 30
0.0
 11
458.03108891324831
 21
728.24999999999989
 31
0.0
  0
ARC
  5
3C5
  8
DATA
  6
CONTINUOUS
 62
     7
 10
27.49999999999989
 20
721.75
 30
0.0
 40
6.4999999999999956
 50
297.79577249604938
 51
242.2042275039519
  0
LINE
  5
3C6
  8
DATA
  6
CONTINUOUS
 62
     7
 10
24.468911086751628
 20
716.0
 30
0.0
 11
30.531088913248251
 21
716.0
 31
0.0
  0
LINE
  5
3C7
  8
DATA
  6
CONTINUOUS
 62
     7
 10
43.0
 20
705.0
 30
0.0
 11
43.0
 21
743.5
 31
0.0
  0
LINE
  5
3C8
  8
DATA
  6
CONTINUOUS
 62
     7
 10
43.0
 20
700.0
 30
0.0
 11
43.0
 21
705.0
 31
0.0
  0
LINE
  5
3C9
  8
DATA
  6
CONTINUOUS
 62
     7
 10
42.0
 20
700.0
 30
0.0
 11
42.0
 21
743.5
 31
0.0
  0
LINE
  5
3CA
  8
DATA
  6
CONTINUOUS
 62
     7
 10
35.0
 20
705.0
 30
0.0
 11
35.0
 21
738.49999999999989
 31
0.0
  0
LINE
  5
3CB
  8
DATA
  6
CONTINUOUS
 62
     7
 10
35.0
 20
738.49999999999989
 30
0.0
 11
35.0
 21
741.5
 31
0.0
  0
LINE
  5
3CC
  8
DATA
  6
CONTINUOUS
 62
     7
 10
35.0
 20
702.0
 30
0.0
 11
35.0
 21
705.0
 31
0.0
  0
LINE
  5
3CD
  8
DATA
  6
CONTINUOUS
 62
     7
 10
32.0
 20
739.5
 30
0.0
 11
32.0
 21
743.5
 31
0.0
  0
LINE
  5
3CE
  8
DATA
  6
CONTINUOUS
 62
     7
 10
20.0
 20
739.5
 30
0.0
 11
34.0
 21
739.5
 31
0.0
  0
LINE
  5
3CF
  8
DATA
  6
CONTINUOUS
 62
     7
 10
32.0
 20
700.0
 30
0.0
 11
32.0
 21
704.0
 31
0.0
  0
LINE
  5
3D0
  8
DATA
  6
CONTINUOUS
 62
     7
 10
20.0
 20
704.0
 30
0.0
 11
34.0
 21
704.0
 31
0.0
  0
ARC
  5
3D1
  8
DATA
  6
CONTINUOUS
 62
     7
 10
33.0
 20
741.5
 30
0.0
 40
2.0
 50
0.0
 51
90.0
  0
ARC
  5
3D2
  8
DATA
  6
CONTINUOUS
 62
     7
 10
33.0
 20
702.0
 30
0.0
 40
2.0
 50
270.0
 51
0.0
  0
ARC
  5
3D3
  8
DATA
  6
CONTINUOUS
 62
     7
 10
34.0
 20
705.0
 30
0.0
 40
1.0
 50
270.0
 51
0.0
  0
ARC
  5
3D4
  8
DATA
  6
CONTINUOUS
 62
     7
 10
34.0
 20
738.49999999999989
 30
0.0
 40
1.0
 50
0.0
 51
90.0
  0
LINE
  5
3D5
  8
DATA
  6
CONTINUOUS
 62
     7
 10
20.0
 20
700.0
 30
0.0
 11
20.0
 21
704.0
 31
0.0
  0
LINE
  5
3D6
  8
DATA
  6
CONTINUOUS
 62
     7
 10
20.0
 20
739.5
 30
0.0
 11
20.0
 21
743.5
 31
0.0
  0
LINE
  5
3D7
  8
DATA
  6
CONTINUOUS
 62
     7
 10
42.0
 20
739.5
 30
0.0
 11
43.0
 21
739.5
 31
0.0
  0
LINE
  5
3D8
  8
DATA
  6
CONTINUOUS
 62
     7
 10
42.0
 20
704.0
 30
0.0
 11
43.0
 21
704.0
 31
0.0
  0
LINE
  5
3D9
  8
DATA
  6
CONTINUOUS
 62
     7
 10
449.5
 20
700.0
 30
0.0
 11
439.5
 21
700.0
 31
0.0
  0
LINE
  5
3DA
  8
DATA
  6
CONTINUOUS
 62
     7
 10
449.5
 20
743.5
 30
0.0
 11
439.5
 21
743.5
 31
0.0
  0
LINE
  5
3DB
  8
DATA
  6
CONTINUOUS
 62
     7
 10
439.5
 20
705.0
 30
0.0
 11
439.5
 21
743.5
 31
0.0
  0
LINE
  5
3DC
  8
DATA
  6
CONTINUOUS
 62
     7
 10
439.5
 20
700.0
 30
0.0
 11
439.5
 21
705.0
 31
0.0
  0
LINE
  5
3DD
  8
DATA
  6
CONTINUOUS
 62
     7
 10
440.5
 20
700.0
 30
0.0
 11
440.5
 21
743.5
 31
0.0
  0
LINE
  5
3DE
  8
DATA
  6
CONTINUOUS
 62
     7
 10
447.5
 20
705.0
 30
0.0
 11
447.5
 21
738.49999999999989
 31
0.0
  0
LINE
  5
3DF
  8
DATA
  6
CONTINUOUS
 62
     7
 10
447.5
 20
738.49999999999989
 30
0.0
 11
447.5
 21
741.5
 31
0.0
  0
LINE
  5
3E0
  8
DATA
  6
CONTINUOUS
 62
     7
 10
447.5
 20
702.0
 30
0.0
 11
447.5
 21
705.0
 31
0.0
  0
LINE
  5
3E1
  8
DATA
  6
CONTINUOUS
 62
     7
 10
450.49999999999989
 20
739.5
 30
0.0
 11
450.49999999999989
 21
743.5
 31
0.0
  0
LINE
  5
3E2
  8
DATA
  6
CONTINUOUS
 62
     7
 10
462.5
 20
739.5
 30
0.0
 11
448.5
 21
739.5
 31
0.0
  0
LINE
  5
3E3
  8
DATA
  6
CONTINUOUS
 62
     7
 10
450.49999999999989
 20
700.0
 30
0.0
 11
450.49999999999989
 21
704.0
 31
0.0
  0
LINE
  5
3E4
  8
DATA
  6
CONTINUOUS
 62
     7
 10
462.5
 20
704.0
 30
0.0
 11
448.5
 21
704.0
 31
0.0
  0
ARC
  5
3E5
  8
DATA
  6
CONTINUOUS
 62
     7
 10
449.5
 20
741.5
 30
0.0
 40
2.0
 50
90.0
 51
180.0
  0
ARC
  5
3E6
  8
DATA
  6
CONTINUOUS
 62
     7
 10
449.5
 20
702.0
 30
0.0
 40
2.0
 50
180.0
 51
270.0
  0
ARC
  5
3E7
  8
DATA
  6
CONTINUOUS
 62
     7
 10
448.5
 20
705.0
 30
0.0
 40
1.0
 50
180.0
 51
270.0
  0
ARC
  5
3E8
  8
DATA
  6
CONTINUOUS
 62
     7
 10
448.5
 20
738.49999999999989
 30
0.0
 40
1.0
 50
90.0
 51
180.0
  0
LINE
  5
3E9
  8
DATA
  6
CONTINUOUS
 62
     7
 10
462.5
 20
700.0
 30
0.0
 11
462.5
 21
704.0
 31
0.0
  0
LINE
  5
3EA
  8
DATA
  6
CONTINUOUS
 62
     7
 10
462.5
 20
739.5
 30
0.0
 11
462.5
 21
743.5
 31
0.0
  0
LINE
  5
3EB
  8
DATA
  6
CONTINUOUS
 62
     7
 10
440.5
 20
739.5
 30
0.0
 11
439.5
 21
739.5
 31
0.0
  0
LINE
  5
3EC
  8
DATA
  6
CONTINUOUS
 62
     7
 10
440.5
 20
704.0
 30
0.0
 11
439.5
 21
704.0
 31
0.0
  0
LINE
  5
3ED
  8
DATA
  6
CONTINUOUS
 62
     7
 10
350.0
 20
705.49999999999989
 30
0.0
 11
382.0
 21
705.49999999999989
 31
0.0
  0
LINE
  5
3EE
  8
DATA
  6
CONTINUOUS
 62
     7
 10
350.0
 20
705.49999999999989
 30
0.0
 11
350.0
 21
735.5
 31
0.0
  0
LINE
  5
3EF
  8
DATA
  6
CONTINUOUS
 62
     7
 10
350.0
 20
735.5
 30
0.0
 11
382.0
 21
735.5
 31
0.0
  0
LINE
  5
3F0
  8
DATA
  6
CONTINUOUS
 62
     7
 10
382.0
 20
735.5
 30
0.0
 11
382.0
 21
705.49999999999989
 31
0.0
  0
LINE
  5
3F1
  8
DATA
  6
CONTINUOUS
 62
     7
 10
381.0
 20
727.5
 30
0.0
 11
381.0
 21
718.15685424949231
 31
0.0
  0
LINE
  5
3F2
  8
DATA
  6
CONTINUOUS
 62
     7
 10
379.82842712474633
 20
715.32842712474621
 30
0.0
 11
375.17157287525367
 21
710.67157287525367
 31
0.0
  0
ARC
  5
3F3
  8
DATA
  6
CONTINUOUS
 62
     7
 10
377.0
 20
727.5
 30
0.0
 40
4.0
 50
0.0
 51
90.0
  0
ARC
  5
3F4
  8
DATA
  6
CONTINUOUS
 62
     7
 10
377.0
 20
718.15685424949231
 30
0.0
 40
4.0000000000000124
 50
314.99999999999972
 51
359.9999999999996
  0
ARC
  5
3F5
  8
DATA
  6
CONTINUOUS
 62
     7
 10
372.34314575050769
 20
713.49999999999989
 30
0.0
 40
4.0000000000000284
 50
270.0
 51
314.99999999999949
  0
LINE
  5
3F6
  8
DATA
  6
CONTINUOUS
 62
     7
 10
351.0
 20
727.5
 30
0.0
 11
351.0
 21
718.15685424949231
 31
0.0
  0
LINE
  5
3F7
  8
DATA
  6
CONTINUOUS
 62
     7
 10
352.17157287525367
 20
715.32842712474621
 30
0.0
 11
356.82842712474621
 21
710.67157287525367
 31
0.0
  0
ARC
  5
3F8
  8
DATA
  6
CONTINUOUS
 62
     7
 10
355.0
 20
727.5
 30
0.0
 40
4.0
 50
90.0
 51
180.0
  0
ARC
  5
3F9
  8
DATA
  6
CONTINUOUS
 62
     7
 10
355.0
 20
718.15685424949231
 30
0.0
 40
4.0
 50
180.0000000000004
 51
225.0000000000002
  0
ARC
  5
3FA
  8
DATA
  6
CONTINUOUS
 62
     7
 10
359.65685424949231
 20
713.49999999999989
 30
0.0
 40
3.9999999999999911
 50
225.0000000000006
 51
270.0
  0
LINE
  5
3FB
  8
DATA
  6
CONTINUOUS
 62
     7
 10
355.0
 20
731.5
 30
0.0
 11
377.0
 21
731.5
 31
0.0
  0
LINE
  5
3FC
  8
DATA
  6
CONTINUOUS
 62
     7
 10
359.65685424949231
 20
709.49999999999989
 30
0.0
 11
372.34314575050769
 21
709.49999999999989
 31
0.0
  0
LINE
  5
3FD
  8
DATA
  6
CONTINUOUS
 62
     7
 10
377.0
 20
725.49999999999989
 30
0.0
 11
377.0
 21
718.9852813742383
 31
0.0
  0
LINE
  5
3FE
  8
DATA
  6
CONTINUOUS
 62
     7
 10
355.0
 20
725.49999999999989
 30
0.0
 11
355.0
 21
718.9852813742383
 31
0.0
  0
LINE
  5
3FF
  8
DATA
  6
CONTINUOUS
 62
     7
 10
360.48528137423858
 20
713.49999999999989
 30
0.0
 11
371.51471862576142
 21
713.49999999999989
 31
0.0
  0
LINE
  5
400
  8
DATA
  6
CONTINUOUS
 62
     7
 10
357.0
 20
727.5
 30
0.0
 11
375.0
 21
727.5
 31
0.0
  0
ARC
  5
401
  8
DATA
  6
CONTINUOUS
 62
     7
 10
357.0
 20
725.49999999999989
 30
0.0
 40
2.0
 50
90.0
 51
180.0
  0
ARC
  5
402
  8
DATA
  6
CONTINUOUS
 62
     7
 10
375.0
 20
725.49999999999989
 30
0.0
 40
2.0
 50
0.0
 51
90.0
  0
LINE
  5
403
  8
DATA
  6
CONTINUOUS
 62
     7
 10
376.41421356237311
 20
717.57106781186553
 30
0.0
 11
372.92893218813452
 21
714.08578643762667
 31
0.0
  0
LINE
  5
404
  8
DATA
  6
CONTINUOUS
 62
     7
 10
355.58578643762689
 20
717.57106781186553
 30
0.0
 11
359.07106781186548
 21
714.08578643762667
 31
0.0
  0
ARC
  5
405
  8
DATA
  6
CONTINUOUS
 62
     7
 10
357.0
 20
718.9852813742383
 30
0.0
 40
2.0
 50
180.0
 51
225.0
  0
ARC
  5
406
  8
DATA
  6
CONTINUOUS
 62
     7
 10
360.48528137423858
 20
715.5
 30
0.0
 40
2.0000000000000151
 50
225.0
 51
270.0
  0
ARC
  5
407
  8
DATA
  6
CONTINUOUS
 62
     7
 10
371.51471862576147
 20
715.5
 30
0.0
 40
2.0
 50
269.9999999999992
 51
314.99999999999949
  0
ARC
  5
408
  8
DATA
  6
CONTINUOUS
 62
     7
 10
375.0
 20
718.9852813742383
 30
0.0
 40
2.0000000000000151
 50
315.0
 51
0.0
  0
LINE
  5
409
  8
DATA
  6
CONTINUOUS
 62
     7
 10
365.0
 20
716.0
 30
0.0
 11
367.0
 21
716.0
 31
0.0
  0
LINE
  5
40A
  8
DATA
  6
CONTINUOUS
 62
     7
 10
365.0
 20
716.0
 30
0.0
 11
365.0
 21
721.0
 31
0.0
  0
LINE
  5
40B
  8
DATA
  6
CONTINUOUS
 62
     7
 10
367.0
 20
716.0
 30
0.0
 11
367.0
 21
721.0
 31
0.0
  0
LINE
  5
40C
  8
DATA
  6
CONTINUOUS
 62
     7
 10
367.0
 20
721.0
 30
0.0
 11
365.0
 21
721.0
 31
0.0
  0
LINE
  5
40D
  8
DATA
  6
CONTINUOUS
 62
     7
 10
372.0
 20
720.0
 30
0.0
 11
374.0
 21
720.0
 31
0.0
  0
LINE
  5
40E
  8
DATA
  6
CONTINUOUS
 62
     7
 10
372.0
 20
720.0
 30
0.0
 11
372.0
 21
725.0
 31
0.0
  0
LINE
  5
40F
  8
DATA
  6
CONTINUOUS
 62
     7
 10
374.0
 20
720.0
 30
0.0
 11
374.0
 21
725.0
 31
0.0
  0
LINE
  5
410
  8
DATA
  6
CONTINUOUS
 62
     7
 10
374.0
 20
725.0
 30
0.0
 11
372.0
 21
725.0
 31
0.0
  0
LINE
  5
411
  8
DATA
  6
CONTINUOUS
 62
     7
 10
360.0
 20
720.0
 30
0.0
 11
358.0
 21
720.0
 31
0.0
  0
LINE
  5
412
  8
DATA
  6
CONTINUOUS
 62
     7
 10
360.0
 20
720.0
 30
0.0
 11
360.0
 21
725.0
 31
0.0
  0
LINE
  5
413
  8
DATA
  6
CONTINUOUS
 62
     7
 10
358.0
 20
720.0
 30
0.0
 11
358.0
 21
725.0
 31
0.0
  0
LINE
  5
414
  8
DATA
  6
CONTINUOUS
 62
     7
 10
358.0
 20
725.0
 30
0.0
 11
360.0
 21
725.0
 31
0.0
  0
LINE
  5
415
  8
DATA
  6
CONTINUOUS
 62
     7
 10
382.0
 20
705.49999999999989
 30
0.0
 11
404.0
 21
705.49999999999989
 31
0.0
  0
LINE
  5
416
  8
DATA
  6
CONTINUOUS
 62
     7
 10
404.0
 20
705.49999999999989
 30
0.0
 11
404.0
 21
735.5
 31
0.0
  0
LINE
  5
417
  8
DATA
  6
CONTINUOUS
 62
     7
 10
382.0
 20
735.5
 30
0.0
 11
404.0
 21
735.5
 31
0.0
  0
LINE
  5
418
  8
DATA
  6
CONTINUOUS
 62
     7
 10
401.49999999999989
 20
731.0
 30
0.0
 11
401.49999999999989
 21
710.0
 31
0.0
  0
LINE
  5
419
  8
DATA
  6
CONTINUOUS
 62
     7
 10
384.5
 20
727.1715728752539
 30
0.0
 11
384.5
 21
713.82842712474621
 31
0.0
  0
LINE
  5
41A
  8
DATA
  6
CONTINUOUS
 62
     7
 10
385.08578643762689
 20
728.58578643762701
 30
0.0
 11
388.91421356237311
 21
732.41421356237311
 31
0.0
  0
LINE
  5
41B
  8
DATA
  6
CONTINUOUS
 62
     7
 10
399.5
 20
733.0
 30
0.0
 11
390.32842712474633
 21
733.0
 31
0.0
  0
LINE
  5
41C
  8
DATA
  6
CONTINUOUS
 62
     7
 10
385.08578643762689
 20
712.41421356237322
 30
0.0
 11
388.91421356237311
 21
708.58578643762678
 31
0.0
  0
LINE
  5
41D
  8
DATA
  6
CONTINUOUS
 62
     7
 10
399.5
 20
708.0
 30
0.0
 11
390.32842712474633
 21
708.0
 31
0.0
  0
ARC
  5
41E
  8
DATA
  6
CONTINUOUS
 62
     7
 10
399.5
 20
731.0
 30
0.0
 40
2.0
 50
0.0
 51
90.0
  0
ARC
  5
41F
  8
DATA
  6
CONTINUOUS
 62
     7
 10
399.5
 20
710.0
 30
0.0
 40
2.0
 50
270.0
 51
0.0
  0
ARC
  5
420
  8
DATA
  6
CONTINUOUS
 62
     7
 10
390.32842712474633
 20
710.0
 30
0.0
 40
1.9999999999999949
 50
225.0000000000006
 51
270.0000000000004
  0
ARC
  5
421
  8
DATA
  6
CONTINUOUS
 62
     7
 10
386.5
 20
713.82842712474621
 30
0.0
 40
2.0
 50
179.9999999999992
 51
224.9999999999996
  0
ARC
  5
422
  8
DATA
  6
CONTINUOUS
 62
     7
 10
386.5
 20
727.1715728752539
 30
0.0
 40
2.0000000000000062
 50
134.99999999999969
 51
180.0
  0
ARC
  5
423
  8
DATA
  6
CONTINUOUS
 62
     7
 10
390.32842712474633
 20
731.0
 30
0.0
 40
2.0
 50
90.0
 51
134.99999999999969
  0
LINE
  5
424
  8
DATA
  6
CONTINUOUS
 62
     7
 10
388.5
 20
721.49999999999989
 30
0.0
 11
388.5
 21
719.5
 31
0.0
  0
LINE
  5
425
  8
DATA
  6
CONTINUOUS
 62
     7
 10
392.5
 20
721.49999999999989
 30
0.0
 11
392.5
 21
719.5
 31
0.0
  0
LINE
  5
426
  8
DATA
  6
CONTINUOUS
 62
     7
 10
388.5
 20
721.49999999999989
 30
0.0
 11
392.5
 21
721.49999999999989
 31
0.0
  0
LINE
  5
427
  8
DATA
  6
CONTINUOUS
 62
     7
 10
388.5
 20
719.5
 30
0.0
 11
392.5
 21
719.5
 31
0.0
  0
LINE
  5
428
  8
DATA
  6
CONTINUOUS
 62
     7
 10
394.5
 20
728.5
 30
0.0
 11
394.5
 21
726.5
 31
0.0
  0
LINE
  5
429
  8
DATA
  6
CONTINUOUS
 62
     7
 10
398.5
 20
728.5
 30
0.0
 11
398.5
 21
726.5
 31
0.0
  0
LINE
  5
42A
  8
DATA
  6
CONTINUOUS
 62
     7
 10
394.5
 20
728.5
 30
0.0
 11
398.5
 21
728.5
 31
0.0
  0
LINE
  5
42B
  8
DATA
  6
CONTINUOUS
 62
     7
 10
394.5
 20
726.5
 30
0.0
 11
398.5
 21
726.5
 31
0.0
  0
LINE
  5
42C
  8
DATA
  6
CONTINUOUS
 62
     7
 10
394.5
 20
712.5
 30
0.0
 11
394.5
 21
714.5
 31
0.0
  0
LINE
  5
42D
  8
DATA
  6
CONTINUOUS
 62
     7
 10
398.5
 20
712.5
 30
0.0
 11
398.5
 21
714.5
 31
0.0
  0
LINE
  5
42E
  8
DATA
  6
CONTINUOUS
 62
     7
 10
394.5
 20
712.5
 30
0.0
 11
398.5
 21
712.5
 31
0.0
  0
LINE
  5
42F
  8
DATA
  6
CONTINUOUS
 62
     7
 10
394.5
 20
714.5
 30
0.0
 11
398.5
 21
714.5
 31
0.0
  0
TEXT
  5
430
  8
DATA
 62
     7
 10
405.7500000218551
 20
739.08000000000004
 30
0.0
 40
2.30859375
  1
input:100-240V～
 50
180.0
 41
0.7
 11
405.7500000218551
 21
736.77140625000004
 31
0.0
 73
     3
  0
TEXT
  5
431
  8
DATA
 62
     7
 10
405.7500000218551
 20
742.58000000000004
 30
0.0
 40
2.30859375
  1
0.8A max.50/60Hz
 50
180.0
 41
0.7
 11
405.7500000218551
 21
740.27140625000004
 31
0.0
 73
     3
  0
TEXT
  5
432
  8
DATA
 62
     7
 10
379.2500000218551
 20
739.08000000000004
 30
0.0
 40
2.30859375
  1
output:100-240V～
 50
180.0
 41
0.7
 11
379.2500000218551
 21
736.77140625000004
 31
0.0
 73
     3
  0
TEXT
  5
433
  8
DATA
 62
     7
 10
379.2500000218551
 20
742.58000000000004
 30
0.0
 40
2.30859375
  1
5A max.50/60Hz UNSW.
 50
180.0
 41
0.7
 11
379.2500000218551
 21
740.27140625000004
 31
0.0
 73
     3
  0
CIRCLE
  5
434
  8
DATA
  6
CONTINUOUS
 62
     7
 10
166.0
 20
713.0
 30
0.0
 40
1.500000000000044
  0
CIRCLE
  5
435
  8
DATA
  6
CONTINUOUS
 62
     7
 10
166.0
 20
719.29999999999995
 30
0.0
 40
1.500000000000044
  0
CIRCLE
  5
436
  8
DATA
  6
CONTINUOUS
 62
     7
 10
166.0
 20
725.60000000000002
 30
0.0
 40
1.500000000000044
  0
CIRCLE
  5
437
  8
DATA
  6
CONTINUOUS
 62
     7
 10
166.0
 20
731.89999999999986
 30
0.0
 40
1.500000000000044
  0
CIRCLE
  5
438
  8
DATA
  6
CONTINUOUS
 62
     7
 10
172.30000000000001
 20
713.0
 30
0.0
 40
1.4999999999999929
  0
ARC
  5
439
  8
DATA
  6
CONTINUOUS
 62
     7
 10
192.0
 20
718.0
 30
0.0
 40
11.00000000000005
 50
283.13655878694522
 51
256.86344121305552
  0
CIRCLE
  5
43A
  8
DATA
  6
CONTINUOUS
 62
     7
 10
192.0
 20
718.0
 30
0.0
 40
9.7499999999999591
  0
CIRCLE
  5
43B
  8
DATA
  6
CONTINUOUS
 62
     7
 10
192.0
 20
718.0
 30
0.0
 40
8.0
  0
LINE
  5
43C
  8
DATA
  6
CONTINUOUS
 62
     7
 10
186.00000000000011
 20
714.5
 30
0.0
 11
198.00000000000011
 21
714.5
 31
0.0
  0
LINE
  5
43D
  8
DATA
  6
CONTINUOUS
 62
     7
 10
198.00000000000011
 20
714.5
 30
0.0
 11
198.00000000000011
 21
722.0
 31
0.0
  0
LINE
  5
43E
  8
DATA
  6
CONTINUOUS
 62
     7
 10
186.00000000000011
 20
714.5
 30
0.0
 11
186.00000000000011
 21
722.0
 31
0.0
  0
LINE
  5
43F
  8
DATA
  6
CONTINUOUS
 62
     7
 10
186.00000000000011
 20
722.0
 30
0.0
 11
188.0
 21
722.0
 31
0.0
  0
LINE
  5
440
  8
DATA
  6
CONTINUOUS
 62
     7
 10
188.0
 20
722.0
 30
0.0
 11
188.0
 21
723.5
 31
0.0
  0
LINE
  5
441
  8
DATA
  6
CONTINUOUS
 62
     7
 10
188.0
 20
723.5
 30
0.0
 11
189.0
 21
723.5
 31
0.0
  0
LINE
  5
442
  8
DATA
  6
CONTINUOUS
 62
     7
 10
189.0
 20
723.5
 30
0.0
 11
189.0
 21
725.0
 31
0.0
  0
LINE
  5
443
  8
DATA
  6
CONTINUOUS
 62
     7
 10
189.0
 20
725.0
 30
0.0
 11
195.00000000000011
 21
725.0
 31
0.0
  0
LINE
  5
444
  8
DATA
  6
CONTINUOUS
 62
     7
 10
198.00000000000011
 20
722.0
 30
0.0
 11
196.00000000000011
 21
722.0
 31
0.0
  0
LINE
  5
445
  8
DATA
  6
CONTINUOUS
 62
     7
 10
196.00000000000011
 20
722.0
 30
0.0
 11
196.00000000000011
 21
723.5
 31
0.0
  0
LINE
  5
446
  8
DATA
  6
CONTINUOUS
 62
     7
 10
196.00000000000011
 20
723.5
 30
0.0
 11
195.00000000000011
 21
723.5
 31
0.0
  0
LINE
  5
447
  8
DATA
  6
CONTINUOUS
 62
     7
 10
195.00000000000011
 20
723.5
 30
0.0
 11
195.00000000000011
 21
725.0
 31
0.0
  0
ARC
  5
448
  8
DATA
  6
CONTINUOUS
 62
     7
 10
192.0
 20
714.99999999999977
 30
0.0
 40
12.999999999999931
 50
250.528779365509
 51
289.47122063449069
  0
LINE
  5
449
  8
DATA
  6
CONTINUOUS
 62
     7
 10
197.0
 20
703.68629150101538
 30
0.0
 11
197.0
 21
705.31370849898462
 31
0.0
  0
LINE
  5
44A
  8
DATA
  6
CONTINUOUS
 62
     7
 10
187.00000000000011
 20
703.68629150101538
 30
0.0
 11
187.00000000000011
 21
705.31370849898462
 31
0.0
  0
ARC
  5
44B
  8
DATA
  6
CONTINUOUS
 62
     7
 10
192.0
 20
693.99999999999977
 30
0.0
 40
13.00000000000005
 50
70.528779365509749
 51
78.912510789029454
  0
ARC
  5
44C
  8
DATA
  6
CONTINUOUS
 62
     7
 10
192.0
 20
693.99999999999977
 30
0.0
 40
13.000000000000091
 50
101.0874892109708
 51
109.47122063449071
  0
ARC
  5
44D
  8
DATA
  6
CONTINUOUS
 62
     7
 10
187.99999999999989
 20
705.31370849898462
 30
0.0
 40
0.9999999999999641
 50
109.4712206344867
 51
180.0
  0
ARC
  5
44E
  8
DATA
  6
CONTINUOUS
 62
     7
 10
188.0
 20
703.68629150101538
 30
0.0
 40
1.0
 50
180.0
 51
250.52877936550709
  0
ARC
  5
44F
  8
DATA
  6
CONTINUOUS
 62
     7
 10
196.00000000000011
 20
703.68629150101538
 30
0.0
 40
0.9999999999999829
 50
289.47122063448978
 51
0.0
  0
ARC
  5
450
  8
DATA
  6
CONTINUOUS
 62
     7
 10
196.00000000000011
 20
705.31370849898462
 30
0.0
 40
1.0
 50
0.0
 51
70.528779365513174
  0
LINE
  5
451
  8
DATA
  6
CONTINUOUS
 62
     7
 10
189.50000000000011
 20
708.57596158751448
 30
0.0
 11
189.50000000000011
 21
706.75735082217329
 31
0.0
  0
LINE
  5
452
  8
DATA
  6
CONTINUOUS
 62
     7
 10
194.50000000000011
 20
706.75735082217295
 30
0.0
 11
194.50000000000011
 21
708.57596158751448
 31
0.0
  0
CIRCLE
  5
453
  8
DATA
  6
CONTINUOUS
 62
     7
 10
182.00000000000011
 20
728.0
 30
0.0
 40
2.5
  0
LINE
  5
454
  8
DATA
  6
CONTINUOUS
 62
     7
 10
181.00000000000011
 20
728.0
 30
0.0
 11
183.00000000000011
 21
728.0
 31
0.0
  0
LINE
  5
455
  8
DATA
  6
CONTINUOUS
 62
     7
 10
182.00000000000011
 20
729.0
 30
0.0
 11
182.00000000000011
 21
727.0
 31
0.0
  0
CIRCLE
  5
456
  8
DATA
  6
CONTINUOUS
 62
     7
 10
202.00000000000011
 20
708.0
 30
0.0
 40
2.5
  0
LINE
  5
457
  8
DATA
  6
CONTINUOUS
 62
     7
 10
203.00000000000011
 20
708.0
 30
0.0
 11
201.00000000000011
 21
708.0
 31
0.0
  0
LINE
  5
458
  8
DATA
  6
CONTINUOUS
 62
     7
 10
202.00000000000011
 20
707.0
 30
0.0
 11
202.00000000000011
 21
709.0
 31
0.0
  0
LINE
  5
459
  8
DATA
  6
CONTINUOUS
 62
     7
 10
205.00000000000011
 20
719.0
 30
0.0
 11
217.00000000000011
 21
719.0
 31
0.0
  0
LINE
  5
45A
  8
DATA
  6
CONTINUOUS
 62
     7
 10
205.00000000000011
 20
719.0
 30
0.0
 11
205.00000000000011
 21
731.0
 31
0.0
  0
LINE
  5
45B
  8
DATA
  6
CONTINUOUS
 62
     7
 10
217.00000000000011
 20
719.0
 30
0.0
 11
217.00000000000011
 21
731.0
 31
0.0
  0
LINE
  5
45C
  8
DATA
  6
CONTINUOUS
 62
     7
 10
205.00000000000011
 20
731.0
 30
0.0
 11
217.00000000000011
 21
731.0
 31
0.0
  0
LINE
  5
45D
  8
DATA
  6
CONTINUOUS
 62
     7
 10
205.50000000000011
 20
720.0
 30
0.0
 11
216.50000000000011
 21
720.0
 31
0.0
  0
LINE
  5
45E
  8
DATA
  6
CONTINUOUS
 62
     7
 10
205.50000000000011
 20
720.0
 30
0.0
 11
205.50000000000011
 21
730.0
 31
0.0
  0
LINE
  5
45F
  8
DATA
  6
CONTINUOUS
 62
     7
 10
205.50000000000011
 20
730.0
 30
0.0
 11
216.50000000000011
 21
730.0
 31
0.0
  0
LINE
  5
460
  8
DATA
  6
CONTINUOUS
 62
     7
 10
216.50000000000011
 20
730.0
 30
0.0
 11
216.50000000000011
 21
720.0
 31
0.0
  0
LINE
  5
461
  8
DATA
  6
CONTINUOUS
 62
     7
 10
206.75000000000011
 20
729.0
 30
0.0
 11
215.25000000000011
 21
729.0
 31
0.0
  0
LINE
  5
462
  8
DATA
  6
CONTINUOUS
 62
     7
 10
206.75000000000011
 20
729.0
 30
0.0
 11
206.75000000000011
 21
723.0
 31
0.0
  0
LINE
  5
463
  8
DATA
  6
CONTINUOUS
 62
     7
 10
208.00000000000011
 20
721.0
 30
0.0
 11
214.00000000000011
 21
721.0
 31
0.0
  0
LINE
  5
464
  8
DATA
  6
CONTINUOUS
 62
     7
 10
206.75000000000011
 20
723.0
 30
0.0
 11
208.00000000000011
 21
721.0
 31
0.0
  0
LINE
  5
465
  8
DATA
  6
CONTINUOUS
 62
     7
 10
215.25000000000011
 20
729.0
 30
0.0
 11
215.25000000000011
 21
723.0
 31
0.0
  0
LINE
  5
466
  8
DATA
  6
CONTINUOUS
 62
     7
 10
215.25000000000011
 20
723.0
 30
0.0
 11
214.00000000000011
 21
721.0
 31
0.0
  0
LINE
  5
467
  8
DATA
  6
CONTINUOUS
 62
     7
 10
208.50000000000011
 20
726.5
 30
0.0
 11
213.50000000000011
 21
726.5
 31
0.0
  0
LINE
  5
468
  8
DATA
  6
CONTINUOUS
 62
     7
 10
213.50000000000011
 20
726.5
 30
0.0
 11
213.50000000000011
 21
724.0
 31
0.0
  0
LINE
  5
469
  8
DATA
  6
CONTINUOUS
 62
     7
 10
208.50000000000011
 20
726.5
 30
0.0
 11
208.50000000000011
 21
724.0
 31
0.0
  0
LINE
  5
46A
  8
DATA
  6
CONTINUOUS
 62
     7
 10
208.50000000000011
 20
724.0
 30
0.0
 11
213.50000000000011
 21
724.0
 31
0.0
  0
CIRCLE
  5
46B
  8
DATA
  6
CONTINUOUS
 62
     7
 10
223.00000000000011
 20
713.0
 30
0.0
 40
1.500000000000044
  0
CIRCLE
  5
46C
  8
DATA
  6
CONTINUOUS
 62
     7
 10
223.00000000000011
 20
719.29999999999995
 30
0.0
 40
1.500000000000044
  0
CIRCLE
  5
46D
  8
DATA
  6
CONTINUOUS
 62
     7
 10
223.00000000000011
 20
725.60000000000002
 30
0.0
 40
1.500000000000044
  0
CIRCLE
  5
46E
  8
DATA
  6
CONTINUOUS
 62
     7
 10
223.00000000000011
 20
731.89999999999986
 30
0.0
 40
1.500000000000044
  0
CIRCLE
  5
46F
  8
DATA
  6
CONTINUOUS
 62
     7
 10
223.00000000000011
 20
706.70000000000005
 30
0.0
 40
1.500000000000044
  0
CIRCLE
  5
470
  8
DATA
  6
CONTINUOUS
 62
     7
 10
216.69999999999999
 20
706.70000000000005
 30
0.0
 40
1.4999999999999929
  0
CIRCLE
  5
471
  8
DATA
  6
CONTINUOUS
 62
     7
 10
210.40000000000001
 20
706.70000000000005
 30
0.0
 40
1.500000000000018
  0
CIRCLE
  5
472
  8
DATA
  6
CONTINUOUS
 62
     7
 10
229.30000000000001
 20
713.0
 30
0.0
 40
1.500000000000018
  0
CIRCLE
  5
473
  8
DATA
  6
CONTINUOUS
 62
     7
 10
229.30000000000001
 20
719.29999999999995
 30
0.0
 40
1.500000000000018
  0
CIRCLE
  5
474
  8
DATA
  6
CONTINUOUS
 62
     7
 10
229.30000000000001
 20
725.60000000000002
 30
0.0
 40
1.500000000000018
  0
CIRCLE
  5
475
  8
DATA
  6
CONTINUOUS
 62
     7
 10
229.30000000000001
 20
731.89999999999986
 30
0.0
 40
1.500000000000018
  0
CIRCLE
  5
476
  8
DATA
  6
CONTINUOUS
 62
     7
 10
229.30000000000001
 20
706.70000000000005
 30
0.0
 40
1.500000000000018
  0
CIRCLE
  5
477
  8
DATA
  6
CONTINUOUS
 62
     7
 10
328.0
 20
722.0
 30
0.0
 40
4.8499999999999641
  0
LINE
  5
478
  8
DATA
  6
CONTINUOUS
 62
     7
 10
322.44999999999999
 20
721.0
 30
0.0
 11
322.44999999999999
 21
723.0
 31
0.0
  0
LINE
  5
479
  8
DATA
  6
CONTINUOUS
 62
     7
 10
322.44999999999999
 20
723.0
 30
0.0
 11
323.25421239413311
 21
723.0
 31
0.0
  0
LINE
  5
47A
  8
DATA
  6
CONTINUOUS
 62
     7
 10
322.44999999999999
 20
721.0
 30
0.0
 11
323.25421239413311
 21
721.00000000001421
 31
0.0
  0
LINE
  5
47B
  8
DATA
  6
CONTINUOUS
 62
     7
 10
333.5499999999999
 20
721.0
 30
0.0
 11
333.5499999999999
 21
723.0
 31
0.0
  0
LINE
  5
47C
  8
DATA
  6
CONTINUOUS
 62
     7
 10
333.5499999999999
 20
723.0
 30
0.0
 11
332.74578760586689
 21
723.0
 31
0.0
  0
LINE
  5
47D
  8
DATA
  6
CONTINUOUS
 62
     7
 10
333.5499999999999
 20
721.0
 30
0.0
 11
332.74578760586689
 21
721.00000000001421
 31
0.0
  0
CIRCLE
  5
47E
  8
DATA
  6
CONTINUOUS
 62
     7
 10
328.0
 20
722.0
 30
0.0
 40
2.25
  0
CIRCLE
  5
47F
  8
DATA
  6
CONTINUOUS
 62
     7
 10
328.0
 20
722.0
 30
0.0
 40
1.0
  0
CIRCLE
  5
480
  8
DATA
  6
CONTINUOUS
 62
     7
 10
328.0
 20
722.0
 30
0.0
 40
5.7499999999999432
  0
CIRCLE
  5
481
  8
DATA
  6
CONTINUOUS
 62
     7
 10
328.0
 20
722.0
 30
0.0
 40
8.0
  0
POLYLINE
  5
482
  8
DATA
  6
CONTINUOUS
 62
     7
 66
     1
 10
0.0
 20
0.0
 30
0.0
 70
     1
  0
VERTEX
  5
5F3
  8
DATA
  6
CONTINUOUS
 62
     7
 10
319.99999999999989
 20
722.0
 30
0.0
  0
VERTEX
  5
5F4
  8
DATA
  6
CONTINUOUS
 62
     7
 10
324.0
 20
715.07179676972441
 30
0.0
  0
VERTEX
  5
5F5
  8
DATA
  6
CONTINUOUS
 62
     7
 10
332.0
 20
715.07179676972441
 30
0.0
  0
VERTEX
  5
5F6
  8
DATA
  6
CONTINUOUS
 62
     7
 10
336.0
 20
722.0
 30
0.0
  0
VERTEX
  5
5F7
  8
DATA
  6
CONTINUOUS
 62
     7
 10
332.0
 20
728.92820323027559
 30
0.0
  0
VERTEX
  5
5F8
  8
DATA
  6
CONTINUOUS
 62
     7
 10
324.0
 20
728.92820323027559
 30
0.0
  0
SEQEND
  5
5F9
  8
DATA
  6
CONTINUOUS
 62
     7
  0
CIRCLE
  5
48B
  8
DATA
  6
CONTINUOUS
 62
     7
 10
244.0
 20
724.0
 30
0.0
 40
3.1500000000000239
  0
CIRCLE
  5
48C
  8
DATA
  6
CONTINUOUS
 62
     7
 10
244.0
 20
724.0
 30
0.0
 40
4.8500000000000227
  0
CIRCLE
  5
48D
  8
DATA
  6
CONTINUOUS
 62
     7
 10
244.0
 20
724.0
 30
0.0
 40
8.0
  0
POLYLINE
  5
48E
  8
DATA
  6
CONTINUOUS
 62
     7
 66
     1
 10
0.0
 20
0.0
 30
0.0
 70
     1
  0
VERTEX
  5
5FA
  8
DATA
  6
CONTINUOUS
 62
     7
 10
244.0
 20
732.0
 30
0.0
  0
VERTEX
  5
5FB
  8
DATA
  6
CONTINUOUS
 62
     7
 10
237.0717967697245
 20
728.0
 30
0.0
  0
VERTEX
  5
5FC
  8
DATA
  6
CONTINUOUS
 62
     7
 10
237.0717967697245
 20
720.0
 30
0.0
  0
VERTEX
  5
5FD
  8
DATA
  6
CONTINUOUS
 62
     7
 10
244.0
 20
716.0
 30
0.0
  0
VERTEX
  5
5FE
  8
DATA
  6
CONTINUOUS
 62
     7
 10
250.92820323027561
 20
720.0
 30
0.0
  0
VERTEX
  5
5FF
  8
DATA
  6
CONTINUOUS
 62
     7
 10
250.92820323027561
 20
728.0
 30
0.0
  0
SEQEND
  5
600
  8
DATA
  6
CONTINUOUS
 62
     7
  0
CIRCLE
  5
497
  8
DATA
  6
CONTINUOUS
 62
     7
 10
260.0
 20
733.49999999999989
 30
0.0
 40
1.25
  0
LINE
  5
498
  8
DATA
  6
CONTINUOUS
 62
     7
 10
262.0
 20
735.0
 30
0.0
 11
258.0
 21
735.0
 31
0.0
  0
LINE
  5
499
  8
DATA
  6
CONTINUOUS
 62
     7
 10
262.0
 20
735.0
 30
0.0
 11
262.0
 21
729.0
 31
0.0
  0
LINE
  5
49A
  8
DATA
  6
CONTINUOUS
 62
     7
 10
262.0
 20
729.0
 30
0.0
 11
258.0
 21
729.0
 31
0.0
  0
LINE
  5
49B
  8
DATA
  6
CONTINUOUS
 62
     7
 10
258.0
 20
729.0
 30
0.0
 11
258.0
 21
735.0
 31
0.0
  0
CIRCLE
  5
49C
  8
DATA
  6
CONTINUOUS
 62
     7
 10
279.0
 20
725.0
 30
0.0
 40
11.0
  0
CIRCLE
  5
49D
  8
DATA
  6
CONTINUOUS
 62
     7
 10
279.0
 20
725.0
 30
0.0
 40
8.0
  0
CIRCLE
  5
49E
  8
DATA
  6
CONTINUOUS
 62
     7
 10
279.0
 20
729.0
 30
0.0
 40
1.25
  0
CIRCLE
  5
49F
  8
DATA
  6
CONTINUOUS
 62
     7
 10
283.0
 20
725.0
 30
0.0
 40
1.25
  0
CIRCLE
  5
4A0
  8
DATA
  6
CONTINUOUS
 62
     7
 10
279.0
 20
721.0
 30
0.0
 40
1.25
  0
CIRCLE
  5
4A1
  8
DATA
  6
CONTINUOUS
 62
     7
 10
269.0
 20
715.0
 30
0.0
 40
2.5
  0
LINE
  5
4A2
  8
DATA
  6
CONTINUOUS
 62
     7
 10
268.0
 20
715.0
 30
0.0
 11
270.0
 21
715.0
 31
0.0
  0
LINE
  5
4A3
  8
DATA
  6
CONTINUOUS
 62
     7
 10
269.0
 20
716.0
 30
0.0
 11
269.0
 21
714.0
 31
0.0
  0
CIRCLE
  5
4A4
  8
DATA
  6
CONTINUOUS
 62
     7
 10
289.0
 20
735.0
 30
0.0
 40
2.5
  0
LINE
  5
4A5
  8
DATA
  6
CONTINUOUS
 62
     7
 10
290.0
 20
735.0
 30
0.0
 11
288.0
 21
735.0
 31
0.0
  0
LINE
  5
4A6
  8
DATA
  6
CONTINUOUS
 62
     7
 10
289.0
 20
734.0
 30
0.0
 11
289.0
 21
736.0
 31
0.0
  0
CIRCLE
  5
4A7
  8
DATA
  6
CONTINUOUS
 62
     7
 10
298.0
 20
730.49999999999989
 30
0.0
 40
1.25
  0
LINE
  5
4A8
  8
DATA
  6
CONTINUOUS
 62
     7
 10
300.0
 20
729.0
 30
0.0
 11
296.0
 21
729.0
 31
0.0
  0
LINE
  5
4A9
  8
DATA
  6
CONTINUOUS
 62
     7
 10
300.0
 20
729.0
 30
0.0
 11
300.0
 21
735.0
 31
0.0
  0
LINE
  5
4AA
  8
DATA
  6
CONTINUOUS
 62
     7
 10
300.0
 20
735.0
 30
0.0
 11
296.0
 21
735.0
 31
0.0
  0
LINE
  5
4AB
  8
DATA
  6
CONTINUOUS
 62
     7
 10
296.0
 20
735.0
 30
0.0
 11
296.0
 21
729.0
 31
0.0
  0
LINE
  5
4AC
  8
DATA
  6
CONTINUOUS
 62
     7
 10
293.0
 20
725.0
 30
0.0
 11
298.0
 21
725.0
 31
0.0
  0
LINE
  5
4AD
  8
DATA
  6
CONTINUOUS
 62
     7
 10
298.0
 20
725.0
 30
0.0
 11
298.0
 21
728.0
 31
0.0
  0
LINE
  5
4AE
  8
DATA
  6
CONTINUOUS
 62
     7
 10
265.0
 20
725.0
 30
0.0
 11
260.0
 21
725.0
 31
0.0
  0
LINE
  5
4AF
  8
DATA
  6
CONTINUOUS
 62
     7
 10
260.0
 20
725.0
 30
0.0
 11
260.0
 21
728.0
 31
0.0
  0
LINE
  5
4B0
  8
DATA
  6
CONTINUOUS
 62
     7
 10
232.5
 20
737.5
 30
0.0
 11
232.5
 21
707.0
 31
0.0
  0
LINE
  5
4B1
  8
DATA
  6
CONTINUOUS
 62
     7
 10
234.5
 20
705.0
 30
0.0
 11
300.5
 21
705.0
 31
0.0
  0
LINE
  5
4B2
  8
DATA
  6
CONTINUOUS
 62
     7
 10
234.5
 20
739.5
 30
0.0
 11
304.5
 21
739.5
 31
0.0
  0
LINE
  5
4B3
  8
DATA
  6
CONTINUOUS
 62
     7
 10
306.5
 20
737.5
 30
0.0
 11
306.5
 21
729.59934207678532
 31
0.0
  0
LINE
  5
4B4
  8
DATA
  6
CONTINUOUS
 62
     7
 10
302.5
 20
717.33631047345568
 30
0.0
 11
302.5
 21
707.0
 31
0.0
  0
ARC
  5
4B5
  8
DATA
  6
CONTINUOUS
 62
     7
 10
234.5
 20
737.5
 30
0.0
 40
2.0
 50
90.0
 51
180.0
  0
ARC
  5
4B6
  8
DATA
  6
CONTINUOUS
 62
     7
 10
234.5
 20
707.0
 30
0.0
 40
2.0
 50
180.0
 51
270.0
  0
ARC
  5
4B7
  8
DATA
  6
CONTINUOUS
 62
     7
 10
304.5
 20
737.5
 30
0.0
 40
2.0
 50
0.0
 51
90.0
  0
ARC
  5
4B8
  8
DATA
  6
CONTINUOUS
 62
     7
 10
300.5
 20
707.0
 30
0.0
 40
2.0
 50
270.0
 51
0.0
  0
LINE
  5
4B9
  8
DATA
  6
CONTINUOUS
 62
     7
 10
232.5
 20
710.0
 30
0.0
 11
302.5
 21
710.0
 31
0.0
  0
TEXT
  5
4BA
  8
DATA
 62
     7
 10
337.2500000218551
 20
710.08000000000004
 30
0.0
 40
2.30859375
  1
antenna B in
 50
180.0
 41
0.7
 11
337.2500000218551
 21
707.77140625000004
 31
0.0
 73
     3
  0
LINE
  5
4BB
  8
DATA
  6
CONTINUOUS
 62
     7
 10
326.69999999999987
 20
734.49999999999989
 30
0.0
 11
327.2999999999999
 21
734.49999999999989
 31
0.0
  0
LINE
  5
4BC
  8
DATA
  6
CONTINUOUS
 62
     7
 10
325.5
 20
734.49999999999989
 30
0.0
 11
326.10000000000002
 21
734.49999999999989
 31
0.0
  0
LINE
  5
4BD
  8
DATA
  6
CONTINUOUS
 62
     7
 10
328.0
 20
734.49999999999989
 30
0.0
 11
328.60000000000002
 21
734.49999999999989
 31
0.0
  0
LINE
  5
4BE
  8
DATA
  6
CONTINUOUS
 62
     7
 10
325.5
 20
733.49999999999989
 30
0.0
 11
328.5
 21
733.49999999999989
 31
0.0
  0
TEXT
  5
4BF
  8
DATA
 62
     7
 10
335.49999995628991
 20
735.03194919243117
 30
0.0
 40
1.846875
  1
12.7V
 50
180.0
 41
0.7
 11
335.49999995628991
 21
733.18507419243133
 31
0.0
 73
     3
  0
TEXT
  5
4C0
  8
DATA
 62
     7
 10
324.99999983112019
 20
734.86399999999969
 30
0.0
 40
1.846875
  1
out
 50
180.0
 41
0.7
 11
324.99999983112019
 21
733.01712499999985
 31
0.0
 73
     3
  0
TEXT
  5
4C1
  8
DATA
 62
     7
 10
329.99999983112008
 20
737.75075134594806
 30
0.0
 40
1.846875
  1
150mA
 50
180.0
 41
0.7
 11
329.99999983112008
 21
735.90387634594822
 31
0.0
 73
     3
  0
CIRCLE
  5
4C2
  8
DATA
  6
CONTINUOUS
 62
     7
 10
214.25000000000011
 20
736.0
 30
0.0
 40
0.5
  0
LINE
  5
4C3
  8
DATA
  6
CONTINUOUS
 62
     7
 10
213.75000000000011
 20
736.0
 30
0.0
 11
208.75000000000011
 21
736.0
 31
0.0
  0
LINE
  5
4C4
  8
DATA
  6
CONTINUOUS
 62
     7
 10
208.75000000000011
 20
736.5
 30
0.0
 11
208.75000000000011
 21
735.5
 31
0.0
  0
LINE
  5
4C5
  8
DATA
  6
CONTINUOUS
 62
     7
 10
207.25000000000011
 20
736.0
 30
0.0
 11
208.75000000000011
 21
735.5
 31
0.0
  0
LINE
  5
4C6
  8
DATA
  6
CONTINUOUS
 62
     7
 10
207.25000000000011
 20
736.0
 30
0.0
 11
208.75000000000011
 21
736.5
 31
0.0
  0
LINE
  5
4C7
  8
DATA
  6
CONTINUOUS
 62
     7
 10
208.75000000000011
 20
736.5
 30
0.0
 11
208.75000000000011
 21
737.5
 31
0.0
  0
LINE
  5
4C8
  8
DATA
  6
CONTINUOUS
 62
     7
 10
208.75000000000011
 20
737.5
 30
0.0
 11
209.75000000000011
 21
737.5
 31
0.0
  0
LINE
  5
4C9
  8
DATA
  6
CONTINUOUS
 62
     7
 10
209.75000000000011
 20
737.5
 30
0.0
 11
209.75000000000011
 21
736.5
 31
0.0
  0
LINE
  5
4CA
  8
DATA
  6
CONTINUOUS
 62
     7
 10
209.75000000000011
 20
736.5
 30
0.0
 11
208.75000000000011
 21
736.5
 31
0.0
  0
LINE
  5
4CB
  8
DATA
  6
CONTINUOUS
 62
     7
 10
209.75000000000011
 20
737.0
 30
0.0
 11
211.25000000000011
 21
737.0
 31
0.0
  0
LINE
  5
4CC
  8
DATA
  6
CONTINUOUS
 62
     7
 10
211.25000000000011
 20
737.0
 30
0.0
 11
211.25000000000011
 21
736.0
 31
0.0
  0
LINE
  5
4CD
  8
DATA
  6
CONTINUOUS
 62
     7
 10
212.75000000000011
 20
736.0
 30
0.0
 11
212.75000000000011
 21
735.0
 31
0.0
  0
CIRCLE
  5
4CE
  8
DATA
  6
CONTINUOUS
 62
     7
 10
210.25000000000011
 20
735.0
 30
0.0
 40
0.5
  0
LINE
  5
4CF
  8
DATA
  6
CONTINUOUS
 62
     7
 10
210.75000000000011
 20
735.0
 30
0.0
 11
212.75000000000011
 21
735.0
 31
0.0
  0
TEXT
  5
4D0
  8
DATA
 62
     7
 10
213.24999993642169
 20
716.58000000000004
 30
0.0
 40
2.30859375
  1
USB
 50
180.0
 41
0.7
 11
213.24999993642169
 21
714.27140625000004
 31
0.0
 73
     3
  0
TEXT
  5
4D1
  8
DATA
 62
     7
 10
195.197441053164
 20
705.58000000000004
 30
0.0
 40
2.30859375
  1
PUSH
 50
180.0
 41
0.7
 11
195.197441053164
 21
703.27140625000004
 31
0.0
 73
     3
  0
TEXT
  5
4D2
  8
DATA
 62
     7
 10
180.00000008344651
 20
708.08000000000004
 30
0.0
 40
2.30859375
  1
networking
 50
180.0
 41
0.7
 11
180.00000008344651
 21
705.77140625000004
 31
0.0
 73
     3
  0
LINE
  5
4D3
  8
DATA
  6
CONTINUOUS
 62
     7
 10
180.00000000000051
 20
718.0
 30
0.0
 11
175.00000000000051
 21
718.0
 31
0.0
  0
LINE
  5
4D4
  8
DATA
  6
CONTINUOUS
 62
     7
 10
175.00000000000051
 20
724.5
 30
0.0
 11
175.00000000000051
 21
726.5
 31
0.0
  0
CIRCLE
  5
4D5
  8
DATA
  6
CONTINUOUS
 62
     7
 10
175.00000000000051
 20
728.0
 30
0.0
 40
1.0
  0
TEXT
  5
4D6
  8
DATA
 62
     7
 10
179.3093749125803
 20
721.72936458333322
 30
0.0
 40
1.846875
  1
network
 50
180.0
 41
0.7
 72
     1
 11
174.99999991258031
 21
719.88248958333315
 31
0.0
 73
     3
  0
TEXT
  5
4D7
  8
DATA
 62
     7
 10
179.09390616258031
 20
724.12936458333297
 30
0.0
 40
1.846875
  1
activity
 50
180.0
 41
0.7
 72
     1
 11
174.99999991258031
 21
722.28248958333313
 31
0.0
 73
     3
  0
LINE
  5
4D8
  8
DATA
  6
CONTINUOUS
 62
     7
 10
175.00000000000051
 20
718.0
 30
0.0
 11
175.00000000000051
 21
720.0
 31
0.0
  0
TEXT
  5
4D9
  8
DATA
 62
     7
 10
179.95578125000009
 20
735.66399999999987
 30
0.0
 40
1.846875
  1
ethernet
 50
180.0
 41
0.7
 72
     1
 11
175.00000000000011
 21
733.81712500000003
 31
0.0
 73
     3
  0
TEXT
  5
4DA
  8
DATA
 62
     7
 10
178.01656250000011
 20
738.06399999999985
 30
0.0
 40
1.846875
  1
RJ-45
 50
180.0
 41
0.7
 72
     1
 11
175.00000000000011
 21
736.21712500000001
 31
0.0
 73
     3
  0
LINE
  5
4DB
  8
DATA
  6
CONTINUOUS
 62
     7
 10
192.14644660940669
 20
735.64644660940644
 30
0.0
 11
192.85355339059331
 21
736.35355339059322
 31
0.0
  0
LINE
  5
4DC
  8
DATA
  6
CONTINUOUS
 62
     7
 10
191.00000000000011
 20
733.49999999999989
 30
0.0
 11
193.00000000000011
 21
733.49999999999989
 31
0.0
  0
LINE
  5
4DD
  8
DATA
  6
CONTINUOUS
 62
     7
 10
191.00000000000011
 20
733.49999999999989
 30
0.0
 11
191.00000000000011
 21
735.0
 31
0.0
  0
LINE
  5
4DE
  8
DATA
  6
CONTINUOUS
 62
     7
 10
191.00000000000011
 20
735.0
 30
0.0
 11
193.00000000000011
 21
735.0
 31
0.0
  0
LINE
  5
4DF
  8
DATA
  6
CONTINUOUS
 62
     7
 10
193.00000000000011
 20
735.0
 30
0.0
 11
193.00000000000011
 21
733.49999999999989
 31
0.0
  0
LINE
  5
4E0
  8
DATA
  6
CONTINUOUS
 62
     7
 10
191.00000000000011
 20
735.5
 30
0.0
 11
191.50000000000011
 21
735.0
 31
0.0
  0
LINE
  5
4E1
  8
DATA
  6
CONTINUOUS
 62
     7
 10
191.00000000000011
 20
735.5
 30
0.0
 11
193.00000000000011
 21
735.5
 31
0.0
  0
LINE
  5
4E2
  8
DATA
  6
CONTINUOUS
 62
     7
 10
193.00000000000011
 20
735.5
 30
0.0
 11
192.50000000000011
 21
735.0
 31
0.0
  0
LINE
  5
4E3
  8
DATA
  6
CONTINUOUS
 62
     7
 10
189.0
 20
736.0
 30
0.0
 11
191.00000000000011
 21
736.0
 31
0.0
  0
LINE
  5
4E4
  8
DATA
  6
CONTINUOUS
 62
     7
 10
189.0
 20
736.0
 30
0.0
 11
189.0
 21
737.5
 31
0.0
  0
LINE
  5
4E5
  8
DATA
  6
CONTINUOUS
 62
     7
 10
189.0
 20
737.5
 30
0.0
 11
191.00000000000011
 21
737.5
 31
0.0
  0
LINE
  5
4E6
  8
DATA
  6
CONTINUOUS
 62
     7
 10
191.00000000000011
 20
737.5
 30
0.0
 11
191.00000000000011
 21
736.0
 31
0.0
  0
LINE
  5
4E7
  8
DATA
  6
CONTINUOUS
 62
     7
 10
189.0
 20
738.0
 30
0.0
 11
189.50000000000011
 21
737.5
 31
0.0
  0
LINE
  5
4E8
  8
DATA
  6
CONTINUOUS
 62
     7
 10
189.0
 20
738.0
 30
0.0
 11
191.00000000000011
 21
738.0
 31
0.0
  0
LINE
  5
4E9
  8
DATA
  6
CONTINUOUS
 62
     7
 10
191.00000000000011
 20
738.0
 30
0.0
 11
190.50000000000011
 21
737.5
 31
0.0
  0
LINE
  5
4EA
  8
DATA
  6
CONTINUOUS
 62
     7
 10
193.00000000000011
 20
736.0
 30
0.0
 11
195.00000000000011
 21
736.0
 31
0.0
  0
LINE
  5
4EB
  8
DATA
  6
CONTINUOUS
 62
     7
 10
193.00000000000011
 20
736.0
 30
0.0
 11
193.00000000000011
 21
737.5
 31
0.0
  0
LINE
  5
4EC
  8
DATA
  6
CONTINUOUS
 62
     7
 10
193.00000000000011
 20
737.5
 30
0.0
 11
195.00000000000011
 21
737.5
 31
0.0
  0
LINE
  5
4ED
  8
DATA
  6
CONTINUOUS
 62
     7
 10
195.00000000000011
 20
737.5
 30
0.0
 11
195.00000000000011
 21
736.0
 31
0.0
  0
LINE
  5
4EE
  8
DATA
  6
CONTINUOUS
 62
     7
 10
193.00000000000011
 20
738.0
 30
0.0
 11
193.50000000000011
 21
737.5
 31
0.0
  0
LINE
  5
4EF
  8
DATA
  6
CONTINUOUS
 62
     7
 10
193.00000000000011
 20
738.0
 30
0.0
 11
195.00000000000011
 21
738.0
 31
0.0
  0
LINE
  5
4F0
  8
DATA
  6
CONTINUOUS
 62
     7
 10
195.00000000000011
 20
738.0
 30
0.0
 11
194.50000000000011
 21
737.5
 31
0.0
  0
LINE
  5
4F1
  8
DATA
  6
CONTINUOUS
 62
     7
 10
191.85355339059331
 20
735.64644660940644
 30
0.0
 11
191.14644660940669
 21
736.35355339059322
 31
0.0
  0
LINE
  5
4F2
  8
DATA
  6
CONTINUOUS
 62
     7
 10
191.50000000000011
 20
736.74999999999989
 30
0.0
 11
192.50000000000011
 21
736.74999999999989
 31
0.0
  0
CIRCLE
  5
4F3
  8
DATA
  6
CONTINUOUS
 62
     7
 10
309.0
 20
722.0
 30
0.0
 40
4.8499999999999641
  0
LINE
  5
4F4
  8
DATA
  6
CONTINUOUS
 62
     7
 10
303.44999999999999
 20
721.0
 30
0.0
 11
303.44999999999999
 21
723.0
 31
0.0
  0
LINE
  5
4F5
  8
DATA
  6
CONTINUOUS
 62
     7
 10
303.44999999999999
 20
723.0
 30
0.0
 11
304.25421239413311
 21
723.0
 31
0.0
  0
LINE
  5
4F6
  8
DATA
  6
CONTINUOUS
 62
     7
 10
303.44999999999999
 20
721.0
 30
0.0
 11
304.25421239413311
 21
721.00000000001421
 31
0.0
  0
LINE
  5
4F7
  8
DATA
  6
CONTINUOUS
 62
     7
 10
314.5499999999999
 20
721.0
 30
0.0
 11
314.5499999999999
 21
723.0
 31
0.0
  0
LINE
  5
4F8
  8
DATA
  6
CONTINUOUS
 62
     7
 10
314.5499999999999
 20
723.0
 30
0.0
 11
313.74578760586689
 21
723.0
 31
0.0
  0
LINE
  5
4F9
  8
DATA
  6
CONTINUOUS
 62
     7
 10
314.5499999999999
 20
721.0
 30
0.0
 11
313.74578760586689
 21
721.00000000001421
 31
0.0
  0
CIRCLE
  5
4FA
  8
DATA
  6
CONTINUOUS
 62
     7
 10
309.0
 20
722.0
 30
0.0
 40
2.25
  0
CIRCLE
  5
4FB
  8
DATA
  6
CONTINUOUS
 62
     7
 10
309.0
 20
722.0
 30
0.0
 40
1.0
  0
CIRCLE
  5
4FC
  8
DATA
  6
CONTINUOUS
 62
     7
 10
309.0
 20
722.0
 30
0.0
 40
5.7499999999999432
  0
CIRCLE
  5
4FD
  8
DATA
  6
CONTINUOUS
 62
     7
 10
309.0
 20
722.0
 30
0.0
 40
8.0
  0
POLYLINE
  5
4FE
  8
DATA
  6
CONTINUOUS
 62
     7
 66
     1
 10
0.0
 20
0.0
 30
0.0
 70
     1
  0
VERTEX
  5
601
  8
DATA
  6
CONTINUOUS
 62
     7
 10
300.99999999999989
 20
722.0
 30
0.0
  0
VERTEX
  5
602
  8
DATA
  6
CONTINUOUS
 62
     7
 10
305.0
 20
715.07179676972441
 30
0.0
  0
VERTEX
  5
603
  8
DATA
  6
CONTINUOUS
 62
     7
 10
313.0
 20
715.07179676972441
 30
0.0
  0
VERTEX
  5
604
  8
DATA
  6
CONTINUOUS
 62
     7
 10
317.0
 20
722.0
 30
0.0
  0
VERTEX
  5
605
  8
DATA
  6
CONTINUOUS
 62
     7
 10
313.0
 20
728.92820323027559
 30
0.0
  0
VERTEX
  5
606
  8
DATA
  6
CONTINUOUS
 62
     7
 10
305.0
 20
728.92820323027559
 30
0.0
  0
SEQEND
  5
607
  8
DATA
  6
CONTINUOUS
 62
     7
  0
TEXT
  5
507
  8
DATA
 62
     7
 10
315.0000001668929
 20
710.08000000000004
 30
0.0
 40
2.30859375
  1
RF B out
 50
180.0
 41
0.7
 11
315.0000001668929
 21
707.77140625000004
 31
0.0
 73
     3
  0
TEXT
  5
508
  8
DATA
 62
     7
 10
257.24999997814501
 20
730.86399999999969
 30
0.0
 40
1.846875
  1
lift
 50
180.0
 41
0.7
 11
257.24999997814501
 21
729.01712499999985
 31
0.0
 73
     3
  0
TEXT
  5
509
  8
DATA
 62
     7
 10
257.24999997814501
 20
734.86399999999969
 30
0.0
 40
1.846875
  1
GND
 50
180.0
 41
0.7
 11
257.24999997814501
 21
733.01712499999985
 31
0.0
 73
     3
  0
TEXT
  5
50A
  8
DATA
 62
     7
 10
305.23033712176829
 20
731.01694942845643
 30
0.0
 40
1.846875
  1
line
 50
180.0
 41
0.7
 11
305.23033712176829
 21
729.17007442845647
 31
0.0
 73
     3
  0
TEXT
  5
50B
  8
DATA
 62
     7
 10
304.23033712176829
 20
735.01694942845643
 30
0.0
 40
1.846875
  1
mic
 50
180.0
 41
0.7
 11
304.23033712176829
 21
733.17007442845647
 31
0.0
 73
     3
  0
TEXT
  5
50C
  8
DATA
 62
     7
 10
301.50000016689302
 20
713.36399999999992
 30
0.0
 40
1.846875
  1
balanced low z
 50
180.0
 41
0.7
 11
301.50000016689302
 21
711.51712499999985
 31
0.0
 73
     3
  0
TEXT
  5
50D
  8
DATA
 62
     7
 10
261.49999923706048
 20
708.08000000000004
 30
0.0
 40
2.30859375
  1
receiver 2 outputs
 50
180.0
 41
0.7
 11
261.49999923706048
 21
705.77140625000004
 31
0.0
 73
     3
  0
TEXT
  5
50E
  8
DATA
 62
     7
 10
247.99999995628991
 20
713.5799999999997
 30
0.0
 40
2.30859375
  1
200\U+03A9
 50
180.0
 41
0.7
 11
247.99999995628991
 21
711.27140624999981
 31
0.0
 73
     3
  0
LINE
  5
50F
  8
DATA
  6
CONTINUOUS
 62
     7
 10
69.000000000000071
 20
520.5
 30
0.0
 11
85.000000000000057
 21
520.5
 31
0.0
  0
LINE
  5
510
  8
DATA
  6
CONTINUOUS
 62
     7
 10
85.000000000000057
 20
522.5
 30
0.0
 11
85.000000000000057
 21
520.0
 31
0.0
  0
LINE
  5
511
  8
DATA
  6
CONTINUOUS
 62
     7
 10
85.000000000000057
 20
522.5
 30
0.0
 11
69.000000000000099
 21
522.5
 31
0.0
  0
LINE
  5
512
  8
DATA
  6
CONTINUOUS
 62
     7
 10
71.250000000000099
 20
525.49999999999989
 30
0.0
 11
71.250000000000099
 21
522.5
 31
0.0
  0
LINE
  5
513
  8
DATA
  6
CONTINUOUS
 62
     7
 10
82.75
 20
525.49999999999989
 30
0.0
 11
82.75
 21
522.5
 31
0.0
  0
LINE
  5
514
  8
DATA
  6
CONTINUOUS
 62
     7
 10
71.250000000000099
 20
525.49999999999989
 30
0.0
 11
82.75
 21
525.49999999999989
 31
0.0
  0
LINE
  5
515
  8
DATA
  6
CONTINUOUS
 62
     7
 10
71.250000000000099
 20
525.0
 30
0.0
 11
82.75
 21
525.49999999999989
 31
0.0
  0
LINE
  5
516
  8
DATA
  6
CONTINUOUS
 62
     7
 10
71.250000000000099
 20
524.0
 30
0.0
 11
82.75
 21
524.5
 31
0.0
  0
LINE
  5
517
  8
DATA
  6
CONTINUOUS
 62
     7
 10
71.250000000000099
 20
523.0
 30
0.0
 11
82.75
 21
523.5
 31
0.0
  0
LINE
  5
518
  8
DATA
  6
CONTINUOUS
 62
     7
 10
72.150000000000091
 20
536.0
 30
0.0
 11
72.150000000000091
 21
525.49999999999989
 31
0.0
  0
LINE
  5
519
  8
DATA
  6
CONTINUOUS
 62
     7
 10
81.850000000000023
 20
536.0
 30
0.0
 11
81.850000000000023
 21
525.49999999999989
 31
0.0
  0
LINE
  5
51A
  8
DATA
  6
CONTINUOUS
 62
     7
 10
72.150000000000091
 20
536.0
 30
0.0
 11
81.850000000000023
 21
536.0
 31
0.0
  0
LINE
  5
51B
  8
DATA
  6
CONTINUOUS
 62
     7
 10
69.000000000000099
 20
522.5
 30
0.0
 11
69.000000000000099
 21
520.0
 31
0.0
  0
LINE
  5
51C
  8
DATA
  6
CONTINUOUS
 62
     7
 10
73.000000000000099
 20
522.5
 30
0.0
 11
73.000000000000099
 21
520.5
 31
0.0
  0
LINE
  5
51D
  8
DATA
  6
CONTINUOUS
 62
     7
 10
81.000000000000099
 20
522.5
 30
0.0
 11
81.000000000000099
 21
520.5
 31
0.0
  0
LINE
  5
51E
  8
DATA
  6
CONTINUOUS
 62
     7
 10
71.450000000000045
 20
532.5
 30
0.0
 11
71.450000000000045
 21
531.0
 31
0.0
  0
LINE
  5
51F
  8
DATA
  6
CONTINUOUS
 62
     7
 10
71.450000000000045
 20
531.0
 30
0.0
 11
72.150000000000091
 21
531.0
 31
0.0
  0
LINE
  5
520
  8
DATA
  6
CONTINUOUS
 62
     7
 10
81.850000000000023
 20
531.0
 30
0.0
 11
82.550000000000068
 21
531.0
 31
0.0
  0
LINE
  5
521
  8
DATA
  6
CONTINUOUS
 62
     7
 10
82.550000000000068
 20
532.5
 30
0.0
 11
82.550000000000068
 21
531.0
 31
0.0
  0
LINE
  5
522
  8
DATA
  6
CONTINUOUS
 62
     7
 10
71.450000000000045
 20
532.5
 30
0.0
 11
72.150000000000091
 21
532.5
 31
0.0
  0
LINE
  5
523
  8
DATA
  6
CONTINUOUS
 62
     7
 10
81.850000000000023
 20
532.5
 30
0.0
 11
82.550000000000068
 21
532.5
 31
0.0
  0
CIRCLE
  5
524
  8
DATA
  6
CONTINUOUS
 62
     7
 10
58.5
 20
722.0
 30
0.0
 40
4.8499999999999641
  0
LINE
  5
525
  8
DATA
  6
CONTINUOUS
 62
     7
 10
52.949999999999932
 20
721.0
 30
0.0
 11
52.949999999999932
 21
723.0
 31
0.0
  0
LINE
  5
526
  8
DATA
  6
CONTINUOUS
 62
     7
 10
52.949999999999932
 20
723.0
 30
0.0
 11
53.754212394133113
 21
723.0
 31
0.0
  0
LINE
  5
527
  8
DATA
  6
CONTINUOUS
 62
     7
 10
52.949999999999932
 20
721.0
 30
0.0
 11
53.754212394133113
 21
721.00000000001421
 31
0.0
  0
LINE
  5
528
  8
DATA
  6
CONTINUOUS
 62
     7
 10
64.049999999999969
 20
721.0
 30
0.0
 11
64.049999999999969
 21
723.0
 31
0.0
  0
LINE
  5
529
  8
DATA
  6
CONTINUOUS
 62
     7
 10
64.049999999999969
 20
723.0
 30
0.0
 11
63.245787605866781
 21
723.0
 31
0.0
  0
LINE
  5
52A
  8
DATA
  6
CONTINUOUS
 62
     7
 10
64.049999999999969
 20
721.0
 30
0.0
 11
63.245787605866781
 21
721.00000000001421
 31
0.0
  0
CIRCLE
  5
52B
  8
DATA
  6
CONTINUOUS
 62
     7
 10
58.5
 20
722.0
 30
0.0
 40
2.25
  0
CIRCLE
  5
52C
  8
DATA
  6
CONTINUOUS
 62
     7
 10
58.5
 20
722.0
 30
0.0
 40
1.0
  0
CIRCLE
  5
52D
  8
DATA
  6
CONTINUOUS
 62
     7
 10
58.5
 20
722.0
 30
0.0
 40
5.7499999999999432
  0
CIRCLE
  5
52E
  8
DATA
  6
CONTINUOUS
 62
     7
 10
58.5
 20
722.0
 30
0.0
 40
8.0
  0
POLYLINE
  5
52F
  8
DATA
  6
CONTINUOUS
 62
     7
 66
     1
 10
0.0
 20
0.0
 30
0.0
 70
     1
  0
VERTEX
  5
608
  8
DATA
  6
CONTINUOUS
 62
     7
 10
50.499999999999901
 20
722.0
 30
0.0
  0
VERTEX
  5
609
  8
DATA
  6
CONTINUOUS
 62
     7
 10
54.5
 20
715.07179676972441
 30
0.0
  0
VERTEX
  5
60A
  8
DATA
  6
CONTINUOUS
 62
     7
 10
62.5
 20
715.07179676972441
 30
0.0
  0
VERTEX
  5
60B
  8
DATA
  6
CONTINUOUS
 62
     7
 10
66.5
 20
722.0
 30
0.0
  0
VERTEX
  5
60C
  8
DATA
  6
CONTINUOUS
 62
     7
 10
62.5
 20
728.92820323027559
 30
0.0
  0
VERTEX
  5
60D
  8
DATA
  6
CONTINUOUS
 62
     7
 10
54.5
 20
728.92820323027559
 30
0.0
  0
SEQEND
  5
60E
  8
DATA
  6
CONTINUOUS
 62
     7
  0
TEXT
  5
538
  8
DATA
 62
     7
 10
64.500000166893031
 20
710.08000000000004
 30
0.0
 40
2.30859375
  1
RF A out
 50
180.0
 41
0.7
 11
64.500000166893031
 21
707.77140625000004
 31
0.0
 73
     3
  0
CIRCLE
  5
539
  8
DATA
  6
CONTINUOUS
 62
     7
 10
77.000000000000043
 20
722.0
 30
0.0
 40
4.8499999999999641
  0
LINE
  5
53A
  8
DATA
  6
CONTINUOUS
 62
     7
 10
71.449999999999974
 20
721.0
 30
0.0
 11
71.449999999999974
 21
723.0
 31
0.0
  0
LINE
  5
53B
  8
DATA
  6
CONTINUOUS
 62
     7
 10
71.449999999999974
 20
723.0
 30
0.0
 11
72.254212394133162
 21
723.0
 31
0.0
  0
LINE
  5
53C
  8
DATA
  6
CONTINUOUS
 62
     7
 10
71.449999999999974
 20
721.0
 30
0.0
 11
72.254212394133162
 21
721.00000000001421
 31
0.0
  0
LINE
  5
53D
  8
DATA
  6
CONTINUOUS
 62
     7
 10
82.550000000000026
 20
721.0
 30
0.0
 11
82.550000000000026
 21
723.0
 31
0.0
  0
LINE
  5
53E
  8
DATA
  6
CONTINUOUS
 62
     7
 10
82.550000000000026
 20
723.0
 30
0.0
 11
81.745787605866823
 21
723.0
 31
0.0
  0
LINE
  5
53F
  8
DATA
  6
CONTINUOUS
 62
     7
 10
82.550000000000026
 20
721.0
 30
0.0
 11
81.745787605866823
 21
721.00000000001421
 31
0.0
  0
CIRCLE
  5
540
  8
DATA
  6
CONTINUOUS
 62
     7
 10
77.000000000000043
 20
722.0
 30
0.0
 40
2.25
  0
CIRCLE
  5
541
  8
DATA
  6
CONTINUOUS
 62
     7
 10
77.000000000000043
 20
722.0
 30
0.0
 40
1.0
  0
CIRCLE
  5
542
  8
DATA
  6
CONTINUOUS
 62
     7
 10
77.000000000000043
 20
722.0
 30
0.0
 40
5.7499999999999432
  0
CIRCLE
  5
543
  8
DATA
  6
CONTINUOUS
 62
     7
 10
77.000000000000043
 20
722.0
 30
0.0
 40
8.0
  0
POLYLINE
  5
544
  8
DATA
  6
CONTINUOUS
 62
     7
 66
     1
 10
0.0
 20
0.0
 30
0.0
 70
     1
  0
VERTEX
  5
60F
  8
DATA
  6
CONTINUOUS
 62
     7
 10
68.999999999999929
 20
722.0
 30
0.0
  0
VERTEX
  5
610
  8
DATA
  6
CONTINUOUS
 62
     7
 10
73.000000000000043
 20
715.07179676972441
 30
0.0
  0
VERTEX
  5
611
  8
DATA
  6
CONTINUOUS
 62
     7
 10
81.000000000000043
 20
715.07179676972441
 30
0.0
  0
VERTEX
  5
612
  8
DATA
  6
CONTINUOUS
 62
     7
 10
85.000000000000057
 20
722.0
 30
0.0
  0
VERTEX
  5
613
  8
DATA
  6
CONTINUOUS
 62
     7
 10
81.000000000000043
 20
728.92820323027559
 30
0.0
  0
VERTEX
  5
614
  8
DATA
  6
CONTINUOUS
 62
     7
 10
73.000000000000043
 20
728.92820323027559
 30
0.0
  0
SEQEND
  5
615
  8
DATA
  6
CONTINUOUS
 62
     7
  0
TEXT
  5
54D
  8
DATA
 62
     7
 10
86.250000021855044
 20
710.08000000000004
 30
0.0
 40
2.30859375
  1
antenna A in
 50
180.0
 41
0.7
 11
86.250000021855044
 21
707.77140625000004
 31
0.0
 73
     3
  0
LINE
  5
54E
  8
DATA
  6
CONTINUOUS
 62
     7
 10
75.700000000000003
 20
734.49999999999989
 30
0.0
 11
76.300000000000026
 21
734.49999999999989
 31
0.0
  0
LINE
  5
54F
  8
DATA
  6
CONTINUOUS
 62
     7
 10
74.5
 20
734.49999999999989
 30
0.0
 11
75.100000000000023
 21
734.49999999999989
 31
0.0
  0
LINE
  5
550
  8
DATA
  6
CONTINUOUS
 62
     7
 10
77.0
 20
734.49999999999989
 30
0.0
 11
77.600000000000023
 21
734.49999999999989
 31
0.0
  0
LINE
  5
551
  8
DATA
  6
CONTINUOUS
 62
     7
 10
74.5
 20
733.49999999999989
 30
0.0
 11
77.5
 21
733.49999999999989
 31
0.0
  0
TEXT
  5
552
  8
DATA
 62
     7
 10
84.499999956289898
 20
735.03194919243117
 30
0.0
 40
1.846875
  1
12.7V
 50
180.0
 41
0.7
 11
84.499999956289898
 21
733.18507419243133
 31
0.0
 73
     3
  0
TEXT
  5
553
  8
DATA
 62
     7
 10
73.999999831120192
 20
734.86399999999969
 30
0.0
 40
1.846875
  1
out
 50
180.0
 41
0.7
 11
73.999999831120192
 21
733.01712499999985
 31
0.0
 73
     3
  0
TEXT
  5
554
  8
DATA
 62
     7
 10
78.999999831120192
 20
737.75075134594806
 30
0.0
 40
1.846875
  1
150mA
 50
180.0
 41
0.7
 11
78.999999831120192
 21
735.90387634594822
 31
0.0
 73
     3
  0
LINE
  5
555
  8
DATA
  6
CONTINUOUS
 62
     7
 10
67.500000000000071
 20
712.5
 30
0.0
 11
67.500000000000071
 21
731.5
 31
0.0
  0
LINE
  5
556
  8
DATA
  6
CONTINUOUS
 62
     7
 10
86.500000000000028
 20
712.5
 30
0.0
 11
67.500000000000071
 21
712.5
 31
0.0
  0
LINE
  5
557
  8
DATA
  6
CONTINUOUS
 62
     7
 10
67.500000000000071
 20
731.5
 30
0.0
 11
86.500000000000028
 21
731.5
 31
0.0
  0
LINE
  5
558
  8
DATA
  6
CONTINUOUS
 62
     7
 10
86.500000000000028
 20
712.5
 30
0.0
 11
86.500000000000028
 21
731.5
 31
0.0
  0
ENDSEC
  0
EOF
