  0
SECTION
  2
HEADER
  9
$ACADVER
  1
AC1009
  9
$INSBASE
 10
0.0
 20
0.0
 30
0.0
  9
$EXTMIN
 10
-350.02746372486848
 20
-531.24263549549005
 30
-0.0015258207003583
  9
$EXTMAX
 10
550.02746791582013
 20
804.17534592390302
 30
0.0000000349246037
  9
$LIMMIN
 10
0.0
 20
0.0
  9
$LIMMAX
 10
0.0
 20
0.0
  9
$ORTHOMODE
 70
     0
  9
$REGENMODE
 70
     1
  9
$FILLMODE
 70
     1
  9
$QTEXTMODE
 70
     0
  9
$MIRRTEXT
 70
     1
  9
$DRAGMODE
 70
     2
  9
$LTSCALE
 40
25.399999999999999
  9
$OSMODE
 70
   231
  9
$ATTMODE
 70
     1
  9
$TEXTSIZE
 40
0.0
  9
$TRACEWID
 40
1.0
  9
$TEXTSTYLE
  7
STANDARD
  9
$CLAYER
  8
DATA
  9
$CELTYPE
  6
BYLAYER
  9
$CECOLOR
 62
   256
  9
$DIMSCALE
 40
1.0
  9
$DIMASZ
 40
0.18
  9
$DIMEXO
 40
0.0625
  9
$DIMDLI
 40
0.38
  9
$DIMRND
 40
0.0
  9
$DIMDLE
 40
0.0
  9
$DIMEXE
 40
0.18
  9
$DIMTP
 40
0.0
  9
$DIMTM
 40
0.0
  9
$DIMTXT
 40
0.18
  9
$DIMCEN
 40
0.09
  9
$DIMTSZ
 40
0.0
  9
$DIMTOL
 70
     0
  9
$DIMLIM
 70
     0
  9
$DIMTIH
 70
     1
  9
$DIMTOH
 70
     1
  9
$DIMSE1
 70
     0
  9
$DIMSE2
 70
     0
  9
$DIMTAD
 70
     0
  9
$DIMZIN
 70
     0
  9
$DIMBLK
  1

  9
$DIMASO
 70
     1
  9
$DIMSHO
 70
     1
  9
$DIMPOST
  1

  9
$DIMAPOST
  1

  9
$DIMALT
 70
     0
  9
$DIMALTD
 70
     2
  9
$DIMALTF
 40
25.399999999999999
  9
$DIMLFAC
 40
1.0
  9
$DIMTOFL
 70
     0
  9
$DIMTVP
 40
0.0
  9
$DIMTIX
 70
     0
  9
$DIMSOXD
 70
     0
  9
$DIMSAH
 70
     0
  9
$DIMBLK1
  1

  9
$DIMBLK2
  1

  9
$DIMSTYLE
  2
STANDARD
  9
$DIMCLRD
 70
     0
  9
$DIMCLRE
 70
     0
  9
$DIMCLRT
 70
     0
  9
$DIMTFAC
 40
1.0
  9
$DIMGAP
 40
0.09
  9
$LUNITS
 70
     2
  9
$LUPREC
 70
     4
  9
$SKETCHINC
 40
0.1
  9
$FILLETRAD
 40
0.0
  9
$AUNITS
 70
     0
  9
$AUPREC
 70
     0
  9
$MENU
  1
acad
  9
$ELEVATION
 40
0.0
  9
$PELEVATION
 40
0.0
  9
$THICKNESS
 40
0.0
  9
$LIMCHECK
 70
     0
  9
$BLIPMODE
 70
     0
  9
$CHAMFERA
 40
0.0
  9
$CHAMFERB
 40
0.0
  9
$SKPOLY
 70
     0
  9
$TDCREATE
 40
2455989.7321990738
  9
$TDUPDATE
 40
2455989.7335754051
  9
$TDINDWG
 40
0.000265081
  9
$TDUSRTIMER
 40
0.0002643634
  9
$USRTIMER
 70
     1
  9
$ANGBASE
 50
0.0
  9
$ANGDIR
 70
     0
  9
$PDMODE
 70
     1
  9
$PDSIZE
 40
-2.0
  9
$PLINEWID
 40
0.0
  9
$COORDS
 70
     2
  9
$SPLFRAME
 70
     0
  9
$SPLINETYPE
 70
     6
  9
$SPLINESEGS
 70
     8
  9
$ATTDIA
 70
     0
  9
$ATTREQ
 70
     1
  9
$HANDLING
 70
     1
  9
$HANDSEED
  5
AA2
  9
$SURFTAB1
 70
     6
  9
$SURFTAB2
 70
     6
  9
$SURFTYPE
 70
     6
  9
$SURFU
 70
     6
  9
$SURFV
 70
     6
  9
$UCSNAME
  2

  9
$UCSORG
 10
0.0
 20
0.0
 30
0.0
  9
$UCSXDIR
 10
1.0
 20
0.0
 30
0.0
  9
$UCSYDIR
 10
0.0
 20
1.0
 30
0.0
  9
$PUCSNAME
  2

  9
$PUCSORG
 10
0.0
 20
0.0
 30
0.0
  9
$PUCSXDIR
 10
1.0
 20
0.0
 30
0.0
  9
$PUCSYDIR
 10
0.0
 20
1.0
 30
0.0
  9
$USERI1
 70
     0
  9
$USERI2
 70
     0
  9
$USERI3
 70
     0
  9
$USERI4
 70
     0
  9
$USERI5
 70
     0
  9
$USERR1
 40
0.0
  9
$USERR2
 40
0.0
  9
$USERR3
 40
0.0
  9
$USERR4
 40
0.0
  9
$USERR5
 40
0.0
  9
$WORLDVIEW
 70
     1
  9
$SHADEDGE
 70
     3
  9
$SHADEDIF
 70
    70
  9
$TILEMODE
 70
     1
  9
$MAXACTVP
 70
    64
  9
$PLIMCHECK
 70
     0
  9
$PEXTMIN
 10
1.0000000000000000E+020
 20
1.0000000000000000E+020
 30
1.0000000000000000E+020
  9
$PEXTMAX
 10
-1.0000000000000000E+020
 20
-1.0000000000000000E+020
 30
-1.0000000000000000E+020
  9
$PLIMMIN
 10
0.0
 20
0.0
  9
$PLIMMAX
 10
12.0
 20
9.0
  9
$UNITMODE
 70
     0
  9
$VISRETAIN
 70
     0
  9
$PLINEGEN
 70
     1
  9
$PSLTSCALE
 70
     0
  0
ENDSEC
  0
SECTION
  2
TABLES
  0
TABLE
  2
VPORT
 70
     1
  0
VPORT
  2
*ACTIVE
 70
     0
 10
0.0
 20
0.0
 11
1.0
 21
1.0
 12
100.00000209547591
 22
136.46635521420649
 13
0.0
 23
0.0
 14
1.0
 24
1.0
 15
0.0
 25
0.0
 16
0.0
 26
0.0
 36
1.0
 17
0.0
 27
0.0
 37
0.0
 40
1345.864536684734
 41
2.1540469973890342
 42
50.0
 43
0.0
 44
0.0
 50
0.0
 51
0.0
 71
     0
 72
  2000
 73
     1
 74
     1
 75
     0
 76
     0
 77
     0
 78
     0
  0
ENDTAB
  0
TABLE
  2
LTYPE
 70
    11
  0
LTYPE
  2
CONTINUOUS
 70
     0
  3
Solid line
 72
    65
 73
     0
 40
0.0
  0
ENDTAB
  0
TABLE
  2
LAYER
 70
     6
  0
LAYER
  2
0
 70
     0
 62
     7
  6
CONTINUOUS
  0
LAYER
  2
DATA
 70
     0
 62
     7
  6
CONTINUOUS
  0
LAYER
  2
HIBINO-BASE
 70
     0
 62
     7
  6
CONTINUOUS
  0
LAYER
  2
SPEC
 70
     0
 62
     7
  6
CONTINUOUS
  0
LAYER
  2
DIMNSIONS
 70
     0
 62
     7
  6
CONTINUOUS
  0
ENDTAB
  0
TABLE
  2
STYLE
 70
     3
  0
STYLE
  2
STANDARD
 70
     0
 40
0.0
 41
1.0
 50
0.0
 71
     0
 42
0.0
  3
txt
  4
BIGFONT.SHX
  0
STYLE
  2
_______
 70
     0
 40
0.0
 41
1.0
 50
0.0
 71
     0
 42
0.0
  3
txt
  4
ＭＳ ゴシック
  0
ENDTAB
  0
TABLE
  2
VIEW
 70
     0
  0
ENDTAB
  0
TABLE
  2
UCS
 70
     0
  0
ENDTAB
  0
TABLE
  2
APPID
 70
     4
  0
APPID
  2
ACAD
 70
     0
  0
APPID
  2
ACADANNOTATIVE
 70
     0
  0
APPID
  2
ACAD_NAV_VCDISPLAY
 70
     0
  0
APPID
  2
ACAD_MLEADERVER
 70
     0
  0
ENDTAB
  0
TABLE
  2
DIMSTYLE
 70
     2
  0
DIMSTYLE
  2
STANDARD
 70
     0
  3

  4

  5

  6

  7

 40
1.0
 41
0.18
 42
0.0625
 43
0.38
 44
0.18
 45
0.0
 46
0.0
 47
0.0
 48
0.0
140
0.18
141
0.09
142
0.0
143
25.399999999999999
144
1.0
145
0.0
146
1.0
147
0.09
 71
     0
 72
     0
 73
     1
 74
     1
 75
     0
 76
     0
 77
     0
 78
     0
170
     0
171
     2
172
     0
173
     0
174
     0
175
     0
176
     0
177
     0
178
     0
  0
ENDTAB
  0
ENDSEC
  0
SECTION
  2
BLOCKS
  0
BLOCK
  8
0
  2
$MODEL_SPACE
 70
     0
 10
0.0
 20
0.0
 30
0.0
  3
$MODEL_SPACE
  1

  0
ENDBLK
  5
76C
  8
0
  0
BLOCK
 67
     1
  8
0
  2
$PAPER_SPACE
 70
     0
 10
0.0
 20
0.0
 30
0.0
  3
$PAPER_SPACE
  1

  0
ENDBLK
  5
768
 67
     1
  8
0
  0
ENDSEC
  0
SECTION
  2
ENTITIES
  0
LINE
  5
2D
  8
HIBINO-BASE
  6
CONTINUOUS
 62
     7
 10
549.99999999999989
 20
-495.86540842053631
 30
0.0
 11
-350.0
 21
-495.86540842053631
 31
0.0
  0
LINE
  5
2E
  8
HIBINO-BASE
  6
CONTINUOUS
 62
     7
 10
-350.0
 20
-495.86540842053631
 30
0.0
 11
-350.0
 21
804.13459157946363
 31
0.0
  0
LINE
  5
2F
  8
HIBINO-BASE
  6
CONTINUOUS
 62
     7
 10
549.99999999999989
 20
804.13459157946363
 30
0.0
 11
549.99999999999989
 21
-495.86540842053631
 31
0.0
  0
LINE
  5
30
  8
HIBINO-BASE
  6
CONTINUOUS
 62
     7
 10
100.0
 20
-383.36540842053631
 30
0.0
 11
549.99999999999989
 21
-383.36540842053631
 31
0.0
  0
LINE
  5
31
  8
HIBINO-BASE
  6
CONTINUOUS
 62
     7
 10
100.0
 20
-495.86540842053631
 30
0.0
 11
100.0
 21
-383.36540842053631
 31
0.0
  0
TEXT
  5
32
  8
HIBINO-BASE
 62
     7
 10
104.5
 20
-395.90887508720289
 30
0.0
 40
8.1442057291666661
  1
NOTE
  7
_______
 11
104.5
 21
-387.76466935803631
 31
0.0
 73
     3
  0
LINE
  5
33
  8
HIBINO-BASE
  6
CONTINUOUS
 62
     7
 10
275.0
 20
-495.86540842053631
 30
0.0
 11
275.0
 21
-383.36540842053631
 31
0.0
  0
TEXT
  5
34
  8
HIBINO-BASE
 62
     7
 10
279.5
 20
-395.90887508720289
 30
0.0
 40
8.1442057291666661
  1
TITLE
  7
_______
 11
279.5
 21
-387.76466935803631
 31
0.0
 73
     3
  0
LINE
  5
35
  8
HIBINO-BASE
  6
CONTINUOUS
 62
     7
 10
100.0
 20
-445.8654084205362
 30
0.0
 11
549.99999999999989
 21
-445.8654084205362
 31
0.0
  0
TEXT
  5
36
  8
HIBINO-BASE
 62
     7
 10
342.0
 20
-458.1272750872028
 30
0.0
 40
8.1442057291666661
  1
DRAWN
  7
_______
 11
342.0
 21
-449.98306935803618
 31
0.0
 73
     3
  0
TEXT
  5
37
  8
HIBINO-BASE
 62
     7
 10
217.0
 20
-458.1272750872028
 30
0.0
 40
8.1442057291666661
  1
DATE
  7
_______
 11
217.0
 21
-449.98306935803618
 31
0.0
 73
     3
  0
TEXT
  5
38
  8
HIBINO-BASE
 62
     7
 10
167.0
 20
-458.1272750872028
 30
0.0
 40
8.1442057291666661
  1
SCALE
  7
_______
 11
167.0
 21
-449.98306935803618
 31
0.0
 73
     3
  0
TEXT
  5
39
  8
HIBINO-BASE
 62
     7
 10
279.5
 20
-458.1272750872028
 30
0.0
 40
8.1442057291666661
  1
DESIGN
  7
_______
 11
279.5
 21
-449.98306935803618
 31
0.0
 73
     3
  0
TEXT
  5
3A
  8
HIBINO-BASE
 62
     7
 10
467.0
 20
-458.1272750872028
 30
0.0
 40
8.1442057291666661
  1
DRAWING NO.
  7
_______
 11
467.0
 21
-449.98306935803618
 31
0.0
 73
     3
  0
TEXT
  5
3B
  8
HIBINO-BASE
 62
     7
 10
404.49999999999989
 20
-458.1272750872028
 30
0.0
 40
8.1442057291666661
  1
CHECK
  7
_______
 11
404.49999999999989
 21
-449.98306935803618
 31
0.0
 73
     3
  0
LINE
  5
3C
  8
HIBINO-BASE
  6
CONTINUOUS
 62
     7
 10
171.875
 20
-489.61540842053631
 30
0.0
 11
190.625
 21
-470.8654084205362
 31
0.0
  0
TEXT
  5
3D
  8
HIBINO-BASE
 62
     7
 10
168.75
 20
-476.41012508720291
 30
0.0
 40
8.1442057291666661
  1
1
  7
_______
 11
168.75
 21
-468.26591935803617
 31
0.0
 73
     3
  0
LINE
  5
3E
  8
HIBINO-BASE
  6
CONTINUOUS
 62
     7
 10
162.5
 20
-495.86540842053631
 30
0.0
 11
162.5
 21
-445.8654084205362
 31
0.0
  0
LINE
  5
3F
  8
HIBINO-BASE
  6
CONTINUOUS
 62
     7
 10
212.5
 20
-495.86540842053631
 30
0.0
 11
212.5
 21
-445.8654084205362
 31
0.0
  0
LINE
  5
40
  8
HIBINO-BASE
  6
CONTINUOUS
 62
     7
 10
337.5
 20
-445.8654084205362
 30
0.0
 11
337.5
 21
-495.86540842053631
 31
0.0
  0
LINE
  5
41
  8
HIBINO-BASE
  6
CONTINUOUS
 62
     7
 10
462.5
 20
-445.8654084205362
 30
0.0
 11
462.5
 21
-495.86540842053631
 31
0.0
  0
LINE
  5
42
  8
HIBINO-BASE
  6
CONTINUOUS
 62
     7
 10
400.0
 20
-495.86540842053631
 30
0.0
 11
400.0
 21
-445.8654084205362
 31
0.0
  0
TEXT
  5
43
  8
HIBINO-BASE
 62
     7
 10
216.78270000000001
 20
-481.5471750872029
 30
0.0
 40
8.1442057291666661
  1
'12.03.
  7
_______
 11
216.78270000000001
 21
-473.40296935803627
 31
0.0
 73
     3
  0
TEXT
  5
44
  8
HIBINO-BASE
 62
     7
 10
187.5
 20
-485.78512508720291
 30
0.0
 40
8.1442057291666661
  1
5
  7
_______
 11
187.5
 21
-477.64091935803617
 31
0.0
 73
     3
  0
TEXT
  5
45
  8
HIBINO-BASE
 62
     7
 10
345.02905005517312
 20
-481.5471750872029
 30
0.0
 40
8.1442057291666661
  1
Ootake
  7
_______
 11
345.02905005517312
 21
-473.40296935803627
 31
0.0
 73
     3
  0
TEXT
  5
46
  8
HIBINO-BASE
 62
     7
 10
119.4166666666667
 20
-485.98540842053632
 30
0.0
 40
16.288411458333329
  1
A4
  7
_______
 11
119.4166666666667
 21
-469.69699696220289
 31
0.0
 73
     3
  0
TEXT
  5
47
  8
HIBINO-BASE
 62
     7
 10
104.7916666666666
 20
-458.96268342053628
 30
0.0
 40
8.1442057291666661
  1
PAPER SIZE
  7
_______
 11
104.7916666666666
 21
-450.81847769136959
 31
0.0
 73
     3
  0
TEXT
  5
48
  8
HIBINO-BASE
 62
     7
 10
-336.20182371554898
 20
-527.99160959141761
 30
0.0
 40
17.645779079861111
  1
Hibino-Intersound Corporation
  7
_______
 11
-336.20182371554898
 21
-510.34583051155641
 31
0.0
 73
     3
  0
TEXT
  5
49
  8
HIBINO-BASE
 62
     7
 10
200.9030484010695
 20
-526.23616832497055
 30
0.0
 40
17.645779079861111
  1
ヒビノインターサウンド株式会社
  7
_______
 11
200.9030484010695
 21
-508.59038924510941
 31
0.0
 73
     3
  0
LINE
  5
4A
  8
HIBINO-BASE
  6
CONTINUOUS
 62
     7
 10
-350.0
 20
804.13459157946363
 30
0.0
 11
549.99999999999989
 21
804.13459157946363
 31
0.0
  0
LINE
  5
4B
  8
SPEC
  6
CONTINUOUS
 62
     7
 10
-312.5
 20
754.13459157946352
 30
0.0
 11
425.0
 21
754.13459157946352
 31
0.0
  0
LINE
  5
4C
  8
SPEC
  6
CONTINUOUS
 62
     7
 10
-312.5
 20
735.38459157946352
 30
0.0
 11
425.0
 21
735.38459157946352
 31
0.0
  0
LINE
  5
4D
  8
SPEC
  6
CONTINUOUS
 62
     7
 10
-312.5
 20
697.88459157946352
 30
0.0
 11
425.0
 21
697.88459157946352
 31
0.0
  0
LINE
  5
4E
  8
SPEC
  6
CONTINUOUS
 62
     7
 10
-312.5
 20
716.63459157946352
 30
0.0
 11
425.0
 21
716.63459157946352
 31
0.0
  0
LINE
  5
4F
  8
SPEC
  6
CONTINUOUS
 62
     7
 10
-312.5
 20
754.13459157946352
 30
0.0
 11
-312.5
 21
435.38459157946357
 31
0.0
  0
TEXT
  5
50
  8
SPEC
 62
     7
 10
-306.25
 20
761.10094157946355
 30
0.0
 40
12.21630859375
  1
仕様
  7
_______
 11
-306.25
 21
773.31725017321355
 31
0.0
 73
     3
  0
LINE
  5
51
  8
SPEC
  6
CONTINUOUS
 62
     7
 10
-150.0
 20
754.13459157946352
 30
0.0
 11
-150.0
 21
435.38459157946357
 31
0.0
  0
LINE
  5
52
  8
SPEC
  6
CONTINUOUS
 62
     7
 10
425.0
 20
754.13459157946352
 30
0.0
 11
425.0
 21
435.38459157946357
 31
0.0
  0
LINE
  5
53
  8
SPEC
  6
CONTINUOUS
 62
     7
 10
-312.5
 20
679.13459157946352
 30
0.0
 11
425.0
 21
679.13459157946352
 31
0.0
  0
LINE
  5
54
  8
SPEC
  6
CONTINUOUS
 62
     7
 10
-312.5
 20
660.38459157946352
 30
0.0
 11
425.0
 21
660.38459157946352
 31
0.0
  0
LINE
  5
55
  8
SPEC
  6
CONTINUOUS
 62
     7
 10
-312.5
 20
641.63459157946363
 30
0.0
 11
425.0
 21
641.63459157946363
 31
0.0
  0
LINE
  5
56
  8
SPEC
  6
CONTINUOUS
 62
     7
 10
-312.5
 20
622.88459157946363
 30
0.0
 11
425.0
 21
622.88459157946363
 31
0.0
  0
LINE
  5
57
  8
SPEC
  6
CONTINUOUS
 62
     7
 10
-312.5
 20
604.13459157946363
 30
0.0
 11
425.0
 21
604.13459157946363
 31
0.0
  0
LINE
  5
58
  8
SPEC
  6
CONTINUOUS
 62
     7
 10
-312.5
 20
585.38459157946363
 30
0.0
 11
425.0
 21
585.38459157946363
 31
0.0
  0
LINE
  5
59
  8
SPEC
  6
CONTINUOUS
 62
     7
 10
-312.5
 20
566.63459157946363
 30
0.0
 11
425.0
 21
566.63459157946363
 31
0.0
  0
LINE
  5
5A
  8
SPEC
  6
CONTINUOUS
 62
     7
 10
-312.5
 20
547.88459157946363
 30
0.0
 11
425.0
 21
547.88459157946363
 31
0.0
  0
LINE
  5
5B
  8
SPEC
  6
CONTINUOUS
 62
     7
 10
-312.5
 20
529.13459157946363
 30
0.0
 11
425.0
 21
529.13459157946363
 31
0.0
  0
LINE
  5
5C
  8
SPEC
  6
CONTINUOUS
 62
     7
 10
-312.5
 20
510.38459157946357
 30
0.0
 11
425.0
 21
510.38459157946357
 31
0.0
  0
TEXT
  5
5D
  8
SPEC
 62
     7
 10
-308.5883412912774
 20
459.22558003137402
 30
0.0
 40
9.5015733506944464
  1
寸法
  7
_______
 11
-308.5883412912774
 21
468.72715338206842
 31
0.0
 73
     3
  0
TEXT
  5
5E
  8
SPEC
 62
     7
 10
-145.07491292918391
 20
458.58514629188448
 30
0.0
 40
9.5015733506944464
  1
482(W)\U+00D744.5(H)\U+00D7181(D)mm(突起部含まず）
  7
_______
 11
-145.07491292918391
 21
468.08671964257888
 31
0.0
 73
     3
  0
TEXT
  5
5F
  8
SPEC
 62
     7
 10
-145.68988716742311
 20
440.92235538611612
 30
0.0
 40
9.5015733506944464
  1
約2.3Kg
  7
_______
 11
-145.68988716742311
 21
450.42392873681058
 31
0.0
 73
     3
  0
TEXT
  5
60
  8
SPEC
 62
     7
 10
-308.35411964266092
 20
440.51468502365577
 30
0.0
 40
9.5015733506944464
  1
重量
  7
_______
 11
-308.35411964266092
 21
450.01625837435029
 31
0.0
 73
     3
  0
TEXT
  5
61
  8
SPEC
 62
     7
 10
-308.09865309594551
 20
572.33443654941993
 30
0.0
 40
9.5015733506944464
  1
音声入力コネクター
  7
_______
 11
-308.09865309594551
 21
581.83600990011439
 31
0.0
 73
     3
  0
TEXT
  5
62
  8
SPEC
 62
     7
 10
-308.12431282083293
 20
553.28621193730635
 30
0.0
 40
9.5015733506944464
  1
音声出力コネクター
  7
_______
 11
-308.12431282083293
 21
562.78778528800092
 31
0.0
 73
     3
  0
LINE
  5
63
  8
SPEC
  6
CONTINUOUS
 62
     7
 10
-312.5
 20
491.63459157946357
 30
0.0
 11
425.0
 21
491.63459157946357
 31
0.0
  0
LINE
  5
64
  8
SPEC
  6
CONTINUOUS
 62
     7
 10
-312.5
 20
472.88459157946357
 30
0.0
 11
425.0
 21
472.88459157946357
 31
0.0
  0
LINE
  5
65
  8
SPEC
  6
CONTINUOUS
 62
     7
 10
-312.5
 20
454.13459157946357
 30
0.0
 11
425.0
 21
454.13459157946357
 31
0.0
  0
LINE
  5
66
  8
SPEC
  6
CONTINUOUS
 62
     7
 10
-312.5
 20
435.38459157946357
 30
0.0
 11
425.0
 21
435.38459157946357
 31
0.0
  0
TEXT
  5
67
  8
SPEC
 62
     7
 10
-309.1584674917213
 20
533.90535080221832
 30
0.0
 40
9.5015733506944464
  1
シリアル
  7
_______
 11
-309.1584674917213
 21
543.40692415291278
 31
0.0
 73
     3
  0
TEXT
  5
68
  8
SPEC
 62
     7
 10
-308.39481545910979
 20
515.17074777222751
 30
0.0
 40
9.5015733506944464
  1
電源コネクター
  7
_______
 11
-308.39481545910979
 21
524.67232112292197
 31
0.0
 73
     3
  0
TEXT
  5
69
  8
SPEC
 62
     7
 10
-308.31388027270151
 20
496.73734062084731
 30
0.0
 40
9.5015733506944464
  1
電源
  7
_______
 11
-308.31388027270151
 21
506.23891397154171
 31
0.0
 73
     3
  0
TEXT
  5
6A
  8
SPEC
 62
     7
 10
-308.41187964526
 20
477.58046641174599
 30
0.0
 40
9.5015733506944464
  1
消費電力
  7
_______
 11
-308.41187964526
 21
487.0820397624405
 31
0.0
 73
     3
  0
TEXT
  5
6B
  8
SPEC
 62
     7
 10
-308.1633817865017
 20
740.02327136847589
 30
0.0
 40
9.5015733506944464
  1
入力チャンネル数
  7
_______
 11
-308.1633817865017
 21
749.52484471917035
 31
0.0
 73
     3
  0
TEXT
  5
6C
  8
SPEC
 62
     7
 10
-145.5866391227344
 20
740.25785467869514
 30
0.0
 40
9.5015733506944464
  1
2
  7
_______
 11
-145.5866391227344
 21
749.75942802938948
 31
0.0
 73
     3
  0
TEXT
  5
6D
  8
SPEC
 62
     7
 10
-308.25954094745288
 20
721.25129524991712
 30
0.0
 40
9.5015733506944464
  1
入力インピーダンス
  7
_______
 11
-308.25954094745288
 21
730.75286860061146
 31
0.0
 73
     3
  0
TEXT
  5
6E
  8
SPEC
 62
     7
 10
-146.13070053063879
 20
721.29169785103011
 30
0.0
 40
9.5015733506944464
  1
10k\U+03A9　電子バランス
  7
_______
 11
-146.13070053063879
 21
730.79327120172456
 31
0.0
 73
     3
  0
TEXT
  5
6F
  8
SPEC
 62
     7
 10
-145.49144642125759
 20
702.18965492713403
 30
0.0
 40
9.5015733506944464
  1
100\U+03A9 インピーダンスバランス
  7
_______
 11
-145.49144642125759
 21
711.69122827782849
 31
0.0
 73
     3
  0
TEXT
  5
70
  8
SPEC
 62
     7
 10
-308.0361373099056
 20
684.46551490059323
 30
0.0
 40
9.5015733506944464
  1
最大入力レベル
  7
_______
 11
-308.0361373099056
 21
693.96708825128769
 31
0.0
 73
     3
  0
TEXT
  5
71
  8
SPEC
 62
     7
 10
-145.0140879663301
 20
683.89727677180656
 30
0.0
 40
9.5015733506944464
  1
+20dBu
  7
_______
 11
-145.0140879663301
 21
693.39885012250102
 31
0.0
 73
     3
  0
TEXT
  5
72
  8
SPEC
 62
     7
 10
-308.01427477688338
 20
665.52999765311995
 30
0.0
 40
9.5015733506944464
  1
最大出力レベル
  7
_______
 11
-308.01427477688338
 21
675.03157100381441
 31
0.0
 73
     3
  0
TEXT
  5
73
  8
SPEC
 62
     7
 10
-145.27987394400759
 20
665.14678013523394
 30
0.0
 40
9.5015733506944464
  1
+20dBu(600\U+03A9負荷時) 
  7
_______
 11
-145.27987394400759
 21
674.6483534859284
 31
0.0
 73
     3
  0
TEXT
  5
74
  8
SPEC
 62
     7
 10
-308.19223993026861
 20
646.96575213762026
 30
0.0
 40
9.5015733506944464
  1
サンプルレート
  7
_______
 11
-308.19223993026861
 21
656.46732548831471
 31
0.0
 73
     3
  0
TEXT
  5
75
  8
SPEC
 62
     7
 10
-145.49144642125759
 20
646.40327492013171
 30
0.0
 40
9.5015733506944464
  1
96kHz
  7
_______
 11
-145.49144642125759
 21
655.90484827082605
 31
0.0
 73
     3
  0
TEXT
  5
76
  8
SPEC
 62
     7
 10
-308.09391983196463
 20
628.22520597557218
 30
0.0
 40
9.5015733506944464
  1
周波数特性
  7
_______
 11
-308.09391983196463
 21
637.72677932626675
 31
0.0
 73
     3
  0
TEXT
  5
77
  8
SPEC
 62
     7
 10
-145.2539917446434
 20
627.19891116356985
 30
0.0
 40
9.5015733506944464
  1
20Hz～20kHz +/-0.5dB、10Hz～40kHz +/-3dB
  7
_______
 11
-145.2539917446434
 21
636.70048451426442
 31
0.0
 73
     3
  0
TEXT
  5
78
  8
SPEC
 62
     7
 10
-309.00028388956429
 20
609.05571855894755
 30
0.0
 40
9.5015733506944464
  1
ダイナミックレンジ
  7
_______
 11
-309.00028388956429
 21
618.55729190964189
 31
0.0
 73
     3
  0
TEXT
  5
79
  8
SPEC
 62
     7
 10
-146.2038104511
 20
608.70756109222145
 30
0.0
 40
9.5015733506944464
  1
112dB(Aウェイト、22kHz)
  7
_______
 11
-146.2038104511
 21
618.20913444291602
 31
0.0
 73
     3
  0
TEXT
  5
7A
  8
SPEC
 62
     7
 10
-308.0409046755874
 20
590.50705651622945
 30
0.0
 40
9.5015733506944464
  1
THD(20Hz～20KHz)
  7
_______
 11
-308.0409046755874
 21
600.00862986692391
 31
0.0
 73
     3
  0
TEXT
  5
7B
  8
SPEC
 62
     7
 10
-145.33389318372059
 20
590.07914699815262
 30
0.0
 40
9.5015733506944464
  1
0.008%%% 平均
  7
_______
 11
-145.33389318372059
 21
599.58072034884697
 31
0.0
 73
     3
  0
TEXT
  5
7C
  8
SPEC
 62
     7
 10
-308.69326238662018
 20
702.57712997204987
 30
0.0
 40
9.5015733506944464
  1
出力インピーダンス
  7
_______
 11
-308.69326238662018
 21
712.07870332274445
 31
0.0
 73
     3
  0
TEXT
  5
7D
  8
SPEC
 62
     7
 10
-145.33389318372059
 20
571.48670023568945
 30
0.0
 40
9.5015733506944464
  1
3ピン、メス、XLR
  7
_______
 11
-145.33389318372059
 21
580.98827358638391
 31
0.0
 73
     3
  0
TEXT
  5
7E
  8
SPEC
 62
     7
 10
-145.177584293601
 20
552.26092965453586
 30
0.0
 40
9.5015733506944464
  1
3ピン、オス、XLR
  7
_______
 11
-145.177584293601
 21
561.76250300523043
 31
0.0
 73
     3
  0
TEXT
  5
7F
  8
SPEC
 62
     7
 10
-145.49144642125759
 20
533.54848567121951
 30
0.0
 40
9.5015733506944464
  1
RS232 ポート、D-Sub9ピン、メス
  7
_______
 11
-145.49144642125759
 21
543.05005902191385
 31
0.0
 73
     3
  0
TEXT
  5
80
  8
SPEC
 62
     7
 10
-145.2563290622835
 20
514.56499612865662
 30
0.0
 40
9.5015733506944464
  1
3ピン IEC
  7
_______
 11
-145.2563290622835
 21
524.06656947935096
 31
0.0
 73
     3
  0
TEXT
  5
81
  8
SPEC
 62
     7
 10
-145.49144642125759
 20
495.84381719899181
 30
0.0
 40
9.5015733506944464
  1
100V AC、50/60Hz
  7
_______
 11
-145.49144642125759
 21
505.34539054968621
 31
0.0
 73
     3
  0
TEXT
  5
82
  8
SPEC
 62
     7
 10
-145.0230686481932
 20
477.8084205414483
 30
0.0
 40
9.5015733506944464
  1
最大25W
  7
_______
 11
-145.0230686481932
 21
487.30999389214281
 31
0.0
 73
     3
  0
TEXT
  5
83
  8
DIMNSIONS
 62
     7
 10
-0.0000000000000149
 20
-434.51795842053627
 30
0.0
 40
12.21630859375
  1
(単位：mm)
  7
_______
 11
-0.0000000000000142
 21
-422.30164982678627
 31
0.0
 73
     3
  0
LINE
  5
84
  8
DIMNSIONS
  6
CONTINUOUS
 62
     7
 10
-247.5
 20
-206.25
 30
0.0
 11
-297.5
 21
-206.25
 31
0.0
  0
LINE
  5
85
  8
DIMNSIONS
  6
CONTINUOUS
 62
     7
 10
-247.5
 20
-161.75
 30
0.0
 11
-297.5
 21
-161.75
 31
0.0
  0
LINE
  5
86
  8
DIMNSIONS
  6
CONTINUOUS
 62
     7
 10
-287.5
 20
-206.25
 30
0.0
 11
-287.5
 21
-161.75
 31
0.0
  0
LINE
  5
87
  8
DIMNSIONS
  6
CONTINUOUS
 62
     7
 10
-287.5
 20
-206.25
 30
0.0
 11
-290.8501989757512
 21
-193.74688720703119
 31
0.0
  0
LINE
  5
88
  8
DIMNSIONS
  6
CONTINUOUS
 62
     7
 10
-287.5
 20
-206.25
 30
0.0
 11
-284.1498010242488
 21
-193.74688720703119
 31
0.0
  0
LINE
  5
89
  8
DIMNSIONS
  6
CONTINUOUS
 62
     7
 10
-287.5
 20
-161.75
 30
0.0
 11
-284.1498010242488
 21
-174.25311279296869
 31
0.0
  0
LINE
  5
8A
  8
DIMNSIONS
  6
CONTINUOUS
 62
     7
 10
-287.5
 20
-161.75
 30
0.0
 11
-290.8501989757512
 21
-174.25311279296869
 31
0.0
  0
TEXT
  5
8B
  8
DIMNSIONS
 62
     7
 10
-292.46944444444449
 20
-201.63888888888891
 30
0.0
 40
13.57367621527778
  1
44.5
 50
90.0
  7
_______
 11
-306.04312065972232
 21
-201.63888888888891
 31
0.0
 73
     3
  0
LINE
  5
8C
  8
DIMNSIONS
  6
CONTINUOUS
 62
     7
 10
-237.5
 20
-216.25
 30
0.0
 11
-237.5
 21
-266.25
 31
0.0
  0
LINE
  5
8D
  8
DIMNSIONS
  6
CONTINUOUS
 62
     7
 10
244.5
 20
-216.25
 30
0.0
 11
244.5
 21
-266.25
 31
0.0
  0
LINE
  5
8E
  8
DIMNSIONS
  6
CONTINUOUS
 62
     7
 10
-237.5
 20
-256.25
 30
0.0
 11
244.5
 21
-256.25
 31
0.0
  0
LINE
  5
8F
  8
DIMNSIONS
  6
CONTINUOUS
 62
     7
 10
-237.5
 20
-256.25
 30
0.0
 11
-224.99688720703119
 21
-252.8998010242488
 31
0.0
  0
LINE
  5
90
  8
DIMNSIONS
  6
CONTINUOUS
 62
     7
 10
-237.5
 20
-256.25
 30
0.0
 11
-224.99688720703119
 21
-259.6001989757512
 31
0.0
  0
LINE
  5
91
  8
DIMNSIONS
  6
CONTINUOUS
 62
     7
 10
244.5
 20
-256.25
 30
0.0
 11
231.99688720703131
 21
-259.6001989757512
 31
0.0
  0
LINE
  5
92
  8
DIMNSIONS
  6
CONTINUOUS
 62
     7
 10
244.5
 20
-256.25
 30
0.0
 11
231.99688720703131
 21
-252.8998010242488
 31
0.0
  0
TEXT
  5
93
  8
DIMNSIONS
 62
     7
 10
-9.7291666666666856
 20
-251.28055555555551
 30
0.0
 40
13.57367621527778
  1
482
  7
_______
 11
-9.7291666666666856
 21
-237.70687934027771
 31
0.0
 73
     3
  0
LINE
  5
94
  8
DIMNSIONS
  6
CONTINUOUS
 62
     7
 10
-247.5
 20
-93.75
 30
0.0
 11
-266.25
 21
-93.75
 31
0.0
  0
LINE
  5
95
  8
DIMNSIONS
  6
CONTINUOUS
 62
     7
 10
-247.5
 20
-90.750000000000014
 30
0.0
 11
-266.25
 21
-90.750000000000014
 31
0.0
  0
LINE
  5
96
  8
DIMNSIONS
  6
CONTINUOUS
 62
     7
 10
-256.25
 20
-90.750000000000014
 30
0.0
 11
-256.25
 21
-93.75
 31
0.0
  0
LINE
  5
97
  8
DIMNSIONS
  6
CONTINUOUS
 62
     7
 10
-256.25
 20
-93.75
 30
0.0
 11
-256.25
 21
-118.75
 31
0.0
  0
LINE
  5
98
  8
DIMNSIONS
  6
CONTINUOUS
 62
     7
 10
-256.25
 20
-93.75
 30
0.0
 11
-252.8998010242488
 21
-106.25311279296869
 31
0.0
  0
LINE
  5
99
  8
DIMNSIONS
  6
CONTINUOUS
 62
     7
 10
-256.25
 20
-93.75
 30
0.0
 11
-259.6001989757512
 21
-106.25311279296869
 31
0.0
  0
LINE
  5
9A
  8
DIMNSIONS
  6
CONTINUOUS
 62
     7
 10
-256.25
 20
-90.750000000000014
 30
0.0
 11
-256.25
 21
-78.680555555555543
 31
0.0
  0
LINE
  5
9B
  8
DIMNSIONS
  6
CONTINUOUS
 62
     7
 10
-256.25
 20
-90.750000000000014
 30
0.0
 11
-259.6001989757512
 21
-78.24688720703125
 31
0.0
  0
LINE
  5
9C
  8
DIMNSIONS
  6
CONTINUOUS
 62
     7
 10
-256.25
 20
-90.750000000000014
 30
0.0
 11
-252.8998010242488
 21
-78.24688720703125
 31
0.0
  0
TEXT
  5
9D
  8
DIMNSIONS
 62
     7
 10
-261.21944444444449
 20
-87.5
 30
0.0
 40
13.57367621527778
  1
3
 50
90.0
  7
_______
 11
-274.79312065972232
 21
-87.5
 31
0.0
 73
     3
  0
LINE
  5
9E
  8
DIMNSIONS
  6
CONTINUOUS
 62
     7
 10
-247.5
 20
-93.75
 30
0.0
 11
-297.5
 21
-93.75
 31
0.0
  0
LINE
  5
9F
  8
DIMNSIONS
  6
CONTINUOUS
 62
     7
 10
-223.0
 20
87.249999999999986
 30
0.0
 11
-297.5
 21
87.249999999999986
 31
0.0
  0
LINE
  5
A0
  8
DIMNSIONS
  6
CONTINUOUS
 62
     7
 10
-287.5
 20
-93.75
 30
0.0
 11
-287.5
 21
87.249999999999986
 31
0.0
  0
LINE
  5
A1
  8
DIMNSIONS
  6
CONTINUOUS
 62
     7
 10
-287.5
 20
-93.75
 30
0.0
 11
-290.8501989757512
 21
-81.246887207031236
 31
0.0
  0
LINE
  5
A2
  8
DIMNSIONS
  6
CONTINUOUS
 62
     7
 10
-287.5
 20
-93.75
 30
0.0
 11
-284.1498010242488
 21
-81.246887207031236
 31
0.0
  0
LINE
  5
A3
  8
DIMNSIONS
  6
CONTINUOUS
 62
     7
 10
-287.5
 20
87.249999999999986
 30
0.0
 11
-284.1498010242488
 21
74.74688720703125
 31
0.0
  0
LINE
  5
A4
  8
DIMNSIONS
  6
CONTINUOUS
 62
     7
 10
-287.5
 20
87.249999999999986
 30
0.0
 11
-290.8501989757512
 21
74.74688720703125
 31
0.0
  0
TEXT
  5
A5
  8
DIMNSIONS
 62
     7
 10
-292.46944444444449
 20
-16.479166666666679
 30
0.0
 40
13.57367621527778
  1
181
 50
90.0
  7
_______
 11
-306.04312065972232
 21
-16.479166666666679
 31
0.0
 73
     3
  0
LINE
  5
A6
  8
DIMNSIONS
  6
CONTINUOUS
 62
     7
 10
-223.0
 20
87.249999999999986
 30
0.0
 11
-297.5
 21
87.249999999999986
 31
0.0
  0
LINE
  5
A7
  8
DIMNSIONS
  6
CONTINUOUS
 62
     7
 10
-208.99999500000001
 20
91.25
 30
0.0
 11
-297.5
 21
91.25
 31
0.0
  0
LINE
  5
A8
  8
DIMNSIONS
  6
CONTINUOUS
 62
     7
 10
-287.5
 20
91.25
 30
0.0
 11
-287.5
 21
87.249999999999986
 31
0.0
  0
LINE
  5
A9
  8
DIMNSIONS
  6
CONTINUOUS
 62
     7
 10
-287.5
 20
87.249999999999986
 30
0.0
 11
-287.5
 21
62.25
 31
0.0
  0
LINE
  5
AA
  8
DIMNSIONS
  6
CONTINUOUS
 62
     7
 10
-287.5
 20
87.249999999999986
 30
0.0
 11
-284.1498010242488
 21
74.74688720703125
 31
0.0
  0
LINE
  5
AB
  8
DIMNSIONS
  6
CONTINUOUS
 62
     7
 10
-287.5
 20
87.249999999999986
 30
0.0
 11
-290.8501989757512
 21
74.74688720703125
 31
0.0
  0
LINE
  5
AC
  8
DIMNSIONS
  6
CONTINUOUS
 62
     7
 10
-287.5
 20
91.25
 30
0.0
 11
-287.5
 21
108.8194444444444
 31
0.0
  0
LINE
  5
AD
  8
DIMNSIONS
  6
CONTINUOUS
 62
     7
 10
-287.5
 20
91.25
 30
0.0
 11
-290.8501989757512
 21
103.75311279296869
 31
0.0
  0
LINE
  5
AE
  8
DIMNSIONS
  6
CONTINUOUS
 62
     7
 10
-287.5
 20
91.25
 30
0.0
 11
-284.1498010242488
 21
103.75311279296869
 31
0.0
  0
TEXT
  5
AF
  8
DIMNSIONS
 62
     7
 10
-292.46944444444449
 20
100.0
 30
0.0
 40
13.57367621527778
  1
4
 50
90.0
  7
_______
 11
-306.04312065972232
 21
100.0
 31
0.0
 73
     3
  0
LINE
  5
B0
  8
DIMNSIONS
  6
CONTINUOUS
 62
     7
 10
-213.0
 20
97.250000000000014
 30
0.0
 11
-213.0
 21
135.0
 31
0.0
  0
LINE
  5
B1
  8
DIMNSIONS
  6
CONTINUOUS
 62
     7
 10
220.0
 20
97.250000000000014
 30
0.0
 11
220.0
 21
135.0
 31
0.0
  0
LINE
  5
B2
  8
DIMNSIONS
  6
CONTINUOUS
 62
     7
 10
-213.0
 20
125.0
 30
0.0
 11
220.0
 21
125.0
 31
0.0
  0
LINE
  5
B3
  8
DIMNSIONS
  6
CONTINUOUS
 62
     7
 10
-213.0
 20
125.0
 30
0.0
 11
-200.49688720703131
 21
128.3501989757512
 31
0.0
  0
LINE
  5
B4
  8
DIMNSIONS
  6
CONTINUOUS
 62
     7
 10
-213.0
 20
125.0
 30
0.0
 11
-200.49688720703131
 21
121.6498010242488
 31
0.0
  0
LINE
  5
B5
  8
DIMNSIONS
  6
CONTINUOUS
 62
     7
 10
220.0
 20
125.0
 30
0.0
 11
207.49688720703119
 21
121.6498010242488
 31
0.0
  0
LINE
  5
B6
  8
DIMNSIONS
  6
CONTINUOUS
 62
     7
 10
220.0
 20
125.0
 30
0.0
 11
207.49688720703119
 21
128.3501989757512
 31
0.0
  0
TEXT
  5
B7
  8
DIMNSIONS
 62
     7
 10
-9.7291666666666856
 20
129.96944444444449
 30
0.0
 40
13.57367621527778
  1
433
  7
_______
 11
-9.7291666666666856
 21
143.54312065972221
 31
0.0
 73
     3
  0
LINE
  5
B8
  8
DIMNSIONS
  6
CONTINUOUS
 62
     7
 10
-247.5
 20
-93.75
 30
0.0
 11
-297.5
 21
-93.75
 31
0.0
  0
LINE
  5
B9
  8
DIMNSIONS
  6
CONTINUOUS
 62
     7
 10
10.09999999999998
 20
-104.75
 30
0.0
 11
-297.5
 21
-104.75
 31
0.0
  0
LINE
  5
BA
  8
DIMNSIONS
  6
CONTINUOUS
 62
     7
 10
-287.5
 20
-104.75
 30
0.0
 11
-287.5
 21
-93.75
 31
0.0
  0
LINE
  5
BB
  8
DIMNSIONS
  6
CONTINUOUS
 62
     7
 10
-287.5
 20
-93.75
 30
0.0
 11
-287.5
 21
-68.75
 31
0.0
  0
LINE
  5
BC
  8
DIMNSIONS
  6
CONTINUOUS
 62
     7
 10
-287.5
 20
-93.75
 30
0.0
 11
-290.8501989757512
 21
-81.246887207031236
 31
0.0
  0
LINE
  5
BD
  8
DIMNSIONS
  6
CONTINUOUS
 62
     7
 10
-287.5
 20
-93.75
 30
0.0
 11
-284.1498010242488
 21
-81.246887207031236
 31
0.0
  0
LINE
  5
BE
  8
DIMNSIONS
  6
CONTINUOUS
 62
     7
 10
-287.5
 20
-104.75
 30
0.0
 11
-287.5
 21
-130.13888888888891
 31
0.0
  0
LINE
  5
BF
  8
DIMNSIONS
  6
CONTINUOUS
 62
     7
 10
-287.5
 20
-104.75
 30
0.0
 11
-284.1498010242488
 21
-117.25311279296869
 31
0.0
  0
LINE
  5
C0
  8
DIMNSIONS
  6
CONTINUOUS
 62
     7
 10
-287.5
 20
-104.75
 30
0.0
 11
-290.8501989757512
 21
-117.25311279296869
 31
0.0
  0
TEXT
  5
C1
  8
DIMNSIONS
 62
     7
 10
-292.46944444444449
 20
-130.13888888888891
 30
0.0
 40
13.57367621527778
  1
11
 50
90.0
  7
_______
 11
-306.04312065972232
 21
-130.13888888888891
 31
0.0
 73
     3
  0
TEXT
  5
C2
  8
DATA
 62
     7
 10
349.69257588315492
 20
-439.76096304632398
 30
0.0
 40
12.21630859375
  1
DNC260N
  7
_______
 11
349.69257588315492
 21
-427.54465445257409
 31
0.0
 73
     3
  0
TEXT
  5
C3
  8
DATA
 62
     7
 10
-300.0
 20
-474.6754084205362
 30
0.0
 40
8.1442057291666661
  1
仕様および外観は予告なく変更されることがありますので、ご了承ください。
  7
_______
 11
-300.0
 21
-466.53120269136957
 31
0.0
 73
     3
  0
TEXT
  5
C4
  8
DATA
 62
     7
 10
337.7560095900933
 20
-419.4997522737238
 30
0.0
 40
8.1442057291666661
  1
デジタルシステムコントローラー
  7
_______
 11
337.7560095900933
 21
-411.355546544557
 31
0.0
 73
     3
  0
LINE
  5
C5
  8
DATA
  6
CONTINUOUS
 62
     7
 10
-237.5
 20
-203.25
 30
0.0
 11
-237.5
 21
-164.75
 31
0.0
  0
LINE
  5
C6
  8
DATA
  6
CONTINUOUS
 62
     7
 10
241.5
 20
-206.25
 30
0.0
 11
-234.5
 21
-206.25
 31
0.0
  0
LINE
  5
C7
  8
DATA
  6
CONTINUOUS
 62
     7
 10
244.5
 20
-164.75
 30
0.0
 11
244.5
 21
-203.25
 31
0.0
  0
LINE
  5
C8
  8
DATA
  6
CONTINUOUS
 62
     7
 10
-234.5
 20
-161.75
 30
0.0
 11
241.5
 21
-161.75
 31
0.0
  0
LINE
  5
C9
  8
DATA
  6
CONTINUOUS
 62
     7
 10
-237.5
 20
-93.75
 30
0.0
 11
-237.5
 21
-90.750000000000014
 31
0.0
  0
LINE
  5
CA
  8
DATA
  6
CONTINUOUS
 62
     7
 10
244.5
 20
-93.75
 30
0.0
 11
-237.5
 21
-93.75
 31
0.0
  0
LINE
  5
CB
  8
DATA
  6
CONTINUOUS
 62
     7
 10
244.5
 20
-90.750000000000014
 30
0.0
 11
244.5
 21
-93.75
 31
0.0
  0
LINE
  5
CC
  8
DATA
  6
CONTINUOUS
 62
     7
 10
-213.0
 20
87.249999999999986
 30
0.0
 11
220.0
 21
87.249999999999986
 31
0.0
  0
ARC
  5
CD
  8
DATA
  6
CONTINUOUS
 62
     7
 10
-226.69999999999999
 20
-168.09999999999999
 30
0.0
 40
3.1999999999999882
 50
270.0
 51
90.0
  0
ARC
  5
CE
  8
DATA
  6
CONTINUOUS
 62
     7
 10
-231.30000000000001
 20
-168.09999999999999
 30
0.0
 40
3.1999999999999882
 50
90.0
 51
270.0
  0
LINE
  5
CF
  8
DATA
  6
CONTINUOUS
 62
     7
 10
-226.69999999999999
 20
-164.90000000000001
 30
0.0
 11
-231.30000000000001
 21
-164.90000000000001
 31
0.0
  0
LINE
  5
D0
  8
DATA
  6
CONTINUOUS
 62
     7
 10
-226.69999999999999
 20
-171.30000000000001
 30
0.0
 11
-231.30000000000001
 21
-171.30000000000001
 31
0.0
  0
ARC
  5
D1
  8
DATA
  6
CONTINUOUS
 62
     7
 10
-226.69999999999999
 20
-199.90000000000001
 30
0.0
 40
3.1999999999999882
 50
270.0
 51
90.0
  0
ARC
  5
D2
  8
DATA
  6
CONTINUOUS
 62
     7
 10
-231.30000000000001
 20
-199.90000000000001
 30
0.0
 40
3.1999999999999882
 50
90.0
 51
270.0
  0
LINE
  5
D3
  8
DATA
  6
CONTINUOUS
 62
     7
 10
-226.69999999999999
 20
-196.69999999999999
 30
0.0
 11
-231.30000000000001
 21
-196.69999999999999
 31
0.0
  0
LINE
  5
D4
  8
DATA
  6
CONTINUOUS
 62
     7
 10
-226.69999999999999
 20
-203.09999999999999
 30
0.0
 11
-231.30000000000001
 21
-203.09999999999999
 31
0.0
  0
ARC
  5
D5
  8
DATA
  6
CONTINUOUS
 62
     7
 10
233.69999999999999
 20
-168.09999999999999
 30
0.0
 40
3.1999999999999882
 50
90.0
 51
270.0
  0
ARC
  5
D6
  8
DATA
  6
CONTINUOUS
 62
     7
 10
238.2999999999999
 20
-168.09999999999999
 30
0.0
 40
3.1999999999999882
 50
270.0
 51
90.0
  0
LINE
  5
D7
  8
DATA
  6
CONTINUOUS
 62
     7
 10
233.69999999999999
 20
-164.90000000000001
 30
0.0
 11
238.2999999999999
 21
-164.90000000000001
 31
0.0
  0
LINE
  5
D8
  8
DATA
  6
CONTINUOUS
 62
     7
 10
233.69999999999999
 20
-171.30000000000001
 30
0.0
 11
238.2999999999999
 21
-171.30000000000001
 31
0.0
  0
ARC
  5
D9
  8
DATA
  6
CONTINUOUS
 62
     7
 10
233.69999999999999
 20
-199.90000000000001
 30
0.0
 40
3.1999999999999882
 50
90.0
 51
270.0
  0
ARC
  5
DA
  8
DATA
  6
CONTINUOUS
 62
     7
 10
238.2999999999999
 20
-199.90000000000001
 30
0.0
 40
3.1999999999999882
 50
270.0
 51
90.0
  0
LINE
  5
DB
  8
DATA
  6
CONTINUOUS
 62
     7
 10
233.69999999999999
 20
-196.69999999999999
 30
0.0
 11
238.2999999999999
 21
-196.69999999999999
 31
0.0
  0
LINE
  5
DC
  8
DATA
  6
CONTINUOUS
 62
     7
 10
233.69999999999999
 20
-203.09999999999999
 30
0.0
 11
238.2999999999999
 21
-203.09999999999999
 31
0.0
  0
ARC
  5
DD
  8
DATA
  6
CONTINUOUS
 62
     7
 10
-234.5
 20
-164.75
 30
0.0
 40
3.0
 50
90.0
 51
180.0
  0
ARC
  5
DE
  8
DATA
  6
CONTINUOUS
 62
     7
 10
-234.5
 20
-203.25
 30
0.0
 40
3.0
 50
180.0
 51
270.0
  0
ARC
  5
DF
  8
DATA
  6
CONTINUOUS
 62
     7
 10
241.5
 20
-164.75
 30
0.0
 40
3.0
 50
0.0
 51
90.0
  0
ARC
  5
E0
  8
DATA
  6
CONTINUOUS
 62
     7
 10
241.5
 20
-203.25
 30
0.0
 40
3.0
 50
270.0
 51
0.0
  0
CIRCLE
  5
E1
  8
DATA
  6
CONTINUOUS
 62
     7
 10
-216.0
 20
-171.5
 30
0.0
 40
3.6499999999999759
  0
CIRCLE
  5
E2
  8
DATA
  6
CONTINUOUS
 62
     7
 10
-216.0
 20
-196.5
 30
0.0
 40
3.6499999999999759
  0
POLYLINE
  5
E3
  8
DATA
  6
CONTINUOUS
 62
     7
 66
     1
 10
0.0
 20
0.0
 30
0.0
 70
     1
  0
VERTEX
  5
79B
  8
DATA
  6
CONTINUOUS
 62
     7
 10
-216.80000000000001
 20
-172.88564064605521
 30
0.0
  0
VERTEX
  5
79C
  8
DATA
  6
CONTINUOUS
 62
     7
 10
-215.19999999999999
 20
-172.88564064605509
 30
0.0
  0
VERTEX
  5
79D
  8
DATA
  6
CONTINUOUS
 62
     7
 10
-214.39999999999989
 20
-171.5
 30
0.0
  0
VERTEX
  5
79E
  8
DATA
  6
CONTINUOUS
 62
     7
 10
-215.19999999999999
 20
-170.11435935394479
 30
0.0
  0
VERTEX
  5
79F
  8
DATA
  6
CONTINUOUS
 62
     7
 10
-216.8000000000001
 20
-170.11435935394479
 30
0.0
  0
VERTEX
  5
7A0
  8
DATA
  6
CONTINUOUS
 62
     7
 10
-217.60000000000011
 20
-171.5
 30
0.0
  0
SEQEND
  5
7A1
  8
DATA
  6
CONTINUOUS
 62
     7
  0
POLYLINE
  5
EC
  8
DATA
  6
CONTINUOUS
 62
     7
 66
     1
 10
0.0
 20
0.0
 30
0.0
 70
     1
  0
VERTEX
  5
7A2
  8
DATA
  6
CONTINUOUS
 62
     7
 10
-216.80000000000001
 20
-195.11435935394479
 30
0.0
  0
VERTEX
  5
7A3
  8
DATA
  6
CONTINUOUS
 62
     7
 10
-215.19999999999999
 20
-195.11435935394479
 30
0.0
  0
VERTEX
  5
7A4
  8
DATA
  6
CONTINUOUS
 62
     7
 10
-214.39999999999989
 20
-196.5
 30
0.0
  0
VERTEX
  5
7A5
  8
DATA
  6
CONTINUOUS
 62
     7
 10
-215.19999999999999
 20
-197.88564064605521
 30
0.0
  0
VERTEX
  5
7A6
  8
DATA
  6
CONTINUOUS
 62
     7
 10
-216.8000000000001
 20
-197.88564064605509
 30
0.0
  0
VERTEX
  5
7A7
  8
DATA
  6
CONTINUOUS
 62
     7
 10
-217.60000000000011
 20
-196.5
 30
0.0
  0
SEQEND
  5
7A8
  8
DATA
  6
CONTINUOUS
 62
     7
  0
CIRCLE
  5
F5
  8
DATA
  6
CONTINUOUS
 62
     7
 10
223.0
 20
-171.5
 30
0.0
 40
3.6499999999999759
  0
CIRCLE
  5
F6
  8
DATA
  6
CONTINUOUS
 62
     7
 10
223.0
 20
-196.5
 30
0.0
 40
3.6499999999999759
  0
POLYLINE
  5
F7
  8
DATA
  6
CONTINUOUS
 62
     7
 66
     1
 10
0.0
 20
0.0
 30
0.0
 70
     1
  0
VERTEX
  5
7A9
  8
DATA
  6
CONTINUOUS
 62
     7
 10
223.80000000000001
 20
-172.88564064605521
 30
0.0
  0
VERTEX
  5
7AA
  8
DATA
  6
CONTINUOUS
 62
     7
 10
222.1999999999999
 20
-172.88564064605509
 30
0.0
  0
VERTEX
  5
7AB
  8
DATA
  6
CONTINUOUS
 62
     7
 10
221.39999999999989
 20
-171.5
 30
0.0
  0
VERTEX
  5
7AC
  8
DATA
  6
CONTINUOUS
 62
     7
 10
222.19999999999999
 20
-170.11435935394479
 30
0.0
  0
VERTEX
  5
7AD
  8
DATA
  6
CONTINUOUS
 62
     7
 10
223.8000000000001
 20
-170.11435935394479
 30
0.0
  0
VERTEX
  5
7AE
  8
DATA
  6
CONTINUOUS
 62
     7
 10
224.60000000000011
 20
-171.5
 30
0.0
  0
SEQEND
  5
7AF
  8
DATA
  6
CONTINUOUS
 62
     7
  0
POLYLINE
  5
100
  8
DATA
  6
CONTINUOUS
 62
     7
 66
     1
 10
0.0
 20
0.0
 30
0.0
 70
     1
  0
VERTEX
  5
7B0
  8
DATA
  6
CONTINUOUS
 62
     7
 10
223.80000000000001
 20
-195.11435935394479
 30
0.0
  0
VERTEX
  5
7B1
  8
DATA
  6
CONTINUOUS
 62
     7
 10
222.1999999999999
 20
-195.11435935394479
 30
0.0
  0
VERTEX
  5
7B2
  8
DATA
  6
CONTINUOUS
 62
     7
 10
221.39999999999989
 20
-196.5
 30
0.0
  0
VERTEX
  5
7B3
  8
DATA
  6
CONTINUOUS
 62
     7
 10
222.19999999999999
 20
-197.88564064605521
 30
0.0
  0
VERTEX
  5
7B4
  8
DATA
  6
CONTINUOUS
 62
     7
 10
223.8000000000001
 20
-197.88564064605509
 30
0.0
  0
VERTEX
  5
7B5
  8
DATA
  6
CONTINUOUS
 62
     7
 10
224.60000000000011
 20
-196.5
 30
0.0
  0
SEQEND
  5
7B6
  8
DATA
  6
CONTINUOUS
 62
     7
  0
LINE
  5
109
  8
DATA
  6
CONTINUOUS
 62
     7
 10
-84.500000000000014
 20
-176.25
 30
0.0
 11
3.4999999999999849
 21
-176.25
 31
0.0
  0
LINE
  5
10A
  8
DATA
  6
CONTINUOUS
 62
     7
 10
-84.500000000000014
 20
-191.25
 30
0.0
 11
3.4999999999999849
 21
-191.25
 31
0.0
  0
LINE
  5
10B
  8
DATA
  6
CONTINUOUS
 62
     7
 10
-86.500000000000014
 20
-189.25
 30
0.0
 11
-86.500000000000014
 21
-178.25
 31
0.0
  0
LINE
  5
10C
  8
DATA
  6
CONTINUOUS
 62
     7
 10
5.4999999999999849
 20
-189.25
 30
0.0
 11
5.4999999999999849
 21
-178.25
 31
0.0
  0
ARC
  5
10D
  8
DATA
  6
CONTINUOUS
 62
     7
 10
-84.500000000000014
 20
-178.25
 30
0.0
 40
2.0
 50
90.0
 51
180.0
  0
ARC
  5
10E
  8
DATA
  6
CONTINUOUS
 62
     7
 10
-84.500000000000014
 20
-189.25
 30
0.0
 40
2.0
 50
180.0
 51
270.0
  0
ARC
  5
10F
  8
DATA
  6
CONTINUOUS
 62
     7
 10
3.4999999999999849
 20
-178.25
 30
0.0
 40
2.0
 50
0.0
 51
90.0
  0
ARC
  5
110
  8
DATA
  6
CONTINUOUS
 62
     7
 10
3.4999999999999849
 20
-189.25
 30
0.0
 40
2.0
 50
270.0
 51
0.0
  0
LINE
  5
111
  8
DATA
  6
CONTINUOUS
 62
     7
 10
-165.5
 20
-196.0
 30
0.0
 11
-165.5
 21
-187.0
 31
0.0
  0
LINE
  5
112
  8
DATA
  6
CONTINUOUS
 62
     7
 10
-165.5
 20
-181.0
 30
0.0
 11
-165.5
 21
-172.0
 31
0.0
  0
LINE
  5
113
  8
DATA
  6
CONTINUOUS
 62
     7
 10
-156.5
 20
-196.0
 30
0.0
 11
-156.5
 21
-187.0
 31
0.0
  0
LINE
  5
114
  8
DATA
  6
CONTINUOUS
 62
     7
 10
-156.5
 20
-181.0
 30
0.0
 11
-156.5
 21
-172.0
 31
0.0
  0
LINE
  5
115
  8
DATA
  6
CONTINUOUS
 62
     7
 10
-165.5
 20
-181.0
 30
0.0
 11
-156.5
 21
-181.0
 31
0.0
  0
LINE
  5
116
  8
DATA
  6
CONTINUOUS
 62
     7
 10
-165.5
 20
-172.0
 30
0.0
 11
-156.5
 21
-172.0
 31
0.0
  0
LINE
  5
117
  8
DATA
  6
CONTINUOUS
 62
     7
 10
-165.5
 20
-187.0
 30
0.0
 11
-156.5
 21
-187.0
 31
0.0
  0
LINE
  5
118
  8
DATA
  6
CONTINUOUS
 62
     7
 10
-165.5
 20
-196.0
 30
0.0
 11
-156.5
 21
-196.0
 31
0.0
  0
LINE
  5
119
  8
DATA
  6
CONTINUOUS
 62
     7
 10
-133.5
 20
-196.0
 30
0.0
 11
-133.5
 21
-187.0
 31
0.0
  0
LINE
  5
11A
  8
DATA
  6
CONTINUOUS
 62
     7
 10
-133.5
 20
-181.0
 30
0.0
 11
-133.5
 21
-172.0
 31
0.0
  0
LINE
  5
11B
  8
DATA
  6
CONTINUOUS
 62
     7
 10
-124.5
 20
-196.0
 30
0.0
 11
-124.5
 21
-187.0
 31
0.0
  0
LINE
  5
11C
  8
DATA
  6
CONTINUOUS
 62
     7
 10
-124.5
 20
-181.0
 30
0.0
 11
-124.5
 21
-172.0
 31
0.0
  0
LINE
  5
11D
  8
DATA
  6
CONTINUOUS
 62
     7
 10
-133.5
 20
-181.0
 30
0.0
 11
-124.5
 21
-181.0
 31
0.0
  0
LINE
  5
11E
  8
DATA
  6
CONTINUOUS
 62
     7
 10
-133.5
 20
-172.0
 30
0.0
 11
-124.5
 21
-172.0
 31
0.0
  0
LINE
  5
11F
  8
DATA
  6
CONTINUOUS
 62
     7
 10
-133.5
 20
-187.0
 30
0.0
 11
-124.5
 21
-187.0
 31
0.0
  0
LINE
  5
120
  8
DATA
  6
CONTINUOUS
 62
     7
 10
-133.5
 20
-196.0
 30
0.0
 11
-124.5
 21
-196.0
 31
0.0
  0
LINE
  5
121
  8
DATA
  6
CONTINUOUS
 62
     7
 10
-116.0
 20
-196.0
 30
0.0
 11
-116.0
 21
-187.0
 31
0.0
  0
LINE
  5
122
  8
DATA
  6
CONTINUOUS
 62
     7
 10
-116.0
 20
-181.0
 30
0.0
 11
-116.0
 21
-172.0
 31
0.0
  0
LINE
  5
123
  8
DATA
  6
CONTINUOUS
 62
     7
 10
-107.0
 20
-196.0
 30
0.0
 11
-107.0
 21
-187.0
 31
0.0
  0
LINE
  5
124
  8
DATA
  6
CONTINUOUS
 62
     7
 10
-107.0
 20
-181.0
 30
0.0
 11
-107.0
 21
-172.0
 31
0.0
  0
LINE
  5
125
  8
DATA
  6
CONTINUOUS
 62
     7
 10
-116.0
 20
-181.0
 30
0.0
 11
-107.0
 21
-181.0
 31
0.0
  0
LINE
  5
126
  8
DATA
  6
CONTINUOUS
 62
     7
 10
-116.0
 20
-172.0
 30
0.0
 11
-107.0
 21
-172.0
 31
0.0
  0
LINE
  5
127
  8
DATA
  6
CONTINUOUS
 62
     7
 10
-116.0
 20
-187.0
 30
0.0
 11
-107.0
 21
-187.0
 31
0.0
  0
LINE
  5
128
  8
DATA
  6
CONTINUOUS
 62
     7
 10
-116.0
 20
-196.0
 30
0.0
 11
-107.0
 21
-196.0
 31
0.0
  0
CIRCLE
  5
129
  8
DATA
  6
CONTINUOUS
 62
     7
 10
-200.5
 20
-169.25
 30
0.0
 40
1.3000000000000109
  0
CIRCLE
  5
12A
  8
DATA
  6
CONTINUOUS
 62
     7
 10
-200.5
 20
-175.25
 30
0.0
 40
1.3000000000000109
  0
CIRCLE
  5
12B
  8
DATA
  6
CONTINUOUS
 62
     7
 10
-200.5
 20
-181.25
 30
0.0
 40
1.3000000000000109
  0
CIRCLE
  5
12C
  8
DATA
  6
CONTINUOUS
 62
     7
 10
-185.5
 20
-169.25
 30
0.0
 40
1.3000000000000109
  0
CIRCLE
  5
12D
  8
DATA
  6
CONTINUOUS
 62
     7
 10
-185.5
 20
-175.25
 30
0.0
 40
1.3000000000000109
  0
CIRCLE
  5
12E
  8
DATA
  6
CONTINUOUS
 62
     7
 10
-185.5
 20
-181.25
 30
0.0
 40
1.3000000000000109
  0
LINE
  5
12F
  8
DATA
  6
CONTINUOUS
 62
     7
 10
189.5
 20
-194.75
 30
0.0
 11
189.5
 21
-185.75
 31
0.0
  0
LINE
  5
130
  8
DATA
  6
CONTINUOUS
 62
     7
 10
180.5
 20
-194.75
 30
0.0
 11
180.5
 21
-185.75
 31
0.0
  0
LINE
  5
131
  8
DATA
  6
CONTINUOUS
 62
     7
 10
189.5
 20
-185.75
 30
0.0
 11
180.5
 21
-185.75
 31
0.0
  0
LINE
  5
132
  8
DATA
  6
CONTINUOUS
 62
     7
 10
189.5
 20
-194.75
 30
0.0
 11
180.5
 21
-194.75
 31
0.0
  0
LINE
  5
133
  8
DATA
  6
CONTINUOUS
 62
     7
 10
171.5
 20
-194.75
 30
0.0
 11
171.5
 21
-185.75
 31
0.0
  0
LINE
  5
134
  8
DATA
  6
CONTINUOUS
 62
     7
 10
162.5
 20
-194.75
 30
0.0
 11
162.5
 21
-185.75
 31
0.0
  0
LINE
  5
135
  8
DATA
  6
CONTINUOUS
 62
     7
 10
171.5
 20
-185.75
 30
0.0
 11
162.5
 21
-185.75
 31
0.0
  0
LINE
  5
136
  8
DATA
  6
CONTINUOUS
 62
     7
 10
171.5
 20
-194.75
 30
0.0
 11
162.5
 21
-194.75
 31
0.0
  0
LINE
  5
137
  8
DATA
  6
CONTINUOUS
 62
     7
 10
153.5
 20
-194.75
 30
0.0
 11
153.5
 21
-185.75
 31
0.0
  0
LINE
  5
138
  8
DATA
  6
CONTINUOUS
 62
     7
 10
144.5
 20
-194.75
 30
0.0
 11
144.5
 21
-185.75
 31
0.0
  0
LINE
  5
139
  8
DATA
  6
CONTINUOUS
 62
     7
 10
153.5
 20
-185.75
 30
0.0
 11
144.5
 21
-185.75
 31
0.0
  0
LINE
  5
13A
  8
DATA
  6
CONTINUOUS
 62
     7
 10
153.5
 20
-194.75
 30
0.0
 11
144.5
 21
-194.75
 31
0.0
  0
LINE
  5
13B
  8
DATA
  6
CONTINUOUS
 62
     7
 10
135.5
 20
-194.75
 30
0.0
 11
135.5
 21
-185.75
 31
0.0
  0
LINE
  5
13C
  8
DATA
  6
CONTINUOUS
 62
     7
 10
126.5
 20
-194.75
 30
0.0
 11
126.5
 21
-185.75
 31
0.0
  0
LINE
  5
13D
  8
DATA
  6
CONTINUOUS
 62
     7
 10
135.5
 20
-185.75
 30
0.0
 11
126.5
 21
-185.75
 31
0.0
  0
LINE
  5
13E
  8
DATA
  6
CONTINUOUS
 62
     7
 10
135.5
 20
-194.75
 30
0.0
 11
126.5
 21
-194.75
 31
0.0
  0
LINE
  5
13F
  8
DATA
  6
CONTINUOUS
 62
     7
 10
117.5
 20
-194.75
 30
0.0
 11
117.5
 21
-185.75
 31
0.0
  0
LINE
  5
140
  8
DATA
  6
CONTINUOUS
 62
     7
 10
108.5
 20
-194.75
 30
0.0
 11
108.5
 21
-185.75
 31
0.0
  0
LINE
  5
141
  8
DATA
  6
CONTINUOUS
 62
     7
 10
117.5
 20
-185.75
 30
0.0
 11
108.5
 21
-185.75
 31
0.0
  0
LINE
  5
142
  8
DATA
  6
CONTINUOUS
 62
     7
 10
117.5
 20
-194.75
 30
0.0
 11
108.5
 21
-194.75
 31
0.0
  0
LINE
  5
143
  8
DATA
  6
CONTINUOUS
 62
     7
 10
99.499999999999986
 20
-194.75
 30
0.0
 11
99.499999999999986
 21
-185.75
 31
0.0
  0
LINE
  5
144
  8
DATA
  6
CONTINUOUS
 62
     7
 10
90.499999999999986
 20
-194.75
 30
0.0
 11
90.499999999999986
 21
-185.75
 31
0.0
  0
LINE
  5
145
  8
DATA
  6
CONTINUOUS
 62
     7
 10
99.499999999999986
 20
-185.75
 30
0.0
 11
90.499999999999986
 21
-185.75
 31
0.0
  0
LINE
  5
146
  8
DATA
  6
CONTINUOUS
 62
     7
 10
99.499999999999986
 20
-194.75
 30
0.0
 11
90.499999999999986
 21
-194.75
 31
0.0
  0
CIRCLE
  5
147
  8
DATA
  6
CONTINUOUS
 62
     7
 10
189.5
 20
-181.75
 30
0.0
 40
1.2999999999999969
  0
CIRCLE
  5
148
  8
DATA
  6
CONTINUOUS
 62
     7
 10
180.5
 20
-169.75
 30
0.0
 40
1.2999999999999969
  0
CIRCLE
  5
149
  8
DATA
  6
CONTINUOUS
 62
     7
 10
180.5
 20
-176.75
 30
0.0
 40
1.2999999999999969
  0
CIRCLE
  5
14A
  8
DATA
  6
CONTINUOUS
 62
     7
 10
171.5
 20
-181.75
 30
0.0
 40
1.2999999999999969
  0
CIRCLE
  5
14B
  8
DATA
  6
CONTINUOUS
 62
     7
 10
162.5
 20
-169.75
 30
0.0
 40
1.2999999999999969
  0
CIRCLE
  5
14C
  8
DATA
  6
CONTINUOUS
 62
     7
 10
162.5
 20
-176.75
 30
0.0
 40
1.2999999999999969
  0
CIRCLE
  5
14D
  8
DATA
  6
CONTINUOUS
 62
     7
 10
153.5
 20
-181.75
 30
0.0
 40
1.2999999999999969
  0
CIRCLE
  5
14E
  8
DATA
  6
CONTINUOUS
 62
     7
 10
144.5
 20
-169.75
 30
0.0
 40
1.2999999999999969
  0
CIRCLE
  5
14F
  8
DATA
  6
CONTINUOUS
 62
     7
 10
144.5
 20
-176.75
 30
0.0
 40
1.2999999999999969
  0
CIRCLE
  5
150
  8
DATA
  6
CONTINUOUS
 62
     7
 10
135.5
 20
-181.75
 30
0.0
 40
1.2999999999999969
  0
CIRCLE
  5
151
  8
DATA
  6
CONTINUOUS
 62
     7
 10
126.5
 20
-169.75
 30
0.0
 40
1.2999999999999969
  0
CIRCLE
  5
152
  8
DATA
  6
CONTINUOUS
 62
     7
 10
126.5
 20
-176.75
 30
0.0
 40
1.2999999999999969
  0
CIRCLE
  5
153
  8
DATA
  6
CONTINUOUS
 62
     7
 10
117.5
 20
-181.75
 30
0.0
 40
1.2999999999999969
  0
CIRCLE
  5
154
  8
DATA
  6
CONTINUOUS
 62
     7
 10
108.5
 20
-169.75
 30
0.0
 40
1.2999999999999969
  0
CIRCLE
  5
155
  8
DATA
  6
CONTINUOUS
 62
     7
 10
108.5
 20
-176.75
 30
0.0
 40
1.2999999999999969
  0
CIRCLE
  5
156
  8
DATA
  6
CONTINUOUS
 62
     7
 10
99.499999999999986
 20
-181.75
 30
0.0
 40
1.2999999999999969
  0
CIRCLE
  5
157
  8
DATA
  6
CONTINUOUS
 62
     7
 10
90.499999999999986
 20
-169.75
 30
0.0
 40
1.2999999999999969
  0
CIRCLE
  5
158
  8
DATA
  6
CONTINUOUS
 62
     7
 10
90.499999999999986
 20
-176.75
 30
0.0
 40
1.2999999999999969
  0
CIRCLE
  5
159
  8
DATA
  6
CONTINUOUS
 62
     7
 10
64.499999999999986
 20
-184.0
 30
0.0
 40
4.3999999999999986
  0
CIRCLE
  5
15A
  8
DATA
  6
CONTINUOUS
 62
     7
 10
64.499999999999986
 20
-184.0
 30
0.0
 40
5.6499999999999986
  0
CIRCLE
  5
15B
  8
DATA
  6
CONTINUOUS
 62
     7
 10
44.499999999999993
 20
-184.0
 30
0.0
 40
4.3999999999999986
  0
CIRCLE
  5
15C
  8
DATA
  6
CONTINUOUS
 62
     7
 10
44.499999999999993
 20
-184.0
 30
0.0
 40
5.6499999999999986
  0
CIRCLE
  5
15D
  8
DATA
  6
CONTINUOUS
 62
     7
 10
24.499999999999989
 20
-184.0
 30
0.0
 40
4.4000000000000048
  0
CIRCLE
  5
15E
  8
DATA
  6
CONTINUOUS
 62
     7
 10
24.499999999999989
 20
-184.0
 30
0.0
 40
5.6500000000000048
  0
TEXT
  5
15F
  8
DATA
 62
     7
 10
211.67294394531689
 20
-185.91006858502141
 30
0.0
 40
7.7170138888888893
  1
CODA
 11
211.67294394531689
 21
-178.19305469613261
 31
0.0
 73
     3
  0
TEXT
  5
160
  8
DATA
 62
     7
 10
212.35941606730481
 20
-190.05917781719319
 30
0.0
 40
2.3753933376736112
  1
CODA AUDIO
  7
_______
 11
212.35941606730481
 21
-187.68378447951949
 31
0.0
 73
     3
  0
TEXT
  5
161
  8
DATA
 62
     7
 10
-196.3358584269748
 20
-170.1751065335045
 30
0.0
 40
3.0868055555555549
  1
clip
 11
-196.3358584269748
 21
-167.0883009779489
 31
0.0
 73
     3
  0
TEXT
  5
162
  8
DATA
 62
     7
 10
-197.30004949830209
 20
-176.43222415252509
 30
0.0
 40
2.7147352430555549
  1
+4dBu
  7
_______
 11
-197.30004949830209
 21
-173.71748890946961
 31
0.0
 73
     3
  0
TEXT
  5
163
  8
DATA
 62
     7
 10
-197.94284354585361
 20
-182.43222415252509
 30
0.0
 40
2.7147352430555549
  1
signal
  7
_______
 11
-197.94284354585361
 21
-179.71748890946961
 31
0.0
 73
     3
  0
TEXT
  5
164
  8
DATA
 62
     7
 10
-201.57638888888891
 20
-188.38041793615679
 30
0.0
 40
3.2576822916666659
  1
A
  7
_______
 11
-201.57638888888891
 21
-185.12273564449021
 31
0.0
 73
     3
  0
TEXT
  5
165
  8
DATA
 62
     7
 10
-186.60508019854089
 20
-188.38041793615679
 30
0.0
 40
3.2576822916666659
  1
B
  7
_______
 11
-186.60508019854089
 21
-185.12273564449021
 31
0.0
 73
     3
  0
TEXT
  5
166
  8
DATA
 62
     7
 10
-198.31256808992521
 20
-203.9740228150423
 30
0.0
 40
3.2576822916666659
  1
INPUT
  7
_______
 11
-198.31256808992521
 21
-200.71634052337569
 31
0.0
 73
     3
  0
TEXT
  5
167
  8
DATA
 62
     7
 10
-165.4532560252909
 20
-170.7338888888888
 30
0.0
 40
2.7147352430555549
  1
Store
  7
_______
 11
-165.4532560252909
 21
-168.01915364583331
 31
0.0
 73
     3
  0
TEXT
  5
168
  8
DATA
 62
     7
 10
-166.08096937970009
 20
-185.8648582685889
 30
0.0
 40
2.7147352430555549
  1
Recall
  7
_______
 11
-166.08096937970009
 21
-183.15012302553339
 31
0.0
 73
     3
  0
TEXT
  5
169
  8
DATA
 62
     7
 10
-167.19554618300899
 20
-203.9740228150423
 30
0.0
 40
3.2576822916666659
  1
PRESET
  7
_______
 11
-167.19554618300899
 21
-200.71634052337569
 31
0.0
 73
     3
  0
TEXT
  5
16A
  8
DATA
 62
     7
 10
-127.657218914545
 20
-170.53719030984789
 30
0.0
 40
3.2576822916666659
  1
CHANNEL
  7
_______
 11
-127.657218914545
 21
-167.2795080181813
 31
0.0
 73
     3
  0
TEXT
  5
16B
  8
DATA
 62
     7
 10
-129.92161413237
 20
-201.01071343072371
 30
0.0
 40
3.2576822916666659
  1
PARAMETER
  7
_______
 11
-129.92161413237
 21
-197.75303113905699
 31
0.0
 73
     3
  0
LINE
  5
16C
  8
DATA
  6
CONTINUOUS
 62
     7
 10
-107.0
 20
-175.90000000000001
 30
0.0
 11
-86.500000000000014
 21
-181.5
 31
0.0
  0
LINE
  5
16D
  8
DATA
  6
CONTINUOUS
 62
     7
 10
-107.0
 20
-192.09999999999999
 30
0.0
 11
-86.500000000000014
 21
-186.5
 31
0.0
  0
LINE
  5
16E
  8
DATA
  6
CONTINUOUS
 62
     7
 10
-132.29639078828751
 20
-184.0
 30
0.0
 11
-127.9763907882875
 21
-181.84
 31
0.0
  0
LINE
  5
16F
  8
DATA
  6
CONTINUOUS
 62
     7
 10
-127.9763907882875
 20
-186.16
 30
0.0
 11
-132.29639078828751
 21
-184.0
 31
0.0
  0
ARC
  5
170
  8
DATA
  6
CONTINUOUS
 62
     7
 10
-124.2143907882873
 20
-184.0
 30
0.0
 40
4.33800000000016
 50
150.13716564372569
 51
209.86283435627431
  0
LINE
  5
171
  8
DATA
  6
CONTINUOUS
 62
     7
 10
-108.1036092117124
 20
-184.0
 30
0.0
 11
-112.4236092117125
 21
-181.84
 31
0.0
  0
LINE
  5
172
  8
DATA
  6
CONTINUOUS
 62
     7
 10
-112.4236092117125
 20
-186.16
 30
0.0
 11
-108.1036092117124
 21
-184.0
 31
0.0
  0
ARC
  5
173
  8
DATA
  6
CONTINUOUS
 62
     7
 10
-116.1856092117127
 20
-184.0
 30
0.0
 40
4.33800000000016
 50
330.13716564372572
 51
29.862834356274281
  0
CIRCLE
  5
174
  8
DATA
  6
CONTINUOUS
 62
     7
 10
-152.5
 20
-169.75
 30
0.0
 40
1.3000000000000109
  0
CIRCLE
  5
175
  8
DATA
  6
CONTINUOUS
 62
     7
 10
-152.5
 20
-184.75
 30
0.0
 40
1.3000000000000109
  0
TEXT
  5
176
  8
DATA
 62
     7
 10
-81.750837402881103
 20
-174.59383382490509
 30
0.0
 40
3.9092187499999991
  1
DNC260 DIGITAL SYSTEM CONTROLLER
  7
_______
 11
-81.750837402881103
 21
-170.68461507490511
 31
0.0
 73
     3
  0
TEXT
  5
177
  8
DATA
 62
     7
 10
-60.605576516002976
 20
-196.4573333333332
 30
0.0
 40
3.2576822916666659
  1
a
  7
_______
 11
-60.605576516002976
 21
-193.1996510416665
 31
0.0
 73
     3
  0
TEXT
  5
178
  8
DATA
 62
     7
 10
-33.577416490267971
 20
-196.4573333333332
 30
0.0
 40
3.2576822916666659
  1
b
  7
_______
 11
-33.577416490267971
 21
-193.1996510416665
 31
0.0
 73
     3
  0
TEXT
  5
179
  8
DATA
 62
     7
 10
-6.4618494064663281
 20
-196.4573333333332
 30
0.0
 40
3.2576822916666659
  1
c
  7
_______
 11
-6.4618494064663281
 21
-193.1996510416665
 31
0.0
 73
     3
  0
TEXT
  5
17A
  8
DATA
 62
     7
 10
93.0
 20
-204.1001069898372
 30
0.0
 40
6.7868381076388884
  1
1
  7
_______
 11
93.0
 21
-197.31326888219829
 31
0.0
 73
     3
  0
TEXT
  5
17B
  8
DATA
 62
     7
 10
111.0
 20
-204.1001069898372
 30
0.0
 40
6.7868381076388884
  1
2
  7
_______
 11
111.0
 21
-197.31326888219829
 31
0.0
 73
     3
  0
TEXT
  5
17C
  8
DATA
 62
     7
 10
129.0
 20
-204.1001069898372
 30
0.0
 40
6.7868381076388884
  1
3
  7
_______
 11
129.0
 21
-197.31326888219829
 31
0.0
 73
     3
  0
TEXT
  5
17D
  8
DATA
 62
     7
 10
147.0
 20
-204.1001069898372
 30
0.0
 40
6.7868381076388884
  1
4
  7
_______
 11
147.0
 21
-197.31326888219829
 31
0.0
 73
     3
  0
TEXT
  5
17E
  8
DATA
 62
     7
 10
165.0
 20
-204.1001069898372
 30
0.0
 40
6.7868381076388884
  1
5
  7
_______
 11
165.0
 21
-197.31326888219829
 31
0.0
 73
     3
  0
TEXT
  5
17F
  8
DATA
 62
     7
 10
183.0
 20
-204.1001069898372
 30
0.0
 40
6.7868381076388884
  1
6
  7
_______
 11
183.0
 21
-197.31326888219829
 31
0.0
 73
     3
  0
TEXT
  5
180
  8
DATA
 62
     7
 10
93.653865302479929
 20
-171.021066780349
 30
0.0
 40
2.7147352430555549
  1
Limit
  7
_______
 11
93.653865302479929
 21
-168.3063315372934
 31
0.0
 73
     3
  0
TEXT
  5
181
  8
DATA
 62
     7
 10
93.653865302479929
 20
-177.8200968103055
 30
0.0
 40
2.7147352430555549
  1
-6dB
  7
_______
 11
93.653865302479929
 21
-175.10536156724999
 31
0.0
 73
     3
  0
TEXT
  5
182
  8
DATA
 62
     7
 10
89.163266182282939
 20
-183.13826666666671
 30
0.0
 40
2.9319140625000002
  1
MUTE
  7
_______
 11
89.163266182282939
 21
-180.20635260416671
 31
0.0
 73
     3
  0
TEXT
  5
183
  8
DATA
 62
     7
 10
111.6538653024799
 20
-171.021066780349
 30
0.0
 40
2.7147352430555549
  1
Limit
  7
_______
 11
111.6538653024799
 21
-168.3063315372934
 31
0.0
 73
     3
  0
TEXT
  5
184
  8
DATA
 62
     7
 10
111.6538653024799
 20
-177.8200968103055
 30
0.0
 40
2.7147352430555549
  1
-6dB
  7
_______
 11
111.6538653024799
 21
-175.10536156724999
 31
0.0
 73
     3
  0
TEXT
  5
185
  8
DATA
 62
     7
 10
107.1632661822829
 20
-183.13826666666671
 30
0.0
 40
2.9319140625000002
  1
MUTE
  7
_______
 11
107.1632661822829
 21
-180.20635260416671
 31
0.0
 73
     3
  0
TEXT
  5
186
  8
DATA
 62
     7
 10
129.65386530247989
 20
-171.021066780349
 30
0.0
 40
2.7147352430555549
  1
Limit
  7
_______
 11
129.65386530247989
 21
-168.3063315372934
 31
0.0
 73
     3
  0
TEXT
  5
187
  8
DATA
 62
     7
 10
129.65386530247989
 20
-177.8200968103055
 30
0.0
 40
2.7147352430555549
  1
-6dB
  7
_______
 11
129.65386530247989
 21
-175.10536156724999
 31
0.0
 73
     3
  0
TEXT
  5
188
  8
DATA
 62
     7
 10
125.1632661822829
 20
-183.13826666666671
 30
0.0
 40
2.9319140625000002
  1
MUTE
  7
_______
 11
125.1632661822829
 21
-180.20635260416671
 31
0.0
 73
     3
  0
TEXT
  5
189
  8
DATA
 62
     7
 10
147.65386530247989
 20
-171.021066780349
 30
0.0
 40
2.7147352430555549
  1
Limit
  7
_______
 11
147.65386530247989
 21
-168.3063315372934
 31
0.0
 73
     3
  0
TEXT
  5
18A
  8
DATA
 62
     7
 10
147.65386530247989
 20
-177.8200968103055
 30
0.0
 40
2.7147352430555549
  1
-6dB
  7
_______
 11
147.65386530247989
 21
-175.10536156724999
 31
0.0
 73
     3
  0
TEXT
  5
18B
  8
DATA
 62
     7
 10
143.16326618228291
 20
-183.13826666666671
 30
0.0
 40
2.9319140625000002
  1
MUTE
  7
_______
 11
143.16326618228291
 21
-180.20635260416671
 31
0.0
 73
     3
  0
TEXT
  5
18C
  8
DATA
 62
     7
 10
165.65386530247989
 20
-171.021066780349
 30
0.0
 40
2.7147352430555549
  1
Limit
  7
_______
 11
165.65386530247989
 21
-168.3063315372934
 31
0.0
 73
     3
  0
TEXT
  5
18D
  8
DATA
 62
     7
 10
165.65386530247989
 20
-177.8200968103055
 30
0.0
 40
2.7147352430555549
  1
-6dB
  7
_______
 11
165.65386530247989
 21
-175.10536156724999
 31
0.0
 73
     3
  0
TEXT
  5
18E
  8
DATA
 62
     7
 10
161.16326618228291
 20
-183.13826666666671
 30
0.0
 40
2.9319140625000002
  1
MUTE
  7
_______
 11
161.16326618228291
 21
-180.20635260416671
 31
0.0
 73
     3
  0
TEXT
  5
18F
  8
DATA
 62
     7
 10
183.65386530247989
 20
-171.021066780349
 30
0.0
 40
2.7147352430555549
  1
Limit
  7
_______
 11
183.65386530247989
 21
-168.3063315372934
 31
0.0
 73
     3
  0
TEXT
  5
190
  8
DATA
 62
     7
 10
183.65386530247989
 20
-177.8200968103055
 30
0.0
 40
2.7147352430555549
  1
-6dB
  7
_______
 11
183.65386530247989
 21
-175.10536156724999
 31
0.0
 73
     3
  0
TEXT
  5
191
  8
DATA
 62
     7
 10
179.16326618228291
 20
-183.13826666666671
 30
0.0
 40
2.9319140625000002
  1
MUTE
  7
_______
 11
179.16326618228291
 21
-180.20635260416671
 31
0.0
 73
     3
  0
TEXT
  5
192
  8
DATA
 62
     7
 10
23.445221359874591
 20
-196.0413079270111
 30
0.0
 40
3.2576822916666659
  1
a
  7
_______
 11
23.445221359874591
 21
-192.78362563534441
 31
0.0
 73
     3
  0
TEXT
  5
193
  8
DATA
 62
     7
 10
43.396312695719331
 20
-196.0413079270111
 30
0.0
 40
3.2576822916666659
  1
b
  7
_______
 11
43.396312695719331
 21
-192.78362563534441
 31
0.0
 73
     3
  0
TEXT
  5
194
  8
DATA
 62
     7
 10
63.552963759615011
 20
-196.0413079270111
 30
0.0
 40
3.2576822916666659
  1
c
  7
_______
 11
63.552963759615011
 21
-192.78362563534441
 31
0.0
 73
     3
  0
LINE
  5
195
  8
DATA
  6
CONTINUOUS
 62
     7
 10
244.5
 20
-90.750000000000014
 30
0.0
 11
-237.5
 21
-90.750000000000014
 31
0.0
  0
LINE
  5
196
  8
DATA
  6
CONTINUOUS
 62
     7
 10
-213.0
 20
-89.550000000000026
 30
0.0
 11
-213.0
 21
87.249999999999986
 31
0.0
  0
LINE
  5
197
  8
DATA
  6
CONTINUOUS
 62
     7
 10
220.0
 20
-89.550000000000026
 30
0.0
 11
220.0
 21
87.249999999999986
 31
0.0
  0
LINE
  5
198
  8
DATA
  6
CONTINUOUS
 62
     7
 10
-219.5
 20
-90.750000000000014
 30
0.0
 11
-219.5
 21
-89.550000000000026
 31
0.0
  0
LINE
  5
199
  8
DATA
  6
CONTINUOUS
 62
     7
 10
226.5
 20
-90.750000000000014
 30
0.0
 11
226.5
 21
-89.550000000000026
 31
0.0
  0
LINE
  5
19A
  8
DATA
  6
CONTINUOUS
 62
     7
 10
-219.5
 20
-89.550000000000026
 30
0.0
 11
226.5
 21
-89.550000000000026
 31
0.0
  0
LINE
  5
19B
  8
DATA
  6
CONTINUOUS
 62
     7
 10
-234.5
 20
175.0
 30
0.0
 11
241.5
 21
175.0
 31
0.0
  0
LINE
  5
19C
  8
DATA
  6
CONTINUOUS
 62
     7
 10
-234.5
 20
219.5
 30
0.0
 11
241.5
 21
219.5
 31
0.0
  0
LINE
  5
19D
  8
DATA
  6
CONTINUOUS
 62
     7
 10
-213.0
 20
175.0
 30
0.0
 11
-213.0
 21
184.40000000000001
 31
0.0
  0
LINE
  5
19E
  8
DATA
  6
CONTINUOUS
 62
     7
 10
220.0
 20
175.0
 30
0.0
 11
220.0
 21
184.40000000000001
 31
0.0
  0
LINE
  5
19F
  8
DATA
  6
CONTINUOUS
 62
     7
 10
-219.5
 20
175.0
 30
0.0
 11
-219.5
 21
219.0
 31
0.0
  0
LINE
  5
1A0
  8
DATA
  6
CONTINUOUS
 62
     7
 10
226.5
 20
175.0
 30
0.0
 11
226.5
 21
219.0
 31
0.0
  0
LINE
  5
1A1
  8
DATA
  6
CONTINUOUS
 62
     7
 10
-237.5
 20
178.0
 30
0.0
 11
-237.5
 21
216.5
 31
0.0
  0
LINE
  5
1A2
  8
DATA
  6
CONTINUOUS
 62
     7
 10
244.5
 20
216.5
 30
0.0
 11
244.5
 21
178.0
 31
0.0
  0
ARC
  5
1A3
  8
DATA
  6
CONTINUOUS
 62
     7
 10
-226.69999999999999
 20
213.15000000000001
 30
0.0
 40
3.1999999999999882
 50
270.0
 51
90.0
  0
ARC
  5
1A4
  8
DATA
  6
CONTINUOUS
 62
     7
 10
-231.30000000000001
 20
213.15000000000001
 30
0.0
 40
3.1999999999999882
 50
90.0
 51
270.0
  0
LINE
  5
1A5
  8
DATA
  6
CONTINUOUS
 62
     7
 10
-226.69999999999999
 20
216.34999999999999
 30
0.0
 11
-231.30000000000001
 21
216.34999999999999
 31
0.0
  0
LINE
  5
1A6
  8
DATA
  6
CONTINUOUS
 62
     7
 10
-226.69999999999999
 20
209.94999999999999
 30
0.0
 11
-231.30000000000001
 21
209.94999999999999
 31
0.0
  0
ARC
  5
1A7
  8
DATA
  6
CONTINUOUS
 62
     7
 10
-226.69999999999999
 20
181.34999999999999
 30
0.0
 40
3.1999999999999882
 50
270.0
 51
90.0
  0
ARC
  5
1A8
  8
DATA
  6
CONTINUOUS
 62
     7
 10
-231.30000000000001
 20
181.34999999999999
 30
0.0
 40
3.1999999999999882
 50
90.0
 51
270.0
  0
LINE
  5
1A9
  8
DATA
  6
CONTINUOUS
 62
     7
 10
-226.69999999999999
 20
184.55000000000001
 30
0.0
 11
-231.30000000000001
 21
184.55000000000001
 31
0.0
  0
LINE
  5
1AA
  8
DATA
  6
CONTINUOUS
 62
     7
 10
-226.69999999999999
 20
178.15000000000001
 30
0.0
 11
-231.30000000000001
 21
178.15000000000001
 31
0.0
  0
ARC
  5
1AB
  8
DATA
  6
CONTINUOUS
 62
     7
 10
233.69999999999999
 20
213.15000000000001
 30
0.0
 40
3.1999999999999882
 50
90.0
 51
270.0
  0
ARC
  5
1AC
  8
DATA
  6
CONTINUOUS
 62
     7
 10
238.2999999999999
 20
213.15000000000001
 30
0.0
 40
3.1999999999999882
 50
270.0
 51
90.0
  0
LINE
  5
1AD
  8
DATA
  6
CONTINUOUS
 62
     7
 10
233.69999999999999
 20
216.34999999999999
 30
0.0
 11
238.2999999999999
 21
216.34999999999999
 31
0.0
  0
LINE
  5
1AE
  8
DATA
  6
CONTINUOUS
 62
     7
 10
233.69999999999999
 20
209.94999999999999
 30
0.0
 11
238.2999999999999
 21
209.94999999999999
 31
0.0
  0
ARC
  5
1AF
  8
DATA
  6
CONTINUOUS
 62
     7
 10
233.69999999999999
 20
181.34999999999999
 30
0.0
 40
3.1999999999999882
 50
90.0
 51
270.0
  0
ARC
  5
1B0
  8
DATA
  6
CONTINUOUS
 62
     7
 10
238.2999999999999
 20
181.34999999999999
 30
0.0
 40
3.1999999999999882
 50
270.0
 51
90.0
  0
LINE
  5
1B1
  8
DATA
  6
CONTINUOUS
 62
     7
 10
233.69999999999999
 20
184.55000000000001
 30
0.0
 11
238.2999999999999
 21
184.55000000000001
 31
0.0
  0
LINE
  5
1B2
  8
DATA
  6
CONTINUOUS
 62
     7
 10
233.69999999999999
 20
178.15000000000001
 30
0.0
 11
238.2999999999999
 21
178.15000000000001
 31
0.0
  0
ARC
  5
1B3
  8
DATA
  6
CONTINUOUS
 62
     7
 10
-234.5
 20
216.5
 30
0.0
 40
3.0
 50
90.0
 51
180.0
  0
ARC
  5
1B4
  8
DATA
  6
CONTINUOUS
 62
     7
 10
-234.5
 20
178.0
 30
0.0
 40
3.0
 50
180.0
 51
270.0
  0
ARC
  5
1B5
  8
DATA
  6
CONTINUOUS
 62
     7
 10
241.5
 20
216.5
 30
0.0
 40
3.0
 50
0.0
 51
90.0
  0
ARC
  5
1B6
  8
DATA
  6
CONTINUOUS
 62
     7
 10
241.5
 20
178.0
 30
0.0
 40
3.0
 50
270.0
 51
0.0
  0
LINE
  5
1B7
  8
DATA
  6
CONTINUOUS
 62
     7
 10
-219.5
 20
219.0
 30
0.0
 11
226.5
 21
219.0
 31
0.0
  0
LINE
  5
1B8
  8
DATA
  6
CONTINUOUS
 62
     7
 10
-213.0
 20
184.40000000000001
 30
0.0
 11
-198.9125077627273
 21
184.40000000000001
 31
0.0
  0
LINE
  5
1B9
  8
DATA
  6
CONTINUOUS
 62
     7
 10
-189.08749223727179
 20
184.40000000000001
 30
0.0
 11
-168.91250776272361
 21
184.40000000000001
 31
0.0
  0
LINE
  5
1BA
  8
DATA
  6
CONTINUOUS
 62
     7
 10
-159.0874922372719
 20
184.40000000000001
 30
0.0
 11
107.0874922372752
 21
184.40000000000001
 31
0.0
  0
LINE
  5
1BB
  8
DATA
  6
CONTINUOUS
 62
     7
 10
116.9125077627246
 20
184.40000000000001
 30
0.0
 11
131.08749223727531
 21
184.40000000000001
 31
0.0
  0
LINE
  5
1BC
  8
DATA
  6
CONTINUOUS
 62
     7
 10
140.9125077627246
 20
184.40000000000001
 30
0.0
 11
220.0
 21
184.40000000000001
 31
0.0
  0
LINE
  5
1BD
  8
DATA
  6
CONTINUOUS
 62
     7
 10
204.0
 20
187.5990674720716
 30
0.0
 11
204.0
 21
202.5990674720716
 31
0.0
  0
LINE
  5
1BE
  8
DATA
  6
CONTINUOUS
 62
     7
 10
174.0
 20
187.5990674720716
 30
0.0
 11
174.0
 21
202.5990674720716
 31
0.0
  0
LINE
  5
1BF
  8
DATA
  6
CONTINUOUS
 62
     7
 10
176.5
 20
185.0990674720716
 30
0.0
 11
201.5
 21
185.0990674720716
 31
0.0
  0
LINE
  5
1C0
  8
DATA
  6
CONTINUOUS
 62
     7
 10
176.5
 20
205.0990674720716
 30
0.0
 11
201.5
 21
205.0990674720716
 31
0.0
  0
LINE
  5
1C1
  8
DATA
  6
CONTINUOUS
 62
     7
 10
176.7999999999999
 20
190.5990674720716
 30
0.0
 11
176.7999999999999
 21
199.7990674720717
 31
0.0
  0
LINE
  5
1C2
  8
DATA
  6
CONTINUOUS
 62
     7
 10
201.19999999999999
 20
190.5990674720716
 30
0.0
 11
201.19999999999999
 21
199.79906747207161
 31
0.0
  0
LINE
  5
1C3
  8
DATA
  6
CONTINUOUS
 62
     7
 10
179.2999999999999
 20
188.0990674720716
 30
0.0
 11
198.69999999999999
 21
188.0990674720716
 31
0.0
  0
LINE
  5
1C4
  8
DATA
  6
CONTINUOUS
 62
     7
 10
179.2999999999999
 20
202.2990674720717
 30
0.0
 11
198.69999999999999
 21
202.2990674720717
 31
0.0
  0
ARC
  5
1C5
  8
DATA
  6
CONTINUOUS
 62
     7
 10
176.5
 20
187.5990674720716
 30
0.0
 40
2.5
 50
180.0
 51
270.0
  0
ARC
  5
1C6
  8
DATA
  6
CONTINUOUS
 62
     7
 10
179.2999999999999
 20
190.5990674720716
 30
0.0
 40
2.5
 50
180.0
 51
270.0
  0
ARC
  5
1C7
  8
DATA
  6
CONTINUOUS
 62
     7
 10
198.69999999999999
 20
190.5990674720716
 30
0.0
 40
2.5
 50
270.0
 51
0.0
  0
ARC
  5
1C8
  8
DATA
  6
CONTINUOUS
 62
     7
 10
201.5
 20
187.5990674720716
 30
0.0
 40
2.5
 50
270.0
 51
0.0
  0
ARC
  5
1C9
  8
DATA
  6
CONTINUOUS
 62
     7
 10
201.5
 20
202.5990674720716
 30
0.0
 40
2.5
 50
0.0
 51
90.0
  0
ARC
  5
1CA
  8
DATA
  6
CONTINUOUS
 62
     7
 10
176.5
 20
202.5990674720716
 30
0.0
 40
2.5
 50
90.0
 51
180.0
  0
LINE
  5
1CB
  8
DATA
  6
CONTINUOUS
 62
     7
 10
176.7999999999999
 20
199.7990674720717
 30
0.0
 11
179.2999999999999
 21
202.2990674720717
 31
0.0
  0
LINE
  5
1CC
  8
DATA
  6
CONTINUOUS
 62
     7
 10
201.19999999999999
 20
199.79906747207161
 30
0.0
 11
198.69999999999999
 21
202.29906747207161
 31
0.0
  0
LINE
  5
1CD
  8
DATA
  6
CONTINUOUS
 62
     7
 10
-184.10000989999969
 20
188.78580902178399
 30
0.0
 11
-184.10000989999969
 21
189.48580832178399
 31
0.0
  0
LINE
  5
1CE
  8
DATA
  6
CONTINUOUS
 62
     7
 10
-204.24998975
 20
208.9357888717843
 30
0.0
 11
-203.54999045000011
 21
208.9357888717843
 31
0.0
  0
LINE
  5
1CF
  8
DATA
  6
CONTINUOUS
 62
     7
 10
-189.0000049999997
 20
184.98505946917069
 30
0.0
 11
-189.0000049999997
 21
185.80125714007229
 31
0.0
  0
LINE
  5
1D0
  8
DATA
  6
CONTINUOUS
 62
     7
 10
-189.40000459999999
 20
185.8012442483184
 30
0.0
 11
-189.40000459999999
 21
184.98505946917069
 31
0.0
  0
LINE
  5
1D1
  8
DATA
  6
CONTINUOUS
 62
     7
 10
-190.1444954128325
 20
189.53855788936329
 30
0.0
 11
-190.23853587156759
 21
189.7702071764848
 31
0.0
  0
LINE
  5
1D2
  8
DATA
  6
CONTINUOUS
 62
     7
 10
-197.83600131839449
 20
189.58660017209209
 30
0.0
 11
-197.7614641284321
 21
189.7702071764848
 31
0.0
  0
LINE
  5
1D3
  8
DATA
  6
CONTINUOUS
 62
     7
 10
-198.5999953999997
 20
185.801257069439
 30
0.0
 11
-198.5999953999997
 21
184.98505946917069
 31
0.0
  0
LINE
  5
1D4
  8
DATA
  6
CONTINUOUS
 62
     7
 10
-198.99999500000001
 20
185.80125714007229
 30
0.0
 11
-198.99999500000001
 21
184.98505946917069
 31
0.0
  0
LINE
  5
1D5
  8
DATA
  6
CONTINUOUS
 62
     7
 10
-184.45000955000009
 20
189.1358086717841
 30
0.0
 11
-183.75001024999969
 21
189.1358086717841
 31
0.0
  0
LINE
  5
1D6
  8
DATA
  6
CONTINUOUS
 62
     7
 10
-203.89999010000011
 20
208.5857892217843
 30
0.0
 11
-203.89999010000011
 21
209.2857885217843
 31
0.0
  0
LINE
  5
1D7
  8
DATA
  6
CONTINUOUS
 62
     7
 10
-191.00000299999999
 20
187.8012551400723
 30
0.0
 11
-196.99999699999969
 21
187.8012551400723
 31
0.0
  0
CIRCLE
  5
1D8
  8
DATA
  6
CONTINUOUS
 62
     7
 10
-189.9500040500001
 20
199.03579877178399
 30
0.0
 40
1.2499987500000309
  0
ARC
  5
1D9
  8
DATA
  6
CONTINUOUS
 62
     7
 10
-188.3785067110656
 20
193.41430548284961
 30
0.0
 40
0.7499992499997669
 50
218.47557070135369
 51
51.524429298646218
  0
ARC
  5
1DA
  8
DATA
  6
CONTINUOUS
 62
     7
 10
-190.5656672201693
 20
189.85728220984311
 30
0.0
 40
0.1999997999999754
 50
193.88895615959689
 51
290.51438098901809
  0
ARC
  5
1DB
  8
DATA
  6
CONTINUOUS
 62
     7
 10
-191.00000299999999
 20
185.80125714007229
 30
0.0
 40
1.999998000000232
 50
0.0
 51
90.0
  0
ARC
  5
1DC
  8
DATA
  6
CONTINUOUS
 62
     7
 10
-191.00000299999999
 20
184.98505946917069
 30
0.0
 40
1.999997999999974
 50
292.02431283700651
 51
0.0
  0
ARC
  5
1DD
  8
DATA
  6
CONTINUOUS
 62
     7
 10
-191.00000299999999
 20
184.98505946917069
 30
0.0
 40
1.599998400000026
 50
292.0243128370023
 51
0.0
  0
CIRCLE
  5
1DE
  8
DATA
  6
CONTINUOUS
 62
     7
 10
-193.99999999999989
 20
202.985794821784
 30
0.0
 40
1.2499987500000309
  0
ARC
  5
1DF
  8
DATA
  6
CONTINUOUS
 62
     7
 10
-193.99999999999989
 20
199.03579877178399
 30
0.0
 40
9.9999900000000324
 50
290.51438098900007
 51
292.09520914279921
  0
ARC
  5
1E0
  8
DATA
  6
CONTINUOUS
 62
     7
 10
-193.99999999999989
 20
199.03579877178399
 30
0.0
 40
9.9999900000000874
 50
247.90479085719841
 51
249.48561901099981
  0
ARC
  5
1E1
  8
DATA
  6
CONTINUOUS
 62
     7
 10
-193.99999999999989
 20
199.03579877178399
 30
0.0
 40
7.8999921000001132
 50
290.65471993590268
 51
309.5877105185362
  0
ARC
  5
1E2
  8
DATA
  6
CONTINUOUS
 62
     7
 10
-193.99999999999989
 20
199.03579877178399
 30
0.0
 40
7.8999921000000644
 50
320.41228948146261
 51
249.3720493380269
  0
CIRCLE
  5
1E3
  8
DATA
  6
CONTINUOUS
 62
     7
 10
-193.99999999999989
 20
199.03579877178399
 30
0.0
 40
6.899993099999846
  0
CIRCLE
  5
1E4
  8
DATA
  6
CONTINUOUS
 62
     7
 10
-198.0499959500001
 20
199.03579877178399
 30
0.0
 40
1.2499987499995759
  0
ARC
  5
1E5
  8
DATA
  6
CONTINUOUS
 62
     7
 10
-193.99999999999989
 20
192.40125054007211
 30
0.0
 40
9.9999900000000022
 50
247.97568716299941
 51
292.02431283700059
  0
ARC
  5
1E6
  8
DATA
  6
CONTINUOUS
 62
     7
 10
-193.99999999999989
 20
192.40125054007211
 30
0.0
 40
9.5999903999999692
 50
272.54467677999958
 51
292.02431283700008
  0
ARC
  5
1E7
  8
DATA
  6
CONTINUOUS
 62
     7
 10
-193.99999999999989
 20
192.40125054007211
 30
0.0
 40
9.599990399999843
 50
247.9756871629998
 51
267.45532322000048
  0
ARC
  5
1E8
  8
DATA
  6
CONTINUOUS
 62
     7
 10
-196.99999699999969
 20
184.98505946917069
 30
0.0
 40
1.999998000000232
 50
180.0
 51
247.97568716299341
  0
ARC
  5
1E9
  8
DATA
  6
CONTINUOUS
 62
     7
 10
-196.99999699999969
 20
185.80125714007229
 30
0.0
 40
1.9999980000000039
 50
90.0
 51
180.0
  0
ARC
  5
1EA
  8
DATA
  6
CONTINUOUS
 62
     7
 10
-196.99999699999969
 20
184.98505946917069
 30
0.0
 40
1.599998400000004
 50
180.0
 51
247.97568716299611
  0
ARC
  5
1EB
  8
DATA
  6
CONTINUOUS
 62
     7
 10
-197.43433277979679
 20
189.85728220984311
 30
0.0
 40
0.1999997999999634
 50
249.48561901098191
 51
346.11104384040323
  0
ARC
  5
1EC
  8
DATA
  6
CONTINUOUS
 62
     7
 10
-196.59158985230749
 20
188.0010123312816
 30
0.0
 40
0.1997544489120933
 50
269.98149905913021
 51
357.59650037656132
  0
ARC
  5
1ED
  8
DATA
  6
CONTINUOUS
 62
     7
 10
-191.40841803665111
 20
188.0009993375611
 30
0.0
 40
0.1997440091556692
 50
182.39989860869539
 51
270.02084071842262
  0
POLYLINE
  5
1EE
  8
DATA
  6
CONTINUOUS
 62
     7
 66
     1
 10
0.0
 20
0.0
 30
0.0
 70
   128
  0
VERTEX
  5
7B7
  8
DATA
  6
CONTINUOUS
 62
     7
 10
-196.99999699999969
 20
187.8012551400723
 30
0.0
  0
VERTEX
  5
7B8
  8
DATA
  6
CONTINUOUS
 62
     7
 10
-197.00286023531581
 20
187.80052053992009
 30
0.0
 42
0.013536990877951
  0
VERTEX
  5
7B9
  8
DATA
  6
CONTINUOUS
 62
     7
 10
-197.11886874800649
 20
187.7673854590584
 30
0.0
  0
VERTEX
  5
7BA
  8
DATA
  6
CONTINUOUS
 62
     7
 10
-197.13148627105059
 20
187.76340913890519
 30
0.0
 42
0.0132432192350318
  0
VERTEX
  5
7BB
  8
DATA
  6
CONTINUOUS
 62
     7
 10
-197.2205496430407
 20
187.73272592501661
 30
0.0
 42
0.0078449271408733
  0
VERTEX
  5
7BC
  8
DATA
  6
CONTINUOUS
 62
     7
 10
-197.30826012346199
 20
187.69830707645491
 30
0.0
  0
VERTEX
  5
7BD
  8
DATA
  6
CONTINUOUS
 62
     7
 10
-197.3122188915537
 20
187.69668147351851
 30
0.0
 42
0.0149678191052495
  0
VERTEX
  5
7BE
  8
DATA
  6
CONTINUOUS
 62
     7
 10
-197.40265049840909
 20
187.65634352010039
 30
0.0
 42
0.0075493686395069
  0
VERTEX
  5
7BF
  8
DATA
  6
CONTINUOUS
 62
     7
 10
-197.4912139806269
 20
187.61195577070129
 30
0.0
 42
0.0152022874872036
  0
VERTEX
  5
7C0
  8
DATA
  6
CONTINUOUS
 62
     7
 10
-197.5776451397343
 20
187.5635981671777
 30
0.0
  0
VERTEX
  5
7C1
  8
DATA
  6
CONTINUOUS
 62
     7
 10
-197.59180752231671
 20
187.5550990860732
 30
0.0
 42
0.0076542450576749
  0
VERTEX
  5
7C2
  8
DATA
  6
CONTINUOUS
 62
     7
 10
-197.64790843231239
 20
187.52025298157611
 30
0.0
  0
VERTEX
  5
7C3
  8
DATA
  6
CONTINUOUS
 62
     7
 10
-197.6485251896305
 20
187.51985668285079
 30
0.0
 42
0.0076973431191259
  0
VERTEX
  5
7C4
  8
DATA
  6
CONTINUOUS
 62
     7
 10
-197.7023088674965
 20
187.484116273354
 30
0.0
 42
0.0073845984074951
  0
VERTEX
  5
7C5
  8
DATA
  6
CONTINUOUS
 62
     7
 10
-197.7549906917109
 20
187.44676972129011
 30
0.0
  0
VERTEX
  5
7C6
  8
DATA
  6
CONTINUOUS
 62
     7
 10
-197.7670193863606
 20
187.43797271322731
 30
0.0
 42
0.0147771409372181
  0
VERTEX
  5
7C7
  8
DATA
  6
CONTINUOUS
 62
     7
 10
-197.84149482660459
 20
187.38005248548251
 30
0.0
  0
VERTEX
  5
7C8
  8
DATA
  6
CONTINUOUS
 62
     7
 10
-197.85462269015849
 20
187.3692053861256
 30
0.0
 42
0.0143620352163767
  0
VERTEX
  5
7C9
  8
DATA
  6
CONTINUOUS
 62
     7
 10
-197.94352783799209
 20
187.2913435636944
 30
0.0
  0
VERTEX
  5
7CA
  8
DATA
  6
CONTINUOUS
 62
     7
 10
-197.94518575679879
 20
187.2898052446362
 30
0.0
 42
0.0137776267971382
  0
VERTEX
  5
7CB
  8
DATA
  6
CONTINUOUS
 62
     7
 10
-198.0263449380262
 20
187.210229029321
 30
0.0
  0
VERTEX
  5
7CC
  8
DATA
  6
CONTINUOUS
 62
     7
 10
-198.0276710632541
 20
187.2088550930045
 30
0.0
 42
0.013460883954856
  0
VERTEX
  5
7CD
  8
DATA
  6
CONTINUOUS
 62
     7
 10
-198.1018021278017
 20
187.12779386290859
 30
0.0
  0
VERTEX
  5
7CE
  8
DATA
  6
CONTINUOUS
 62
     7
 10
-198.10279726815011
 20
187.12664507085341
 30
0.0
 42
0.0130167046766684
  0
VERTEX
  5
7CF
  8
DATA
  6
CONTINUOUS
 62
     7
 10
-198.170606564499
 20
187.0441197175445
 30
0.0
  0
VERTEX
  5
7D0
  8
DATA
  6
CONTINUOUS
 62
     7
 10
-198.171252451143
 20
187.0432905677238
 30
0.0
 42
0.0128612074908409
  0
VERTEX
  5
7D1
  8
DATA
  6
CONTINUOUS
 62
     7
 10
-198.23345416168769
 20
186.95905766482301
 30
0.0
  0
VERTEX
  5
7D2
  8
DATA
  6
CONTINUOUS
 62
     7
 10
-198.2338192315672
 20
186.95853571489309
 30
0.0
 42
0.0126258428302469
  0
VERTEX
  5
7D3
  8
DATA
  6
CONTINUOUS
 62
     7
 10
-198.2909459191527
 20
186.87230369379131
 30
0.0
  0
VERTEX
  5
7D4
  8
DATA
  6
CONTINUOUS
 62
     7
 10
-198.29786227578401
 20
186.8612681524244
 30
0.0
 42
0.0126557334318412
  0
VERTEX
  5
7D5
  8
DATA
  6
CONTINUOUS
 62
     7
 10
-198.33729233704881
 20
186.7946662463369
 30
0.0
  0
VERTEX
  5
7D6
  8
DATA
  6
CONTINUOUS
 62
     7
 10
-198.3373282979602
 20
186.79460183977659
 30
0.0
 42
0.0063193360928418
  0
VERTEX
  5
7D7
  8
DATA
  6
CONTINUOUS
 62
     7
 10
-198.3741417129973
 20
186.72666526297641
 30
0.0
 42
0.0126763943684649
  0
VERTEX
  5
7D8
  8
DATA
  6
CONTINUOUS
 62
     7
 10
-198.4083400202955
 20
186.65739623310591
 30
0.0
  0
VERTEX
  5
7D9
  8
DATA
  6
CONTINUOUS
 62
     7
 10
-198.41373035281609
 20
186.6457428515838
 30
0.0
 42
0.0065371235806036
  0
VERTEX
  5
7DA
  8
DATA
  6
CONTINUOUS
 62
     7
 10
-198.43536544806111
 20
186.5973181829182
 30
0.0
 42
0.0065548944881331
  0
VERTEX
  5
7DB
  8
DATA
  6
CONTINUOUS
 62
     7
 10
-198.45572532762779
 20
186.54834371438659
 30
0.0
  0
VERTEX
  5
7DC
  8
DATA
  6
CONTINUOUS
 62
     7
 10
-198.46067829849031
 20
186.53597463155921
 30
0.0
 42
0.0131471650779493
  0
VERTEX
  5
7DD
  8
DATA
  6
CONTINUOUS
 62
     7
 10
-198.48833733815269
 20
186.46126767052721
 30
0.0
  0
VERTEX
  5
7DE
  8
DATA
  6
CONTINUOUS
 62
     7
 10
-198.4931583846664
 20
186.447113864486
 30
0.0
 42
0.0076109923437515
  0
VERTEX
  5
7DF
  8
DATA
  6
CONTINUOUS
 62
     7
 10
-198.511022375403
 20
186.39192988673599
 30
0.0
 42
0.0067773452551046
  0
VERTEX
  5
7E0
  8
DATA
  6
CONTINUOUS
 62
     7
 10
-198.52729159605411
 20
186.3362534334608
 30
0.0
  0
VERTEX
  5
7E1
  8
DATA
  6
CONTINUOUS
 62
     7
 10
-198.5305016174562
 20
186.32468809627011
 30
0.0
 42
0.0135908901809575
  0
VERTEX
  5
7E2
  8
DATA
  6
CONTINUOUS
 62
     7
 10
-198.55027304624281
 20
186.24512291231159
 30
0.0
  0
VERTEX
  5
7E3
  8
DATA
  6
CONTINUOUS
 62
     7
 10
-198.55324386508471
 20
186.2316082318203
 30
0.0
 42
0.0136908823043514
  0
VERTEX
  5
7E4
  8
DATA
  6
CONTINUOUS
 62
     7
 10
-198.5738443424284
 20
186.1239119817856
 30
0.0
  0
VERTEX
  5
7E5
  8
DATA
  6
CONTINUOUS
 62
     7
 10
-198.57395690948971
 20
186.12322156474721
 30
0.0
 42
0.01371506705171
  0
VERTEX
  5
7E6
  8
DATA
  6
CONTINUOUS
 62
     7
 10
-198.5885242104965
 20
186.0153179874732
 30
0.0
  0
VERTEX
  5
7E7
  8
DATA
  6
CONTINUOUS
 62
     7
 10
-198.58867189186191
 20
186.01393998627839
 30
0.0
 42
0.0134446974707125
  0
VERTEX
  5
7E8
  8
DATA
  6
CONTINUOUS
 62
     7
 10
-198.59713872527689
 20
185.90816504400809
 30
0.0
  0
VERTEX
  5
7E9
  8
DATA
  6
CONTINUOUS
 62
     7
 10
-198.59718390612721
 20
185.90731317474709
 30
0.0
 42
0.0130326924681979
  0
VERTEX
  5
7EA
  8
DATA
  6
CONTINUOUS
 62
     7
 10
-198.59999467598331
 20
185.80294098556851
 30
0.0
  0
VERTEX
  5
7EB
  8
DATA
  6
CONTINUOUS
 62
     7
 10
-198.5999953999997
 20
185.801257069439
 30
0.0
  0
SEQEND
  5
7EC
  8
DATA
  6
CONTINUOUS
 62
     7
  0
POLYLINE
  5
225
  8
DATA
  6
CONTINUOUS
 62
     7
 66
     1
 10
0.0
 20
0.0
 30
0.0
 70
   128
  0
VERTEX
  5
7ED
  8
DATA
  6
CONTINUOUS
 62
     7
 10
-189.40000459999999
 20
185.8012442483184
 30
0.0
  0
VERTEX
  5
7EE
  8
DATA
  6
CONTINUOUS
 62
     7
 10
-189.40000960648311
 20
185.80438796063081
 30
0.0
 42
0.0127110398471005
  0
VERTEX
  5
7EF
  8
DATA
  6
CONTINUOUS
 62
     7
 10
-189.40275173406201
 20
185.905873741394
 30
0.0
 42
0.0126380170103325
  0
VERTEX
  5
7F0
  8
DATA
  6
CONTINUOUS
 62
     7
 10
-189.410635934597
 20
186.00712790690099
 30
0.0
  0
VERTEX
  5
7F1
  8
DATA
  6
CONTINUOUS
 62
     7
 10
-189.41064448415489
 20
186.0072106471282
 30
0.0
 42
0.0126173303977284
  0
VERTEX
  5
7F2
  8
DATA
  6
CONTINUOUS
 62
     7
 10
-189.4236122605208
 20
186.10781014923421
 30
0.0
  0
VERTEX
  5
7F3
  8
DATA
  6
CONTINUOUS
 62
     7
 10
-189.42407304615719
 20
186.11078974980509
 30
0.0
 42
0.0126257181915388
  0
VERTEX
  5
7F4
  8
DATA
  6
CONTINUOUS
 62
     7
 10
-189.44102935308689
 20
186.20467452185909
 30
0.0
  0
VERTEX
  5
7F5
  8
DATA
  6
CONTINUOUS
 62
     7
 10
-189.44162190212771
 20
186.2075397571941
 30
0.0
 42
0.0111721324015185
  0
VERTEX
  5
7F6
  8
DATA
  6
CONTINUOUS
 62
     7
 10
-189.46171459924369
 20
186.29481680662039
 30
0.0
 42
0.0111208472030083
  0
VERTEX
  5
7F7
  8
DATA
  6
CONTINUOUS
 62
     7
 10
-189.48567381067329
 20
186.3810993647611
 30
0.0
  0
VERTEX
  5
7F8
  8
DATA
  6
CONTINUOUS
 62
     7
 10
-189.4856976898659
 20
186.3811784876699
 30
0.0
 42
0.0110924905936785
  0
VERTEX
  5
7F9
  8
DATA
  6
CONTINUOUS
 62
     7
 10
-189.51341042789889
 20
186.46614243906589
 30
0.0
  0
VERTEX
  5
7FA
  8
DATA
  6
CONTINUOUS
 62
     7
 10
-189.51421561597249
 20
186.46843709102001
 30
0.0
 42
0.0110492182945984
  0
VERTEX
  5
7FB
  8
DATA
  6
CONTINUOUS
 62
     7
 10
-189.5439513900609
 20
186.5475396619257
 30
0.0
  0
VERTEX
  5
7FC
  8
DATA
  6
CONTINUOUS
 62
     7
 10
-189.54482771975231
 20
186.5497231184645
 30
0.0
 42
0.0098561502021409
  0
VERTEX
  5
7FD
  8
DATA
  6
CONTINUOUS
 62
     7
 10
-189.57600737185371
 20
186.62318689955799
 30
0.0
 42
0.0098169547190649
  0
VERTEX
  5
7FE
  8
DATA
  6
CONTINUOUS
 62
     7
 10
-189.61005255291241
 20
186.695367331928
 30
0.0
  0
VERTEX
  5
7FF
  8
DATA
  6
CONTINUOUS
 62
     7
 10
-189.6100735929748
 20
186.6954097602686
 30
0.0
 42
0.0097935210152246
  0
VERTEX
  5
800
  8
DATA
  6
CONTINUOUS
 62
     7
 10
-189.64687899494569
 20
186.7661156915114
 30
0.0
  0
VERTEX
  5
801
  8
DATA
  6
CONTINUOUS
 62
     7
 10
-189.64758946370671
 20
186.76741764308861
 30
0.0
 42
0.0097705117118669
  0
VERTEX
  5
802
  8
DATA
  6
CONTINUOUS
 62
     7
 10
-189.68566126087879
 20
186.8340546601639
 30
0.0
  0
VERTEX
  5
803
  8
DATA
  6
CONTINUOUS
 62
     7
 10
-189.68639805642479
 20
186.83528769623581
 30
0.0
 42
0.0090403980394644
  0
VERTEX
  5
804
  8
DATA
  6
CONTINUOUS
 62
     7
 10
-189.72543268203631
 20
186.89800877346849
 30
0.0
 42
0.0089981325774028
  0
VERTEX
  5
805
  8
DATA
  6
CONTINUOUS
 62
     7
 10
-189.7667033806039
 20
186.95927998825931
 30
0.0
 42
0.00896408596773
  0
VERTEX
  5
806
  8
DATA
  6
CONTINUOUS
 62
     7
 10
-189.81012903071979
 20
187.0190031512065
 30
0.0
  0
VERTEX
  5
807
  8
DATA
  6
CONTINUOUS
 62
     7
 10
-189.8107059207087
 20
187.01976733463451
 30
0.0
 42
0.0089395369004346
  0
VERTEX
  5
808
  8
DATA
  6
CONTINUOUS
 62
     7
 10
-189.8550428099405
 20
187.07636534066449
 30
0.0
  0
VERTEX
  5
809
  8
DATA
  6
CONTINUOUS
 62
     7
 10
-189.85562746602409
 20
187.07708480420899
 30
0.0
 42
0.0084592050594736
  0
VERTEX
  5
80A
  8
DATA
  6
CONTINUOUS
 62
     7
 10
-189.9007139942124
 20
187.13068827031799
 30
0.0
 42
0.0084178376711419
  0
VERTEX
  5
80B
  8
DATA
  6
CONTINUOUS
 62
     7
 10
-189.94758350662329
 20
187.18273935909181
 30
0.0
 42
0.0083845101807956
  0
VERTEX
  5
80C
  8
DATA
  6
CONTINUOUS
 62
     7
 10
-189.99616686664299
 20
187.23317752802899
 30
0.0
  0
VERTEX
  5
80D
  8
DATA
  6
CONTINUOUS
 62
     7
 10
-189.99642223636849
 20
187.23343389815651
 30
0.0
 42
0.0083628907191414
  0
VERTEX
  5
80E
  8
DATA
  6
CONTINUOUS
 62
     7
 10
-190.0461400874627
 20
187.28170430930129
 30
0.0
  0
VERTEX
  5
80F
  8
DATA
  6
CONTINUOUS
 62
     7
 10
-190.04639545471761
 20
187.281944076695
 30
0.0
 42
0.0081612438746593
  0
VERTEX
  5
810
  8
DATA
  6
CONTINUOUS
 62
     7
 10
-190.09716300345411
 20
187.3280746170901
 30
0.0
 42
0.0081176824254605
  0
VERTEX
  5
811
  8
DATA
  6
CONTINUOUS
 62
     7
 10
-190.1494052631738
 20
187.37252815878679
 30
0.0
 42
0.008082331918162
  0
VERTEX
  5
812
  8
DATA
  6
CONTINUOUS
 62
     7
 10
-190.20306073090401
 20
187.41526653732751
 30
0.0
 42
0.0080632191183661
  0
VERTEX
  5
813
  8
DATA
  6
CONTINUOUS
 62
     7
 10
-190.25808823264731
 20
187.45626546706541
 30
0.0
 42
0.0080341999901583
  0
VERTEX
  5
814
  8
DATA
  6
CONTINUOUS
 62
     7
 10
-190.31444584532159
 20
187.49549995240491
 30
0.0
 42
0.007982643508609
  0
VERTEX
  5
815
  8
DATA
  6
CONTINUOUS
 62
     7
 10
-190.37205032232239
 20
187.5329226860288
 30
0.0
 42
0.0079420371704923
  0
VERTEX
  5
816
  8
DATA
  6
CONTINUOUS
 62
     7
 10
-190.43081594052899
 20
187.56849132184831
 30
0.0
 42
0.0079116374796795
  0
VERTEX
  5
817
  8
DATA
  6
CONTINUOUS
 62
     7
 10
-190.490661535047
 20
187.60216891621289
 30
0.0
 42
0.007862757866951
  0
VERTEX
  5
818
  8
DATA
  6
CONTINUOUS
 62
     7
 10
-190.55150658215609
 20
187.63392410113281
 30
0.0
 42
0.0078168903559199
  0
VERTEX
  5
819
  8
DATA
  6
CONTINUOUS
 62
     7
 10
-190.61330212875271
 20
187.6637479830114
 30
0.0
 42
0.0077753455134366
  0
VERTEX
  5
81A
  8
DATA
  6
CONTINUOUS
 62
     7
 10
-190.6760032619764
 20
187.69163324898591
 30
0.0
 42
0.0077451273578344
  0
VERTEX
  5
81B
  8
DATA
  6
CONTINUOUS
 62
     7
 10
-190.73954448085249
 20
187.71756129136421
 30
0.0
  0
VERTEX
  5
81C
  8
DATA
  6
CONTINUOUS
 62
     7
 10
-190.7396298676143
 20
187.7175946002034
 30
0.0
 42
0.0077339922049337
  0
VERTEX
  5
81D
  8
DATA
  6
CONTINUOUS
 62
     7
 10
-190.8041149681888
 20
187.7416074173517
 30
0.0
  0
VERTEX
  5
81E
  8
DATA
  6
CONTINUOUS
 62
     7
 10
-190.80419670336741
 20
187.74163642228359
 30
0.0
 42
0.0076843509803491
  0
VERTEX
  5
81F
  8
DATA
  6
CONTINUOUS
 62
     7
 10
-190.86955591473389
 20
187.76370518954181
 30
0.0
  0
VERTEX
  5
820
  8
DATA
  6
CONTINUOUS
 62
     7
 10
-190.88494949445649
 20
187.7686406792572
 30
0.0
 42
0.0147572639251139
  0
VERTEX
  5
821
  8
DATA
  6
CONTINUOUS
 62
     7
 10
-190.98226348247539
 20
187.796703078349
 30
0.0
  0
VERTEX
  5
822
  8
DATA
  6
CONTINUOUS
 62
     7
 10
-190.99791600866081
 20
187.80072051382649
 30
0.0
  0
VERTEX
  5
823
  8
DATA
  6
CONTINUOUS
 62
     7
 10
-191.00000299999999
 20
187.8012551400723
 30
0.0
  0
SEQEND
  5
824
  8
DATA
  6
CONTINUOUS
 62
     7
  0
POLYLINE
  5
25E
  8
DATA
  6
CONTINUOUS
 62
     7
 66
     1
 10
0.0
 20
0.0
 30
0.0
 70
   128
  0
VERTEX
  5
825
  8
DATA
  6
CONTINUOUS
 62
     7
 10
-196.3719322681701
 20
189.0640167186634
 30
0.0
 42
0.0002651132516096
  0
VERTEX
  5
826
  8
DATA
  6
CONTINUOUS
 62
     7
 10
-196.3758858291319
 20
188.88458551199329
 30
0.0
  0
VERTEX
  5
827
  8
DATA
  6
CONTINUOUS
 62
     7
 10
-196.376653570131
 20
188.84888249090329
 30
0.0
  0
VERTEX
  5
828
  8
DATA
  6
CONTINUOUS
 62
     7
 10
-196.376653570131
 20
188.84888249090329
 30
0.0
  0
VERTEX
  5
829
  8
DATA
  6
CONTINUOUS
 62
     7
 10
-196.376653570131
 20
188.84888249090329
 30
0.0
 42
0.0006471404305475
  0
VERTEX
  5
82A
  8
DATA
  6
CONTINUOUS
 62
     7
 10
-196.38269060301209
 20
188.55014794096741
 30
0.0
  0
VERTEX
  5
82B
  8
DATA
  6
CONTINUOUS
 62
     7
 10
-196.38337986420251
 20
188.51370692415799
 30
0.0
  0
VERTEX
  5
82C
  8
DATA
  6
CONTINUOUS
 62
     7
 10
-196.38337986420251
 20
188.51370692415799
 30
0.0
  0
VERTEX
  5
82D
  8
DATA
  6
CONTINUOUS
 62
     7
 10
-196.38337986420251
 20
188.51370692415799
 30
0.0
 42
0.0005615521867188
  0
VERTEX
  5
82E
  8
DATA
  6
CONTINUOUS
 62
     7
 10
-196.38799592823341
 20
188.2542455799003
 30
0.0
  0
VERTEX
  5
82F
  8
DATA
  6
CONTINUOUS
 62
     7
 10
-196.38803027173299
 20
188.25218511747241
 30
0.0
  0
VERTEX
  5
830
  8
DATA
  6
CONTINUOUS
 62
     7
 10
-196.38803027173299
 20
188.25218511747241
 30
0.0
  0
VERTEX
  5
831
  8
DATA
  6
CONTINUOUS
 62
     7
 10
-196.38803027173299
 20
188.25218511747241
 30
0.0
 42
0.0006244041334202
  0
VERTEX
  5
832
  8
DATA
  6
CONTINUOUS
 62
     7
 10
-196.39196865731441
 20
187.99675646269731
 30
0.0
  0
VERTEX
  5
833
  8
DATA
  6
CONTINUOUS
 62
     7
 10
-196.3920269115373
 20
187.99263596585789
 30
0.0
  0
SEQEND
  5
834
  8
DATA
  6
CONTINUOUS
 62
     7
  0
POLYLINE
  5
26F
  8
DATA
  6
CONTINUOUS
 62
     7
 66
     1
 10
0.0
 20
0.0
 30
0.0
 70
   128
  0
VERTEX
  5
835
  8
DATA
  6
CONTINUOUS
 62
     7
 10
-191.6160574347852
 20
189.0668811852471
 30
0.0
 42
-0.0002270695652615
  0
VERTEX
  5
836
  8
DATA
  6
CONTINUOUS
 62
     7
 10
-191.61200406732971
 20
188.5648697937751
 30
0.0
  0
VERTEX
  5
837
  8
DATA
  6
CONTINUOUS
 62
     7
 10
-191.61196972383121
 20
188.56036282434999
 30
0.0
  0
VERTEX
  5
838
  8
DATA
  6
CONTINUOUS
 62
     7
 10
-191.61196972383121
 20
188.56036282434999
 30
0.0
  0
VERTEX
  5
839
  8
DATA
  6
CONTINUOUS
 62
     7
 10
-191.61196972383121
 20
188.56036282434999
 30
0.0
 42
-0.0002854248608257
  0
VERTEX
  5
83A
  8
DATA
  6
CONTINUOUS
 62
     7
 10
-191.6080313386112
 20
188.0016488708988
 30
0.0
  0
VERTEX
  5
83B
  8
DATA
  6
CONTINUOUS
 62
     7
 10
-191.60797308439609
 20
187.99263586849131
 30
0.0
  0
SEQEND
  5
83C
  8
DATA
  6
CONTINUOUS
 62
     7
  0
CIRCLE
  5
278
  8
DATA
  6
CONTINUOUS
 62
     7
 10
-184.10000989999989
 20
189.1358086717841
 30
0.0
 40
2.0
  0
LINE
  5
279
  8
DATA
  6
CONTINUOUS
 62
     7
 10
-184.10000989999989
 20
187.9359286717841
 30
0.0
 11
-184.10000989999989
 21
190.33568867178411
 31
0.0
  0
LINE
  5
27A
  8
DATA
  6
CONTINUOUS
 62
     7
 10
-185.29988989999981
 20
189.1358086717841
 30
0.0
 11
-182.9001298999998
 21
189.1358086717841
 31
0.0
  0
CIRCLE
  5
27B
  8
DATA
  6
CONTINUOUS
 62
     7
 10
-203.89999010000011
 20
208.9357888717843
 30
0.0
 40
2.0000000000000142
  0
LINE
  5
27C
  8
DATA
  6
CONTINUOUS
 62
     7
 10
-203.89999010000011
 20
207.73590887178429
 30
0.0
 11
-203.89999010000011
 21
210.13566887178439
 31
0.0
  0
LINE
  5
27D
  8
DATA
  6
CONTINUOUS
 62
     7
 10
-205.0998701
 20
208.9357888717843
 30
0.0
 11
-202.70011009999999
 21
208.9357888717843
 31
0.0
  0
CIRCLE
  5
27E
  8
DATA
  6
CONTINUOUS
 62
     7
 10
-193.99999999999989
 20
199.03579877178399
 30
0.0
 40
10.25
  0
LINE
  5
27F
  8
DATA
  6
CONTINUOUS
 62
     7
 10
-190.759819579583
 20
189.8092740716358
 30
0.0
 11
-191.21339261343221
 21
191.64359379276539
 31
0.0
  0
LINE
  5
280
  8
DATA
  6
CONTINUOUS
 62
     7
 10
-197.2401804203831
 20
189.8092740716358
 30
0.0
 11
-196.78671155935311
 21
191.64317250172189
 31
0.0
  0
LINE
  5
281
  8
DATA
  6
CONTINUOUS
 62
     7
 10
-194.42622410606359
 20
182.8107266392885
 30
0.0
 11
-193.5737758939361
 21
182.8107266392885
 31
0.0
  0
LINE
  5
282
  8
DATA
  6
CONTINUOUS
 62
     7
 10
-154.10000989999969
 20
188.78580902178399
 30
0.0
 11
-154.10000989999969
 21
189.48580832178399
 31
0.0
  0
LINE
  5
283
  8
DATA
  6
CONTINUOUS
 62
     7
 10
-174.24998975
 20
208.9357888717843
 30
0.0
 11
-173.54999045000011
 21
208.9357888717843
 31
0.0
  0
LINE
  5
284
  8
DATA
  6
CONTINUOUS
 62
     7
 10
-159.0000049999997
 20
184.98505946917069
 30
0.0
 11
-159.0000049999997
 21
185.80125714007229
 31
0.0
  0
LINE
  5
285
  8
DATA
  6
CONTINUOUS
 62
     7
 10
-159.40000459999999
 20
185.8012442483184
 30
0.0
 11
-159.40000459999999
 21
184.98505946917069
 31
0.0
  0
LINE
  5
286
  8
DATA
  6
CONTINUOUS
 62
     7
 10
-160.1444954128325
 20
189.53855788936329
 30
0.0
 11
-160.23853587156771
 21
189.7702071764848
 31
0.0
  0
LINE
  5
287
  8
DATA
  6
CONTINUOUS
 62
     7
 10
-167.83600131839461
 20
189.58660017209209
 30
0.0
 11
-167.7614641284321
 21
189.7702071764848
 31
0.0
  0
LINE
  5
288
  8
DATA
  6
CONTINUOUS
 62
     7
 10
-168.59999539999981
 20
185.801257069439
 30
0.0
 11
-168.59999539999981
 21
184.98505946917069
 31
0.0
  0
LINE
  5
289
  8
DATA
  6
CONTINUOUS
 62
     7
 10
-168.99999500000001
 20
185.80125714007229
 30
0.0
 11
-168.99999500000001
 21
184.98505946917069
 31
0.0
  0
LINE
  5
28A
  8
DATA
  6
CONTINUOUS
 62
     7
 10
-154.45000955000009
 20
189.1358086717841
 30
0.0
 11
-153.75001024999969
 21
189.1358086717841
 31
0.0
  0
LINE
  5
28B
  8
DATA
  6
CONTINUOUS
 62
     7
 10
-173.89999010000011
 20
208.5857892217843
 30
0.0
 11
-173.89999010000011
 21
209.2857885217843
 31
0.0
  0
LINE
  5
28C
  8
DATA
  6
CONTINUOUS
 62
     7
 10
-161.00000299999999
 20
187.8012551400723
 30
0.0
 11
-166.99999699999981
 21
187.8012551400723
 31
0.0
  0
CIRCLE
  5
28D
  8
DATA
  6
CONTINUOUS
 62
     7
 10
-159.9500040500001
 20
199.03579877178399
 30
0.0
 40
1.2499987500000309
  0
ARC
  5
28E
  8
DATA
  6
CONTINUOUS
 62
     7
 10
-158.3785067110656
 20
193.41430548284961
 30
0.0
 40
0.7499992499997669
 50
218.47557070135369
 51
51.524429298646218
  0
ARC
  5
28F
  8
DATA
  6
CONTINUOUS
 62
     7
 10
-160.5656672201693
 20
189.85728220984311
 30
0.0
 40
0.1999997999999754
 50
193.88895615959689
 51
290.51438098901809
  0
ARC
  5
290
  8
DATA
  6
CONTINUOUS
 62
     7
 10
-161.00000299999999
 20
185.80125714007229
 30
0.0
 40
1.999998000000232
 50
0.0
 51
90.0
  0
ARC
  5
291
  8
DATA
  6
CONTINUOUS
 62
     7
 10
-161.00000299999999
 20
184.98505946917069
 30
0.0
 40
1.999997999999974
 50
292.02431283700651
 51
0.0
  0
ARC
  5
292
  8
DATA
  6
CONTINUOUS
 62
     7
 10
-161.00000299999999
 20
184.98505946917069
 30
0.0
 40
1.599998400000026
 50
292.0243128370023
 51
0.0
  0
CIRCLE
  5
293
  8
DATA
  6
CONTINUOUS
 62
     7
 10
-163.9999999999998
 20
202.985794821784
 30
0.0
 40
1.2499987500000309
  0
ARC
  5
294
  8
DATA
  6
CONTINUOUS
 62
     7
 10
-163.9999999999998
 20
199.03579877178399
 30
0.0
 40
9.9999900000000324
 50
290.51438098900007
 51
292.09520914279921
  0
ARC
  5
295
  8
DATA
  6
CONTINUOUS
 62
     7
 10
-163.9999999999998
 20
199.03579877178399
 30
0.0
 40
9.9999900000000874
 50
247.90479085719841
 51
249.48561901099981
  0
ARC
  5
296
  8
DATA
  6
CONTINUOUS
 62
     7
 10
-163.9999999999998
 20
199.03579877178399
 30
0.0
 40
7.8999921000001132
 50
290.65471993590268
 51
309.5877105185362
  0
ARC
  5
297
  8
DATA
  6
CONTINUOUS
 62
     7
 10
-163.9999999999998
 20
199.03579877178399
 30
0.0
 40
7.8999921000000644
 50
320.41228948146261
 51
249.3720493380269
  0
CIRCLE
  5
298
  8
DATA
  6
CONTINUOUS
 62
     7
 10
-163.9999999999998
 20
199.03579877178399
 30
0.0
 40
6.899993099999846
  0
CIRCLE
  5
299
  8
DATA
  6
CONTINUOUS
 62
     7
 10
-168.0499959500001
 20
199.03579877178399
 30
0.0
 40
1.2499987499995759
  0
ARC
  5
29A
  8
DATA
  6
CONTINUOUS
 62
     7
 10
-163.9999999999998
 20
192.40125054007211
 30
0.0
 40
9.9999900000000022
 50
247.97568716299941
 51
292.02431283700059
  0
ARC
  5
29B
  8
DATA
  6
CONTINUOUS
 62
     7
 10
-163.9999999999998
 20
192.40125054007211
 30
0.0
 40
9.5999903999999692
 50
272.54467677999958
 51
292.02431283700008
  0
ARC
  5
29C
  8
DATA
  6
CONTINUOUS
 62
     7
 10
-163.9999999999998
 20
192.40125054007211
 30
0.0
 40
9.599990399999843
 50
247.9756871629998
 51
267.45532322000048
  0
ARC
  5
29D
  8
DATA
  6
CONTINUOUS
 62
     7
 10
-166.99999699999981
 20
184.98505946917069
 30
0.0
 40
1.999998000000232
 50
180.0
 51
247.97568716299341
  0
ARC
  5
29E
  8
DATA
  6
CONTINUOUS
 62
     7
 10
-166.99999699999981
 20
185.80125714007229
 30
0.0
 40
1.9999980000000039
 50
90.0
 51
180.0
  0
ARC
  5
29F
  8
DATA
  6
CONTINUOUS
 62
     7
 10
-166.99999699999981
 20
184.98505946917069
 30
0.0
 40
1.599998400000004
 50
180.0
 51
247.97568716299611
  0
ARC
  5
2A0
  8
DATA
  6
CONTINUOUS
 62
     7
 10
-167.43433277979679
 20
189.85728220984311
 30
0.0
 40
0.1999997999999634
 50
249.48561901098191
 51
346.11104384040323
  0
ARC
  5
2A1
  8
DATA
  6
CONTINUOUS
 62
     7
 10
-166.59158985230741
 20
188.0010123312816
 30
0.0
 40
0.1997544489120933
 50
269.98149905913021
 51
357.59650037656132
  0
ARC
  5
2A2
  8
DATA
  6
CONTINUOUS
 62
     7
 10
-161.40841803665111
 20
188.0009993375611
 30
0.0
 40
0.1997440091556692
 50
182.39989860869539
 51
270.02084071842262
  0
POLYLINE
  5
2A3
  8
DATA
  6
CONTINUOUS
 62
     7
 66
     1
 10
0.0
 20
0.0
 30
0.0
 70
   128
  0
VERTEX
  5
83D
  8
DATA
  6
CONTINUOUS
 62
     7
 10
-166.99999699999981
 20
187.8012551400723
 30
0.0
  0
VERTEX
  5
83E
  8
DATA
  6
CONTINUOUS
 62
     7
 10
-167.00286023531581
 20
187.80052053992009
 30
0.0
 42
0.013536990877949
  0
VERTEX
  5
83F
  8
DATA
  6
CONTINUOUS
 62
     7
 10
-167.11886874800649
 20
187.7673854590584
 30
0.0
  0
VERTEX
  5
840
  8
DATA
  6
CONTINUOUS
 62
     7
 10
-167.1314862710515
 20
187.7634091389049
 30
0.0
 42
0.0132432192351655
  0
VERTEX
  5
841
  8
DATA
  6
CONTINUOUS
 62
     7
 10
-167.2205496430407
 20
187.73272592501661
 30
0.0
 42
0.0078449271407088
  0
VERTEX
  5
842
  8
DATA
  6
CONTINUOUS
 62
     7
 10
-167.30826012346071
 20
187.69830707645539
 30
0.0
  0
VERTEX
  5
843
  8
DATA
  6
CONTINUOUS
 62
     7
 10
-167.31221889155361
 20
187.69668147351859
 30
0.0
 42
0.0149678191049191
  0
VERTEX
  5
844
  8
DATA
  6
CONTINUOUS
 62
     7
 10
-167.40265049840909
 20
187.65634352010039
 30
0.0
 42
0.007549368639505
  0
VERTEX
  5
845
  8
DATA
  6
CONTINUOUS
 62
     7
 10
-167.49121398062681
 20
187.61195577070129
 30
0.0
 42
0.0152022874872054
  0
VERTEX
  5
846
  8
DATA
  6
CONTINUOUS
 62
     7
 10
-167.5776451397343
 20
187.5635981671777
 30
0.0
  0
VERTEX
  5
847
  8
DATA
  6
CONTINUOUS
 62
     7
 10
-167.59180752231711
 20
187.555099086073
 30
0.0
 42
0.0076542450578218
  0
VERTEX
  5
848
  8
DATA
  6
CONTINUOUS
 62
     7
 10
-167.64790843231239
 20
187.52025298157611
 30
0.0
  0
VERTEX
  5
849
  8
DATA
  6
CONTINUOUS
 62
     7
 10
-167.6485251896305
 20
187.51985668285079
 30
0.0
 42
0.0076973431191295
  0
VERTEX
  5
84A
  8
DATA
  6
CONTINUOUS
 62
     7
 10
-167.7023088674965
 20
187.484116273354
 30
0.0
 42
0.0073845984078804
  0
VERTEX
  5
84B
  8
DATA
  6
CONTINUOUS
 62
     7
 10
-167.75499069171209
 20
187.4467697212892
 30
0.0
  0
VERTEX
  5
84C
  8
DATA
  6
CONTINUOUS
 62
     7
 10
-167.7670193863606
 20
187.43797271322731
 30
0.0
 42
0.0147771409370743
  0
VERTEX
  5
84D
  8
DATA
  6
CONTINUOUS
 62
     7
 10
-167.84149482660391
 20
187.38005248548311
 30
0.0
  0
VERTEX
  5
84E
  8
DATA
  6
CONTINUOUS
 62
     7
 10
-167.85462269015909
 20
187.36920538612509
 30
0.0
 42
0.0143620352164202
  0
VERTEX
  5
84F
  8
DATA
  6
CONTINUOUS
 62
     7
 10
-167.94352783799201
 20
187.2913435636944
 30
0.0
  0
VERTEX
  5
850
  8
DATA
  6
CONTINUOUS
 62
     7
 10
-167.9451857567982
 20
187.2898052446368
 30
0.0
 42
0.013777626797106
  0
VERTEX
  5
851
  8
DATA
  6
CONTINUOUS
 62
     7
 10
-168.0263449380262
 20
187.210229029321
 30
0.0
  0
VERTEX
  5
852
  8
DATA
  6
CONTINUOUS
 62
     7
 10
-168.02767106325371
 20
187.20885509300479
 30
0.0
 42
0.0134608839548503
  0
VERTEX
  5
853
  8
DATA
  6
CONTINUOUS
 62
     7
 10
-168.1018021278017
 20
187.12779386290859
 30
0.0
  0
VERTEX
  5
854
  8
DATA
  6
CONTINUOUS
 62
     7
 10
-168.1027972681494
 20
187.12664507085421
 30
0.0
 42
0.013016704676542
  0
VERTEX
  5
855
  8
DATA
  6
CONTINUOUS
 62
     7
 10
-168.170606564499
 20
187.0441197175445
 30
0.0
  0
VERTEX
  5
856
  8
DATA
  6
CONTINUOUS
 62
     7
 10
-168.1712524511436
 20
187.04329056772301
 30
0.0
 42
0.0128612074909764
  0
VERTEX
  5
857
  8
DATA
  6
CONTINUOUS
 62
     7
 10
-168.23345416168769
 20
186.95905766482301
 30
0.0
  0
VERTEX
  5
858
  8
DATA
  6
CONTINUOUS
 62
     7
 10
-168.23381923156819
 20
186.95853571489161
 30
0.0
 42
0.0126258428301875
  0
VERTEX
  5
859
  8
DATA
  6
CONTINUOUS
 62
     7
 10
-168.2909459191527
 20
186.87230369379131
 30
0.0
  0
VERTEX
  5
85A
  8
DATA
  6
CONTINUOUS
 62
     7
 10
-168.29786227578279
 20
186.86126815242619
 30
0.0
 42
0.0126557334313694
  0
VERTEX
  5
85B
  8
DATA
  6
CONTINUOUS
 62
     7
 10
-168.33729233704881
 20
186.7946662463369
 30
0.0
  0
VERTEX
  5
85C
  8
DATA
  6
CONTINUOUS
 62
     7
 10
-168.33732829796131
 20
186.7946018397746
 30
0.0
 42
0.006319336093068
  0
VERTEX
  5
85D
  8
DATA
  6
CONTINUOUS
 62
     7
 10
-168.37414171299741
 20
186.72666526297641
 30
0.0
 42
0.012676394368604
  0
VERTEX
  5
85E
  8
DATA
  6
CONTINUOUS
 62
     7
 10
-168.40834002029581
 20
186.65739623310529
 30
0.0
  0
VERTEX
  5
85F
  8
DATA
  6
CONTINUOUS
 62
     7
 10
-168.41373035281589
 20
186.64574285158429
 30
0.0
 42
0.0065371235804348
  0
VERTEX
  5
860
  8
DATA
  6
CONTINUOUS
 62
     7
 10
-168.43536544806111
 20
186.5973181829182
 30
0.0
 42
0.0065548944884815
  0
VERTEX
  5
861
  8
DATA
  6
CONTINUOUS
 62
     7
 10
-168.45572532762711
 20
186.54834371438841
 30
0.0
  0
VERTEX
  5
862
  8
DATA
  6
CONTINUOUS
 62
     7
 10
-168.46067829849031
 20
186.53597463155921
 30
0.0
 42
0.0131471650781183
  0
VERTEX
  5
863
  8
DATA
  6
CONTINUOUS
 62
     7
 10
-168.4883373381526
 20
186.46126767052741
 30
0.0
  0
VERTEX
  5
864
  8
DATA
  6
CONTINUOUS
 62
     7
 10
-168.49315838466671
 20
186.44711386448509
 30
0.0
 42
0.0076109923440853
  0
VERTEX
  5
865
  8
DATA
  6
CONTINUOUS
 62
     7
 10
-168.511022375403
 20
186.39192988673599
 30
0.0
 42
0.0067773452553554
  0
VERTEX
  5
866
  8
DATA
  6
CONTINUOUS
 62
     7
 10
-168.52729159605471
 20
186.33625343345869
 30
0.0
  0
VERTEX
  5
867
  8
DATA
  6
CONTINUOUS
 62
     7
 10
-168.5305016174562
 20
186.32468809627011
 30
0.0
 42
0.0135908901806305
  0
VERTEX
  5
868
  8
DATA
  6
CONTINUOUS
 62
     7
 10
-168.55027304624249
 20
186.24512291231301
 30
0.0
  0
VERTEX
  5
869
  8
DATA
  6
CONTINUOUS
 62
     7
 10
-168.55324386508471
 20
186.2316082318203
 30
0.0
 42
0.0136908823045685
  0
VERTEX
  5
86A
  8
DATA
  6
CONTINUOUS
 62
     7
 10
-168.5738443424288
 20
186.12391198178329
 30
0.0
  0
VERTEX
  5
86B
  8
DATA
  6
CONTINUOUS
 62
     7
 10
-168.57395690948951
 20
186.12322156474849
 30
0.0
 42
0.0137150670515566
  0
VERTEX
  5
86C
  8
DATA
  6
CONTINUOUS
 62
     7
 10
-168.5885242104965
 20
186.0153179874732
 30
0.0
  0
VERTEX
  5
86D
  8
DATA
  6
CONTINUOUS
 62
     7
 10
-168.58867189186199
 20
186.01393998627739
 30
0.0
 42
0.0134446974707528
  0
VERTEX
  5
86E
  8
DATA
  6
CONTINUOUS
 62
     7
 10
-168.59713872527689
 20
185.90816504400809
 30
0.0
  0
VERTEX
  5
86F
  8
DATA
  6
CONTINUOUS
 62
     7
 10
-168.5971839061273
 20
185.9073131747453
 30
0.0
 42
0.013032692468346
  0
VERTEX
  5
870
  8
DATA
  6
CONTINUOUS
 62
     7
 10
-168.59999467598331
 20
185.80294098556851
 30
0.0
  0
VERTEX
  5
871
  8
DATA
  6
CONTINUOUS
 62
     7
 10
-168.59999539999981
 20
185.801257069439
 30
0.0
  0
SEQEND
  5
872
  8
DATA
  6
CONTINUOUS
 62
     7
  0
POLYLINE
  5
2DA
  8
DATA
  6
CONTINUOUS
 62
     7
 66
     1
 10
0.0
 20
0.0
 30
0.0
 70
   128
  0
VERTEX
  5
873
  8
DATA
  6
CONTINUOUS
 62
     7
 10
-159.40000459999999
 20
185.8012442483184
 30
0.0
  0
VERTEX
  5
874
  8
DATA
  6
CONTINUOUS
 62
     7
 10
-159.40000960648311
 20
185.80438796063081
 30
0.0
 42
0.0127110398470988
  0
VERTEX
  5
875
  8
DATA
  6
CONTINUOUS
 62
     7
 10
-159.40275173406201
 20
185.905873741394
 30
0.0
 42
0.0126380170103336
  0
VERTEX
  5
876
  8
DATA
  6
CONTINUOUS
 62
     7
 10
-159.410635934597
 20
186.00712790690099
 30
0.0
  0
VERTEX
  5
877
  8
DATA
  6
CONTINUOUS
 62
     7
 10
-159.410644484155
 20
186.00721064712911
 30
0.0
 42
0.0126173303979325
  0
VERTEX
  5
878
  8
DATA
  6
CONTINUOUS
 62
     7
 10
-159.4236122605208
 20
186.10781014923421
 30
0.0
  0
VERTEX
  5
879
  8
DATA
  6
CONTINUOUS
 62
     7
 10
-159.42407304615699
 20
186.11078974980381
 30
0.0
 42
0.0126257181912776
  0
VERTEX
  5
87A
  8
DATA
  6
CONTINUOUS
 62
     7
 10
-159.44102935308689
 20
186.20467452185909
 30
0.0
  0
VERTEX
  5
87B
  8
DATA
  6
CONTINUOUS
 62
     7
 10
-159.44162190212779
 20
186.2075397571945
 30
0.0
 42
0.0111721324016801
  0
VERTEX
  5
87C
  8
DATA
  6
CONTINUOUS
 62
     7
 10
-159.46171459924369
 20
186.29481680662039
 30
0.0
 42
0.0111208472030064
  0
VERTEX
  5
87D
  8
DATA
  6
CONTINUOUS
 62
     7
 10
-159.4856738106734
 20
186.3810993647611
 30
0.0
  0
VERTEX
  5
87E
  8
DATA
  6
CONTINUOUS
 62
     7
 10
-159.4856976898661
 20
186.3811784876705
 30
0.0
 42
0.0110924905938731
  0
VERTEX
  5
87F
  8
DATA
  6
CONTINUOUS
 62
     7
 10
-159.51341042789889
 20
186.46614243906589
 30
0.0
  0
VERTEX
  5
880
  8
DATA
  6
CONTINUOUS
 62
     7
 10
-159.51421561597229
 20
186.4684370910195
 30
0.0
 42
0.0110492182944746
  0
VERTEX
  5
881
  8
DATA
  6
CONTINUOUS
 62
     7
 10
-159.5439513900609
 20
186.5475396619257
 30
0.0
  0
VERTEX
  5
882
  8
DATA
  6
CONTINUOUS
 62
     7
 10
-159.5448277197529
 20
186.54972311846561
 30
0.0
 42
0.0098561502026205
  0
VERTEX
  5
883
  8
DATA
  6
CONTINUOUS
 62
     7
 10
-159.57600737185371
 20
186.62318689955799
 30
0.0
 42
0.0098169547190614
  0
VERTEX
  5
884
  8
DATA
  6
CONTINUOUS
 62
     7
 10
-159.61005255291241
 20
186.695367331928
 30
0.0
  0
VERTEX
  5
885
  8
DATA
  6
CONTINUOUS
 62
     7
 10
-159.61007359297511
 20
186.695409760269
 30
0.0
 42
0.0097935210153068
  0
VERTEX
  5
886
  8
DATA
  6
CONTINUOUS
 62
     7
 10
-159.64687899494569
 20
186.7661156915114
 30
0.0
  0
VERTEX
  5
887
  8
DATA
  6
CONTINUOUS
 62
     7
 10
-159.64758946370549
 20
186.76741764308639
 30
0.0
 42
0.0097705117116424
  0
VERTEX
  5
888
  8
DATA
  6
CONTINUOUS
 62
     7
 10
-159.6856612608789
 20
186.8340546601639
 30
0.0
  0
VERTEX
  5
889
  8
DATA
  6
CONTINUOUS
 62
     7
 10
-159.6863980564238
 20
186.83528769623419
 30
0.0
 42
0.0090403980387481
  0
VERTEX
  5
88A
  8
DATA
  6
CONTINUOUS
 62
     7
 10
-159.72543268203631
 20
186.89800877346849
 30
0.0
 42
0.0089981325774028
  0
VERTEX
  5
88B
  8
DATA
  6
CONTINUOUS
 62
     7
 10
-159.7667033806039
 20
186.95927998825931
 30
0.0
 42
0.0089640859677262
  0
VERTEX
  5
88C
  8
DATA
  6
CONTINUOUS
 62
     7
 10
-159.81012903071979
 20
187.0190031512065
 30
0.0
  0
VERTEX
  5
88D
  8
DATA
  6
CONTINUOUS
 62
     7
 10
-159.8107059207091
 20
187.01976733463519
 30
0.0
 42
0.0089395369003508
  0
VERTEX
  5
88E
  8
DATA
  6
CONTINUOUS
 62
     7
 10
-159.8550428099405
 20
187.07636534066449
 30
0.0
  0
VERTEX
  5
88F
  8
DATA
  6
CONTINUOUS
 62
     7
 10
-159.8556274660252
 20
187.07708480421019
 30
0.0
 42
0.0084592050594728
  0
VERTEX
  5
890
  8
DATA
  6
CONTINUOUS
 62
     7
 10
-159.9007139942124
 20
187.13068827031799
 30
0.0
 42
0.0084178376711551
  0
VERTEX
  5
891
  8
DATA
  6
CONTINUOUS
 62
     7
 10
-159.94758350662329
 20
187.18273935909181
 30
0.0
 42
0.0083845101807964
  0
VERTEX
  5
892
  8
DATA
  6
CONTINUOUS
 62
     7
 10
-159.99616686664299
 20
187.23317752802899
 30
0.0
  0
VERTEX
  5
893
  8
DATA
  6
CONTINUOUS
 62
     7
 10
-159.99642223636741
 20
187.23343389815551
 30
0.0
 42
0.008362890718929
  0
VERTEX
  5
894
  8
DATA
  6
CONTINUOUS
 62
     7
 10
-160.0461400874627
 20
187.28170430930129
 30
0.0
  0
VERTEX
  5
895
  8
DATA
  6
CONTINUOUS
 62
     7
 10
-160.04639545471761
 20
187.28194407669511
 30
0.0
 42
0.0081612438743463
  0
VERTEX
  5
896
  8
DATA
  6
CONTINUOUS
 62
     7
 10
-160.097163003454
 20
187.3280746170901
 30
0.0
 42
0.0081176824254656
  0
VERTEX
  5
897
  8
DATA
  6
CONTINUOUS
 62
     7
 10
-160.1494052631738
 20
187.37252815878679
 30
0.0
 42
0.0080823319181457
  0
VERTEX
  5
898
  8
DATA
  6
CONTINUOUS
 62
     7
 10
-160.20306073090401
 20
187.41526653732751
 30
0.0
 42
0.0080632191183627
  0
VERTEX
  5
899
  8
DATA
  6
CONTINUOUS
 62
     7
 10
-160.25808823264731
 20
187.45626546706541
 30
0.0
 42
0.0080341999901635
  0
VERTEX
  5
89A
  8
DATA
  6
CONTINUOUS
 62
     7
 10
-160.3144458453215
 20
187.49549995240491
 30
0.0
 42
0.0079826435086159
  0
VERTEX
  5
89B
  8
DATA
  6
CONTINUOUS
 62
     7
 10
-160.37205032232239
 20
187.5329226860288
 30
0.0
 42
0.0079420371704879
  0
VERTEX
  5
89C
  8
DATA
  6
CONTINUOUS
 62
     7
 10
-160.43081594052899
 20
187.56849132184831
 30
0.0
 42
0.0079116374796795
  0
VERTEX
  5
89D
  8
DATA
  6
CONTINUOUS
 62
     7
 10
-160.490661535047
 20
187.60216891621289
 30
0.0
 42
0.0078627578669386
  0
VERTEX
  5
89E
  8
DATA
  6
CONTINUOUS
 62
     7
 10
-160.55150658215609
 20
187.63392410113281
 30
0.0
 42
0.0078168903559208
  0
VERTEX
  5
89F
  8
DATA
  6
CONTINUOUS
 62
     7
 10
-160.61330212875271
 20
187.6637479830114
 30
0.0
 42
0.007775345513442
  0
VERTEX
  5
8A0
  8
DATA
  6
CONTINUOUS
 62
     7
 10
-160.6760032619764
 20
187.69163324898591
 30
0.0
 42
0.0077451273574401
  0
VERTEX
  5
8A1
  8
DATA
  6
CONTINUOUS
 62
     7
 10
-160.7395444808522
 20
187.71756129136409
 30
0.0
  0
VERTEX
  5
8A2
  8
DATA
  6
CONTINUOUS
 62
     7
 10
-160.7396298676143
 20
187.7175946002034
 30
0.0
 42
0.007733992205028
  0
VERTEX
  5
8A3
  8
DATA
  6
CONTINUOUS
 62
     7
 10
-160.80411496818871
 20
187.74160741735159
 30
0.0
  0
VERTEX
  5
8A4
  8
DATA
  6
CONTINUOUS
 62
     7
 10
-160.80419670336741
 20
187.74163642228359
 30
0.0
 42
0.0076843509807646
  0
VERTEX
  5
8A5
  8
DATA
  6
CONTINUOUS
 62
     7
 10
-160.86955591473469
 20
187.76370518954209
 30
0.0
  0
VERTEX
  5
8A6
  8
DATA
  6
CONTINUOUS
 62
     7
 10
-160.88494949445641
 20
187.7686406792572
 30
0.0
 42
0.0147572639250447
  0
VERTEX
  5
8A7
  8
DATA
  6
CONTINUOUS
 62
     7
 10
-160.98226348247499
 20
187.79670307834891
 30
0.0
  0
VERTEX
  5
8A8
  8
DATA
  6
CONTINUOUS
 62
     7
 10
-160.99791600866081
 20
187.80072051382649
 30
0.0
  0
VERTEX
  5
8A9
  8
DATA
  6
CONTINUOUS
 62
     7
 10
-161.00000299999999
 20
187.8012551400723
 30
0.0
  0
SEQEND
  5
8AA
  8
DATA
  6
CONTINUOUS
 62
     7
  0
POLYLINE
  5
313
  8
DATA
  6
CONTINUOUS
 62
     7
 66
     1
 10
0.0
 20
0.0
 30
0.0
 70
   128
  0
VERTEX
  5
8AB
  8
DATA
  6
CONTINUOUS
 62
     7
 10
-166.3719322681701
 20
189.0640167186634
 30
0.0
 42
0.0002651132516096
  0
VERTEX
  5
8AC
  8
DATA
  6
CONTINUOUS
 62
     7
 10
-166.3758858291319
 20
188.88458551199329
 30
0.0
  0
VERTEX
  5
8AD
  8
DATA
  6
CONTINUOUS
 62
     7
 10
-166.376653570131
 20
188.84888249090329
 30
0.0
  0
VERTEX
  5
8AE
  8
DATA
  6
CONTINUOUS
 62
     7
 10
-166.376653570131
 20
188.84888249090329
 30
0.0
  0
VERTEX
  5
8AF
  8
DATA
  6
CONTINUOUS
 62
     7
 10
-166.376653570131
 20
188.84888249090329
 30
0.0
 42
0.0006471404305475
  0
VERTEX
  5
8B0
  8
DATA
  6
CONTINUOUS
 62
     7
 10
-166.38269060301209
 20
188.55014794096741
 30
0.0
  0
VERTEX
  5
8B1
  8
DATA
  6
CONTINUOUS
 62
     7
 10
-166.38337986420251
 20
188.51370692415799
 30
0.0
  0
VERTEX
  5
8B2
  8
DATA
  6
CONTINUOUS
 62
     7
 10
-166.38337986420251
 20
188.51370692415799
 30
0.0
  0
VERTEX
  5
8B3
  8
DATA
  6
CONTINUOUS
 62
     7
 10
-166.38337986420251
 20
188.51370692415799
 30
0.0
 42
0.0005615521866941
  0
VERTEX
  5
8B4
  8
DATA
  6
CONTINUOUS
 62
     7
 10
-166.38799592823341
 20
188.2542455799003
 30
0.0
  0
VERTEX
  5
8B5
  8
DATA
  6
CONTINUOUS
 62
     7
 10
-166.38803027173299
 20
188.25218511747241
 30
0.0
  0
VERTEX
  5
8B6
  8
DATA
  6
CONTINUOUS
 62
     7
 10
-166.38803027173299
 20
188.25218511747241
 30
0.0
  0
VERTEX
  5
8B7
  8
DATA
  6
CONTINUOUS
 62
     7
 10
-166.38803027173299
 20
188.25218511747241
 30
0.0
 42
0.0006244041334202
  0
VERTEX
  5
8B8
  8
DATA
  6
CONTINUOUS
 62
     7
 10
-166.39196865731441
 20
187.99675646269731
 30
0.0
  0
VERTEX
  5
8B9
  8
DATA
  6
CONTINUOUS
 62
     7
 10
-166.3920269115373
 20
187.99263596585789
 30
0.0
  0
SEQEND
  5
8BA
  8
DATA
  6
CONTINUOUS
 62
     7
  0
POLYLINE
  5
324
  8
DATA
  6
CONTINUOUS
 62
     7
 66
     1
 10
0.0
 20
0.0
 30
0.0
 70
   128
  0
VERTEX
  5
8BB
  8
DATA
  6
CONTINUOUS
 62
     7
 10
-161.6160574347852
 20
189.0668811852471
 30
0.0
 42
-0.0002270695652615
  0
VERTEX
  5
8BC
  8
DATA
  6
CONTINUOUS
 62
     7
 10
-161.61200406732971
 20
188.5648697937751
 30
0.0
  0
VERTEX
  5
8BD
  8
DATA
  6
CONTINUOUS
 62
     7
 10
-161.61196972383121
 20
188.56036282434999
 30
0.0
  0
VERTEX
  5
8BE
  8
DATA
  6
CONTINUOUS
 62
     7
 10
-161.61196972383121
 20
188.56036282434999
 30
0.0
  0
VERTEX
  5
8BF
  8
DATA
  6
CONTINUOUS
 62
     7
 10
-161.61196972383121
 20
188.56036282434999
 30
0.0
 42
-0.00028542486085
  0
VERTEX
  5
8C0
  8
DATA
  6
CONTINUOUS
 62
     7
 10
-161.60803133861131
 20
188.0016488708988
 30
0.0
  0
VERTEX
  5
8C1
  8
DATA
  6
CONTINUOUS
 62
     7
 10
-161.60797308439609
 20
187.99263586849131
 30
0.0
  0
SEQEND
  5
8C2
  8
DATA
  6
CONTINUOUS
 62
     7
  0
CIRCLE
  5
32D
  8
DATA
  6
CONTINUOUS
 62
     7
 10
-154.10000989999989
 20
189.1358086717841
 30
0.0
 40
2.0
  0
LINE
  5
32E
  8
DATA
  6
CONTINUOUS
 62
     7
 10
-154.10000989999989
 20
187.9359286717841
 30
0.0
 11
-154.10000989999989
 21
190.33568867178411
 31
0.0
  0
LINE
  5
32F
  8
DATA
  6
CONTINUOUS
 62
     7
 10
-155.29988989999981
 20
189.1358086717841
 30
0.0
 11
-152.9001298999998
 21
189.1358086717841
 31
0.0
  0
CIRCLE
  5
330
  8
DATA
  6
CONTINUOUS
 62
     7
 10
-173.89999010000011
 20
208.9357888717843
 30
0.0
 40
2.0000000000000142
  0
LINE
  5
331
  8
DATA
  6
CONTINUOUS
 62
     7
 10
-173.89999010000011
 20
207.73590887178429
 30
0.0
 11
-173.89999010000011
 21
210.13566887178439
 31
0.0
  0
LINE
  5
332
  8
DATA
  6
CONTINUOUS
 62
     7
 10
-175.0998701
 20
208.9357888717843
 30
0.0
 11
-172.7001100999999
 21
208.9357888717843
 31
0.0
  0
CIRCLE
  5
333
  8
DATA
  6
CONTINUOUS
 62
     7
 10
-163.9999999999998
 20
199.03579877178399
 30
0.0
 40
10.25
  0
LINE
  5
334
  8
DATA
  6
CONTINUOUS
 62
     7
 10
-160.759819579583
 20
189.8092740716358
 30
0.0
 11
-161.21339261343221
 21
191.64359379276539
 31
0.0
  0
LINE
  5
335
  8
DATA
  6
CONTINUOUS
 62
     7
 10
-167.2401804203831
 20
189.8092740716358
 30
0.0
 11
-166.78671155935299
 21
191.64317250172189
 31
0.0
  0
LINE
  5
336
  8
DATA
  6
CONTINUOUS
 62
     7
 10
-164.4262241060635
 20
182.8107266392885
 30
0.0
 11
-163.5737758939361
 21
182.8107266392885
 31
0.0
  0
CIRCLE
  5
337
  8
DATA
  6
CONTINUOUS
 62
     7
 10
-119.1009900000001
 20
189.1367887717841
 30
0.0
 40
2.0
  0
CIRCLE
  5
338
  8
DATA
  6
CONTINUOUS
 62
     7
 10
-129.0
 20
199.0357987717841
 30
0.0
 40
10.898910000000001
  0
CIRCLE
  5
339
  8
DATA
  6
CONTINUOUS
 62
     7
 10
-124.950405
 20
199.0357987717841
 30
0.0
 40
1.189881000000014
  0
CIRCLE
  5
33A
  8
DATA
  6
CONTINUOUS
 62
     7
 10
-129.0
 20
202.98540377178409
 30
0.0
 40
1.189881000000014
  0
CIRCLE
  5
33B
  8
DATA
  6
CONTINUOUS
 62
     7
 10
-133.04959500000001
 20
199.0357987717841
 30
0.0
 40
1.189881000000014
  0
ARC
  5
33C
  8
DATA
  6
CONTINUOUS
 62
     7
 10
-134.5148813499774
 20
193.5209174218401
 30
0.0
 40
0.9998999999999796
 50
146.28080190837699
 51
303.7191980912736
  0
LINE
  5
33D
  8
DATA
  6
CONTINUOUS
 62
     7
 10
-117.90111
 20
189.1367887717841
 30
0.0
 11
-120.3008700000001
 21
189.1367887717841
 31
0.0
  0
LINE
  5
33E
  8
DATA
  6
CONTINUOUS
 62
     7
 10
-119.1009900000001
 20
190.3366687717841
 30
0.0
 11
-119.1009900000001
 21
187.936908771784
 31
0.0
  0
CIRCLE
  5
33F
  8
DATA
  6
CONTINUOUS
 62
     7
 10
-138.89900999999989
 20
208.93480877178399
 30
0.0
 40
2.0
  0
LINE
  5
340
  8
DATA
  6
CONTINUOUS
 62
     7
 10
-138.89900999999989
 20
210.134688771784
 30
0.0
 11
-138.89900999999989
 21
207.73492877178401
 31
0.0
  0
LINE
  5
341
  8
DATA
  6
CONTINUOUS
 62
     7
 10
-137.69913
 20
208.93480877178399
 30
0.0
 11
-140.09889000000001
 21
208.93480877178399
 31
0.0
  0
POLYLINE
  5
342
  8
DATA
  6
CONTINUOUS
 62
     7
 66
     1
 10
0.0
 20
0.0
 30
0.0
 70
   129
  0
VERTEX
  5
8C3
  8
DATA
  6
CONTINUOUS
 62
     7
 10
58.971859078679927
 20
204.6120969645888
 30
0.0
 42
-0.4142135623730951
  0
VERTEX
  5
8C4
  8
DATA
  6
CONTINUOUS
 62
     7
 10
59.471859078679927
 20
205.1120969645888
 30
0.0
 42
-0.4142135623730951
  0
VERTEX
  5
8C5
  8
DATA
  6
CONTINUOUS
 62
     7
 10
59.971859078679941
 20
204.6120969645888
 30
0.0
 42
-0.4142135623730951
  0
VERTEX
  5
8C6
  8
DATA
  6
CONTINUOUS
 62
     7
 10
59.471859078679927
 20
204.1120969645888
 30
0.0
 42
-0.4142135623730951
  0
VERTEX
  5
8C7
  8
DATA
  6
CONTINUOUS
 62
     7
 10
58.971859078679927
 20
204.6120969645888
 30
0.0
  0
SEQEND
  5
8C8
  8
DATA
  6
CONTINUOUS
 62
     7
  0
LINE
  5
349
  8
DATA
  6
CONTINUOUS
 62
     7
 10
71.411859078679711
 20
201.5920357300468
 30
0.0
 11
58.511859078679883
 21
201.5920357300468
 31
0.0
  0
LINE
  5
34A
  8
DATA
  6
CONTINUOUS
 62
     7
 10
71.035289078679583
 20
209.93203573004689
 30
0.0
 11
58.88841907867981
 21
209.93203573004689
 31
0.0
  0
POLYLINE
  5
34B
  8
DATA
  6
CONTINUOUS
 62
     7
 66
     1
 10
0.0
 20
0.0
 30
0.0
 70
   129
  0
VERTEX
  5
8C9
  8
DATA
  6
CONTINUOUS
 62
     7
 10
60.351859078679809
 20
207.45209696458889
 30
0.0
 42
-0.4142135623731117
  0
VERTEX
  5
8CA
  8
DATA
  6
CONTINUOUS
 62
     7
 10
60.851859078679801
 20
207.95209696458889
 30
0.0
 42
-0.4142135623730825
  0
VERTEX
  5
8CB
  8
DATA
  6
CONTINUOUS
 62
     7
 10
61.351859078679809
 20
207.45209696458889
 30
0.0
 42
-0.4142135623731117
  0
VERTEX
  5
8CC
  8
DATA
  6
CONTINUOUS
 62
     7
 10
60.851859078679801
 20
206.95209696458889
 30
0.0
 42
-0.4142135623730743
  0
VERTEX
  5
8CD
  8
DATA
  6
CONTINUOUS
 62
     7
 10
60.351859078679809
 20
207.45209696458889
 30
0.0
  0
SEQEND
  5
8CE
  8
DATA
  6
CONTINUOUS
 62
     7
  0
POLYLINE
  5
352
  8
DATA
  6
CONTINUOUS
 62
     7
 66
     1
 10
0.0
 20
0.0
 30
0.0
 70
   129
  0
VERTEX
  5
8CF
  8
DATA
  6
CONTINUOUS
 62
     7
 10
63.091859078679811
 20
207.45209696458889
 30
0.0
 42
-0.4142135623731117
  0
VERTEX
  5
8D0
  8
DATA
  6
CONTINUOUS
 62
     7
 10
63.591859078679811
 20
207.95209696458889
 30
0.0
 42
-0.4142135623730743
  0
VERTEX
  5
8D1
  8
DATA
  6
CONTINUOUS
 62
     7
 10
64.091859078679818
 20
207.45209696458889
 30
0.0
 42
-0.4142135623731117
  0
VERTEX
  5
8D2
  8
DATA
  6
CONTINUOUS
 62
     7
 10
63.591859078679811
 20
206.95209696458889
 30
0.0
 42
-0.4142135623730825
  0
VERTEX
  5
8D3
  8
DATA
  6
CONTINUOUS
 62
     7
 10
63.091859078679811
 20
207.45209696458889
 30
0.0
  0
SEQEND
  5
8D4
  8
DATA
  6
CONTINUOUS
 62
     7
  0
POLYLINE
  5
359
  8
DATA
  6
CONTINUOUS
 62
     7
 66
     1
 10
0.0
 20
0.0
 30
0.0
 70
   129
  0
VERTEX
  5
8D5
  8
DATA
  6
CONTINUOUS
 62
     7
 10
68.571859078679793
 20
207.45209696458889
 30
0.0
 42
-0.4142135623731117
  0
VERTEX
  5
8D6
  8
DATA
  6
CONTINUOUS
 62
     7
 10
69.071859078679793
 20
207.95209696458889
 30
0.0
 42
-0.4142135623730806
  0
VERTEX
  5
8D7
  8
DATA
  6
CONTINUOUS
 62
     7
 10
69.571859078679793
 20
207.45209696458889
 30
0.0
 42
-0.4142135623731117
  0
VERTEX
  5
8D8
  8
DATA
  6
CONTINUOUS
 62
     7
 10
69.071859078679793
 20
206.95209696458889
 30
0.0
 42
-0.4142135623730764
  0
VERTEX
  5
8D9
  8
DATA
  6
CONTINUOUS
 62
     7
 10
68.571859078679793
 20
207.45209696458889
 30
0.0
  0
SEQEND
  5
8DA
  8
DATA
  6
CONTINUOUS
 62
     7
  0
POLYLINE
  5
360
  8
DATA
  6
CONTINUOUS
 62
     7
 66
     1
 10
0.0
 20
0.0
 30
0.0
 70
   129
  0
VERTEX
  5
8DB
  8
DATA
  6
CONTINUOUS
 62
     7
 10
67.201859078679902
 20
204.6120969645888
 30
0.0
 42
-0.4142135623730951
  0
VERTEX
  5
8DC
  8
DATA
  6
CONTINUOUS
 62
     7
 10
67.701859078679902
 20
205.1120969645888
 30
0.0
 42
-0.4142135623730951
  0
VERTEX
  5
8DD
  8
DATA
  6
CONTINUOUS
 62
     7
 10
68.201859078679902
 20
204.6120969645888
 30
0.0
 42
-0.4142135623730951
  0
VERTEX
  5
8DE
  8
DATA
  6
CONTINUOUS
 62
     7
 10
67.701859078679902
 20
204.1120969645888
 30
0.0
 42
-0.4142135623730951
  0
VERTEX
  5
8DF
  8
DATA
  6
CONTINUOUS
 62
     7
 10
67.201859078679902
 20
204.6120969645888
 30
0.0
  0
SEQEND
  5
8E0
  8
DATA
  6
CONTINUOUS
 62
     7
  0
POLYLINE
  5
367
  8
DATA
  6
CONTINUOUS
 62
     7
 66
     1
 10
0.0
 20
0.0
 30
0.0
 70
   129
  0
VERTEX
  5
8E1
  8
DATA
  6
CONTINUOUS
 62
     7
 10
69.951859078679902
 20
204.6120969645888
 30
0.0
 42
-0.4142135623730951
  0
VERTEX
  5
8E2
  8
DATA
  6
CONTINUOUS
 62
     7
 10
70.451859078679902
 20
205.1120969645888
 30
0.0
 42
-0.4142135623730951
  0
VERTEX
  5
8E3
  8
DATA
  6
CONTINUOUS
 62
     7
 10
70.951859078679902
 20
204.6120969645888
 30
0.0
 42
-0.4142135623730951
  0
VERTEX
  5
8E4
  8
DATA
  6
CONTINUOUS
 62
     7
 10
70.451859078679902
 20
204.1120969645888
 30
0.0
 42
-0.4142135623730951
  0
VERTEX
  5
8E5
  8
DATA
  6
CONTINUOUS
 62
     7
 10
69.951859078679902
 20
204.6120969645888
 30
0.0
  0
SEQEND
  5
8E6
  8
DATA
  6
CONTINUOUS
 62
     7
  0
POLYLINE
  5
36E
  8
DATA
  6
CONTINUOUS
 62
     7
 66
     1
 10
0.0
 20
0.0
 30
0.0
 70
   129
  0
VERTEX
  5
8E7
  8
DATA
  6
CONTINUOUS
 62
     7
 10
61.721859078679927
 20
204.6120969645888
 30
0.0
 42
-0.4142135623730951
  0
VERTEX
  5
8E8
  8
DATA
  6
CONTINUOUS
 62
     7
 10
62.221859078679927
 20
205.1120969645888
 30
0.0
 42
-0.4142135623730951
  0
VERTEX
  5
8E9
  8
DATA
  6
CONTINUOUS
 62
     7
 10
62.721859078679927
 20
204.6120969645888
 30
0.0
 42
-0.4142135623730951
  0
VERTEX
  5
8EA
  8
DATA
  6
CONTINUOUS
 62
     7
 10
62.221859078679927
 20
204.1120969645888
 30
0.0
 42
-0.4142135623730951
  0
VERTEX
  5
8EB
  8
DATA
  6
CONTINUOUS
 62
     7
 10
61.721859078679927
 20
204.6120969645888
 30
0.0
  0
SEQEND
  5
8EC
  8
DATA
  6
CONTINUOUS
 62
     7
  0
POLYLINE
  5
375
  8
DATA
  6
CONTINUOUS
 62
     7
 66
     1
 10
0.0
 20
0.0
 30
0.0
 70
   129
  0
VERTEX
  5
8ED
  8
DATA
  6
CONTINUOUS
 62
     7
 10
65.831859078679813
 20
207.45209696458889
 30
0.0
 42
-0.41421356237312
  0
VERTEX
  5
8EE
  8
DATA
  6
CONTINUOUS
 62
     7
 10
66.331859078679798
 20
207.95209696458889
 30
0.0
 42
-0.4142135623730743
  0
VERTEX
  5
8EF
  8
DATA
  6
CONTINUOUS
 62
     7
 10
66.83185907867977
 20
207.45209696458889
 30
0.0
 42
-0.41421356237312
  0
VERTEX
  5
8F0
  8
DATA
  6
CONTINUOUS
 62
     7
 10
66.331859078679798
 20
206.95209696458889
 30
0.0
 42
-0.4142135623730659
  0
VERTEX
  5
8F1
  8
DATA
  6
CONTINUOUS
 62
     7
 10
65.831859078679813
 20
207.45209696458889
 30
0.0
  0
SEQEND
  5
8F2
  8
DATA
  6
CONTINUOUS
 62
     7
  0
POLYLINE
  5
37C
  8
DATA
  6
CONTINUOUS
 62
     7
 66
     1
 10
0.0
 20
0.0
 30
0.0
 70
   129
  0
VERTEX
  5
8F3
  8
DATA
  6
CONTINUOUS
 62
     7
 10
64.461859078679694
 20
204.6120969645888
 30
0.0
 42
-0.4142135623730951
  0
VERTEX
  5
8F4
  8
DATA
  6
CONTINUOUS
 62
     7
 10
64.961859078679709
 20
205.1120969645888
 30
0.0
 42
-0.414213562373091
  0
VERTEX
  5
8F5
  8
DATA
  6
CONTINUOUS
 62
     7
 10
65.461859078679709
 20
204.6120969645888
 30
0.0
 42
-0.4142135623730951
  0
VERTEX
  5
8F6
  8
DATA
  6
CONTINUOUS
 62
     7
 10
64.961859078679709
 20
204.1120969645888
 30
0.0
 42
-0.414213562373091
  0
VERTEX
  5
8F7
  8
DATA
  6
CONTINUOUS
 62
     7
 10
64.461859078679694
 20
204.6120969645888
 30
0.0
  0
SEQEND
  5
8F8
  8
DATA
  6
CONTINUOUS
 62
     7
  0
ARC
  5
383
  8
DATA
  6
CONTINUOUS
 62
     7
 10
71.411859078679711
 20
203.5920357300468
 30
0.0
 40
2.000000000000056
 50
270.0
 51
0.0
  0
LINE
  5
384
  8
DATA
  6
CONTINUOUS
 62
     7
 10
73.411859078679711
 20
203.5920357300468
 30
0.0
 11
72.512509078679813
 21
208.69250573004689
 31
0.0
  0
ARC
  5
385
  8
DATA
  6
CONTINUOUS
 62
     7
 10
71.035289078679583
 20
208.43203573004689
 30
0.0
 40
1.499998001665348
 50
9.9999255496014055
 51
90.0
  0
ARC
  5
386
  8
DATA
  6
CONTINUOUS
 62
     7
 10
58.511859078679883
 20
203.5920357300468
 30
0.0
 40
2.0
 50
180.0
 51
270.0
  0
LINE
  5
387
  8
DATA
  6
CONTINUOUS
 62
     7
 10
56.511859078679883
 20
203.5920357300468
 30
0.0
 11
57.411209078679803
 21
208.69250573004689
 31
0.0
  0
ARC
  5
388
  8
DATA
  6
CONTINUOUS
 62
     7
 10
58.88841907867981
 20
208.43203573004689
 30
0.0
 40
1.5
 50
90.0
 51
170.00007445039711
  0
POLYLINE
  5
389
  8
DATA
  6
CONTINUOUS
 62
     7
 66
     1
 10
0.0
 20
0.0
 30
0.0
 70
     1
  0
VERTEX
  5
8F9
  8
DATA
  6
CONTINUOUS
 62
     7
 10
76.219091990805254
 20
203.61019279112401
 30
0.0
  0
VERTEX
  5
8FA
  8
DATA
  6
CONTINUOUS
 62
     7
 10
78.934875767805096
 20
203.748900963079
 30
0.0
  0
VERTEX
  5
8FB
  8
DATA
  6
CONTINUOUS
 62
     7
 10
80.172642855679655
 20
206.17019279112401
 30
0.0
  0
VERTEX
  5
8FC
  8
DATA
  6
CONTINUOUS
 62
     7
 10
78.694626166554102
 20
208.45277644721409
 30
0.0
  0
VERTEX
  5
8FD
  8
DATA
  6
CONTINUOUS
 62
     7
 10
75.978842389554487
 20
208.31406827525919
 30
0.0
  0
VERTEX
  5
8FE
  8
DATA
  6
CONTINUOUS
 62
     7
 10
74.741075301679942
 20
205.89277644721409
 30
0.0
  0
SEQEND
  5
8FF
  8
DATA
  6
CONTINUOUS
 62
     7
  0
CIRCLE
  5
392
  8
DATA
  6
CONTINUOUS
 62
     7
 10
77.456859078679784
 20
206.03148461916899
 30
0.0
 40
1.1499999999998629
  0
CIRCLE
  5
393
  8
DATA
  6
CONTINUOUS
 62
     7
 10
77.456859078679784
 20
206.03148461916899
 30
0.0
 40
1.759905868717929
  0
POLYLINE
  5
394
  8
DATA
  6
CONTINUOUS
 62
     7
 66
     1
 10
0.0
 20
0.0
 30
0.0
 70
     1
  0
VERTEX
  5
900
  8
DATA
  6
CONTINUOUS
 62
     7
 10
51.229091990805273
 20
203.61019279112401
 30
0.0
  0
VERTEX
  5
901
  8
DATA
  6
CONTINUOUS
 62
     7
 10
53.94487576780535
 20
203.748900963079
 30
0.0
  0
VERTEX
  5
902
  8
DATA
  6
CONTINUOUS
 62
     7
 10
55.182642855679653
 20
206.17019279112401
 30
0.0
  0
VERTEX
  5
903
  8
DATA
  6
CONTINUOUS
 62
     7
 10
53.704626166554348
 20
208.45277644721409
 30
0.0
  0
VERTEX
  5
904
  8
DATA
  6
CONTINUOUS
 62
     7
 10
50.988842389554293
 20
208.31406827525919
 30
0.0
  0
VERTEX
  5
905
  8
DATA
  6
CONTINUOUS
 62
     7
 10
49.751075301679727
 20
205.89277644721409
 30
0.0
  0
SEQEND
  5
906
  8
DATA
  6
CONTINUOUS
 62
     7
  0
CIRCLE
  5
39D
  8
DATA
  6
CONTINUOUS
 62
     7
 10
52.466859078679811
 20
206.03148461916899
 30
0.0
 40
1.1500000000000901
  0
CIRCLE
  5
39E
  8
DATA
  6
CONTINUOUS
 62
     7
 10
52.466859078679811
 20
206.03148461916899
 30
0.0
 40
1.7599058687179161
  0
LINE
  5
39F
  8
DATA
  6
CONTINUOUS
 62
     7
 10
72.379359078679684
 20
200.96653573004679
 30
0.0
 11
57.544359078679683
 21
200.96653573004679
 31
0.0
  0
LINE
  5
3A0
  8
DATA
  6
CONTINUOUS
 62
     7
 10
71.946303578679775
 20
210.55753573004699
 30
0.0
 11
57.977403078679799
 21
210.55753573004699
 31
0.0
  0
ARC
  5
3A1
  8
DATA
  6
CONTINUOUS
 62
     7
 10
72.379359078679684
 20
203.2665357300468
 30
0.0
 40
2.3000000000000109
 50
270.0
 51
0.0
  0
LINE
  5
3A2
  8
DATA
  6
CONTINUOUS
 62
     7
 10
74.679359078679852
 20
203.2665357300468
 30
0.0
 11
73.645106578679787
 21
209.13207623004689
 31
0.0
  0
ARC
  5
3A3
  8
DATA
  6
CONTINUOUS
 62
     7
 10
71.946303578679775
 20
208.83253573004691
 30
0.0
 40
1.7249977019151019
 50
9.9999255496010182
 51
90.0
  0
ARC
  5
3A4
  8
DATA
  6
CONTINUOUS
 62
     7
 10
57.544359078679683
 20
203.2665357300468
 30
0.0
 40
2.2999999999997272
 50
180.0
 51
270.0
  0
LINE
  5
3A5
  8
DATA
  6
CONTINUOUS
 62
     7
 10
55.244359078679963
 20
203.2665357300468
 30
0.0
 11
56.278611578679822
 21
209.13207623004689
 31
0.0
  0
ARC
  5
3A6
  8
DATA
  6
CONTINUOUS
 62
     7
 10
57.977403078679799
 20
208.83253573004691
 30
0.0
 40
1.7250000000000221
 50
90.0
 51
170.0000744503993
  0
TEXT
  5
3A7
  8
DATA
 62
     7
 10
71.372897234519343
 20
215.84460973857941
 30
0.0
 40
3.2705078125
  1
RS-232
 50
180.0
  7
_______
 11
71.372897234519343
 21
212.57410192607941
 31
0.0
 73
     3
  0
LINE
  5
3A8
  8
DATA
  6
CONTINUOUS
 62
     7
 10
133.99475615036241
 20
206.32110077148101
 30
0.0
 11
138.09475615036229
 21
206.32110077148101
 31
0.0
  0
LINE
  5
3A9
  8
DATA
  6
CONTINUOUS
 62
     7
 10
142.69475615036251
 20
202.42110077148109
 30
0.0
 11
142.69475615036251
 21
195.82110077148101
 31
0.0
  0
LINE
  5
3AA
  8
DATA
  6
CONTINUOUS
 62
     7
 10
141.95725615036261
 20
195.79305682226399
 30
0.0
 11
141.95725615036261
 21
202.4711007714811
 31
0.0
  0
LINE
  5
3AB
  8
DATA
  6
CONTINUOUS
 62
     7
 10
138.09475615036229
 20
205.32110077148101
 30
0.0
 11
133.99475615036241
 21
205.32110077148101
 31
0.0
  0
LINE
  5
3AC
  8
DATA
  6
CONTINUOUS
 62
     7
 10
132.89475615036261
 20
205.021100771481
 30
0.0
 11
132.99475615036241
 21
205.021100771481
 31
0.0
  0
LINE
  5
3AD
  8
DATA
  6
CONTINUOUS
 62
     7
 10
139.09475615036229
 20
205.021100771481
 30
0.0
 11
139.19475615036251
 21
205.021100771481
 31
0.0
  0
LINE
  5
3AE
  8
DATA
  6
CONTINUOUS
 62
     7
 10
132.89475615036261
 20
204.271100771481
 30
0.0
 11
133.99475615036241
 21
204.271100771481
 31
0.0
  0
LINE
  5
3AF
  8
DATA
  6
CONTINUOUS
 62
     7
 10
139.19475615036251
 20
204.271100771481
 30
0.0
 11
138.09475615036229
 21
204.271100771481
 31
0.0
  0
LINE
  5
3B0
  8
DATA
  6
CONTINUOUS
 62
     7
 10
130.19475615036251
 20
203.2211007714811
 30
0.0
 11
131.89475615036261
 21
203.2211007714811
 31
0.0
  0
LINE
  5
3B1
  8
DATA
  6
CONTINUOUS
 62
     7
 10
140.19475615036251
 20
203.2211007714811
 30
0.0
 11
141.8947561503625
 21
203.2211007714811
 31
0.0
  0
LINE
  5
3B2
  8
DATA
  6
CONTINUOUS
 62
     7
 10
130.13225615036251
 20
202.4711007714811
 30
0.0
 11
132.89475615036261
 21
202.4711007714811
 31
0.0
  0
LINE
  5
3B3
  8
DATA
  6
CONTINUOUS
 62
     7
 10
141.95725615036261
 20
202.4711007714811
 30
0.0
 11
139.19475615036251
 21
202.4711007714811
 31
0.0
  0
LINE
  5
3B4
  8
DATA
  6
CONTINUOUS
 62
     7
 10
140.7247572548624
 20
196.1211007714812
 30
0.0
 11
140.7247572548624
 21
195.77110077088091
 31
0.0
  0
LINE
  5
3B5
  8
DATA
  6
CONTINUOUS
 62
     7
 10
139.99475615036241
 20
204.2211007714811
 30
0.0
 11
139.99475615036241
 21
203.42110077148109
 31
0.0
  0
LINE
  5
3B6
  8
DATA
  6
CONTINUOUS
 62
     7
 10
139.8747561503626
 20
195.771100771481
 30
0.0
 11
139.87475725486249
 21
197.396100771481
 31
0.0
  0
LINE
  5
3B7
  8
DATA
  6
CONTINUOUS
 62
     7
 10
139.19475615036251
 20
204.271100771481
 30
0.0
 11
139.19475615036251
 21
200.77110077088099
 31
0.0
  0
LINE
  5
3B8
  8
DATA
  6
CONTINUOUS
 62
     7
 10
138.8947561503625
 20
205.521100771481
 30
0.0
 11
138.8947561503625
 21
205.2211007714811
 31
0.0
  0
LINE
  5
3B9
  8
DATA
  6
CONTINUOUS
 62
     7
 10
138.09475615036229
 20
204.271100771481
 30
0.0
 11
138.09475615036229
 21
205.32110077148101
 31
0.0
  0
LINE
  5
3BA
  8
DATA
  6
CONTINUOUS
 62
     7
 10
139.19475615036251
 20
201.27110077098101
 30
0.0
 11
141.95725615036261
 21
201.27110077098101
 31
0.0
  0
LINE
  5
3BB
  8
DATA
  6
CONTINUOUS
 62
     7
 10
132.89475615036261
 20
201.27110077098101
 30
0.0
 11
130.13225615036251
 21
201.27110077098101
 31
0.0
  0
LINE
  5
3BC
  8
DATA
  6
CONTINUOUS
 62
     7
 10
141.95725615036261
 20
200.77110077088099
 30
0.0
 11
139.19475615036251
 21
200.77110077088099
 31
0.0
  0
LINE
  5
3BD
  8
DATA
  6
CONTINUOUS
 62
     7
 10
132.89475615036261
 20
200.77110077088099
 30
0.0
 11
130.13225615036251
 21
200.77110077088099
 31
0.0
  0
LINE
  5
3BE
  8
DATA
  6
CONTINUOUS
 62
     7
 10
132.2147572548626
 20
197.396100771481
 30
0.0
 11
139.87475725486249
 21
197.396100771481
 31
0.0
  0
LINE
  5
3BF
  8
DATA
  6
CONTINUOUS
 62
     7
 10
131.56475725486251
 20
196.32110077148101
 30
0.0
 11
132.2147572548626
 21
196.32110077148101
 31
0.0
  0
LINE
  5
3C0
  8
DATA
  6
CONTINUOUS
 62
     7
 10
139.87475725486249
 20
196.32110077148101
 30
0.0
 11
140.52475725486249
 21
196.32110077148101
 31
0.0
  0
LINE
  5
3C1
  8
DATA
  6
CONTINUOUS
 62
     7
 10
130.13225615036251
 20
195.771100771481
 30
0.0
 11
141.95725615036261
 21
195.771100771481
 31
0.0
  0
LINE
  5
3C2
  8
DATA
  6
CONTINUOUS
 62
     7
 10
133.99475615036241
 20
204.271100771481
 30
0.0
 11
133.99475615036241
 21
205.32110077148101
 31
0.0
  0
LINE
  5
3C3
  8
DATA
  6
CONTINUOUS
 62
     7
 10
133.19475615036251
 20
205.2211007714811
 30
0.0
 11
133.19475615036251
 21
205.521100771481
 31
0.0
  0
LINE
  5
3C4
  8
DATA
  6
CONTINUOUS
 62
     7
 10
132.89475615036261
 20
204.271100771481
 30
0.0
 11
132.89475615036261
 21
200.77110077088099
 31
0.0
  0
LINE
  5
3C5
  8
DATA
  6
CONTINUOUS
 62
     7
 10
132.2147572548626
 20
197.396100771481
 30
0.0
 11
132.21475615036249
 21
195.771100771481
 31
0.0
  0
LINE
  5
3C6
  8
DATA
  6
CONTINUOUS
 62
     7
 10
132.09475615036229
 20
203.42110077148109
 30
0.0
 11
132.09475615036229
 21
204.2211007714811
 31
0.0
  0
LINE
  5
3C7
  8
DATA
  6
CONTINUOUS
 62
     7
 10
131.3647572548625
 20
195.77110077088091
 30
0.0
 11
131.3647572548625
 21
196.1211007714812
 31
0.0
  0
LINE
  5
3C8
  8
DATA
  6
CONTINUOUS
 62
     7
 10
141.8947561503625
 20
195.021100771481
 30
0.0
 11
130.19475615036251
 21
195.021100771481
 31
0.0
  0
LINE
  5
3C9
  8
DATA
  6
CONTINUOUS
 62
     7
 10
130.13225615036251
 20
195.771100771481
 30
0.0
 11
130.13225615036251
 21
202.4711007714811
 31
0.0
  0
LINE
  5
3CA
  8
DATA
  6
CONTINUOUS
 62
     7
 10
129.3947561503625
 20
195.82110077148101
 30
0.0
 11
129.3947561503625
 21
202.42110077148109
 31
0.0
  0
CIRCLE
  5
3CB
  8
DATA
  6
CONTINUOUS
 62
     7
 10
136.04475615036259
 20
199.12110077148111
 30
0.0
 40
8.7521721561001797
  0
ARC
  5
3CC
  8
DATA
  6
CONTINUOUS
 62
     7
 10
131.89475615036261
 20
203.42110077148109
 30
0.0
 40
0.1999988218501585
 50
270.0
 51
0.0
  0
ARC
  5
3CD
  8
DATA
  6
CONTINUOUS
 62
     7
 10
130.19475615036251
 20
202.42110077148109
 30
0.0
 40
0.7999985269998433
 50
90.0
 51
180.0
  0
ARC
  5
3CE
  8
DATA
  6
CONTINUOUS
 62
     7
 10
130.19475615036251
 20
195.82110077148101
 30
0.0
 40
0.7999985270000707
 50
180.0
 51
270.0
  0
ARC
  5
3CF
  8
DATA
  6
CONTINUOUS
 62
     7
 10
141.8947561503625
 20
195.82110077148101
 30
0.0
 40
0.7999985269998291
 50
270.0
 51
0.0
  0
ARC
  5
3D0
  8
DATA
  6
CONTINUOUS
 62
     7
 10
141.8947561503625
 20
202.42110077148109
 30
0.0
 40
0.7999985269998576
 50
0.0
 51
90.0
  0
ARC
  5
3D1
  8
DATA
  6
CONTINUOUS
 62
     7
 10
140.19475615036251
 20
203.42110077148109
 30
0.0
 40
0.1999988218501585
 50
180.0
 51
270.0
  0
ARC
  5
3D2
  8
DATA
  6
CONTINUOUS
 62
     7
 10
139.19475615036251
 20
204.2211007714811
 30
0.0
 40
0.7999985270000707
 50
0.0
 51
90.0
  0
ARC
  5
3D3
  8
DATA
  6
CONTINUOUS
 62
     7
 10
139.09475615036229
 20
205.2211007714811
 30
0.0
 40
0.1999988218499311
 50
180.0
 51
270.0
  0
ARC
  5
3D4
  8
DATA
  6
CONTINUOUS
 62
     7
 10
138.09475615036229
 20
205.521100771481
 30
0.0
 40
0.7999985270002981
 50
0.0
 51
90.0
  0
ARC
  5
3D5
  8
DATA
  6
CONTINUOUS
 62
     7
 10
132.99475615036241
 20
205.2211007714811
 30
0.0
 40
0.1999988218499311
 50
270.0
 51
0.0
  0
ARC
  5
3D6
  8
DATA
  6
CONTINUOUS
 62
     7
 10
132.89475615036261
 20
204.2211007714811
 30
0.0
 40
0.7999985270000707
 50
90.0
 51
180.0
  0
ARC
  5
3D7
  8
DATA
  6
CONTINUOUS
 62
     7
 10
131.56475725486251
 20
196.1211007714812
 30
0.0
 40
0.1999999999998181
 50
90.0
 51
180.0
  0
ARC
  5
3D8
  8
DATA
  6
CONTINUOUS
 62
     7
 10
140.52475725486249
 20
196.1211007714812
 30
0.0
 40
0.1999999999998181
 50
0.0
 51
90.0
  0
LINE
  5
3D9
  8
DATA
  6
CONTINUOUS
 62
     7
 10
131.89475615036281
 20
203.2211007714811
 30
0.0
 11
130.19475615036271
 21
203.2211007714811
 31
0.0
  0
LINE
  5
3DA
  8
DATA
  6
CONTINUOUS
 62
     7
 10
132.0947561503628
 20
204.2211007714811
 30
0.0
 11
132.0947561503628
 21
203.42110077148109
 31
0.0
  0
ARC
  5
3DB
  8
DATA
  6
CONTINUOUS
 62
     7
 10
132.89475615036281
 20
204.2211007714811
 30
0.0
 40
0.7999985269998433
 50
90.0
 51
180.0
  0
ARC
  5
3DC
  8
DATA
  6
CONTINUOUS
 62
     7
 10
139.19475615036271
 20
204.2211007714811
 30
0.0
 40
0.7999985270000707
 50
0.0
 51
90.0
  0
LINE
  5
3DD
  8
DATA
  6
CONTINUOUS
 62
     7
 10
138.0947561503628
 20
206.32110077148101
 30
0.0
 11
133.99475615036289
 21
206.32110077148101
 31
0.0
  0
ARC
  5
3DE
  8
DATA
  6
CONTINUOUS
 62
     7
 10
133.99475615036289
 20
205.521100771481
 30
0.0
 40
0.7999985270000707
 50
90.0
 51
180.0
  0
LINE
  5
3DF
  8
DATA
  6
CONTINUOUS
 62
     7
 10
145.89999010000031
 20
188.78580902178399
 30
0.0
 11
145.89999010000031
 21
189.48580832178399
 31
0.0
  0
LINE
  5
3E0
  8
DATA
  6
CONTINUOUS
 62
     7
 10
125.7500102499999
 20
208.9357888717843
 30
0.0
 11
126.45000954999981
 21
208.9357888717843
 31
0.0
  0
LINE
  5
3E1
  8
DATA
  6
CONTINUOUS
 62
     7
 10
140.99999500000021
 20
184.98505946917069
 30
0.0
 11
140.99999500000021
 21
185.80125714007229
 31
0.0
  0
LINE
  5
3E2
  8
DATA
  6
CONTINUOUS
 62
     7
 10
140.59999540000001
 20
185.8012442483184
 30
0.0
 11
140.59999540000001
 21
184.98505946917069
 31
0.0
  0
LINE
  5
3E3
  8
DATA
  6
CONTINUOUS
 62
     7
 10
131.40000460000019
 20
185.801257069439
 30
0.0
 11
131.40000460000019
 21
184.98505946917069
 31
0.0
  0
LINE
  5
3E4
  8
DATA
  6
CONTINUOUS
 62
     7
 10
131.00000499999999
 20
185.80125714007229
 30
0.0
 11
131.00000499999999
 21
184.98505946917069
 31
0.0
  0
LINE
  5
3E5
  8
DATA
  6
CONTINUOUS
 62
     7
 10
145.5499904499998
 20
189.1358086717841
 30
0.0
 11
146.2499897500002
 21
189.1358086717841
 31
0.0
  0
LINE
  5
3E6
  8
DATA
  6
CONTINUOUS
 62
     7
 10
126.1000098999999
 20
208.5857892217843
 30
0.0
 11
126.1000098999999
 21
209.2857885217843
 31
0.0
  0
LINE
  5
3E7
  8
DATA
  6
CONTINUOUS
 62
     7
 10
138.99999700000001
 20
187.8012551400723
 30
0.0
 11
133.00000300000019
 21
187.8012551400723
 31
0.0
  0
ARC
  5
3E8
  8
DATA
  6
CONTINUOUS
 62
     7
 10
138.99999700000001
 20
185.80125714007229
 30
0.0
 40
1.999998000000232
 50
0.0
 51
90.0
  0
ARC
  5
3E9
  8
DATA
  6
CONTINUOUS
 62
     7
 10
138.99999700000001
 20
184.98505946917069
 30
0.0
 40
1.999997999999974
 50
292.02431283700651
 51
0.0
  0
ARC
  5
3EA
  8
DATA
  6
CONTINUOUS
 62
     7
 10
138.99999700000001
 20
184.98505946917069
 30
0.0
 40
1.599998400000026
 50
292.0243128370023
 51
0.0
  0
ARC
  5
3EB
  8
DATA
  6
CONTINUOUS
 62
     7
 10
136.00000000000011
 20
192.40125054007211
 30
0.0
 40
9.9999900000000022
 50
247.97568716299941
 51
292.02431283700059
  0
ARC
  5
3EC
  8
DATA
  6
CONTINUOUS
 62
     7
 10
136.00000000000011
 20
192.40125054007211
 30
0.0
 40
9.5999903999999692
 50
272.54467677999958
 51
292.02431283700008
  0
ARC
  5
3ED
  8
DATA
  6
CONTINUOUS
 62
     7
 10
136.00000000000011
 20
192.40125054007211
 30
0.0
 40
9.599990399999843
 50
247.9756871629998
 51
267.45532322000048
  0
ARC
  5
3EE
  8
DATA
  6
CONTINUOUS
 62
     7
 10
133.00000300000019
 20
184.98505946917069
 30
0.0
 40
1.999998000000232
 50
180.0
 51
247.97568716299341
  0
ARC
  5
3EF
  8
DATA
  6
CONTINUOUS
 62
     7
 10
133.00000300000019
 20
185.80125714007229
 30
0.0
 40
1.9999980000000039
 50
90.0
 51
180.0
  0
ARC
  5
3F0
  8
DATA
  6
CONTINUOUS
 62
     7
 10
133.00000300000019
 20
184.98505946917069
 30
0.0
 40
1.599998400000004
 50
180.0
 51
247.97568716299611
  0
ARC
  5
3F1
  8
DATA
  6
CONTINUOUS
 62
     7
 10
133.40841014769251
 20
188.0010123312816
 30
0.0
 40
0.1997544489120933
 50
269.98149905913021
 51
357.59650037656132
  0
ARC
  5
3F2
  8
DATA
  6
CONTINUOUS
 62
     7
 10
138.5915819633488
 20
188.0009993375611
 30
0.0
 40
0.1997440091556692
 50
182.39989860869539
 51
270.02084071842262
  0
POLYLINE
  5
3F3
  8
DATA
  6
CONTINUOUS
 62
     7
 66
     1
 10
0.0
 20
0.0
 30
0.0
 70
   128
  0
VERTEX
  5
907
  8
DATA
  6
CONTINUOUS
 62
     7
 10
133.00000300000019
 20
187.8012551400723
 30
0.0
  0
VERTEX
  5
908
  8
DATA
  6
CONTINUOUS
 62
     7
 10
132.99713976468439
 20
187.80052053992009
 30
0.0
 42
0.0135369908778731
  0
VERTEX
  5
909
  8
DATA
  6
CONTINUOUS
 62
     7
 10
132.88113125199339
 20
187.7673854590584
 30
0.0
  0
VERTEX
  5
90A
  8
DATA
  6
CONTINUOUS
 62
     7
 10
132.8685137289481
 20
187.76340913890479
 30
0.0
 42
0.0132432192352861
  0
VERTEX
  5
90B
  8
DATA
  6
CONTINUOUS
 62
     7
 10
132.7794503569593
 20
187.73272592501661
 30
0.0
 42
0.0078449271408194
  0
VERTEX
  5
90C
  8
DATA
  6
CONTINUOUS
 62
     7
 10
132.69173987653909
 20
187.69830707645539
 30
0.0
  0
VERTEX
  5
90D
  8
DATA
  6
CONTINUOUS
 62
     7
 10
132.6877811084465
 20
187.69668147351871
 30
0.0
 42
0.0149678191053191
  0
VERTEX
  5
90E
  8
DATA
  6
CONTINUOUS
 62
     7
 10
132.5973495015908
 20
187.65634352010039
 30
0.0
 42
0.0075493686395096
  0
VERTEX
  5
90F
  8
DATA
  6
CONTINUOUS
 62
     7
 10
132.5087860193731
 20
187.61195577070129
 30
0.0
 42
0.0152022874872068
  0
VERTEX
  5
910
  8
DATA
  6
CONTINUOUS
 62
     7
 10
132.4223548602657
 20
187.5635981671777
 30
0.0
  0
VERTEX
  5
911
  8
DATA
  6
CONTINUOUS
 62
     7
 10
132.4081924776828
 20
187.55509908607289
 30
0.0
 42
0.0076542450578997
  0
VERTEX
  5
912
  8
DATA
  6
CONTINUOUS
 62
     7
 10
132.35209156768761
 20
187.52025298157611
 30
0.0
  0
VERTEX
  5
913
  8
DATA
  6
CONTINUOUS
 62
     7
 10
132.3514748103693
 20
187.51985668285059
 30
0.0
 42
0.0076973431191286
  0
VERTEX
  5
914
  8
DATA
  6
CONTINUOUS
 62
     7
 10
132.2976911325035
 20
187.484116273354
 30
0.0
 42
0.0073845984077169
  0
VERTEX
  5
915
  8
DATA
  6
CONTINUOUS
 62
     7
 10
132.24500930828771
 20
187.44676972128909
 30
0.0
  0
VERTEX
  5
916
  8
DATA
  6
CONTINUOUS
 62
     7
 10
132.23298061363931
 20
187.43797271322731
 30
0.0
 42
0.0147771409370076
  0
VERTEX
  5
917
  8
DATA
  6
CONTINUOUS
 62
     7
 10
132.15850517339709
 20
187.3800524854839
 30
0.0
  0
VERTEX
  5
918
  8
DATA
  6
CONTINUOUS
 62
     7
 10
132.1453773098406
 20
187.36920538612489
 30
0.0
 42
0.0143620352166006
  0
VERTEX
  5
919
  8
DATA
  6
CONTINUOUS
 62
     7
 10
132.05647216200791
 20
187.2913435636944
 30
0.0
  0
VERTEX
  5
91A
  8
DATA
  6
CONTINUOUS
 62
     7
 10
132.05481424320141
 20
187.28980524463651
 30
0.0
 42
0.0137776267970324
  0
VERTEX
  5
91B
  8
DATA
  6
CONTINUOUS
 62
     7
 10
131.9736550619738
 20
187.210229029321
 30
0.0
  0
VERTEX
  5
91C
  8
DATA
  6
CONTINUOUS
 62
     7
 10
131.97232893674621
 20
187.2088550930049
 30
0.0
 42
0.0134608839549117
  0
VERTEX
  5
91D
  8
DATA
  6
CONTINUOUS
 62
     7
 10
131.89819787219821
 20
187.12779386290859
 30
0.0
  0
VERTEX
  5
91E
  8
DATA
  6
CONTINUOUS
 62
     7
 10
131.89720273184949
 20
187.12664507085299
 30
0.0
 42
0.0130167046768109
  0
VERTEX
  5
91F
  8
DATA
  6
CONTINUOUS
 62
     7
 10
131.82939343550089
 20
187.0441197175445
 30
0.0
  0
VERTEX
  5
920
  8
DATA
  6
CONTINUOUS
 62
     7
 10
131.82874754885719
 20
187.0432905677242
 30
0.0
 42
0.0128612074907167
  0
VERTEX
  5
921
  8
DATA
  6
CONTINUOUS
 62
     7
 10
131.7665458383122
 20
186.95905766482301
 30
0.0
  0
VERTEX
  5
922
  8
DATA
  6
CONTINUOUS
 62
     7
 10
131.76618076843201
 20
186.95853571489201
 30
0.0
 42
0.0126258428301677
  0
VERTEX
  5
923
  8
DATA
  6
CONTINUOUS
 62
     7
 10
131.7090540808473
 20
186.87230369379131
 30
0.0
  0
VERTEX
  5
924
  8
DATA
  6
CONTINUOUS
 62
     7
 10
131.70213772421619
 20
186.86126815242471
 30
0.0
 42
0.0126557334319016
  0
VERTEX
  5
925
  8
DATA
  6
CONTINUOUS
 62
     7
 10
131.66270766295119
 20
186.7946662463369
 30
0.0
  0
VERTEX
  5
926
  8
DATA
  6
CONTINUOUS
 62
     7
 10
131.66267170203969
 20
186.79460183977639
 30
0.0
 42
0.0063193360928209
  0
VERTEX
  5
927
  8
DATA
  6
CONTINUOUS
 62
     7
 10
131.62585828700259
 20
186.72666526297641
 30
0.0
 42
0.0126763943686292
  0
VERTEX
  5
928
  8
DATA
  6
CONTINUOUS
 62
     7
 10
131.59165997970419
 20
186.6573962331054
 30
0.0
  0
VERTEX
  5
929
  8
DATA
  6
CONTINUOUS
 62
     7
 10
131.58626964718391
 20
186.6457428515838
 30
0.0
 42
0.0065371235806322
  0
VERTEX
  5
92A
  8
DATA
  6
CONTINUOUS
 62
     7
 10
131.56463455193881
 20
186.5973181829182
 30
0.0
 42
0.0065548944882644
  0
VERTEX
  5
92B
  8
DATA
  6
CONTINUOUS
 62
     7
 10
131.54427467237269
 20
186.54834371438821
 30
0.0
  0
VERTEX
  5
92C
  8
DATA
  6
CONTINUOUS
 62
     7
 10
131.53932170150969
 20
186.53597463155921
 30
0.0
 42
0.0131471650781647
  0
VERTEX
  5
92D
  8
DATA
  6
CONTINUOUS
 62
     7
 10
131.51166266184711
 20
186.46126767052681
 30
0.0
  0
VERTEX
  5
92E
  8
DATA
  6
CONTINUOUS
 62
     7
 10
131.5068416153332
 20
186.44711386448481
 30
0.0
 42
0.0076109923440333
  0
VERTEX
  5
92F
  8
DATA
  6
CONTINUOUS
 62
     7
 10
131.48897762459691
 20
186.39192988673599
 30
0.0
 42
0.0067773452548844
  0
VERTEX
  5
930
  8
DATA
  6
CONTINUOUS
 62
     7
 10
131.4727084039458
 20
186.3362534334604
 30
0.0
  0
VERTEX
  5
931
  8
DATA
  6
CONTINUOUS
 62
     7
 10
131.4694983825438
 20
186.32468809627011
 30
0.0
 42
0.0135908901807061
  0
VERTEX
  5
932
  8
DATA
  6
CONTINUOUS
 62
     7
 10
131.44972695375719
 20
186.24512291231221
 30
0.0
  0
VERTEX
  5
933
  8
DATA
  6
CONTINUOUS
 62
     7
 10
131.4467561349152
 20
186.2316082318203
 30
0.0
 42
0.0136908823044671
  0
VERTEX
  5
934
  8
DATA
  6
CONTINUOUS
 62
     7
 10
131.4261556575714
 20
186.12391198178469
 30
0.0
  0
VERTEX
  5
935
  8
DATA
  6
CONTINUOUS
 62
     7
 10
131.4260430905104
 20
186.12322156474849
 30
0.0
 42
0.0137150670515328
  0
VERTEX
  5
936
  8
DATA
  6
CONTINUOUS
 62
     7
 10
131.41147578950341
 20
186.0153179874732
 30
0.0
  0
VERTEX
  5
937
  8
DATA
  6
CONTINUOUS
 62
     7
 10
131.41132810813801
 20
186.01393998627771
 30
0.0
 42
0.0134446974707853
  0
VERTEX
  5
938
  8
DATA
  6
CONTINUOUS
 62
     7
 10
131.40286127472299
 20
185.90816504400809
 30
0.0
  0
VERTEX
  5
939
  8
DATA
  6
CONTINUOUS
 62
     7
 10
131.4028160938727
 20
185.9073131747453
 30
0.0
 42
0.0130326924684046
  0
VERTEX
  5
93A
  8
DATA
  6
CONTINUOUS
 62
     7
 10
131.4000053240166
 20
185.80294098556851
 30
0.0
  0
VERTEX
  5
93B
  8
DATA
  6
CONTINUOUS
 62
     7
 10
131.40000460000019
 20
185.801257069439
 30
0.0
  0
SEQEND
  5
93C
  8
DATA
  6
CONTINUOUS
 62
     7
  0
POLYLINE
  5
42A
  8
DATA
  6
CONTINUOUS
 62
     7
 66
     1
 10
0.0
 20
0.0
 30
0.0
 70
   128
  0
VERTEX
  5
93D
  8
DATA
  6
CONTINUOUS
 62
     7
 10
140.59999540000001
 20
185.8012442483184
 30
0.0
  0
VERTEX
  5
93E
  8
DATA
  6
CONTINUOUS
 62
     7
 10
140.5999903935168
 20
185.80438796063061
 30
0.0
 42
0.012711039847107
  0
VERTEX
  5
93F
  8
DATA
  6
CONTINUOUS
 62
     7
 10
140.59724826593799
 20
185.905873741394
 30
0.0
 42
0.0126380170103303
  0
VERTEX
  5
940
  8
DATA
  6
CONTINUOUS
 62
     7
 10
140.58936406540289
 20
186.00712790690099
 30
0.0
  0
VERTEX
  5
941
  8
DATA
  6
CONTINUOUS
 62
     7
 10
140.589355515845
 20
186.00721064712809
 30
0.0
 42
0.0126173303978522
  0
VERTEX
  5
942
  8
DATA
  6
CONTINUOUS
 62
     7
 10
140.57638773947909
 20
186.10781014923421
 30
0.0
  0
VERTEX
  5
943
  8
DATA
  6
CONTINUOUS
 62
     7
 10
140.57592695384301
 20
186.1107897498033
 30
0.0
 42
0.0126257181912221
  0
VERTEX
  5
944
  8
DATA
  6
CONTINUOUS
 62
     7
 10
140.558970646913
 20
186.20467452185909
 30
0.0
  0
VERTEX
  5
945
  8
DATA
  6
CONTINUOUS
 62
     7
 10
140.55837809787241
 20
186.20753975719359
 30
0.0
 42
0.0111721324014209
  0
VERTEX
  5
946
  8
DATA
  6
CONTINUOUS
 62
     7
 10
140.53828540075631
 20
186.29481680662039
 30
0.0
 42
0.0111208472030052
  0
VERTEX
  5
947
  8
DATA
  6
CONTINUOUS
 62
     7
 10
140.5143261893266
 20
186.3810993647611
 30
0.0
  0
VERTEX
  5
948
  8
DATA
  6
CONTINUOUS
 62
     7
 10
140.51430231013379
 20
186.38117848767061
 30
0.0
 42
0.011092490593865
  0
VERTEX
  5
949
  8
DATA
  6
CONTINUOUS
 62
     7
 10
140.486589572101
 20
186.46614243906589
 30
0.0
  0
VERTEX
  5
94A
  8
DATA
  6
CONTINUOUS
 62
     7
 10
140.48578438402731
 20
186.46843709102041
 30
0.0
 42
0.0110492182947938
  0
VERTEX
  5
94B
  8
DATA
  6
CONTINUOUS
 62
     7
 10
140.4560486099391
 20
186.5475396619257
 30
0.0
  0
VERTEX
  5
94C
  8
DATA
  6
CONTINUOUS
 62
     7
 10
140.45517228024681
 20
186.5497231184664
 30
0.0
 42
0.0098561502025916
  0
VERTEX
  5
94D
  8
DATA
  6
CONTINUOUS
 62
     7
 10
140.42399262814629
 20
186.62318689955799
 30
0.0
 42
0.0098169547190649
  0
VERTEX
  5
94E
  8
DATA
  6
CONTINUOUS
 62
     7
 10
140.38994744708759
 20
186.695367331928
 30
0.0
  0
VERTEX
  5
94F
  8
DATA
  6
CONTINUOUS
 62
     7
 10
140.3899264070256
 20
186.69540976026749
 30
0.0
 42
0.0097935210149736
  0
VERTEX
  5
950
  8
DATA
  6
CONTINUOUS
 62
     7
 10
140.35312100505431
 20
186.7661156915114
 30
0.0
  0
VERTEX
  5
951
  8
DATA
  6
CONTINUOUS
 62
     7
 10
140.35241053629341
 20
186.76741764308841
 30
0.0
 42
0.0097705117118122
  0
VERTEX
  5
952
  8
DATA
  6
CONTINUOUS
 62
     7
 10
140.3143387391211
 20
186.8340546601639
 30
0.0
  0
VERTEX
  5
953
  8
DATA
  6
CONTINUOUS
 62
     7
 10
140.3136019435762
 20
186.83528769623399
 30
0.0
 42
0.0090403980388533
  0
VERTEX
  5
954
  8
DATA
  6
CONTINUOUS
 62
     7
 10
140.27456731796369
 20
186.89800877346849
 30
0.0
 42
0.0089981325774021
  0
VERTEX
  5
955
  8
DATA
  6
CONTINUOUS
 62
     7
 10
140.2332966193961
 20
186.95927998825931
 30
0.0
 42
0.0089640859677285
  0
VERTEX
  5
956
  8
DATA
  6
CONTINUOUS
 62
     7
 10
140.18987096928009
 20
187.0190031512065
 30
0.0
  0
VERTEX
  5
957
  8
DATA
  6
CONTINUOUS
 62
     7
 10
140.1892940792909
 20
187.01976733463519
 30
0.0
 42
0.0089395369004393
  0
VERTEX
  5
958
  8
DATA
  6
CONTINUOUS
 62
     7
 10
140.1449571900595
 20
187.07636534066449
 30
0.0
  0
VERTEX
  5
959
  8
DATA
  6
CONTINUOUS
 62
     7
 10
140.14437253397529
 20
187.0770848042097
 30
0.0
 42
0.0084592050594761
  0
VERTEX
  5
95A
  8
DATA
  6
CONTINUOUS
 62
     7
 10
140.0992860057876
 20
187.13068827031799
 30
0.0
 42
0.0084178376711468
  0
VERTEX
  5
95B
  8
DATA
  6
CONTINUOUS
 62
     7
 10
140.0524164933766
 20
187.18273935909181
 30
0.0
 42
0.0083845101807889
  0
VERTEX
  5
95C
  8
DATA
  6
CONTINUOUS
 62
     7
 10
140.00383313335701
 20
187.23317752802899
 30
0.0
  0
VERTEX
  5
95D
  8
DATA
  6
CONTINUOUS
 62
     7
 10
140.00357776363219
 20
187.23343389815579
 30
0.0
 42
0.00836289071908
  0
VERTEX
  5
95E
  8
DATA
  6
CONTINUOUS
 62
     7
 10
139.9538599125373
 20
187.28170430930129
 30
0.0
  0
VERTEX
  5
95F
  8
DATA
  6
CONTINUOUS
 62
     7
 10
139.95360454528179
 20
187.28194407669559
 30
0.0
 42
0.0081612438746049
  0
VERTEX
  5
960
  8
DATA
  6
CONTINUOUS
 62
     7
 10
139.90283699654589
 20
187.3280746170901
 30
0.0
 42
0.0081176824254673
  0
VERTEX
  5
961
  8
DATA
  6
CONTINUOUS
 62
     7
 10
139.85059473682611
 20
187.37252815878679
 30
0.0
 42
0.0080823319181585
  0
VERTEX
  5
962
  8
DATA
  6
CONTINUOUS
 62
     7
 10
139.79693926909599
 20
187.41526653732751
 30
0.0
 42
0.0080632191183575
  0
VERTEX
  5
963
  8
DATA
  6
CONTINUOUS
 62
     7
 10
139.74191176735269
 20
187.45626546706541
 30
0.0
 42
0.0080341999901574
  0
VERTEX
  5
964
  8
DATA
  6
CONTINUOUS
 62
     7
 10
139.68555415467841
 20
187.49549995240491
 30
0.0
 42
0.0079826435086072
  0
VERTEX
  5
965
  8
DATA
  6
CONTINUOUS
 62
     7
 10
139.62794967767749
 20
187.5329226860288
 30
0.0
 42
0.0079420371704993
  0
VERTEX
  5
966
  8
DATA
  6
CONTINUOUS
 62
     7
 10
139.56918405947101
 20
187.56849132184831
 30
0.0
 42
0.0079116374796777
  0
VERTEX
  5
967
  8
DATA
  6
CONTINUOUS
 62
     7
 10
139.50933846495289
 20
187.60216891621289
 30
0.0
 42
0.0078627578669404
  0
VERTEX
  5
968
  8
DATA
  6
CONTINUOUS
 62
     7
 10
139.44849341784391
 20
187.63392410113281
 30
0.0
 42
0.007816890355911
  0
VERTEX
  5
969
  8
DATA
  6
CONTINUOUS
 62
     7
 10
139.38669787124721
 20
187.6637479830114
 30
0.0
 42
0.0077753455134429
  0
VERTEX
  5
96A
  8
DATA
  6
CONTINUOUS
 62
     7
 10
139.32399673802351
 20
187.69163324898591
 30
0.0
 42
0.007745127357579
  0
VERTEX
  5
96B
  8
DATA
  6
CONTINUOUS
 62
     7
 10
139.26045551914731
 20
187.71756129136429
 30
0.0
  0
VERTEX
  5
96C
  8
DATA
  6
CONTINUOUS
 62
     7
 10
139.2603701323857
 20
187.7175946002034
 30
0.0
 42
0.0077339922049337
  0
VERTEX
  5
96D
  8
DATA
  6
CONTINUOUS
 62
     7
 10
139.1958850318114
 20
187.74160741735159
 30
0.0
  0
VERTEX
  5
96E
  8
DATA
  6
CONTINUOUS
 62
     7
 10
139.1958032966325
 20
187.74163642228359
 30
0.0
 42
0.0076843509806111
  0
VERTEX
  5
96F
  8
DATA
  6
CONTINUOUS
 62
     7
 10
139.1304440852652
 20
187.76370518954209
 30
0.0
  0
VERTEX
  5
970
  8
DATA
  6
CONTINUOUS
 62
     7
 10
139.11505050554351
 20
187.7686406792572
 30
0.0
 42
0.0147572639251078
  0
VERTEX
  5
971
  8
DATA
  6
CONTINUOUS
 62
     7
 10
139.01773651752501
 20
187.79670307834891
 30
0.0
  0
VERTEX
  5
972
  8
DATA
  6
CONTINUOUS
 62
     7
 10
139.00208399133919
 20
187.80072051382649
 30
0.0
  0
VERTEX
  5
973
  8
DATA
  6
CONTINUOUS
 62
     7
 10
138.99999700000001
 20
187.8012551400723
 30
0.0
  0
SEQEND
  5
974
  8
DATA
  6
CONTINUOUS
 62
     7
  0
POLYLINE
  5
463
  8
DATA
  6
CONTINUOUS
 62
     7
 66
     1
 10
0.0
 20
0.0
 30
0.0
 70
   128
  0
VERTEX
  5
975
  8
DATA
  6
CONTINUOUS
 62
     7
 10
133.6280677318299
 20
189.0640167186634
 30
0.0
 42
0.0002651132516096
  0
VERTEX
  5
976
  8
DATA
  6
CONTINUOUS
 62
     7
 10
133.6241141708681
 20
188.88458551199329
 30
0.0
  0
VERTEX
  5
977
  8
DATA
  6
CONTINUOUS
 62
     7
 10
133.623346429869
 20
188.84888249090329
 30
0.0
  0
VERTEX
  5
978
  8
DATA
  6
CONTINUOUS
 62
     7
 10
133.623346429869
 20
188.84888249090329
 30
0.0
  0
VERTEX
  5
979
  8
DATA
  6
CONTINUOUS
 62
     7
 10
133.623346429869
 20
188.84888249090329
 30
0.0
 42
0.0006471404305689
  0
VERTEX
  5
97A
  8
DATA
  6
CONTINUOUS
 62
     7
 10
133.61730939698791
 20
188.55014794096741
 30
0.0
  0
VERTEX
  5
97B
  8
DATA
  6
CONTINUOUS
 62
     7
 10
133.6166201357974
 20
188.51370692415799
 30
0.0
  0
VERTEX
  5
97C
  8
DATA
  6
CONTINUOUS
 62
     7
 10
133.6166201357974
 20
188.51370692415799
 30
0.0
  0
VERTEX
  5
97D
  8
DATA
  6
CONTINUOUS
 62
     7
 10
133.6166201357974
 20
188.51370692415799
 30
0.0
 42
0.0005615521867065
  0
VERTEX
  5
97E
  8
DATA
  6
CONTINUOUS
 62
     7
 10
133.61200407176659
 20
188.2542455799003
 30
0.0
  0
VERTEX
  5
97F
  8
DATA
  6
CONTINUOUS
 62
     7
 10
133.61196972826701
 20
188.25218511747241
 30
0.0
  0
VERTEX
  5
980
  8
DATA
  6
CONTINUOUS
 62
     7
 10
133.61196972826701
 20
188.25218511747241
 30
0.0
  0
VERTEX
  5
981
  8
DATA
  6
CONTINUOUS
 62
     7
 10
133.61196972826701
 20
188.25218511747241
 30
0.0
 42
0.0006244041334313
  0
VERTEX
  5
982
  8
DATA
  6
CONTINUOUS
 62
     7
 10
133.60803134268559
 20
187.99675646269731
 30
0.0
  0
VERTEX
  5
983
  8
DATA
  6
CONTINUOUS
 62
     7
 10
133.6079730884627
 20
187.99263596585789
 30
0.0
  0
SEQEND
  5
984
  8
DATA
  6
CONTINUOUS
 62
     7
  0
POLYLINE
  5
474
  8
DATA
  6
CONTINUOUS
 62
     7
 66
     1
 10
0.0
 20
0.0
 30
0.0
 70
   128
  0
VERTEX
  5
985
  8
DATA
  6
CONTINUOUS
 62
     7
 10
138.38394256521471
 20
189.0668811852471
 30
0.0
 42
-0.0002270695652615
  0
VERTEX
  5
986
  8
DATA
  6
CONTINUOUS
 62
     7
 10
138.38799593267021
 20
188.5648697937751
 30
0.0
  0
VERTEX
  5
987
  8
DATA
  6
CONTINUOUS
 62
     7
 10
138.38803027616879
 20
188.56036282434999
 30
0.0
  0
VERTEX
  5
988
  8
DATA
  6
CONTINUOUS
 62
     7
 10
138.38803027616879
 20
188.56036282434999
 30
0.0
  0
VERTEX
  5
989
  8
DATA
  6
CONTINUOUS
 62
     7
 10
138.38803027616879
 20
188.56036282434999
 30
0.0
 42
-0.0002854248608257
  0
VERTEX
  5
98A
  8
DATA
  6
CONTINUOUS
 62
     7
 10
138.3919686613886
 20
188.0016488708988
 30
0.0
  0
VERTEX
  5
98B
  8
DATA
  6
CONTINUOUS
 62
     7
 10
138.39202691560391
 20
187.99263586849131
 30
0.0
  0
SEQEND
  5
98C
  8
DATA
  6
CONTINUOUS
 62
     7
  0
CIRCLE
  5
47D
  8
DATA
  6
CONTINUOUS
 62
     7
 10
145.89999010000011
 20
189.1358086717841
 30
0.0
 40
2.0
  0
LINE
  5
47E
  8
DATA
  6
CONTINUOUS
 62
     7
 10
145.89999010000011
 20
187.9359286717841
 30
0.0
 11
145.89999010000011
 21
190.33568867178411
 31
0.0
  0
LINE
  5
47F
  8
DATA
  6
CONTINUOUS
 62
     7
 10
144.70011010000019
 20
189.1358086717841
 30
0.0
 11
147.0998701000002
 21
189.1358086717841
 31
0.0
  0
CIRCLE
  5
480
  8
DATA
  6
CONTINUOUS
 62
     7
 10
126.1000098999999
 20
208.9357888717843
 30
0.0
 40
2.0000000000000142
  0
LINE
  5
481
  8
DATA
  6
CONTINUOUS
 62
     7
 10
126.1000098999999
 20
207.73590887178429
 30
0.0
 11
126.1000098999999
 21
210.13566887178439
 31
0.0
  0
LINE
  5
482
  8
DATA
  6
CONTINUOUS
 62
     7
 10
124.9001299
 20
208.9357888717843
 30
0.0
 11
127.2998899
 21
208.9357888717843
 31
0.0
  0
CIRCLE
  5
483
  8
DATA
  6
CONTINUOUS
 62
     7
 10
136.00000000000011
 20
199.03579877178399
 30
0.0
 40
10.25
  0
LINE
  5
484
  8
DATA
  6
CONTINUOUS
 62
     7
 10
135.57377589393641
 20
182.8107266392885
 30
0.0
 11
136.42622410606381
 21
182.8107266392885
 31
0.0
  0
LINE
  5
485
  8
DATA
  6
CONTINUOUS
 62
     7
 10
109.99475615036241
 20
206.32110077148101
 30
0.0
 11
114.0947561503623
 21
206.32110077148101
 31
0.0
  0
LINE
  5
486
  8
DATA
  6
CONTINUOUS
 62
     7
 10
118.69475615036249
 20
202.42110077148109
 30
0.0
 11
118.69475615036249
 21
195.82110077148101
 31
0.0
  0
LINE
  5
487
  8
DATA
  6
CONTINUOUS
 62
     7
 10
117.9572561503625
 20
195.771100771481
 30
0.0
 11
117.9572561503625
 21
202.4711007714811
 31
0.0
  0
LINE
  5
488
  8
DATA
  6
CONTINUOUS
 62
     7
 10
114.0947561503623
 20
205.32110077148101
 30
0.0
 11
109.99475615036241
 21
205.32110077148101
 31
0.0
  0
LINE
  5
489
  8
DATA
  6
CONTINUOUS
 62
     7
 10
108.8947561503625
 20
205.021100771481
 30
0.0
 11
108.99475615036241
 21
205.021100771481
 31
0.0
  0
LINE
  5
48A
  8
DATA
  6
CONTINUOUS
 62
     7
 10
115.0947561503623
 20
205.021100771481
 30
0.0
 11
115.19475615036249
 21
205.021100771481
 31
0.0
  0
LINE
  5
48B
  8
DATA
  6
CONTINUOUS
 62
     7
 10
108.8947561503625
 20
204.271100771481
 30
0.0
 11
109.99475615036241
 21
204.271100771481
 31
0.0
  0
LINE
  5
48C
  8
DATA
  6
CONTINUOUS
 62
     7
 10
115.19475615036249
 20
204.271100771481
 30
0.0
 11
114.0947561503623
 21
204.271100771481
 31
0.0
  0
LINE
  5
48D
  8
DATA
  6
CONTINUOUS
 62
     7
 10
106.19475615036249
 20
203.2211007714811
 30
0.0
 11
107.8947561503625
 21
203.2211007714811
 31
0.0
  0
LINE
  5
48E
  8
DATA
  6
CONTINUOUS
 62
     7
 10
116.19475615036249
 20
203.2211007714811
 30
0.0
 11
117.8947561503626
 21
203.2211007714811
 31
0.0
  0
LINE
  5
48F
  8
DATA
  6
CONTINUOUS
 62
     7
 10
106.13225615036249
 20
202.4711007714811
 30
0.0
 11
108.8947561503625
 21
202.4711007714811
 31
0.0
  0
LINE
  5
490
  8
DATA
  6
CONTINUOUS
 62
     7
 10
117.9572561503625
 20
202.4711007714811
 30
0.0
 11
115.19475615036249
 21
202.4711007714811
 31
0.0
  0
LINE
  5
491
  8
DATA
  6
CONTINUOUS
 62
     7
 10
116.7247572548624
 20
196.1211007714812
 30
0.0
 11
116.7247572548624
 21
195.77110077088091
 31
0.0
  0
LINE
  5
492
  8
DATA
  6
CONTINUOUS
 62
     7
 10
115.99475615036241
 20
204.2211007714811
 30
0.0
 11
115.99475615036241
 21
203.42110077148109
 31
0.0
  0
LINE
  5
493
  8
DATA
  6
CONTINUOUS
 62
     7
 10
115.8747561503626
 20
195.771100771481
 30
0.0
 11
115.8747572548624
 21
197.396100771481
 31
0.0
  0
LINE
  5
494
  8
DATA
  6
CONTINUOUS
 62
     7
 10
115.19475615036249
 20
204.271100771481
 30
0.0
 11
115.19475615036249
 21
200.77110077088099
 31
0.0
  0
LINE
  5
495
  8
DATA
  6
CONTINUOUS
 62
     7
 10
114.8947561503625
 20
205.521100771481
 30
0.0
 11
114.8947561503625
 21
205.2211007714811
 31
0.0
  0
LINE
  5
496
  8
DATA
  6
CONTINUOUS
 62
     7
 10
114.0947561503623
 20
204.271100771481
 30
0.0
 11
114.0947561503623
 21
205.32110077148101
 31
0.0
  0
LINE
  5
497
  8
DATA
  6
CONTINUOUS
 62
     7
 10
115.19475615036249
 20
201.27110077098101
 30
0.0
 11
117.9572561503625
 21
201.27110077098101
 31
0.0
  0
LINE
  5
498
  8
DATA
  6
CONTINUOUS
 62
     7
 10
108.8947561503625
 20
201.27110077098101
 30
0.0
 11
106.13225615036249
 21
201.27110077098101
 31
0.0
  0
LINE
  5
499
  8
DATA
  6
CONTINUOUS
 62
     7
 10
117.9572561503625
 20
200.77110077088099
 30
0.0
 11
115.19475615036249
 21
200.77110077088099
 31
0.0
  0
LINE
  5
49A
  8
DATA
  6
CONTINUOUS
 62
     7
 10
108.8947561503625
 20
200.77110077088099
 30
0.0
 11
106.13225615036249
 21
200.77110077088099
 31
0.0
  0
LINE
  5
49B
  8
DATA
  6
CONTINUOUS
 62
     7
 10
108.2147572548626
 20
197.396100771481
 30
0.0
 11
115.8747572548624
 21
197.396100771481
 31
0.0
  0
LINE
  5
49C
  8
DATA
  6
CONTINUOUS
 62
     7
 10
107.5647572548625
 20
196.32110077148101
 30
0.0
 11
108.2147572548626
 21
196.32110077148101
 31
0.0
  0
LINE
  5
49D
  8
DATA
  6
CONTINUOUS
 62
     7
 10
115.8747572548624
 20
196.32110077148101
 30
0.0
 11
116.52475725486249
 21
196.32110077148101
 31
0.0
  0
LINE
  5
49E
  8
DATA
  6
CONTINUOUS
 62
     7
 10
106.13225615036249
 20
195.771100771481
 30
0.0
 11
117.9572561503625
 21
195.771100771481
 31
0.0
  0
LINE
  5
49F
  8
DATA
  6
CONTINUOUS
 62
     7
 10
109.99475615036241
 20
204.271100771481
 30
0.0
 11
109.99475615036241
 21
205.32110077148101
 31
0.0
  0
LINE
  5
4A0
  8
DATA
  6
CONTINUOUS
 62
     7
 10
109.19475615036249
 20
205.2211007714811
 30
0.0
 11
109.19475615036249
 21
205.521100771481
 31
0.0
  0
LINE
  5
4A1
  8
DATA
  6
CONTINUOUS
 62
     7
 10
108.8947561503625
 20
204.271100771481
 30
0.0
 11
108.8947561503625
 21
200.77110077088099
 31
0.0
  0
LINE
  5
4A2
  8
DATA
  6
CONTINUOUS
 62
     7
 10
108.2147572548626
 20
197.396100771481
 30
0.0
 11
108.2147561503625
 21
195.771100771481
 31
0.0
  0
LINE
  5
4A3
  8
DATA
  6
CONTINUOUS
 62
     7
 10
108.0947561503623
 20
203.42110077148109
 30
0.0
 11
108.0947561503623
 21
204.2211007714811
 31
0.0
  0
LINE
  5
4A4
  8
DATA
  6
CONTINUOUS
 62
     7
 10
107.3647572548625
 20
195.77110077088091
 30
0.0
 11
107.3647572548625
 21
196.1211007714812
 31
0.0
  0
LINE
  5
4A5
  8
DATA
  6
CONTINUOUS
 62
     7
 10
117.8947561503626
 20
195.021100771481
 30
0.0
 11
106.19475615036249
 21
195.021100771481
 31
0.0
  0
LINE
  5
4A6
  8
DATA
  6
CONTINUOUS
 62
     7
 10
106.13225615036249
 20
195.771100771481
 30
0.0
 11
106.13225615036249
 21
202.4711007714811
 31
0.0
  0
LINE
  5
4A7
  8
DATA
  6
CONTINUOUS
 62
     7
 10
105.3947561503626
 20
195.82110077148101
 30
0.0
 11
105.3947561503626
 21
202.42110077148109
 31
0.0
  0
CIRCLE
  5
4A8
  8
DATA
  6
CONTINUOUS
 62
     7
 10
112.0447561503626
 20
199.12110077148111
 30
0.0
 40
8.7521721561001762
  0
ARC
  5
4A9
  8
DATA
  6
CONTINUOUS
 62
     7
 10
107.8947561503625
 20
203.42110077148109
 30
0.0
 40
0.1999988218501585
 50
270.0
 51
0.0
  0
ARC
  5
4AA
  8
DATA
  6
CONTINUOUS
 62
     7
 10
106.19475615036249
 20
202.42110077148109
 30
0.0
 40
0.7999985269998433
 50
90.0
 51
180.0
  0
ARC
  5
4AB
  8
DATA
  6
CONTINUOUS
 62
     7
 10
106.19475615036249
 20
195.82110077148101
 30
0.0
 40
0.7999985270000707
 50
180.0
 51
270.0
  0
ARC
  5
4AC
  8
DATA
  6
CONTINUOUS
 62
     7
 10
117.8947561503626
 20
195.82110077148101
 30
0.0
 40
0.7999985269998291
 50
270.0
 51
0.0
  0
ARC
  5
4AD
  8
DATA
  6
CONTINUOUS
 62
     7
 10
117.8947561503626
 20
202.42110077148109
 30
0.0
 40
0.7999985269998576
 50
0.0
 51
90.0
  0
ARC
  5
4AE
  8
DATA
  6
CONTINUOUS
 62
     7
 10
116.19475615036249
 20
203.42110077148109
 30
0.0
 40
0.1999988218501585
 50
180.0
 51
270.0
  0
ARC
  5
4AF
  8
DATA
  6
CONTINUOUS
 62
     7
 10
115.19475615036249
 20
204.2211007714811
 30
0.0
 40
0.7999985270000707
 50
0.0
 51
90.0
  0
ARC
  5
4B0
  8
DATA
  6
CONTINUOUS
 62
     7
 10
115.0947561503623
 20
205.2211007714811
 30
0.0
 40
0.1999988218499311
 50
180.0
 51
270.0
  0
ARC
  5
4B1
  8
DATA
  6
CONTINUOUS
 62
     7
 10
114.0947561503623
 20
205.521100771481
 30
0.0
 40
0.7999985270002981
 50
0.0
 51
90.0
  0
ARC
  5
4B2
  8
DATA
  6
CONTINUOUS
 62
     7
 10
108.99475615036241
 20
205.2211007714811
 30
0.0
 40
0.1999988218499311
 50
270.0
 51
0.0
  0
ARC
  5
4B3
  8
DATA
  6
CONTINUOUS
 62
     7
 10
108.8947561503625
 20
204.2211007714811
 30
0.0
 40
0.7999985270000707
 50
90.0
 51
180.0
  0
ARC
  5
4B4
  8
DATA
  6
CONTINUOUS
 62
     7
 10
107.5647572548625
 20
196.1211007714812
 30
0.0
 40
0.1999999999998181
 50
90.0
 51
180.0
  0
ARC
  5
4B5
  8
DATA
  6
CONTINUOUS
 62
     7
 10
116.52475725486249
 20
196.1211007714812
 30
0.0
 40
0.1999999999998181
 50
0.0
 51
90.0
  0
LINE
  5
4B6
  8
DATA
  6
CONTINUOUS
 62
     7
 10
107.8947561503628
 20
203.2211007714811
 30
0.0
 11
106.19475615036271
 21
203.2211007714811
 31
0.0
  0
LINE
  5
4B7
  8
DATA
  6
CONTINUOUS
 62
     7
 10
108.0947561503628
 20
204.2211007714811
 30
0.0
 11
108.0947561503628
 21
203.42110077148109
 31
0.0
  0
ARC
  5
4B8
  8
DATA
  6
CONTINUOUS
 62
     7
 10
108.8947561503628
 20
204.2211007714811
 30
0.0
 40
0.7999985269998433
 50
90.0
 51
180.0
  0
ARC
  5
4B9
  8
DATA
  6
CONTINUOUS
 62
     7
 10
115.19475615036271
 20
204.2211007714811
 30
0.0
 40
0.7999985270000707
 50
0.0
 51
90.0
  0
LINE
  5
4BA
  8
DATA
  6
CONTINUOUS
 62
     7
 10
114.0947561503628
 20
206.32110077148101
 30
0.0
 11
109.9947561503629
 21
206.32110077148101
 31
0.0
  0
ARC
  5
4BB
  8
DATA
  6
CONTINUOUS
 62
     7
 10
109.9947561503629
 20
205.521100771481
 30
0.0
 40
0.7999985270000707
 50
90.0
 51
180.0
  0
LINE
  5
4BC
  8
DATA
  6
CONTINUOUS
 62
     7
 10
121.8999901000003
 20
188.78580902178399
 30
0.0
 11
121.8999901000003
 21
189.48580832178399
 31
0.0
  0
LINE
  5
4BD
  8
DATA
  6
CONTINUOUS
 62
     7
 10
101.7500102499999
 20
208.9357888717843
 30
0.0
 11
102.45000954999981
 21
208.9357888717843
 31
0.0
  0
LINE
  5
4BE
  8
DATA
  6
CONTINUOUS
 62
     7
 10
116.9999950000002
 20
184.98505946917069
 30
0.0
 11
116.9999950000002
 21
185.80125714007229
 31
0.0
  0
LINE
  5
4BF
  8
DATA
  6
CONTINUOUS
 62
     7
 10
116.5999954
 20
185.8012442483184
 30
0.0
 11
116.5999954
 21
184.98505946917069
 31
0.0
  0
LINE
  5
4C0
  8
DATA
  6
CONTINUOUS
 62
     7
 10
107.4000046000002
 20
185.801257069439
 30
0.0
 11
107.4000046000002
 21
184.98505946917069
 31
0.0
  0
LINE
  5
4C1
  8
DATA
  6
CONTINUOUS
 62
     7
 10
107.0000049999999
 20
185.80125714007229
 30
0.0
 11
107.0000049999999
 21
184.98505946917069
 31
0.0
  0
LINE
  5
4C2
  8
DATA
  6
CONTINUOUS
 62
     7
 10
121.5499904499999
 20
189.1358086717841
 30
0.0
 11
122.2499897500002
 21
189.1358086717841
 31
0.0
  0
LINE
  5
4C3
  8
DATA
  6
CONTINUOUS
 62
     7
 10
102.1000098999999
 20
208.5857892217843
 30
0.0
 11
102.1000098999999
 21
209.2857885217843
 31
0.0
  0
LINE
  5
4C4
  8
DATA
  6
CONTINUOUS
 62
     7
 10
114.99999699999999
 20
187.8012551400723
 30
0.0
 11
109.00000300000021
 21
187.8012551400723
 31
0.0
  0
ARC
  5
4C5
  8
DATA
  6
CONTINUOUS
 62
     7
 10
114.99999699999999
 20
185.80125714007229
 30
0.0
 40
1.999998000000232
 50
0.0
 51
90.0
  0
ARC
  5
4C6
  8
DATA
  6
CONTINUOUS
 62
     7
 10
114.99999699999999
 20
184.98505946917069
 30
0.0
 40
1.999997999999974
 50
292.02431283700651
 51
0.0
  0
ARC
  5
4C7
  8
DATA
  6
CONTINUOUS
 62
     7
 10
114.99999699999999
 20
184.98505946917069
 30
0.0
 40
1.599998400000026
 50
292.0243128370023
 51
0.0
  0
ARC
  5
4C8
  8
DATA
  6
CONTINUOUS
 62
     7
 10
112.0000000000001
 20
192.40125054007211
 30
0.0
 40
9.9999900000000022
 50
247.97568716299941
 51
292.02431283700059
  0
ARC
  5
4C9
  8
DATA
  6
CONTINUOUS
 62
     7
 10
112.0000000000001
 20
192.40125054007211
 30
0.0
 40
9.5999903999999692
 50
272.54467677999958
 51
292.02431283700008
  0
ARC
  5
4CA
  8
DATA
  6
CONTINUOUS
 62
     7
 10
112.0000000000001
 20
192.40125054007211
 30
0.0
 40
9.599990399999843
 50
247.9756871629998
 51
267.45532322000048
  0
ARC
  5
4CB
  8
DATA
  6
CONTINUOUS
 62
     7
 10
109.00000300000021
 20
184.98505946917069
 30
0.0
 40
1.999998000000232
 50
180.0
 51
247.97568716299341
  0
ARC
  5
4CC
  8
DATA
  6
CONTINUOUS
 62
     7
 10
109.00000300000021
 20
185.80125714007229
 30
0.0
 40
1.9999980000000039
 50
90.0
 51
180.0
  0
ARC
  5
4CD
  8
DATA
  6
CONTINUOUS
 62
     7
 10
109.00000300000021
 20
184.98505946917069
 30
0.0
 40
1.599998400000004
 50
180.0
 51
247.97568716299611
  0
ARC
  5
4CE
  8
DATA
  6
CONTINUOUS
 62
     7
 10
109.40841014769251
 20
188.0010123312816
 30
0.0
 40
0.1997544489120933
 50
269.98149905913021
 51
357.59650037656132
  0
ARC
  5
4CF
  8
DATA
  6
CONTINUOUS
 62
     7
 10
114.5915819633488
 20
188.0009993375611
 30
0.0
 40
0.1997440091556692
 50
182.39989860869539
 51
270.02084071842262
  0
POLYLINE
  5
4D0
  8
DATA
  6
CONTINUOUS
 62
     7
 66
     1
 10
0.0
 20
0.0
 30
0.0
 70
   128
  0
VERTEX
  5
98D
  8
DATA
  6
CONTINUOUS
 62
     7
 10
109.00000300000021
 20
187.8012551400723
 30
0.0
  0
VERTEX
  5
98E
  8
DATA
  6
CONTINUOUS
 62
     7
 10
108.99713976468431
 20
187.80052053992009
 30
0.0
 42
0.0135369908778926
  0
VERTEX
  5
98F
  8
DATA
  6
CONTINUOUS
 62
     7
 10
108.88113125199339
 20
187.7673854590584
 30
0.0
  0
VERTEX
  5
990
  8
DATA
  6
CONTINUOUS
 62
     7
 10
108.8685137289483
 20
187.76340913890479
 30
0.0
 42
0.0132432192352694
  0
VERTEX
  5
991
  8
DATA
  6
CONTINUOUS
 62
     7
 10
108.7794503569593
 20
187.73272592501661
 30
0.0
 42
0.0078449271408291
  0
VERTEX
  5
992
  8
DATA
  6
CONTINUOUS
 62
     7
 10
108.6917398765389
 20
187.69830707645539
 30
0.0
  0
VERTEX
  5
993
  8
DATA
  6
CONTINUOUS
 62
     7
 10
108.6877811084466
 20
187.69668147351871
 30
0.0
 42
0.014967819105327
  0
VERTEX
  5
994
  8
DATA
  6
CONTINUOUS
 62
     7
 10
108.5973495015909
 20
187.65634352010039
 30
0.0
 42
0.0075493686395115
  0
VERTEX
  5
995
  8
DATA
  6
CONTINUOUS
 62
     7
 10
108.5087860193731
 20
187.61195577070129
 30
0.0
 42
0.0152022874872049
  0
VERTEX
  5
996
  8
DATA
  6
CONTINUOUS
 62
     7
 10
108.4223548602657
 20
187.5635981671777
 30
0.0
  0
VERTEX
  5
997
  8
DATA
  6
CONTINUOUS
 62
     7
 10
108.4081924776827
 20
187.55509908607289
 30
0.0
 42
0.0076542450579206
  0
VERTEX
  5
998
  8
DATA
  6
CONTINUOUS
 62
     7
 10
108.35209156768749
 20
187.52025298157611
 30
0.0
  0
VERTEX
  5
999
  8
DATA
  6
CONTINUOUS
 62
     7
 10
108.3514748103694
 20
187.51985668285079
 30
0.0
 42
0.0076973431190997
  0
VERTEX
  5
99A
  8
DATA
  6
CONTINUOUS
 62
     7
 10
108.2976911325034
 20
187.484116273354
 30
0.0
 42
0.0073845984077282
  0
VERTEX
  5
99B
  8
DATA
  6
CONTINUOUS
 62
     7
 10
108.24500930828761
 20
187.446769721289
 30
0.0
  0
VERTEX
  5
99C
  8
DATA
  6
CONTINUOUS
 62
     7
 10
108.2329806136393
 20
187.43797271322731
 30
0.0
 42
0.0147771409370015
  0
VERTEX
  5
99D
  8
DATA
  6
CONTINUOUS
 62
     7
 10
108.158505173397
 20
187.38005248548379
 30
0.0
  0
VERTEX
  5
99E
  8
DATA
  6
CONTINUOUS
 62
     7
 10
108.1453773098407
 20
187.36920538612489
 30
0.0
 42
0.0143620352165967
  0
VERTEX
  5
99F
  8
DATA
  6
CONTINUOUS
 62
     7
 10
108.05647216200791
 20
187.2913435636944
 30
0.0
  0
VERTEX
  5
9A0
  8
DATA
  6
CONTINUOUS
 62
     7
 10
108.05481424320141
 20
187.2898052446364
 30
0.0
 42
0.0137776267970404
  0
VERTEX
  5
9A1
  8
DATA
  6
CONTINUOUS
 62
     7
 10
107.9736550619737
 20
187.210229029321
 30
0.0
  0
VERTEX
  5
9A2
  8
DATA
  6
CONTINUOUS
 62
     7
 10
107.97232893674639
 20
187.20885509300501
 30
0.0
 42
0.0134608839548756
  0
VERTEX
  5
9A3
  8
DATA
  6
CONTINUOUS
 62
     7
 10
107.8981978721982
 20
187.12779386290859
 30
0.0
  0
VERTEX
  5
9A4
  8
DATA
  6
CONTINUOUS
 62
     7
 10
107.8972027318494
 20
187.12664507085299
 30
0.0
 42
0.0130167046767997
  0
VERTEX
  5
9A5
  8
DATA
  6
CONTINUOUS
 62
     7
 10
107.8293934355009
 20
187.0441197175445
 30
0.0
  0
VERTEX
  5
9A6
  8
DATA
  6
CONTINUOUS
 62
     7
 10
107.82874754885729
 20
187.0432905677242
 30
0.0
 42
0.0128612074907437
  0
VERTEX
  5
9A7
  8
DATA
  6
CONTINUOUS
 62
     7
 10
107.7665458383122
 20
186.95905766482301
 30
0.0
  0
VERTEX
  5
9A8
  8
DATA
  6
CONTINUOUS
 62
     7
 10
107.76618076843199
 20
186.95853571489201
 30
0.0
 42
0.012625842830166
  0
VERTEX
  5
9A9
  8
DATA
  6
CONTINUOUS
 62
     7
 10
107.7090540808472
 20
186.87230369379131
 30
0.0
  0
VERTEX
  5
9AA
  8
DATA
  6
CONTINUOUS
 62
     7
 10
107.7021377242162
 20
186.8612681524248
 30
0.0
 42
0.0126557334318621
  0
VERTEX
  5
9AB
  8
DATA
  6
CONTINUOUS
 62
     7
 10
107.66270766295121
 20
186.7946662463369
 30
0.0
  0
VERTEX
  5
9AC
  8
DATA
  6
CONTINUOUS
 62
     7
 10
107.6626717020396
 20
186.79460183977639
 30
0.0
 42
0.0063193360928088
  0
VERTEX
  5
9AD
  8
DATA
  6
CONTINUOUS
 62
     7
 10
107.6258582870026
 20
186.72666526297641
 30
0.0
 42
0.012676394368592
  0
VERTEX
  5
9AE
  8
DATA
  6
CONTINUOUS
 62
     7
 10
107.5916599797043
 20
186.6573962331056
 30
0.0
  0
VERTEX
  5
9AF
  8
DATA
  6
CONTINUOUS
 62
     7
 10
107.5862696471838
 20
186.64574285158361
 30
0.0
 42
0.006537123580594
  0
VERTEX
  5
9B0
  8
DATA
  6
CONTINUOUS
 62
     7
 10
107.56463455193879
 20
186.5973181829182
 30
0.0
 42
0.0065548944882634
  0
VERTEX
  5
9B1
  8
DATA
  6
CONTINUOUS
 62
     7
 10
107.54427467237269
 20
186.54834371438821
 30
0.0
  0
VERTEX
  5
9B2
  8
DATA
  6
CONTINUOUS
 62
     7
 10
107.53932170150971
 20
186.53597463155921
 30
0.0
 42
0.0131471650781521
  0
VERTEX
  5
9B3
  8
DATA
  6
CONTINUOUS
 62
     7
 10
107.5116626618471
 20
186.46126767052689
 30
0.0
  0
VERTEX
  5
9B4
  8
DATA
  6
CONTINUOUS
 62
     7
 10
107.5068416153332
 20
186.44711386448481
 30
0.0
 42
0.0076109923440424
  0
VERTEX
  5
9B5
  8
DATA
  6
CONTINUOUS
 62
     7
 10
107.4889776245969
 20
186.39192988673599
 30
0.0
 42
0.0067773452549469
  0
VERTEX
  5
9B6
  8
DATA
  6
CONTINUOUS
 62
     7
 10
107.4727084039457
 20
186.3362534334604
 30
0.0
  0
VERTEX
  5
9B7
  8
DATA
  6
CONTINUOUS
 62
     7
 10
107.4694983825437
 20
186.32468809627011
 30
0.0
 42
0.0135908901807281
  0
VERTEX
  5
9B8
  8
DATA
  6
CONTINUOUS
 62
     7
 10
107.44972695375721
 20
186.2451229123121
 30
0.0
  0
VERTEX
  5
9B9
  8
DATA
  6
CONTINUOUS
 62
     7
 10
107.4467561349152
 20
186.2316082318203
 30
0.0
 42
0.0136908823044701
  0
VERTEX
  5
9BA
  8
DATA
  6
CONTINUOUS
 62
     7
 10
107.4261556575714
 20
186.1239119817848
 30
0.0
  0
VERTEX
  5
9BB
  8
DATA
  6
CONTINUOUS
 62
     7
 10
107.4260430905104
 20
186.1232215647486
 30
0.0
 42
0.0137150670515642
  0
VERTEX
  5
9BC
  8
DATA
  6
CONTINUOUS
 62
     7
 10
107.4114757895034
 20
186.0153179874732
 30
0.0
  0
VERTEX
  5
9BD
  8
DATA
  6
CONTINUOUS
 62
     7
 10
107.41132810813799
 20
186.01393998627751
 30
0.0
 42
0.0134446974708633
  0
VERTEX
  5
9BE
  8
DATA
  6
CONTINUOUS
 62
     7
 10
107.40286127472299
 20
185.90816504400809
 30
0.0
  0
VERTEX
  5
9BF
  8
DATA
  6
CONTINUOUS
 62
     7
 10
107.4028160938727
 20
185.90731317474581
 30
0.0
 42
0.013032692468346
  0
VERTEX
  5
9C0
  8
DATA
  6
CONTINUOUS
 62
     7
 10
107.4000053240166
 20
185.80294098556851
 30
0.0
  0
VERTEX
  5
9C1
  8
DATA
  6
CONTINUOUS
 62
     7
 10
107.4000046000002
 20
185.801257069439
 30
0.0
  0
SEQEND
  5
9C2
  8
DATA
  6
CONTINUOUS
 62
     7
  0
POLYLINE
  5
507
  8
DATA
  6
CONTINUOUS
 62
     7
 66
     1
 10
0.0
 20
0.0
 30
0.0
 70
   128
  0
VERTEX
  5
9C3
  8
DATA
  6
CONTINUOUS
 62
     7
 10
116.5999954
 20
185.8012442483184
 30
0.0
  0
VERTEX
  5
9C4
  8
DATA
  6
CONTINUOUS
 62
     7
 10
116.5999903935168
 20
185.80438796063089
 30
0.0
 42
0.0127110398471469
  0
VERTEX
  5
9C5
  8
DATA
  6
CONTINUOUS
 62
     7
 10
116.59724826593801
 20
185.905873741394
 30
0.0
 42
0.012638017010332
  0
VERTEX
  5
9C6
  8
DATA
  6
CONTINUOUS
 62
     7
 10
116.5893640654029
 20
186.00712790690099
 30
0.0
  0
VERTEX
  5
9C7
  8
DATA
  6
CONTINUOUS
 62
     7
 10
116.589355515845
 20
186.00721064712809
 30
0.0
 42
0.0126173303978384
  0
VERTEX
  5
9C8
  8
DATA
  6
CONTINUOUS
 62
     7
 10
116.5763877394791
 20
186.10781014923421
 30
0.0
  0
VERTEX
  5
9C9
  8
DATA
  6
CONTINUOUS
 62
     7
 10
116.57592695384299
 20
186.11078974980319
 30
0.0
 42
0.0126257181912358
  0
VERTEX
  5
9CA
  8
DATA
  6
CONTINUOUS
 62
     7
 10
116.558970646913
 20
186.20467452185909
 30
0.0
  0
VERTEX
  5
9CB
  8
DATA
  6
CONTINUOUS
 62
     7
 10
116.55837809787241
 20
186.2075397571937
 30
0.0
 42
0.0111721324013669
  0
VERTEX
  5
9CC
  8
DATA
  6
CONTINUOUS
 62
     7
 10
116.53828540075629
 20
186.29481680662039
 30
0.0
 42
0.0111208472030064
  0
VERTEX
  5
9CD
  8
DATA
  6
CONTINUOUS
 62
     7
 10
116.5143261893266
 20
186.3810993647611
 30
0.0
  0
VERTEX
  5
9CE
  8
DATA
  6
CONTINUOUS
 62
     7
 10
116.5143023101337
 20
186.38117848767081
 30
0.0
 42
0.0110924905939057
  0
VERTEX
  5
9CF
  8
DATA
  6
CONTINUOUS
 62
     7
 10
116.486589572101
 20
186.46614243906589
 30
0.0
  0
VERTEX
  5
9D0
  8
DATA
  6
CONTINUOUS
 62
     7
 10
116.4857843840275
 20
186.46843709101989
 30
0.0
 42
0.0110492182947718
  0
VERTEX
  5
9D1
  8
DATA
  6
CONTINUOUS
 62
     7
 10
116.4560486099391
 20
186.5475396619257
 30
0.0
  0
VERTEX
  5
9D2
  8
DATA
  6
CONTINUOUS
 62
     7
 10
116.4551722802467
 20
186.5497231184664
 30
0.0
 42
0.0098561502026233
  0
VERTEX
  5
9D3
  8
DATA
  6
CONTINUOUS
 62
     7
 10
116.42399262814619
 20
186.62318689955799
 30
0.0
 42
0.0098169547190663
  0
VERTEX
  5
9D4
  8
DATA
  6
CONTINUOUS
 62
     7
 10
116.38994744708749
 20
186.695367331928
 30
0.0
  0
VERTEX
  5
9D5
  8
DATA
  6
CONTINUOUS
 62
     7
 10
116.3899264070256
 20
186.69540976026761
 30
0.0
 42
0.0097935210149184
  0
VERTEX
  5
9D6
  8
DATA
  6
CONTINUOUS
 62
     7
 10
116.35312100505421
 20
186.7661156915114
 30
0.0
  0
VERTEX
  5
9D7
  8
DATA
  6
CONTINUOUS
 62
     7
 10
116.35241053629341
 20
186.76741764308829
 30
0.0
 42
0.0097705117118193
  0
VERTEX
  5
9D8
  8
DATA
  6
CONTINUOUS
 62
     7
 10
116.3143387391211
 20
186.8340546601639
 30
0.0
  0
VERTEX
  5
9D9
  8
DATA
  6
CONTINUOUS
 62
     7
 10
116.3136019435761
 20
186.83528769623419
 30
0.0
 42
0.0090403980388671
  0
VERTEX
  5
9DA
  8
DATA
  6
CONTINUOUS
 62
     7
 10
116.2745673179637
 20
186.89800877346849
 30
0.0
 42
0.0089981325774051
  0
VERTEX
  5
9DB
  8
DATA
  6
CONTINUOUS
 62
     7
 10
116.2332966193961
 20
186.95927998825931
 30
0.0
 42
0.0089640859677254
  0
VERTEX
  5
9DC
  8
DATA
  6
CONTINUOUS
 62
     7
 10
116.18987096928009
 20
187.0190031512065
 30
0.0
  0
VERTEX
  5
9DD
  8
DATA
  6
CONTINUOUS
 62
     7
 10
116.1892940792914
 20
187.01976733463439
 30
0.0
 42
0.0089395369002747
  0
VERTEX
  5
9DE
  8
DATA
  6
CONTINUOUS
 62
     7
 10
116.1449571900594
 20
187.07636534066449
 30
0.0
  0
VERTEX
  5
9DF
  8
DATA
  6
CONTINUOUS
 62
     7
 10
116.1443725339751
 20
187.0770848042099
 30
0.0
 42
0.0084592050595885
  0
VERTEX
  5
9E0
  8
DATA
  6
CONTINUOUS
 62
     7
 10
116.0992860057875
 20
187.13068827031799
 30
0.0
 42
0.0084178376711468
  0
VERTEX
  5
9E1
  8
DATA
  6
CONTINUOUS
 62
     7
 10
116.0524164933766
 20
187.18273935909181
 30
0.0
 42
0.0083845101807898
  0
VERTEX
  5
9E2
  8
DATA
  6
CONTINUOUS
 62
     7
 10
116.00383313335701
 20
187.23317752802899
 30
0.0
  0
VERTEX
  5
9E3
  8
DATA
  6
CONTINUOUS
 62
     7
 10
116.0035777636328
 20
187.2334338981552
 30
0.0
 42
0.008362890718997
  0
VERTEX
  5
9E4
  8
DATA
  6
CONTINUOUS
 62
     7
 10
115.9538599125372
 20
187.28170430930129
 30
0.0
  0
VERTEX
  5
9E5
  8
DATA
  6
CONTINUOUS
 62
     7
 10
115.95360454528129
 20
187.28194407669599
 30
0.0
 42
0.0081612438746406
  0
VERTEX
  5
9E6
  8
DATA
  6
CONTINUOUS
 62
     7
 10
115.9028369965459
 20
187.3280746170901
 30
0.0
 42
0.0081176824254665
  0
VERTEX
  5
9E7
  8
DATA
  6
CONTINUOUS
 62
     7
 10
115.8505947368261
 20
187.37252815878679
 30
0.0
 42
0.0080823319181603
  0
VERTEX
  5
9E8
  8
DATA
  6
CONTINUOUS
 62
     7
 10
115.796939269096
 20
187.41526653732751
 30
0.0
 42
0.0080632191183575
  0
VERTEX
  5
9E9
  8
DATA
  6
CONTINUOUS
 62
     7
 10
115.7419117673527
 20
187.45626546706541
 30
0.0
 42
0.0080341999901592
  0
VERTEX
  5
9EA
  8
DATA
  6
CONTINUOUS
 62
     7
 10
115.6855541546784
 20
187.49549995240491
 30
0.0
 42
0.007982643508609
  0
VERTEX
  5
9EB
  8
DATA
  6
CONTINUOUS
 62
     7
 10
115.62794967767751
 20
187.5329226860288
 30
0.0
 42
0.0079420371704975
  0
VERTEX
  5
9EC
  8
DATA
  6
CONTINUOUS
 62
     7
 10
115.569184059471
 20
187.56849132184831
 30
0.0
 42
0.0079116374796786
  0
VERTEX
  5
9ED
  8
DATA
  6
CONTINUOUS
 62
     7
 10
115.5093384649529
 20
187.60216891621289
 30
0.0
 42
0.0078627578669404
  0
VERTEX
  5
9EE
  8
DATA
  6
CONTINUOUS
 62
     7
 10
115.44849341784391
 20
187.63392410113281
 30
0.0
 42
0.0078168903559128
  0
VERTEX
  5
9EF
  8
DATA
  6
CONTINUOUS
 62
     7
 10
115.38669787124731
 20
187.6637479830114
 30
0.0
 42
0.0077753455134411
  0
VERTEX
  5
9F0
  8
DATA
  6
CONTINUOUS
 62
     7
 10
115.3239967380235
 20
187.69163324898591
 30
0.0
 42
0.0077451273575584
  0
VERTEX
  5
9F1
  8
DATA
  6
CONTINUOUS
 62
     7
 10
115.2604555191475
 20
187.71756129136421
 30
0.0
  0
VERTEX
  5
9F2
  8
DATA
  6
CONTINUOUS
 62
     7
 10
115.2603701323856
 20
187.7175946002034
 30
0.0
 42
0.0077339922049633
  0
VERTEX
  5
9F3
  8
DATA
  6
CONTINUOUS
 62
     7
 10
115.1958850318114
 20
187.74160741735159
 30
0.0
  0
VERTEX
  5
9F4
  8
DATA
  6
CONTINUOUS
 62
     7
 10
115.1958032966325
 20
187.74163642228359
 30
0.0
 42
0.0076843509806138
  0
VERTEX
  5
9F5
  8
DATA
  6
CONTINUOUS
 62
     7
 10
115.13044408526559
 20
187.76370518954201
 30
0.0
  0
VERTEX
  5
9F6
  8
DATA
  6
CONTINUOUS
 62
     7
 10
115.11505050554349
 20
187.7686406792572
 30
0.0
 42
0.0147572639251252
  0
VERTEX
  5
9F7
  8
DATA
  6
CONTINUOUS
 62
     7
 10
115.0177365175248
 20
187.79670307834891
 30
0.0
  0
VERTEX
  5
9F8
  8
DATA
  6
CONTINUOUS
 62
     7
 10
115.00208399133921
 20
187.80072051382649
 30
0.0
  0
VERTEX
  5
9F9
  8
DATA
  6
CONTINUOUS
 62
     7
 10
114.99999699999999
 20
187.8012551400723
 30
0.0
  0
SEQEND
  5
9FA
  8
DATA
  6
CONTINUOUS
 62
     7
  0
POLYLINE
  5
540
  8
DATA
  6
CONTINUOUS
 62
     7
 66
     1
 10
0.0
 20
0.0
 30
0.0
 70
   128
  0
VERTEX
  5
9FB
  8
DATA
  6
CONTINUOUS
 62
     7
 10
109.6280677318298
 20
189.0640167186634
 30
0.0
 42
0.0002651132516096
  0
VERTEX
  5
9FC
  8
DATA
  6
CONTINUOUS
 62
     7
 10
109.6241141708681
 20
188.88458551199329
 30
0.0
  0
VERTEX
  5
9FD
  8
DATA
  6
CONTINUOUS
 62
     7
 10
109.623346429869
 20
188.84888249090329
 30
0.0
  0
VERTEX
  5
9FE
  8
DATA
  6
CONTINUOUS
 62
     7
 10
109.623346429869
 20
188.84888249090329
 30
0.0
  0
VERTEX
  5
9FF
  8
DATA
  6
CONTINUOUS
 62
     7
 10
109.623346429869
 20
188.84888249090329
 30
0.0
 42
0.0006471404305797
  0
VERTEX
  5
A00
  8
DATA
  6
CONTINUOUS
 62
     7
 10
109.61730939698791
 20
188.55014794096741
 30
0.0
  0
VERTEX
  5
A01
  8
DATA
  6
CONTINUOUS
 62
     7
 10
109.6166201357974
 20
188.51370692415799
 30
0.0
  0
VERTEX
  5
A02
  8
DATA
  6
CONTINUOUS
 62
     7
 10
109.6166201357974
 20
188.51370692415799
 30
0.0
  0
VERTEX
  5
A03
  8
DATA
  6
CONTINUOUS
 62
     7
 10
109.6166201357974
 20
188.51370692415799
 30
0.0
 42
0.0005615521867065
  0
VERTEX
  5
A04
  8
DATA
  6
CONTINUOUS
 62
     7
 10
109.61200407176661
 20
188.2542455799003
 30
0.0
  0
VERTEX
  5
A05
  8
DATA
  6
CONTINUOUS
 62
     7
 10
109.611969728267
 20
188.25218511747241
 30
0.0
  0
VERTEX
  5
A06
  8
DATA
  6
CONTINUOUS
 62
     7
 10
109.611969728267
 20
188.25218511747241
 30
0.0
  0
VERTEX
  5
A07
  8
DATA
  6
CONTINUOUS
 62
     7
 10
109.611969728267
 20
188.25218511747241
 30
0.0
 42
0.0006244041334202
  0
VERTEX
  5
A08
  8
DATA
  6
CONTINUOUS
 62
     7
 10
109.60803134268561
 20
187.99675646269731
 30
0.0
  0
VERTEX
  5
A09
  8
DATA
  6
CONTINUOUS
 62
     7
 10
109.6079730884627
 20
187.99263596585789
 30
0.0
  0
SEQEND
  5
A0A
  8
DATA
  6
CONTINUOUS
 62
     7
  0
POLYLINE
  5
551
  8
DATA
  6
CONTINUOUS
 62
     7
 66
     1
 10
0.0
 20
0.0
 30
0.0
 70
   128
  0
VERTEX
  5
A0B
  8
DATA
  6
CONTINUOUS
 62
     7
 10
114.3839425652147
 20
189.0668811852471
 30
0.0
 42
-0.0002270695652615
  0
VERTEX
  5
A0C
  8
DATA
  6
CONTINUOUS
 62
     7
 10
114.38799593267019
 20
188.5648697937751
 30
0.0
  0
VERTEX
  5
A0D
  8
DATA
  6
CONTINUOUS
 62
     7
 10
114.38803027616881
 20
188.56036282434999
 30
0.0
  0
VERTEX
  5
A0E
  8
DATA
  6
CONTINUOUS
 62
     7
 10
114.38803027616881
 20
188.56036282434999
 30
0.0
  0
VERTEX
  5
A0F
  8
DATA
  6
CONTINUOUS
 62
     7
 10
114.38803027616881
 20
188.56036282434999
 30
0.0
 42
-0.0002854248608257
  0
VERTEX
  5
A10
  8
DATA
  6
CONTINUOUS
 62
     7
 10
114.3919686613886
 20
188.0016488708988
 30
0.0
  0
VERTEX
  5
A11
  8
DATA
  6
CONTINUOUS
 62
     7
 10
114.39202691560379
 20
187.99263586849131
 30
0.0
  0
SEQEND
  5
A12
  8
DATA
  6
CONTINUOUS
 62
     7
  0
CIRCLE
  5
55A
  8
DATA
  6
CONTINUOUS
 62
     7
 10
121.8999901
 20
189.1358086717841
 30
0.0
 40
2.0
  0
LINE
  5
55B
  8
DATA
  6
CONTINUOUS
 62
     7
 10
121.8999901
 20
187.9359286717841
 30
0.0
 11
121.8999901
 21
190.33568867178411
 31
0.0
  0
LINE
  5
55C
  8
DATA
  6
CONTINUOUS
 62
     7
 10
120.7001101000001
 20
189.1358086717841
 30
0.0
 11
123.0998701000002
 21
189.1358086717841
 31
0.0
  0
CIRCLE
  5
55D
  8
DATA
  6
CONTINUOUS
 62
     7
 10
102.1000098999999
 20
208.9357888717843
 30
0.0
 40
2.0000000000000142
  0
LINE
  5
55E
  8
DATA
  6
CONTINUOUS
 62
     7
 10
102.1000098999999
 20
207.73590887178429
 30
0.0
 11
102.1000098999999
 21
210.13566887178439
 31
0.0
  0
LINE
  5
55F
  8
DATA
  6
CONTINUOUS
 62
     7
 10
100.9001299
 20
208.9357888717843
 30
0.0
 11
103.2998899
 21
208.9357888717843
 31
0.0
  0
CIRCLE
  5
560
  8
DATA
  6
CONTINUOUS
 62
     7
 10
112.0000000000001
 20
199.03579877178399
 30
0.0
 40
10.25
  0
LINE
  5
561
  8
DATA
  6
CONTINUOUS
 62
     7
 10
111.5737758939363
 20
182.8107266392885
 30
0.0
 11
112.4262241060638
 21
182.8107266392885
 31
0.0
  0
POLYLINE
  5
562
  8
DATA
  6
CONTINUOUS
 62
     7
 66
     1
 10
0.0
 20
0.0
 30
0.0
  0
VERTEX
  5
A13
  8
DATA
  6
CONTINUOUS
 62
     7
 10
188.38513399394211
 20
199.2572495725374
 30
0.0
  0
VERTEX
  5
A14
  8
DATA
  6
CONTINUOUS
 62
     7
 10
188.38513399394211
 20
194.25727457253751
 30
0.0
  0
VERTEX
  5
A15
  8
DATA
  6
CONTINUOUS
 62
     7
 10
189.63490899394139
 20
194.25727457253751
 30
0.0
  0
SEQEND
  5
A16
  8
DATA
  6
CONTINUOUS
 62
     7
  0
POLYLINE
  5
568
  8
DATA
  6
CONTINUOUS
 62
     7
 66
     1
 10
0.0
 20
0.0
 30
0.0
  0
VERTEX
  5
A17
  8
DATA
  6
CONTINUOUS
 62
     7
 10
189.63490899394139
 20
194.25727457253751
 30
0.0
  0
VERTEX
  5
A18
  8
DATA
  6
CONTINUOUS
 62
     7
 10
189.6348339939417
 20
199.2572495725374
 30
0.0
  0
VERTEX
  5
A19
  8
DATA
  6
CONTINUOUS
 62
     7
 10
188.38513399394211
 20
199.2572495725374
 30
0.0
  0
SEQEND
  5
A1A
  8
DATA
  6
CONTINUOUS
 62
     7
  0
POLYLINE
  5
56E
  8
DATA
  6
CONTINUOUS
 62
     7
 66
     1
 10
0.0
 20
0.0
 30
0.0
  0
VERTEX
  5
A1B
  8
DATA
  6
CONTINUOUS
 62
     7
 10
181.5102839939421
 20
195.307424572538
 30
0.0
  0
VERTEX
  5
A1C
  8
DATA
  6
CONTINUOUS
 62
     7
 10
181.51035899394211
 20
190.3074495725381
 30
0.0
  0
VERTEX
  5
A1D
  8
DATA
  6
CONTINUOUS
 62
     7
 10
182.7600589939417
 20
190.3074495725381
 30
0.0
  0
SEQEND
  5
A1E
  8
DATA
  6
CONTINUOUS
 62
     7
  0
POLYLINE
  5
574
  8
DATA
  6
CONTINUOUS
 62
     7
 66
     1
 10
0.0
 20
0.0
 30
0.0
  0
VERTEX
  5
A1F
  8
DATA
  6
CONTINUOUS
 62
     7
 10
182.7600589939417
 20
190.3074495725381
 30
0.0
  0
VERTEX
  5
A20
  8
DATA
  6
CONTINUOUS
 62
     7
 10
182.7600589939417
 20
195.307424572538
 30
0.0
  0
VERTEX
  5
A21
  8
DATA
  6
CONTINUOUS
 62
     7
 10
181.5102839939421
 20
195.307424572538
 30
0.0
  0
SEQEND
  5
A22
  8
DATA
  6
CONTINUOUS
 62
     7
  0
POLYLINE
  5
57A
  8
DATA
  6
CONTINUOUS
 62
     7
 66
     1
 10
0.0
 20
0.0
 30
0.0
  0
VERTEX
  5
A23
  8
DATA
  6
CONTINUOUS
 62
     7
 10
195.2600589939417
 20
195.30759957253761
 30
0.0
  0
VERTEX
  5
A24
  8
DATA
  6
CONTINUOUS
 62
     7
 10
195.2600589939417
 20
190.30762457253769
 30
0.0
  0
VERTEX
  5
A25
  8
DATA
  6
CONTINUOUS
 62
     7
 10
196.5097589939412
 20
190.30762457253769
 30
0.0
  0
SEQEND
  5
A26
  8
DATA
  6
CONTINUOUS
 62
     7
  0
POLYLINE
  5
580
  8
DATA
  6
CONTINUOUS
 62
     7
 66
     1
 10
0.0
 20
0.0
 30
0.0
  0
VERTEX
  5
A27
  8
DATA
  6
CONTINUOUS
 62
     7
 10
196.5097589939412
 20
190.30762457253769
 30
0.0
  0
VERTEX
  5
A28
  8
DATA
  6
CONTINUOUS
 62
     7
 10
196.5096589939416
 20
195.30759957253761
 30
0.0
  0
VERTEX
  5
A29
  8
DATA
  6
CONTINUOUS
 62
     7
 10
195.2600589939417
 20
195.30759957253761
 30
0.0
  0
SEQEND
  5
A2A
  8
DATA
  6
CONTINUOUS
 62
     7
  0
CIRCLE
  5
586
  8
DATA
  6
CONTINUOUS
 62
     7
 10
148.4823721071516
 20
211.9966841103809
 30
0.0
 40
1.2999999999999969
  0
CIRCLE
  5
587
  8
DATA
  6
CONTINUOUS
 62
     7
 10
148.4823721071516
 20
206.9966841103809
 30
0.0
 40
1.2999999999999969
  0
CIRCLE
  5
588
  8
DATA
  6
CONTINUOUS
 62
     7
 10
40.98018590420579
 20
209.6242172281928
 30
0.0
 40
1.2999999999999969
  0
ARC
  5
589
  8
DATA
  6
CONTINUOUS
 62
     7
 10
-128.99999999999989
 20
199.03579877178399
 30
0.0
 40
8.0547288122634821
 50
231.99253003053931
 51
218.00746996911241
  0
CIRCLE
  5
58A
  8
DATA
  6
CONTINUOUS
 62
     7
 10
-89.100990000000095
 20
189.1367887717841
 30
0.0
 40
2.0
  0
CIRCLE
  5
58B
  8
DATA
  6
CONTINUOUS
 62
     7
 10
-99.000000000000071
 20
199.0357987717841
 30
0.0
 40
10.898910000000001
  0
CIRCLE
  5
58C
  8
DATA
  6
CONTINUOUS
 62
     7
 10
-94.950404999999989
 20
199.0357987717841
 30
0.0
 40
1.189881000000014
  0
CIRCLE
  5
58D
  8
DATA
  6
CONTINUOUS
 62
     7
 10
-99.000000000000071
 20
202.98540377178409
 30
0.0
 40
1.189881000000014
  0
CIRCLE
  5
58E
  8
DATA
  6
CONTINUOUS
 62
     7
 10
-103.049595
 20
199.0357987717841
 30
0.0
 40
1.189881000000014
  0
ARC
  5
58F
  8
DATA
  6
CONTINUOUS
 62
     7
 10
-104.5148813499774
 20
193.5209174218401
 30
0.0
 40
0.9998999999999796
 50
146.28080190837699
 51
303.7191980912736
  0
LINE
  5
590
  8
DATA
  6
CONTINUOUS
 62
     7
 10
-87.901110000000102
 20
189.1367887717841
 30
0.0
 11
-90.300870000000074
 21
189.1367887717841
 31
0.0
  0
LINE
  5
591
  8
DATA
  6
CONTINUOUS
 62
     7
 10
-89.100990000000095
 20
190.3366687717841
 30
0.0
 11
-89.100990000000095
 21
187.936908771784
 31
0.0
  0
CIRCLE
  5
592
  8
DATA
  6
CONTINUOUS
 62
     7
 10
-108.8990099999999
 20
208.93480877178399
 30
0.0
 40
2.0
  0
LINE
  5
593
  8
DATA
  6
CONTINUOUS
 62
     7
 10
-108.8990099999999
 20
210.134688771784
 30
0.0
 11
-108.8990099999999
 21
207.73492877178401
 31
0.0
  0
LINE
  5
594
  8
DATA
  6
CONTINUOUS
 62
     7
 10
-107.69913
 20
208.93480877178399
 30
0.0
 11
-110.09889
 21
208.93480877178399
 31
0.0
  0
ARC
  5
595
  8
DATA
  6
CONTINUOUS
 62
     7
 10
-98.999999999999957
 20
199.03579877178399
 30
0.0
 40
8.0547288122634821
 50
231.99253003053931
 51
218.00746996911241
  0
CIRCLE
  5
596
  8
DATA
  6
CONTINUOUS
 62
     7
 10
-59.100990000000102
 20
189.1367887717841
 30
0.0
 40
2.0
  0
CIRCLE
  5
597
  8
DATA
  6
CONTINUOUS
 62
     7
 10
-69.000000000000071
 20
199.0357987717841
 30
0.0
 40
10.898910000000001
  0
CIRCLE
  5
598
  8
DATA
  6
CONTINUOUS
 62
     7
 10
-64.950405000000003
 20
199.0357987717841
 30
0.0
 40
1.189881000000014
  0
CIRCLE
  5
599
  8
DATA
  6
CONTINUOUS
 62
     7
 10
-69.000000000000071
 20
202.98540377178409
 30
0.0
 40
1.189881000000014
  0
CIRCLE
  5
59A
  8
DATA
  6
CONTINUOUS
 62
     7
 10
-73.049595000000025
 20
199.0357987717841
 30
0.0
 40
1.189881000000014
  0
ARC
  5
59B
  8
DATA
  6
CONTINUOUS
 62
     7
 10
-74.514881349977429
 20
193.5209174218401
 30
0.0
 40
0.9998999999999796
 50
146.28080190837699
 51
303.7191980912736
  0
LINE
  5
59C
  8
DATA
  6
CONTINUOUS
 62
     7
 10
-57.901110000000102
 20
189.1367887717841
 30
0.0
 11
-60.300870000000103
 21
189.1367887717841
 31
0.0
  0
LINE
  5
59D
  8
DATA
  6
CONTINUOUS
 62
     7
 10
-59.100990000000102
 20
190.3366687717841
 30
0.0
 11
-59.100990000000102
 21
187.936908771784
 31
0.0
  0
CIRCLE
  5
59E
  8
DATA
  6
CONTINUOUS
 62
     7
 10
-78.899009999999933
 20
208.93480877178399
 30
0.0
 40
2.0
  0
LINE
  5
59F
  8
DATA
  6
CONTINUOUS
 62
     7
 10
-78.899009999999933
 20
210.134688771784
 30
0.0
 11
-78.899009999999933
 21
207.73492877178401
 31
0.0
  0
LINE
  5
5A0
  8
DATA
  6
CONTINUOUS
 62
     7
 10
-77.699130000000054
 20
208.93480877178399
 30
0.0
 11
-80.098890000000054
 21
208.93480877178399
 31
0.0
  0
ARC
  5
5A1
  8
DATA
  6
CONTINUOUS
 62
     7
 10
-68.999999999999943
 20
199.03579877178399
 30
0.0
 40
8.0547288122634821
 50
231.99253003053931
 51
218.00746996911241
  0
CIRCLE
  5
5A2
  8
DATA
  6
CONTINUOUS
 62
     7
 10
-29.100990000000088
 20
189.1367887717841
 30
0.0
 40
2.0
  0
CIRCLE
  5
5A3
  8
DATA
  6
CONTINUOUS
 62
     7
 10
-39.000000000000071
 20
199.0357987717841
 30
0.0
 40
10.898910000000001
  0
CIRCLE
  5
5A4
  8
DATA
  6
CONTINUOUS
 62
     7
 10
-34.950405000000003
 20
199.0357987717841
 30
0.0
 40
1.189881000000014
  0
CIRCLE
  5
5A5
  8
DATA
  6
CONTINUOUS
 62
     7
 10
-39.000000000000071
 20
202.98540377178409
 30
0.0
 40
1.189881000000014
  0
CIRCLE
  5
5A6
  8
DATA
  6
CONTINUOUS
 62
     7
 10
-43.049595000000011
 20
199.0357987717841
 30
0.0
 40
1.189881000000014
  0
ARC
  5
5A7
  8
DATA
  6
CONTINUOUS
 62
     7
 10
-44.514881349977429
 20
193.5209174218401
 30
0.0
 40
0.9998999999999796
 50
146.28080190837699
 51
303.7191980912736
  0
LINE
  5
5A8
  8
DATA
  6
CONTINUOUS
 62
     7
 10
-27.901110000000092
 20
189.1367887717841
 30
0.0
 11
-30.30087000000011
 21
189.1367887717841
 31
0.0
  0
LINE
  5
5A9
  8
DATA
  6
CONTINUOUS
 62
     7
 10
-29.100990000000088
 20
190.3366687717841
 30
0.0
 11
-29.100990000000088
 21
187.936908771784
 31
0.0
  0
CIRCLE
  5
5AA
  8
DATA
  6
CONTINUOUS
 62
     7
 10
-48.899009999999933
 20
208.93480877178399
 30
0.0
 40
2.0
  0
LINE
  5
5AB
  8
DATA
  6
CONTINUOUS
 62
     7
 10
-48.899009999999933
 20
210.134688771784
 30
0.0
 11
-48.899009999999933
 21
207.73492877178401
 31
0.0
  0
LINE
  5
5AC
  8
DATA
  6
CONTINUOUS
 62
     7
 10
-47.699130000000039
 20
208.93480877178399
 30
0.0
 11
-50.09889000000004
 21
208.93480877178399
 31
0.0
  0
ARC
  5
5AD
  8
DATA
  6
CONTINUOUS
 62
     7
 10
-38.999999999999972
 20
199.03579877178399
 30
0.0
 40
8.0547288122634821
 50
231.99253003053931
 51
218.00746996911241
  0
CIRCLE
  5
5AE
  8
DATA
  6
CONTINUOUS
 62
     7
 10
0.8990099999999046
 20
189.1367887717841
 30
0.0
 40
2.0
  0
CIRCLE
  5
5AF
  8
DATA
  6
CONTINUOUS
 62
     7
 10
-9.0000000000000711
 20
199.0357987717841
 30
0.0
 40
10.898910000000001
  0
CIRCLE
  5
5B0
  8
DATA
  6
CONTINUOUS
 62
     7
 10
-4.9504050000000044
 20
199.0357987717841
 30
0.0
 40
1.189881000000014
  0
CIRCLE
  5
5B1
  8
DATA
  6
CONTINUOUS
 62
     7
 10
-9.0000000000000711
 20
202.98540377178409
 30
0.0
 40
1.189881000000014
  0
CIRCLE
  5
5B2
  8
DATA
  6
CONTINUOUS
 62
     7
 10
-13.04959500000002
 20
199.0357987717841
 30
0.0
 40
1.189881000000014
  0
ARC
  5
5B3
  8
DATA
  6
CONTINUOUS
 62
     7
 10
-14.51488134997744
 20
193.5209174218401
 30
0.0
 40
0.9998999999999796
 50
146.28080190837699
 51
303.7191980912736
  0
LINE
  5
5B4
  8
DATA
  6
CONTINUOUS
 62
     7
 10
2.0988899999999111
 20
189.1367887717841
 30
0.0
 11
-0.3008700000001028
 21
189.1367887717841
 31
0.0
  0
LINE
  5
5B5
  8
DATA
  6
CONTINUOUS
 62
     7
 10
0.8990099999999046
 20
190.3366687717841
 30
0.0
 11
0.8990099999999046
 21
187.936908771784
 31
0.0
  0
CIRCLE
  5
5B6
  8
DATA
  6
CONTINUOUS
 62
     7
 10
-18.899009999999929
 20
208.93480877178399
 30
0.0
 40
2.0
  0
LINE
  5
5B7
  8
DATA
  6
CONTINUOUS
 62
     7
 10
-18.899009999999929
 20
210.134688771784
 30
0.0
 11
-18.899009999999929
 21
207.73492877178401
 31
0.0
  0
LINE
  5
5B8
  8
DATA
  6
CONTINUOUS
 62
     7
 10
-17.699130000000039
 20
208.93480877178399
 30
0.0
 11
-20.098890000000051
 21
208.93480877178399
 31
0.0
  0
ARC
  5
5B9
  8
DATA
  6
CONTINUOUS
 62
     7
 10
-8.9999999999999574
 20
199.03579877178399
 30
0.0
 40
8.0547288122634821
 50
231.99253003053931
 51
218.00746996911241
  0
CIRCLE
  5
5BA
  8
DATA
  6
CONTINUOUS
 62
     7
 10
30.899009999999901
 20
189.1367887717841
 30
0.0
 40
2.0
  0
CIRCLE
  5
5BB
  8
DATA
  6
CONTINUOUS
 62
     7
 10
20.999999999999918
 20
199.0357987717841
 30
0.0
 40
10.898910000000001
  0
CIRCLE
  5
5BC
  8
DATA
  6
CONTINUOUS
 62
     7
 10
25.049595
 20
199.0357987717841
 30
0.0
 40
1.189881000000014
  0
CIRCLE
  5
5BD
  8
DATA
  6
CONTINUOUS
 62
     7
 10
20.999999999999918
 20
202.98540377178409
 30
0.0
 40
1.189881000000014
  0
CIRCLE
  5
5BE
  8
DATA
  6
CONTINUOUS
 62
     7
 10
16.950404999999972
 20
199.0357987717841
 30
0.0
 40
1.189881000000014
  0
ARC
  5
5BF
  8
DATA
  6
CONTINUOUS
 62
     7
 10
15.48511865002255
 20
193.5209174218401
 30
0.0
 40
0.9998999999999796
 50
146.28080190837699
 51
303.7191980912736
  0
LINE
  5
5C0
  8
DATA
  6
CONTINUOUS
 62
     7
 10
32.098889999999912
 20
189.1367887717841
 30
0.0
 11
29.69912999999989
 21
189.1367887717841
 31
0.0
  0
LINE
  5
5C1
  8
DATA
  6
CONTINUOUS
 62
     7
 10
30.899009999999901
 20
190.3366687717841
 30
0.0
 11
30.899009999999901
 21
187.936908771784
 31
0.0
  0
CIRCLE
  5
5C2
  8
DATA
  6
CONTINUOUS
 62
     7
 10
11.100990000000071
 20
208.93480877178399
 30
0.0
 40
2.0
  0
LINE
  5
5C3
  8
DATA
  6
CONTINUOUS
 62
     7
 10
11.100990000000071
 20
210.134688771784
 30
0.0
 11
11.100990000000071
 21
207.73492877178401
 31
0.0
  0
LINE
  5
5C4
  8
DATA
  6
CONTINUOUS
 62
     7
 10
12.300869999999961
 20
208.93480877178399
 30
0.0
 11
9.9011099999999441
 21
208.93480877178399
 31
0.0
  0
ARC
  5
5C5
  8
DATA
  6
CONTINUOUS
 62
     7
 10
21.000000000000039
 20
199.03579877178399
 30
0.0
 40
8.0547288122634821
 50
231.99253003053931
 51
218.00746996911241
  0
TEXT
  5
5C6
  8
DATA
 62
     7
 10
-189.6400342798706
 20
216.1582748630276
 30
0.0
 40
3.4769777777777788
  1
IN A
 50
180.0
 11
-189.6400342798706
 21
212.68129708524981
 31
0.0
 73
     3
  0
TEXT
  5
5C7
  8
DATA
 62
     7
 10
-159.64003427987069
 20
216.1582748630276
 30
0.0
 40
3.057877777777779
  1
IN B
 50
180.0
  7
_______
 11
-159.64003427987069
 21
213.10039708524991
 31
0.0
 73
     3
  0
TEXT
  5
5C8
  8
DATA
 62
     7
 10
-123.5500251647405
 20
216.1582748630276
 30
0.0
 40
3.057877777777779
  1
OUT 1
 50
180.0
  7
_______
 11
-123.5500251647405
 21
213.10039708524991
 31
0.0
 73
     3
  0
TEXT
  5
5C9
  8
DATA
 62
     7
 10
-93.550025164740504
 20
216.1582748630276
 30
0.0
 40
3.057877777777779
  1
OUT 2
 50
180.0
  7
_______
 11
-93.550025164740504
 21
213.10039708524991
 31
0.0
 73
     3
  0
TEXT
  5
5CA
  8
DATA
 62
     7
 10
-63.550025164740497
 20
216.1582748630276
 30
0.0
 40
3.057877777777779
  1
OUT 3
 50
180.0
  7
_______
 11
-63.550025164740497
 21
213.10039708524991
 31
0.0
 73
     3
  0
TEXT
  5
5CB
  8
DATA
 62
     7
 10
-33.550025164740489
 20
216.1582748630276
 30
0.0
 40
3.057877777777779
  1
OUT 4
 50
180.0
  7
_______
 11
-33.550025164740489
 21
213.10039708524991
 31
0.0
 73
     3
  0
TEXT
  5
5CC
  8
DATA
 62
     7
 10
-3.5500251647404881
 20
216.1582748630276
 30
0.0
 40
3.057877777777779
  1
OUT 5
 50
180.0
  7
_______
 11
-3.550025164740489
 21
213.10039708524991
 31
0.0
 73
     3
  0
TEXT
  5
5CD
  8
DATA
 62
     7
 10
26.449974835259521
 20
216.1582748630276
 30
0.0
 40
3.057877777777779
  1
OUT 6
 50
180.0
  7
_______
 11
26.449974835259521
 21
213.10039708524991
 31
0.0
 73
     3
  0
TEXT
  5
5CE
  8
DATA
 62
     7
 10
116.0024147787823
 20
216.1582748630276
 30
0.0
 40
3.057877777777779
  1
LINK
 50
180.0
  7
_______
 11
116.0024147787823
 21
213.10039708524991
 31
0.0
 73
     3
  0
TEXT
  5
5CF
  8
DATA
 62
     7
 10
138.00205124877061
 20
216.1582748630276
 30
0.0
 40
3.057877777777779
  1
IN
 50
180.0
  7
_______
 11
138.00205124877061
 21
213.10039708524991
 31
0.0
 73
     3
  0
TEXT
  5
5D0
  8
DATA
 62
     7
 10
154.08502187559381
 20
208.2145880048345
 30
0.0
 40
2.7147352430555549
  1
RX
 50
180.0
  7
_______
 11
154.08502187559381
 21
205.49985276177901
 31
0.0
 73
     3
  0
TEXT
  5
5D1
  8
DATA
 62
     7
 10
154.08502187559381
 20
213.3353666491835
 30
0.0
 40
2.7147352430555549
  1
TX
 50
180.0
  7
_______
 11
154.08502187559381
 21
210.62063140612801
 31
0.0
 73
     3
  0
TEXT
  5
5D2
  8
DATA
 62
     7
 10
196.85641916537449
 20
210.20801538961101
 30
0.0
 40
3.057877777777779
  1
100-230V
 50
180.0
  7
_______
 11
196.85641916537449
 21
207.1501376118332
 31
0.0
 73
     3
  0
TEXT
  5
5D3
  8
DATA
 62
     7
 10
198.9967196927924
 20
215.30959243009059
 30
0.0
 40
2.7147352430555549
  1
30W-50-60Hz
 50
180.0
  7
_______
 11
198.9967196927924
 21
212.5948571870351
 31
0.0
 73
     3
  0
CIRCLE
  5
5D4
  8
DATA
  6
CONTINUOUS
 62
     7
 10
169.01002149394171
 20
195.0990674720716
 30
0.0
 40
2.9000000000000048
  0
LINE
  5
5D5
  8
DATA
  6
CONTINUOUS
 62
     7
 10
169.01002149394171
 20
193.55760508610879
 30
0.0
 11
169.01002149394171
 21
196.6405298580344
 31
0.0
  0
LINE
  5
5D6
  8
DATA
  6
CONTINUOUS
 62
     7
 10
167.4685591079789
 20
195.0990674720716
 30
0.0
 11
170.55148387990451
 21
195.0990674720716
 31
0.0
  0
CIRCLE
  5
5D7
  8
DATA
  6
CONTINUOUS
 62
     7
 10
209.01002149394171
 20
195.0990674720716
 30
0.0
 40
2.9000000000000048
  0
LINE
  5
5D8
  8
DATA
  6
CONTINUOUS
 62
     7
 10
209.01002149394171
 20
193.55760508610879
 30
0.0
 11
209.01002149394171
 21
196.6405298580344
 31
0.0
  0
LINE
  5
5D9
  8
DATA
  6
CONTINUOUS
 62
     7
 10
210.55148387990451
 20
195.0990674720716
 30
0.0
 11
207.4685591079789
 21
195.0990674720716
 31
0.0
  0
CIRCLE
  5
5DA
  8
DATA
  6
CONTINUOUS
 62
     7
 10
-81.500000000000014
 20
179.62265398923179
 30
0.0
 40
2.9000000000000048
  0
LINE
  5
5DB
  8
DATA
  6
CONTINUOUS
 62
     7
 10
-81.500000000000014
 20
178.08119160326899
 30
0.0
 11
-81.500000000000014
 21
181.1641163751946
 31
0.0
  0
LINE
  5
5DC
  8
DATA
  6
CONTINUOUS
 62
     7
 10
-83.041462385962816
 20
179.62265398923179
 30
0.0
 11
-79.958537614037212
 21
179.62265398923179
 31
0.0
  0
CIRCLE
  5
5DD
  8
DATA
  6
CONTINUOUS
 62
     7
 10
88.499999999999986
 20
179.62265398923179
 30
0.0
 40
2.9000000000000048
  0
LINE
  5
5DE
  8
DATA
  6
CONTINUOUS
 62
     7
 10
88.499999999999986
 20
178.08119160326899
 30
0.0
 11
88.499999999999986
 21
181.1641163751946
 31
0.0
  0
LINE
  5
5DF
  8
DATA
  6
CONTINUOUS
 62
     7
 10
90.041462385962774
 20
179.62265398923179
 30
0.0
 11
86.958537614037184
 21
179.62265398923179
 31
0.0
  0
CIRCLE
  5
5E0
  8
DATA
  6
CONTINUOUS
 62
     7
 10
-216.0
 20
209.75
 30
0.0
 40
1.899999999999977
  0
POLYLINE
  5
5E1
  8
DATA
  6
CONTINUOUS
 62
     7
 66
     1
 10
0.0
 20
0.0
 30
0.0
 70
     1
  0
VERTEX
  5
A2B
  8
DATA
  6
CONTINUOUS
 62
     7
 10
-216.0
 20
213.01666666666671
 30
0.0
  0
VERTEX
  5
A2C
  8
DATA
  6
CONTINUOUS
 62
     7
 10
-218.82901631902919
 20
211.3833333333333
 30
0.0
  0
VERTEX
  5
A2D
  8
DATA
  6
CONTINUOUS
 62
     7
 10
-218.82901631902919
 20
208.1166666666667
 30
0.0
  0
VERTEX
  5
A2E
  8
DATA
  6
CONTINUOUS
 62
     7
 10
-216.0
 20
206.48333333333329
 30
0.0
  0
VERTEX
  5
A2F
  8
DATA
  6
CONTINUOUS
 62
     7
 10
-213.17098368097081
 20
208.1166666666667
 30
0.0
  0
VERTEX
  5
A30
  8
DATA
  6
CONTINUOUS
 62
     7
 10
-213.17098368097081
 20
211.3833333333333
 30
0.0
  0
SEQEND
  5
A31
  8
DATA
  6
CONTINUOUS
 62
     7
  0
CIRCLE
  5
5EA
  8
DATA
  6
CONTINUOUS
 62
     7
 10
-216.0
 20
184.75
 30
0.0
 40
1.899999999999977
  0
POLYLINE
  5
5EB
  8
DATA
  6
CONTINUOUS
 62
     7
 66
     1
 10
0.0
 20
0.0
 30
0.0
 70
     1
  0
VERTEX
  5
A32
  8
DATA
  6
CONTINUOUS
 62
     7
 10
-216.0
 20
188.01666666666659
 30
0.0
  0
VERTEX
  5
A33
  8
DATA
  6
CONTINUOUS
 62
     7
 10
-218.82901631902919
 20
186.3833333333333
 30
0.0
  0
VERTEX
  5
A34
  8
DATA
  6
CONTINUOUS
 62
     7
 10
-218.82901631902919
 20
183.1166666666667
 30
0.0
  0
VERTEX
  5
A35
  8
DATA
  6
CONTINUOUS
 62
     7
 10
-216.0
 20
181.48333333333321
 30
0.0
  0
VERTEX
  5
A36
  8
DATA
  6
CONTINUOUS
 62
     7
 10
-213.17098368097081
 20
183.1166666666667
 30
0.0
  0
VERTEX
  5
A37
  8
DATA
  6
CONTINUOUS
 62
     7
 10
-213.17098368097081
 20
186.3833333333333
 30
0.0
  0
SEQEND
  5
A38
  8
DATA
  6
CONTINUOUS
 62
     7
  0
CIRCLE
  5
5F4
  8
DATA
  6
CONTINUOUS
 62
     7
 10
223.0
 20
209.75
 30
0.0
 40
1.899999999999977
  0
POLYLINE
  5
5F5
  8
DATA
  6
CONTINUOUS
 62
     7
 66
     1
 10
0.0
 20
0.0
 30
0.0
 70
     1
  0
VERTEX
  5
A39
  8
DATA
  6
CONTINUOUS
 62
     7
 10
223.0
 20
213.01666666666671
 30
0.0
  0
VERTEX
  5
A3A
  8
DATA
  6
CONTINUOUS
 62
     7
 10
225.82901631902919
 20
211.3833333333333
 30
0.0
  0
VERTEX
  5
A3B
  8
DATA
  6
CONTINUOUS
 62
     7
 10
225.82901631902919
 20
208.1166666666667
 30
0.0
  0
VERTEX
  5
A3C
  8
DATA
  6
CONTINUOUS
 62
     7
 10
223.0
 20
206.48333333333329
 30
0.0
  0
VERTEX
  5
A3D
  8
DATA
  6
CONTINUOUS
 62
     7
 10
220.17098368097081
 20
208.1166666666667
 30
0.0
  0
VERTEX
  5
A3E
  8
DATA
  6
CONTINUOUS
 62
     7
 10
220.17098368097081
 20
211.3833333333333
 30
0.0
  0
SEQEND
  5
A3F
  8
DATA
  6
CONTINUOUS
 62
     7
  0
CIRCLE
  5
5FE
  8
DATA
  6
CONTINUOUS
 62
     7
 10
223.0
 20
184.75
 30
0.0
 40
1.899999999999977
  0
POLYLINE
  5
5FF
  8
DATA
  6
CONTINUOUS
 62
     7
 66
     1
 10
0.0
 20
0.0
 30
0.0
 70
     1
  0
VERTEX
  5
A40
  8
DATA
  6
CONTINUOUS
 62
     7
 10
223.0
 20
188.01666666666659
 30
0.0
  0
VERTEX
  5
A41
  8
DATA
  6
CONTINUOUS
 62
     7
 10
225.82901631902919
 20
186.3833333333333
 30
0.0
  0
VERTEX
  5
A42
  8
DATA
  6
CONTINUOUS
 62
     7
 10
225.82901631902919
 20
183.1166666666667
 30
0.0
  0
VERTEX
  5
A43
  8
DATA
  6
CONTINUOUS
 62
     7
 10
223.0
 20
181.48333333333321
 30
0.0
  0
VERTEX
  5
A44
  8
DATA
  6
CONTINUOUS
 62
     7
 10
220.17098368097081
 20
183.1166666666667
 30
0.0
  0
VERTEX
  5
A45
  8
DATA
  6
CONTINUOUS
 62
     7
 10
220.17098368097081
 20
186.3833333333333
 30
0.0
  0
SEQEND
  5
A46
  8
DATA
  6
CONTINUOUS
 62
     7
  0
ARC
  5
608
  8
DATA
  6
CONTINUOUS
 62
     7
 10
-216.0
 20
-92.058826790701232
 30
0.0
 40
3.7500000000000342
 50
206.80654647953051
 51
333.19345352046929
  0
ARC
  5
609
  8
DATA
  6
CONTINUOUS
 62
     7
 10
223.0
 20
-92.058826790701147
 30
0.0
 40
3.749999999999988
 50
206.80654647954839
 51
333.19345352045161
  0
LINE
  5
60A
  8
DATA
  6
CONTINUOUS
 62
     7
 10
-217.90000000000001
 20
-82.550000000000026
 30
0.0
 11
-214.09999999999999
 21
-82.550000000000026
 31
0.0
  0
LINE
  5
60B
  8
DATA
  6
CONTINUOUS
 62
     7
 10
-217.90000000000001
 20
-84.550000000000026
 30
0.0
 11
-217.90000000000001
 21
-82.550000000000026
 31
0.0
  0
LINE
  5
60C
  8
DATA
  6
CONTINUOUS
 62
     7
 10
-214.09999999999999
 20
-82.550000000000026
 30
0.0
 11
-214.09999999999999
 21
-84.550000000000026
 31
0.0
  0
POLYLINE
  5
60D
  8
DATA
  6
CONTINUOUS
 62
     7
 66
     1
 10
0.0
 20
0.0
 30
0.0
 70
     1
  0
VERTEX
  5
A47
  8
DATA
  6
CONTINUOUS
 62
     7
 10
-218.80000000000001
 20
-84.550000000000026
 30
0.0
  0
VERTEX
  5
A48
  8
DATA
  6
CONTINUOUS
 62
     7
 10
-213.19999999999999
 20
-84.550000000000026
 30
0.0
  0
VERTEX
  5
A49
  8
DATA
  6
CONTINUOUS
 62
     7
 10
-213.19999999999999
 20
-89.550000000000026
 30
0.0
  0
VERTEX
  5
A4A
  8
DATA
  6
CONTINUOUS
 62
     7
 10
-218.80000000000001
 20
-89.550000000000026
 30
0.0
  0
SEQEND
  5
A4B
  8
DATA
  6
CONTINUOUS
 62
     7
  0
LINE
  5
614
  8
DATA
  6
CONTINUOUS
 62
     7
 10
-216.0
 20
-84.550000000000026
 30
0.0
 11
-216.0
 21
-89.550000000000026
 31
0.0
  0
LINE
  5
615
  8
DATA
  6
CONTINUOUS
 62
     7
 10
224.90000000000001
 20
-82.550000000000026
 30
0.0
 11
221.09999999999999
 21
-82.550000000000026
 31
0.0
  0
LINE
  5
616
  8
DATA
  6
CONTINUOUS
 62
     7
 10
224.90000000000001
 20
-84.550000000000026
 30
0.0
 11
224.90000000000001
 21
-82.550000000000026
 31
0.0
  0
LINE
  5
617
  8
DATA
  6
CONTINUOUS
 62
     7
 10
221.09999999999999
 20
-82.550000000000026
 30
0.0
 11
221.09999999999999
 21
-84.550000000000026
 31
0.0
  0
POLYLINE
  5
618
  8
DATA
  6
CONTINUOUS
 62
     7
 66
     1
 10
0.0
 20
0.0
 30
0.0
 70
     1
  0
VERTEX
  5
A4C
  8
DATA
  6
CONTINUOUS
 62
     7
 10
220.19999999999999
 20
-84.550000000000026
 30
0.0
  0
VERTEX
  5
A4D
  8
DATA
  6
CONTINUOUS
 62
     7
 10
225.80000000000001
 20
-84.550000000000026
 30
0.0
  0
VERTEX
  5
A4E
  8
DATA
  6
CONTINUOUS
 62
     7
 10
225.80000000000001
 20
-89.550000000000026
 30
0.0
  0
VERTEX
  5
A4F
  8
DATA
  6
CONTINUOUS
 62
     7
 10
220.19999999999999
 20
-89.550000000000026
 30
0.0
  0
SEQEND
  5
A50
  8
DATA
  6
CONTINUOUS
 62
     7
  0
LINE
  5
61F
  8
DATA
  6
CONTINUOUS
 62
     7
 10
223.0
 20
-84.550000000000026
 30
0.0
 11
223.0
 21
-89.550000000000026
 31
0.0
  0
ARC
  5
620
  8
DATA
  6
CONTINUOUS
 62
     7
 10
218.69196428571431
 20
-60.75
 30
0.0
 40
3.8080357142857242
 50
309.22418741780859
 51
50.775812582191413
  0
LINE
  5
621
  8
DATA
  6
CONTINUOUS
 62
     7
 10
221.09999999999999
 20
-57.800000000000011
 30
0.0
 11
220.0
 21
-57.800000000000011
 31
0.0
  0
LINE
  5
622
  8
DATA
  6
CONTINUOUS
 62
     7
 10
221.09999999999999
 20
-63.699999999999989
 30
0.0
 11
220.0
 21
-63.699999999999989
 31
0.0
  0
ARC
  5
623
  8
DATA
  6
CONTINUOUS
 62
     7
 10
218.69196428571431
 20
56.25
 30
0.0
 40
3.8080357142857242
 50
309.22418741780859
 51
50.775812582191413
  0
LINE
  5
624
  8
DATA
  6
CONTINUOUS
 62
     7
 10
221.09999999999999
 20
59.199999999999989
 30
0.0
 11
220.0
 21
59.199999999999989
 31
0.0
  0
LINE
  5
625
  8
DATA
  6
CONTINUOUS
 62
     7
 10
221.09999999999999
 20
53.300000000000011
 30
0.0
 11
220.0
 21
53.300000000000011
 31
0.0
  0
ARC
  5
626
  8
DATA
  6
CONTINUOUS
 62
     7
 10
-211.69196428571431
 20
-60.75
 30
0.0
 40
3.8080357142857242
 50
129.22418741780859
 51
230.77581258219129
  0
LINE
  5
627
  8
DATA
  6
CONTINUOUS
 62
     7
 10
-214.09999999999999
 20
-57.800000000000011
 30
0.0
 11
-213.0
 21
-57.800000000000011
 31
0.0
  0
LINE
  5
628
  8
DATA
  6
CONTINUOUS
 62
     7
 10
-214.09999999999999
 20
-63.699999999999989
 30
0.0
 11
-213.0
 21
-63.699999999999989
 31
0.0
  0
ARC
  5
629
  8
DATA
  6
CONTINUOUS
 62
     7
 10
-211.69196428571431
 20
56.25
 30
0.0
 40
3.8080357142857242
 50
129.22418741780859
 51
230.77581258219129
  0
LINE
  5
62A
  8
DATA
  6
CONTINUOUS
 62
     7
 10
-214.09999999999999
 20
59.199999999999989
 30
0.0
 11
-213.0
 21
59.199999999999989
 31
0.0
  0
LINE
  5
62B
  8
DATA
  6
CONTINUOUS
 62
     7
 10
-214.09999999999999
 20
53.300000000000011
 30
0.0
 11
-213.0
 21
53.300000000000011
 31
0.0
  0
LINE
  5
62C
  8
DATA
  6
CONTINUOUS
 62
     7
 10
218.90000000000001
 20
184.40000000000001
 30
0.0
 11
218.90000000000001
 21
219.0
 31
0.0
  0
LINE
  5
62D
  8
DATA
  6
CONTINUOUS
 62
     7
 10
-211.90000000000001
 20
184.40000000000001
 30
0.0
 11
-211.90000000000001
 21
219.0
 31
0.0
  0
ARC
  5
62E
  8
DATA
  6
CONTINUOUS
 62
     7
 10
-211.69196428571431
 20
179.30699625912169
 30
0.0
 40
3.8080357142857291
 50
129.22418741780851
 51
230.77581258219121
  0
LINE
  5
62F
  8
DATA
  6
CONTINUOUS
 62
     7
 10
-214.09999999999999
 20
182.25699625912171
 30
0.0
 11
-213.0
 21
182.25699625912171
 31
0.0
  0
LINE
  5
630
  8
DATA
  6
CONTINUOUS
 62
     7
 10
-214.09999999999999
 20
176.3569962591217
 30
0.0
 11
-213.0
 21
176.3569962591217
 31
0.0
  0
ARC
  5
631
  8
DATA
  6
CONTINUOUS
 62
     7
 10
218.69196428571431
 20
179.30699625912169
 30
0.0
 40
3.8080357142857189
 50
309.22418741780882
 51
50.775812582191449
  0
LINE
  5
632
  8
DATA
  6
CONTINUOUS
 62
     7
 10
221.09999999999999
 20
182.25699625912171
 30
0.0
 11
220.0
 21
182.25699625912171
 31
0.0
  0
LINE
  5
633
  8
DATA
  6
CONTINUOUS
 62
     7
 10
221.09999999999999
 20
176.3569962591217
 30
0.0
 11
220.0
 21
176.3569962591217
 31
0.0
  0
ARC
  5
634
  8
DATA
  6
CONTINUOUS
 62
     7
 10
-81.500000000000014
 20
85.928157254301453
 30
0.0
 40
3.8080357142857242
 50
39.224187417808622
 51
140.77581258219141
  0
LINE
  5
635
  8
DATA
  6
CONTINUOUS
 62
     7
 10
-78.550000000000026
 20
88.336192968587213
 30
0.0
 11
-78.550000000000026
 21
87.249999999999986
 31
0.0
  0
LINE
  5
636
  8
DATA
  6
CONTINUOUS
 62
     7
 10
-84.450000000000003
 20
88.336192968587213
 30
0.0
 11
-84.450000000000003
 21
87.249999999999986
 31
0.0
  0
ARC
  5
637
  8
DATA
  6
CONTINUOUS
 62
     7
 10
88.499999999999986
 20
85.928157254301453
 30
0.0
 40
3.8080357142857242
 50
39.224187417808622
 51
140.77581258219141
  0
LINE
  5
638
  8
DATA
  6
CONTINUOUS
 62
     7
 10
85.549999999999969
 20
88.336192968587213
 30
0.0
 11
85.549999999999969
 21
87.249999999999986
 31
0.0
  0
LINE
  5
639
  8
DATA
  6
CONTINUOUS
 62
     7
 10
91.44999999999996
 20
88.336192968587213
 30
0.0
 11
91.44999999999996
 21
87.249999999999986
 31
0.0
  0
LINE
  5
63A
  8
DATA
  6
CONTINUOUS
 62
     7
 10
-198.99999500000001
 20
91.25
 30
0.0
 11
-189.0000049999997
 21
91.25
 31
0.0
  0
LINE
  5
63B
  8
DATA
  6
CONTINUOUS
 62
     7
 10
-198.99999500000001
 20
91.25
 30
0.0
 11
-198.99999500000001
 21
90.25
 31
0.0
  0
LINE
  5
63C
  8
DATA
  6
CONTINUOUS
 62
     7
 10
-189.0000049999997
 20
91.25
 30
0.0
 11
-189.0000049999997
 21
90.25
 31
0.0
  0
LINE
  5
63D
  8
DATA
  6
CONTINUOUS
 62
     7
 10
-198.99999500000001
 20
90.25
 30
0.0
 11
-189.0000049999997
 21
90.25
 31
0.0
  0
LINE
  5
63E
  8
DATA
  6
CONTINUOUS
 62
     7
 10
-196.44999999999999
 20
87.249999999999986
 30
0.0
 11
-196.44999999999999
 21
90.25
 31
0.0
  0
LINE
  5
63F
  8
DATA
  6
CONTINUOUS
 62
     7
 10
-191.5499999999999
 20
90.25
 30
0.0
 11
-191.5499999999999
 21
87.249999999999986
 31
0.0
  0
LINE
  5
640
  8
DATA
  6
CONTINUOUS
 62
     7
 10
-168.99999500000001
 20
91.25
 30
0.0
 11
-159.0000049999997
 21
91.25
 31
0.0
  0
LINE
  5
641
  8
DATA
  6
CONTINUOUS
 62
     7
 10
-168.99999500000001
 20
91.25
 30
0.0
 11
-168.99999500000001
 21
90.25
 31
0.0
  0
LINE
  5
642
  8
DATA
  6
CONTINUOUS
 62
     7
 10
-159.0000049999997
 20
91.25
 30
0.0
 11
-159.0000049999997
 21
90.25
 31
0.0
  0
LINE
  5
643
  8
DATA
  6
CONTINUOUS
 62
     7
 10
-168.99999500000001
 20
90.25
 30
0.0
 11
-159.0000049999997
 21
90.25
 31
0.0
  0
LINE
  5
644
  8
DATA
  6
CONTINUOUS
 62
     7
 10
-166.44999999999999
 20
87.249999999999986
 30
0.0
 11
-166.44999999999999
 21
90.25
 31
0.0
  0
LINE
  5
645
  8
DATA
  6
CONTINUOUS
 62
     7
 10
-161.5499999999999
 20
90.25
 30
0.0
 11
-161.5499999999999
 21
87.249999999999986
 31
0.0
  0
LINE
  5
646
  8
DATA
  6
CONTINUOUS
 62
     7
 10
107.04000499999999
 20
91.25
 30
0.0
 11
117.0399950000002
 21
91.25
 31
0.0
  0
LINE
  5
647
  8
DATA
  6
CONTINUOUS
 62
     7
 10
107.04000499999999
 20
91.25
 30
0.0
 11
107.04000499999999
 21
90.25
 31
0.0
  0
LINE
  5
648
  8
DATA
  6
CONTINUOUS
 62
     7
 10
117.0399950000002
 20
91.25
 30
0.0
 11
117.0399950000002
 21
90.25
 31
0.0
  0
LINE
  5
649
  8
DATA
  6
CONTINUOUS
 62
     7
 10
107.04000499999999
 20
90.25
 30
0.0
 11
117.0399950000002
 21
90.25
 31
0.0
  0
LINE
  5
64A
  8
DATA
  6
CONTINUOUS
 62
     7
 10
109.59
 20
87.249999999999986
 30
0.0
 11
109.59
 21
90.25
 31
0.0
  0
LINE
  5
64B
  8
DATA
  6
CONTINUOUS
 62
     7
 10
114.48999999999999
 20
90.25
 30
0.0
 11
114.48999999999999
 21
87.249999999999986
 31
0.0
  0
LINE
  5
64C
  8
DATA
  6
CONTINUOUS
 62
     7
 10
131.04000500000001
 20
91.25
 30
0.0
 11
141.0399950000002
 21
91.25
 31
0.0
  0
LINE
  5
64D
  8
DATA
  6
CONTINUOUS
 62
     7
 10
131.04000500000001
 20
91.25
 30
0.0
 11
131.04000500000001
 21
90.25
 31
0.0
  0
LINE
  5
64E
  8
DATA
  6
CONTINUOUS
 62
     7
 10
141.0399950000002
 20
91.25
 30
0.0
 11
141.0399950000002
 21
90.25
 31
0.0
  0
LINE
  5
64F
  8
DATA
  6
CONTINUOUS
 62
     7
 10
131.04000500000001
 20
90.25
 30
0.0
 11
141.0399950000002
 21
90.25
 31
0.0
  0
LINE
  5
650
  8
DATA
  6
CONTINUOUS
 62
     7
 10
133.59
 20
87.249999999999986
 30
0.0
 11
133.59
 21
90.25
 31
0.0
  0
LINE
  5
651
  8
DATA
  6
CONTINUOUS
 62
     7
 10
138.49000000000001
 20
90.25
 30
0.0
 11
138.49000000000001
 21
87.249999999999986
 31
0.0
  0
LINE
  5
652
  8
DATA
  6
CONTINUOUS
 62
     7
 10
56.526558419993457
 20
90.750000000000014
 30
0.0
 11
56.526558419993457
 21
87.249999999999986
 31
0.0
  0
LINE
  5
653
  8
DATA
  6
CONTINUOUS
 62
     7
 10
49.751075301679727
 20
90.750000000000014
 30
0.0
 11
49.751075301679727
 21
87.249999999999986
 31
0.0
  0
LINE
  5
654
  8
DATA
  6
CONTINUOUS
 62
     7
 10
55.182642855679653
 20
90.750000000000014
 30
0.0
 11
55.182642855679653
 21
87.249999999999986
 31
0.0
  0
LINE
  5
655
  8
DATA
  6
CONTINUOUS
 62
     7
 10
73.411859078679711
 20
90.750000000000014
 30
0.0
 11
73.411859078679711
 21
87.249999999999986
 31
0.0
  0
LINE
  5
656
  8
DATA
  6
CONTINUOUS
 62
     7
 10
74.741075301679942
 20
90.750000000000014
 30
0.0
 11
74.741075301679942
 21
87.249999999999986
 31
0.0
  0
LINE
  5
657
  8
DATA
  6
CONTINUOUS
 62
     7
 10
80.172642855679655
 20
90.750000000000014
 30
0.0
 11
80.172642855679655
 21
87.249999999999986
 31
0.0
  0
LINE
  5
658
  8
DATA
  6
CONTINUOUS
 62
     7
 10
44.200000000000003
 20
87.249999999999986
 30
0.0
 11
81.900000000000006
 21
87.249999999999986
 31
0.0
  0
LINE
  5
659
  8
DATA
  6
CONTINUOUS
 62
     7
 10
49.751075301679727
 20
90.750000000000014
 30
0.0
 11
55.182642855679653
 21
90.750000000000014
 31
0.0
  0
LINE
  5
65A
  8
DATA
  6
CONTINUOUS
 62
     7
 10
56.526558419993457
 20
90.750000000000014
 30
0.0
 11
73.411859078679711
 21
90.750000000000014
 31
0.0
  0
LINE
  5
65B
  8
DATA
  6
CONTINUOUS
 62
     7
 10
74.741075301679942
 20
90.750000000000014
 30
0.0
 11
80.172642855679655
 21
90.750000000000014
 31
0.0
  0
POLYLINE
  5
65C
  8
DATA
  6
CONTINUOUS
 62
     7
 66
     1
 10
0.0
 20
0.0
 30
0.0
 70
     1
  0
VERTEX
  5
A51
  8
DATA
  6
CONTINUOUS
 62
     7
 10
-75.000000000000014
 20
-78.75
 30
0.0
  0
VERTEX
  5
A52
  8
DATA
  6
CONTINUOUS
 62
     7
 10
-63.000000000000021
 20
-78.75
 30
0.0
  0
VERTEX
  5
A53
  8
DATA
  6
CONTINUOUS
 62
     7
 10
-63.000000000000021
 20
-81.75
 30
0.0
  0
VERTEX
  5
A54
  8
DATA
  6
CONTINUOUS
 62
     7
 10
-75.000000000000014
 20
-81.75
 30
0.0
  0
SEQEND
  5
A55
  8
DATA
  6
CONTINUOUS
 62
     7
  0
POLYLINE
  5
663
  8
DATA
  6
CONTINUOUS
 62
     7
 66
     1
 10
0.0
 20
0.0
 30
0.0
 70
     1
  0
VERTEX
  5
A56
  8
DATA
  6
CONTINUOUS
 62
     7
 10
69.999999999999986
 20
-78.75
 30
0.0
  0
VERTEX
  5
A57
  8
DATA
  6
CONTINUOUS
 62
     7
 10
81.999999999999986
 20
-78.75
 30
0.0
  0
VERTEX
  5
A58
  8
DATA
  6
CONTINUOUS
 62
     7
 10
81.999999999999986
 20
-81.75
 30
0.0
  0
VERTEX
  5
A59
  8
DATA
  6
CONTINUOUS
 62
     7
 10
69.999999999999986
 20
-81.75
 30
0.0
  0
SEQEND
  5
A5A
  8
DATA
  6
CONTINUOUS
 62
     7
  0
LINE
  5
66A
  8
DATA
  6
CONTINUOUS
 62
     7
 10
306.25
 20
-206.25
 30
0.0
 11
309.25
 21
-206.25
 31
0.0
  0
LINE
  5
66B
  8
DATA
  6
CONTINUOUS
 62
     7
 10
306.25
 20
-161.75
 30
0.0
 11
487.25
 21
-161.75
 31
0.0
  0
LINE
  5
66C
  8
DATA
  6
CONTINUOUS
 62
     7
 10
306.25
 20
-206.25
 30
0.0
 11
306.25
 21
-161.75
 31
0.0
  0
LINE
  5
66D
  8
DATA
  6
CONTINUOUS
 62
     7
 10
487.25
 20
-171.14999999999989
 30
0.0
 11
487.25
 21
-161.75
 31
0.0
  0
LINE
  5
66E
  8
DATA
  6
CONTINUOUS
 62
     7
 10
309.25
 20
-206.25
 30
0.0
 11
309.25
 21
-161.75
 31
0.0
  0
LINE
  5
66F
  8
DATA
  6
CONTINUOUS
 62
     7
 10
309.25
 20
-205.75
 30
0.0
 11
485.74999999999989
 21
-205.75
 31
0.0
  0
LINE
  5
670
  8
DATA
  6
CONTINUOUS
 62
     7
 10
487.25
 20
-171.14999999999989
 30
0.0
 11
485.74999999999989
 21
-171.14999999999989
 31
0.0
  0
LINE
  5
671
  8
DATA
  6
CONTINUOUS
 62
     7
 10
485.74999999999989
 20
-171.14999999999989
 30
0.0
 11
485.74999999999989
 21
-205.75
 31
0.0
  0
LINE
  5
672
  8
DATA
  6
CONTINUOUS
 62
     7
 10
485.74999999999989
 20
-171.14999999999989
 30
0.0
 11
319.15000000000009
 21
-171.14999999999989
 31
0.0
  0
LINE
  5
673
  8
DATA
  6
CONTINUOUS
 62
     7
 10
336.03775368410322
 20
-177.45213662348141
 30
0.0
 11
321.63775368410319
 21
-177.45213662348141
 31
0.0
  0
LINE
  5
674
  8
DATA
  6
CONTINUOUS
 62
     7
 10
321.63775368410319
 20
-173.1521366234814
 30
0.0
 11
336.03775368410322
 21
-173.1521366234814
 31
0.0
  0
ARC
  5
675
  8
DATA
  6
CONTINUOUS
 62
     7
 10
321.63775368410319
 20
-175.30213662348129
 30
0.0
 40
2.1499999999999768
 50
89.999999999997726
 51
270.00000000000227
  0
ARC
  5
676
  8
DATA
  6
CONTINUOUS
 62
     7
 10
336.03775368410322
 20
-175.30213662348129
 30
0.0
 40
2.1499999999999768
 50
269.99999999999773
 51
90.000000000002302
  0
LINE
  5
677
  8
DATA
  6
CONTINUOUS
 62
     7
 10
364.03775368410322
 20
-177.45213662348141
 30
0.0
 11
349.63775368410319
 21
-177.45213662348141
 31
0.0
  0
LINE
  5
678
  8
DATA
  6
CONTINUOUS
 62
     7
 10
349.63775368410319
 20
-173.1521366234814
 30
0.0
 11
364.03775368410322
 21
-173.1521366234814
 31
0.0
  0
ARC
  5
679
  8
DATA
  6
CONTINUOUS
 62
     7
 10
349.63775368410319
 20
-175.30213662348129
 30
0.0
 40
2.1499999999999768
 50
89.999999999997726
 51
270.00000000000227
  0
ARC
  5
67A
  8
DATA
  6
CONTINUOUS
 62
     7
 10
364.03775368410322
 20
-175.30213662348129
 30
0.0
 40
2.1499999999999768
 50
269.99999999999852
 51
90.000000000001506
  0
LINE
  5
67B
  8
DATA
  6
CONTINUOUS
 62
     7
 10
392.0377536841026
 20
-177.45213662348141
 30
0.0
 11
377.63775368410251
 21
-177.45213662348141
 31
0.0
  0
LINE
  5
67C
  8
DATA
  6
CONTINUOUS
 62
     7
 10
377.63775368410251
 20
-173.1521366234814
 30
0.0
 11
392.0377536841026
 21
-173.1521366234814
 31
0.0
  0
ARC
  5
67D
  8
DATA
  6
CONTINUOUS
 62
     7
 10
377.63775368410251
 20
-175.30213662348129
 30
0.0
 40
2.1499999999999768
 50
89.999999999998494
 51
270.00000000000159
  0
ARC
  5
67E
  8
DATA
  6
CONTINUOUS
 62
     7
 10
392.0377536841026
 20
-175.30213662348129
 30
0.0
 40
2.1499999999999768
 50
269.99999999999687
 51
90.000000000003013
  0
LINE
  5
67F
  8
DATA
  6
CONTINUOUS
 62
     7
 10
420.0377536841026
 20
-177.45213662348141
 30
0.0
 11
405.63775368410251
 21
-177.45213662348141
 31
0.0
  0
LINE
  5
680
  8
DATA
  6
CONTINUOUS
 62
     7
 10
405.63775368410251
 20
-173.1521366234814
 30
0.0
 11
420.0377536841026
 21
-173.1521366234814
 31
0.0
  0
ARC
  5
681
  8
DATA
  6
CONTINUOUS
 62
     7
 10
405.63775368410251
 20
-175.30213662348129
 30
0.0
 40
2.1499999999999768
 50
89.999999999998494
 51
270.00000000000159
  0
ARC
  5
682
  8
DATA
  6
CONTINUOUS
 62
     7
 10
420.0377536841026
 20
-175.30213662348129
 30
0.0
 40
2.1499999999999768
 50
269.99999999999687
 51
90.000000000003013
  0
LINE
  5
683
  8
DATA
  6
CONTINUOUS
 62
     7
 10
448.0377536841026
 20
-177.45213662348141
 30
0.0
 11
433.63775368410251
 21
-177.45213662348141
 31
0.0
  0
LINE
  5
684
  8
DATA
  6
CONTINUOUS
 62
     7
 10
433.63775368410251
 20
-173.1521366234814
 30
0.0
 11
448.0377536841026
 21
-173.1521366234814
 31
0.0
  0
ARC
  5
685
  8
DATA
  6
CONTINUOUS
 62
     7
 10
433.63775368410251
 20
-175.30213662348129
 30
0.0
 40
2.1499999999999768
 50
89.999999999998494
 51
270.00000000000159
  0
ARC
  5
686
  8
DATA
  6
CONTINUOUS
 62
     7
 10
448.0377536841026
 20
-175.30213662348129
 30
0.0
 40
2.1499999999999768
 50
269.99999999999687
 51
90.000000000003013
  0
LINE
  5
687
  8
DATA
  6
CONTINUOUS
 62
     7
 10
476.0377536841026
 20
-177.45213662348141
 30
0.0
 11
461.63775368410239
 21
-177.45213662348141
 31
0.0
  0
LINE
  5
688
  8
DATA
  6
CONTINUOUS
 62
     7
 10
461.63775368410239
 20
-173.1521366234814
 30
0.0
 11
476.0377536841026
 21
-173.1521366234814
 31
0.0
  0
ARC
  5
689
  8
DATA
  6
CONTINUOUS
 62
     7
 10
461.63775368410239
 20
-175.30213662348129
 30
0.0
 40
2.1499999999999768
 50
89.999999999998494
 51
270.00000000000159
  0
ARC
  5
68A
  8
DATA
  6
CONTINUOUS
 62
     7
 10
476.0377536841026
 20
-175.30213662348129
 30
0.0
 40
2.1499999999999768
 50
269.99999999999687
 51
90.000000000003013
  0
CIRCLE
  5
68B
  8
DATA
  6
CONTINUOUS
 62
     7
 10
339.25
 20
-166.35614847967861
 30
0.0
 40
2.9000000000000048
  0
LINE
  5
68C
  8
DATA
  6
CONTINUOUS
 62
     7
 10
339.25
 20
-167.89761086564141
 30
0.0
 11
339.25
 21
-164.81468609371581
 31
0.0
  0
LINE
  5
68D
  8
DATA
  6
CONTINUOUS
 62
     7
 10
337.7085376140372
 20
-166.35614847967861
 30
0.0
 11
340.7914623859628
 21
-166.35614847967861
 31
0.0
  0
CIRCLE
  5
68E
  8
DATA
  6
CONTINUOUS
 62
     7
 10
456.25
 20
-166.35614847967861
 30
0.0
 40
2.8999999999999768
  0
LINE
  5
68F
  8
DATA
  6
CONTINUOUS
 62
     7
 10
456.25
 20
-167.89761086564141
 30
0.0
 11
456.25
 21
-164.81468609371581
 31
0.0
  0
LINE
  5
690
  8
DATA
  6
CONTINUOUS
 62
     7
 10
454.7085376140372
 20
-166.35614847967861
 30
0.0
 11
457.79146238596269
 21
-166.35614847967861
 31
0.0
  0
ARC
  5
691
  8
DATA
  6
CONTINUOUS
 62
     7
 10
307.94219324132268
 20
-171.49700361161291
 30
0.0
 40
3.75
 50
116.82400927258379
 51
243.17599072741581
  0
LINE
  5
692
  8
DATA
  6
CONTINUOUS
 62
     7
 10
317.45102003202391
 20
-173.39700361161289
 30
0.0
 11
317.45102003202391
 21
-169.59700361161291
 31
0.0
  0
LINE
  5
693
  8
DATA
  6
CONTINUOUS
 62
     7
 10
315.45102003202391
 20
-173.39700361161289
 30
0.0
 11
317.45102003202391
 21
-173.39700361161289
 31
0.0
  0
LINE
  5
694
  8
DATA
  6
CONTINUOUS
 62
     7
 10
317.45102003202391
 20
-169.59700361161291
 30
0.0
 11
315.45102003202391
 21
-169.59700361161291
 31
0.0
  0
POLYLINE
  5
695
  8
DATA
  6
CONTINUOUS
 62
     7
 66
     1
 10
0.0
 20
0.0
 30
0.0
 70
     1
  0
VERTEX
  5
A5B
  8
DATA
  6
CONTINUOUS
 62
     7
 10
310.45102003202391
 20
-168.6970036116129
 30
0.0
  0
VERTEX
  5
A5C
  8
DATA
  6
CONTINUOUS
 62
     7
 10
315.45102003202391
 20
-168.6970036116129
 30
0.0
  0
VERTEX
  5
A5D
  8
DATA
  6
CONTINUOUS
 62
     7
 10
315.45102003202391
 20
-174.29700361161301
 30
0.0
  0
VERTEX
  5
A5E
  8
DATA
  6
CONTINUOUS
 62
     7
 10
310.45102003202391
 20
-174.29700361161301
 30
0.0
  0
SEQEND
  5
A5F
  8
DATA
  6
CONTINUOUS
 62
     7
  0
LINE
  5
69C
  8
DATA
  6
CONTINUOUS
 62
     7
 10
315.45102003202391
 20
-171.49700361161291
 30
0.0
 11
310.45102003202391
 21
-171.49700361161291
 31
0.0
  0
LINE
  5
69D
  8
DATA
  6
CONTINUOUS
 62
     7
 10
319.15000000000009
 20
-171.14999999999989
 30
0.0
 11
319.15000000000009
 21
-165.5
 31
0.0
  0
LINE
  5
69E
  8
DATA
  6
CONTINUOUS
 62
     7
 10
319.15000000000009
 20
-165.5
 30
0.0
 11
311.2295355188524
 21
-165.5
 31
0.0
  0
LINE
  5
69F
  8
DATA
  6
CONTINUOUS
 62
     7
 10
311.2295355188524
 20
-165.5
 30
0.0
 11
311.2295355188524
 21
-161.75
 31
0.0
  0
LINE
  5
6A0
  8
DATA
  6
CONTINUOUS
 62
     7
 10
310.45102003202391
 20
-205.40000000000001
 30
0.0
 11
310.45102003202391
 21
-162.59999999999999
 31
0.0
  0
LINE
  5
6A1
  8
DATA
  6
CONTINUOUS
 62
     7
 10
310.45102003202391
 20
-205.40000000000001
 30
0.0
 11
309.25
 21
-205.40000000000001
 31
0.0
  0
LINE
  5
6A2
  8
DATA
  6
CONTINUOUS
 62
     7
 10
310.45102003202391
 20
-162.59999999999999
 30
0.0
 11
309.25
 21
-162.59999999999999
 31
0.0
  0
ARC
  5
6A3
  8
DATA
  6
CONTINUOUS
 62
     7
 10
307.94219324132268
 20
-196.49700361161291
 30
0.0
 40
3.75
 50
116.82400927258379
 51
243.17599072741581
  0
LINE
  5
6A4
  8
DATA
  6
CONTINUOUS
 62
     7
 10
317.45102003202391
 20
-198.39700361161289
 30
0.0
 11
317.45102003202391
 21
-194.59700361161291
 31
0.0
  0
LINE
  5
6A5
  8
DATA
  6
CONTINUOUS
 62
     7
 10
315.45102003202391
 20
-198.39700361161289
 30
0.0
 11
317.45102003202391
 21
-198.39700361161289
 31
0.0
  0
LINE
  5
6A6
  8
DATA
  6
CONTINUOUS
 62
     7
 10
317.45102003202391
 20
-194.59700361161291
 30
0.0
 11
315.45102003202391
 21
-194.59700361161291
 31
0.0
  0
POLYLINE
  5
6A7
  8
DATA
  6
CONTINUOUS
 62
     7
 66
     1
 10
0.0
 20
0.0
 30
0.0
 70
     1
  0
VERTEX
  5
A60
  8
DATA
  6
CONTINUOUS
 62
     7
 10
310.45102003202391
 20
-193.6970036116129
 30
0.0
  0
VERTEX
  5
A61
  8
DATA
  6
CONTINUOUS
 62
     7
 10
315.45102003202391
 20
-193.6970036116129
 30
0.0
  0
VERTEX
  5
A62
  8
DATA
  6
CONTINUOUS
 62
     7
 10
315.45102003202391
 20
-199.29700361161301
 30
0.0
  0
VERTEX
  5
A63
  8
DATA
  6
CONTINUOUS
 62
     7
 10
310.45102003202391
 20
-199.29700361161301
 30
0.0
  0
SEQEND
  5
A64
  8
DATA
  6
CONTINUOUS
 62
     7
  0
LINE
  5
6AE
  8
DATA
  6
CONTINUOUS
 62
     7
 10
315.45102003202391
 20
-196.49700361161291
 30
0.0
 11
310.45102003202391
 21
-196.49700361161291
 31
0.0
  0
LINE
  5
6AF
  8
DATA
  6
CONTINUOUS
 62
     7
 10
306.25
 20
-185.75
 30
0.0
 11
304.25
 21
-185.75
 31
0.0
  0
LINE
  5
6B0
  8
DATA
  6
CONTINUOUS
 62
     7
 10
304.623989151606
 20
-194.75
 30
0.0
 11
304.25
 21
-194.75
 31
0.0
  0
LINE
  5
6B1
  8
DATA
  6
CONTINUOUS
 62
     7
 10
304.25
 20
-194.75
 30
0.0
 11
304.25
 21
-185.75
 31
0.0
  0
ARC
  5
6B2
  8
DATA
  6
CONTINUOUS
 62
     7
 10
306.42514620643749
 20
-181.75
 30
0.0
 40
1.2999999999999829
 50
97.74288313653372
 51
262.25711686346631
  0
ARC
  5
6B3
  8
DATA
  6
CONTINUOUS
 62
     7
 10
306.30570860942771
 20
-176.75
 30
0.0
 40
1.30000000000001
 50
92.456035318720055
 51
267.54396468127987
  0
LINE
  5
6B4
  8
DATA
  6
CONTINUOUS
 62
     7
 10
295.25
 20
-188.40000000000001
 30
0.0
 11
295.25
 21
-179.59999999999999
 31
0.0
  0
LINE
  5
6B5
  8
DATA
  6
CONTINUOUS
 62
     7
 10
295.25
 20
-179.59999999999999
 30
0.0
 11
306.25
 21
-178.34999999999999
 31
0.0
  0
LINE
  5
6B6
  8
DATA
  6
CONTINUOUS
 62
     7
 10
295.25
 20
-188.40000000000001
 30
0.0
 11
304.25
 21
-189.4227272727272
 31
0.0
  0
ARC
  5
6B7
  8
DATA
  6
CONTINUOUS
 62
     7
 10
485.8846981469506
 20
-166.35671879223631
 30
0.0
 40
3.8080357142857242
 50
309.22418741780859
 51
50.775812582191413
  0
LINE
  5
6B8
  8
DATA
  6
CONTINUOUS
 62
     7
 10
488.29273386123629
 20
-163.40671879223629
 30
0.0
 11
487.25
 21
-163.40671879223629
 31
0.0
  0
LINE
  5
6B9
  8
DATA
  6
CONTINUOUS
 62
     7
 10
488.29273386123629
 20
-169.3067187922363
 30
0.0
 11
487.25
 21
-169.3067187922363
 31
0.0
  0
ARC
  5
6BA
  8
DATA
  6
CONTINUOUS
 62
     7
 10
484.30974688660717
 20
-181.75
 30
0.0
 40
3.8080357142857242
 50
309.22418741780859
 51
50.775812582191413
  0
LINE
  5
6BB
  8
DATA
  6
CONTINUOUS
 62
     7
 10
486.71778260089292
 20
-178.80000000000001
 30
0.0
 11
485.74999999999989
 21
-178.80000000000001
 31
0.0
  0
LINE
  5
6BC
  8
DATA
  6
CONTINUOUS
 62
     7
 10
486.71778260089292
 20
-184.69999999999999
 30
0.0
 11
485.74999999999989
 21
-184.69999999999999
 31
0.0
  0
LINE
  5
6BD
  8
DATA
  6
CONTINUOUS
 62
     7
 10
491.25
 20
-171.5454496724935
 30
0.0
 11
491.25
 21
-166.24544967249341
 31
0.0
  0
LINE
  5
6BE
  8
DATA
  6
CONTINUOUS
 62
     7
 10
490.24999999999989
 20
-170.54544967249339
 30
0.0
 11
490.24999999999989
 21
-166.24544967249341
 31
0.0
  0
LINE
  5
6BF
  8
DATA
  6
CONTINUOUS
 62
     7
 10
490.24999999999989
 20
-166.24544967249341
 30
0.0
 11
491.25
 21
-166.24544967249341
 31
0.0
  0
LINE
  5
6C0
  8
DATA
  6
CONTINUOUS
 62
     7
 10
485.74999999999989
 20
-173.0454496724935
 30
0.0
 11
487.75
 21
-173.0454496724935
 31
0.0
  0
LINE
  5
6C1
  8
DATA
  6
CONTINUOUS
 62
     7
 10
485.74999999999989
 20
-174.04544967249339
 30
0.0
 11
488.75
 21
-174.04544967249339
 31
0.0
  0
ARC
  5
6C2
  8
DATA
  6
CONTINUOUS
 62
     7
 10
487.75
 20
-170.54544967249339
 30
0.0
 40
2.5
 50
270.0
 51
0.0
  0
ARC
  5
6C3
  8
DATA
  6
CONTINUOUS
 62
     7
 10
488.75
 20
-171.5454496724935
 30
0.0
 40
2.5
 50
270.0
 51
0.0
  0
LINE
  5
6C4
  8
DATA
  6
CONTINUOUS
 62
     7
 10
490.74999999999989
 20
-187.75
 30
0.0
 11
490.74999999999989
 21
-196.15000000000001
 31
0.0
  0
LINE
  5
6C5
  8
DATA
  6
CONTINUOUS
 62
     7
 10
485.74999999999989
 20
-187.75
 30
0.0
 11
490.74999999999989
 21
-187.75
 31
0.0
  0
LINE
  5
6C6
  8
DATA
  6
CONTINUOUS
 62
     7
 10
485.74999999999989
 20
-196.15000000000001
 30
0.0
 11
490.74999999999989
 21
-196.15000000000001
 31
0.0
  0
LINE
  5
6C7
  8
DATA
  6
CONTINUOUS
 62
     7
 10
490.74999999999989
 20
-191.94999999999999
 30
0.0
 11
485.74999999999989
 21
-191.94999999999999
 31
0.0
  0
LINE
  5
6C8
  8
DATA
  6
CONTINUOUS
 62
     7
 10
490.74999999999989
 20
-194.30000000000001
 30
0.0
 11
485.74999999999989
 21
-194.30000000000001
 31
0.0
  0
LINE
  5
6C9
  8
DATA
  6
CONTINUOUS
 62
     7
 10
485.74999999999989
 20
-189.59999999999999
 30
0.0
 11
490.74999999999989
 21
-189.59999999999999
 31
0.0
  0
LINE
  5
6CA
  8
DATA
  6
CONTINUOUS
 62
     7
 10
-165.5
 20
-95.750000000000014
 30
0.0
 11
-165.5
 21
-93.75
 31
0.0
  0
LINE
  5
6CB
  8
DATA
  6
CONTINUOUS
 62
     7
 10
-156.5
 20
-95.750000000000014
 30
0.0
 11
-156.5
 21
-93.75
 31
0.0
  0
LINE
  5
6CC
  8
DATA
  6
CONTINUOUS
 62
     7
 10
-133.5
 20
-95.750000000000014
 30
0.0
 11
-133.5
 21
-93.75
 31
0.0
  0
LINE
  5
6CD
  8
DATA
  6
CONTINUOUS
 62
     7
 10
-124.5
 20
-95.750000000000014
 30
0.0
 11
-124.5
 21
-93.75
 31
0.0
  0
LINE
  5
6CE
  8
DATA
  6
CONTINUOUS
 62
     7
 10
-116.0
 20
-95.750000000000014
 30
0.0
 11
-116.0
 21
-93.75
 31
0.0
  0
LINE
  5
6CF
  8
DATA
  6
CONTINUOUS
 62
     7
 10
-107.0
 20
-95.750000000000014
 30
0.0
 11
-107.0
 21
-93.75
 31
0.0
  0
LINE
  5
6D0
  8
DATA
  6
CONTINUOUS
 62
     7
 10
189.5
 20
-95.750000000000014
 30
0.0
 11
189.5
 21
-93.75
 31
0.0
  0
LINE
  5
6D1
  8
DATA
  6
CONTINUOUS
 62
     7
 10
180.5
 20
-95.750000000000014
 30
0.0
 11
180.5
 21
-93.75
 31
0.0
  0
LINE
  5
6D2
  8
DATA
  6
CONTINUOUS
 62
     7
 10
171.5
 20
-95.750000000000014
 30
0.0
 11
171.5
 21
-93.75
 31
0.0
  0
LINE
  5
6D3
  8
DATA
  6
CONTINUOUS
 62
     7
 10
162.5
 20
-95.750000000000014
 30
0.0
 11
162.5
 21
-93.75
 31
0.0
  0
LINE
  5
6D4
  8
DATA
  6
CONTINUOUS
 62
     7
 10
153.5
 20
-95.750000000000014
 30
0.0
 11
153.5
 21
-93.75
 31
0.0
  0
LINE
  5
6D5
  8
DATA
  6
CONTINUOUS
 62
     7
 10
144.5
 20
-95.750000000000014
 30
0.0
 11
144.5
 21
-93.75
 31
0.0
  0
LINE
  5
6D6
  8
DATA
  6
CONTINUOUS
 62
     7
 10
135.5
 20
-95.750000000000014
 30
0.0
 11
135.5
 21
-93.75
 31
0.0
  0
LINE
  5
6D7
  8
DATA
  6
CONTINUOUS
 62
     7
 10
126.5
 20
-95.750000000000014
 30
0.0
 11
126.5
 21
-93.75
 31
0.0
  0
LINE
  5
6D8
  8
DATA
  6
CONTINUOUS
 62
     7
 10
117.5
 20
-95.750000000000014
 30
0.0
 11
117.5
 21
-93.75
 31
0.0
  0
LINE
  5
6D9
  8
DATA
  6
CONTINUOUS
 62
     7
 10
108.5
 20
-95.750000000000014
 30
0.0
 11
108.5
 21
-93.75
 31
0.0
  0
LINE
  5
6DA
  8
DATA
  6
CONTINUOUS
 62
     7
 10
99.499999999999986
 20
-95.750000000000014
 30
0.0
 11
99.499999999999986
 21
-93.75
 31
0.0
  0
LINE
  5
6DB
  8
DATA
  6
CONTINUOUS
 62
     7
 10
90.499999999999986
 20
-95.750000000000014
 30
0.0
 11
90.499999999999986
 21
-93.75
 31
0.0
  0
LINE
  5
6DC
  8
DATA
  6
CONTINUOUS
 62
     7
 10
189.5
 20
-95.750000000000014
 30
0.0
 11
180.5
 21
-95.750000000000014
 31
0.0
  0
LINE
  5
6DD
  8
DATA
  6
CONTINUOUS
 62
     7
 10
171.5
 20
-95.750000000000014
 30
0.0
 11
162.5
 21
-95.750000000000014
 31
0.0
  0
LINE
  5
6DE
  8
DATA
  6
CONTINUOUS
 62
     7
 10
153.5
 20
-95.750000000000014
 30
0.0
 11
144.5
 21
-95.750000000000014
 31
0.0
  0
LINE
  5
6DF
  8
DATA
  6
CONTINUOUS
 62
     7
 10
135.5
 20
-95.750000000000014
 30
0.0
 11
126.5
 21
-95.750000000000014
 31
0.0
  0
LINE
  5
6E0
  8
DATA
  6
CONTINUOUS
 62
     7
 10
117.5
 20
-95.750000000000014
 30
0.0
 11
108.5
 21
-95.750000000000014
 31
0.0
  0
LINE
  5
6E1
  8
DATA
  6
CONTINUOUS
 62
     7
 10
99.499999999999986
 20
-95.750000000000014
 30
0.0
 11
90.499999999999986
 21
-95.750000000000014
 31
0.0
  0
LINE
  5
6E2
  8
DATA
  6
CONTINUOUS
 62
     7
 10
-107.0
 20
-95.750000000000014
 30
0.0
 11
-116.0
 21
-95.750000000000014
 31
0.0
  0
LINE
  5
6E3
  8
DATA
  6
CONTINUOUS
 62
     7
 10
-124.5
 20
-95.750000000000014
 30
0.0
 11
-133.5
 21
-95.750000000000014
 31
0.0
  0
LINE
  5
6E4
  8
DATA
  6
CONTINUOUS
 62
     7
 10
-156.5
 20
-95.750000000000014
 30
0.0
 11
-165.5
 21
-95.750000000000014
 31
0.0
  0
LINE
  5
6E5
  8
DATA
  6
CONTINUOUS
 62
     7
 10
68.899999999999963
 20
-104.75
 30
0.0
 11
60.100000000000001
 21
-104.75
 31
0.0
  0
LINE
  5
6E6
  8
DATA
  6
CONTINUOUS
 62
     7
 10
48.899999999999977
 20
-104.75
 30
0.0
 11
40.099999999999973
 21
-104.75
 31
0.0
  0
LINE
  5
6E7
  8
DATA
  6
CONTINUOUS
 62
     7
 10
28.899999999999991
 20
-104.75
 30
0.0
 11
20.09999999999998
 21
-104.75
 31
0.0
  0
LINE
  5
6E8
  8
DATA
  6
CONTINUOUS
 62
     7
 10
20.09999999999998
 20
-104.75
 30
0.0
 11
18.84999999999998
 21
-93.75
 31
0.0
  0
LINE
  5
6E9
  8
DATA
  6
CONTINUOUS
 62
     7
 10
28.899999999999991
 20
-104.75
 30
0.0
 11
30.149999999999991
 21
-93.75
 31
0.0
  0
LINE
  5
6EA
  8
DATA
  6
CONTINUOUS
 62
     7
 10
40.099999999999973
 20
-104.75
 30
0.0
 11
38.84999999999998
 21
-93.75
 31
0.0
  0
LINE
  5
6EB
  8
DATA
  6
CONTINUOUS
 62
     7
 10
48.899999999999977
 20
-104.75
 30
0.0
 11
50.149999999999977
 21
-93.75
 31
0.0
  0
LINE
  5
6EC
  8
DATA
  6
CONTINUOUS
 62
     7
 10
60.09999999999998
 20
-104.75
 30
0.0
 11
58.84999999999998
 21
-93.75
 31
0.0
  0
LINE
  5
6ED
  8
DATA
  6
CONTINUOUS
 62
     7
 10
68.899999999999963
 20
-104.75
 30
0.0
 11
70.149999999999963
 21
-93.75
 31
0.0
  0
ARC
  5
6EE
  8
DATA
  6
CONTINUOUS
 62
     7
 10
-200.5
 20
-93.263825739936692
 30
0.0
 40
1.300000000000006
 50
201.96129699416849
 51
338.03870300583139
  0
ARC
  5
6EF
  8
DATA
  6
CONTINUOUS
 62
     7
 10
-185.5
 20
-93.263825739936692
 30
0.0
 40
1.300000000000006
 50
201.96129699416849
 51
338.03870300583139
  0
ARC
  5
6F0
  8
DATA
  6
CONTINUOUS
 62
     7
 10
189.5
 20
-93.416362399835833
 30
0.0
 40
1.2999999999999541
 50
270.0
 51
345.12896001667832
  0
ARC
  5
6F1
  8
DATA
  6
CONTINUOUS
 62
     7
 10
180.49999999999989
 20
-93.404162967716914
 30
0.0
 40
1.300000000000036
 50
195.42807457745681
 51
270.00000000000188
  0
ARC
  5
6F2
  8
DATA
  6
CONTINUOUS
 62
     7
 10
171.5
 20
-93.416362399835791
 30
0.0
 40
1.3000000000000109
 50
270.0
 51
345.12896001668412
  0
ARC
  5
6F3
  8
DATA
  6
CONTINUOUS
 62
     7
 10
162.5
 20
-93.404162967716914
 30
0.0
 40
1.2999999999999921
 50
195.42807457745209
 51
270.0
  0
ARC
  5
6F4
  8
DATA
  6
CONTINUOUS
 62
     7
 10
153.5
 20
-93.416362399835791
 30
0.0
 40
1.3000000000000109
 50
270.0
 51
345.1289600166815
  0
ARC
  5
6F5
  8
DATA
  6
CONTINUOUS
 62
     7
 10
144.5
 20
-93.404162967716914
 30
0.0
 40
1.2999999999999929
 50
195.42807457745459
 51
270.0
  0
ARC
  5
6F6
  8
DATA
  6
CONTINUOUS
 62
     7
 10
135.5
 20
-93.416362399835791
 30
0.0
 40
1.3000000000000109
 50
270.0
 51
345.12896001668162
  0
ARC
  5
6F7
  8
DATA
  6
CONTINUOUS
 62
     7
 10
126.5
 20
-93.404162967716914
 30
0.0
 40
1.2999999999999969
 50
195.42807457745459
 51
270.0
  0
ARC
  5
6F8
  8
DATA
  6
CONTINUOUS
 62
     7
 10
117.5
 20
-93.416362399835791
 30
0.0
 40
1.3000000000000109
 50
270.0
 51
345.1289600166815
  0
ARC
  5
6F9
  8
DATA
  6
CONTINUOUS
 62
     7
 10
108.5
 20
-93.404162967716957
 30
0.0
 40
1.2999999999999541
 50
269.99999999999989
 51
344.57192542254739
  0
ARC
  5
6FA
  8
DATA
  6
CONTINUOUS
 62
     7
 10
99.499999999999986
 20
-93.416362399835833
 30
0.0
 40
1.2999999999999541
 50
269.99999999999977
 51
345.12896001668372
  0
ARC
  5
6FB
  8
DATA
  6
CONTINUOUS
 62
     7
 10
90.499999999999943
 20
-93.404162967716957
 30
0.0
 40
1.300000000000002
 50
195.42807457745201
 51
270.00000000000063
  0
ARC
  5
6FC
  8
DATA
  6
CONTINUOUS
 62
     7
 10
-152.5
 20
-93.263898334599233
 30
0.0
 40
1.299999999999977
 50
201.95784719005971
 51
338.04215280994021
  0
TEXT
  5
6FD
  8
DATA
 62
     7
 10
349.62154015242129
 20
-402.0010078779336
 30
0.0
 40
12.21630859375
  1
CODA
  7
_______
 11
349.62154015242129
 21
-389.78469928418372
 31
0.0
 73
     3
  0
ENDSEC
  0
EOF
