  0
SECTION
  2
HEADER
  9
$ACADVER
  1
AC1015
  9
$ACADMAINTVER
 70
    20
  9
$DWGCODEPAGE
  3
ANSI_932
  9
$INSBASE
 10
0.0
 20
0.0
 30
0.0
  9
$EXTMIN
 10
-1250.082391174606
 20
-1874.607101593288
 30
-0.000105427802827
  9
$EXTMAX
 10
1450.08240374746
 20
2139.593333561439
 30
1.825225716695808
  9
$LIMMIN
 10
0.0
 20
0.0
  9
$LIMMAX
 10
12.0
 20
9.0
  9
$ORTHOMODE
 70
     0
  9
$REGENMODE
 70
     1
  9
$FILLMODE
 70
     1
  9
$QTEXTMODE
 70
     0
  9
$MIRRTEXT
 70
     1
  9
$LTSCALE
 40
76.19999999999997
  9
$ATTMODE
 70
     1
  9
$TEXTSIZE
 40
0.2
  9
$TRACEWID
 40
1.0
  9
$TEXTSTYLE
  7
STANDARD
  9
$CLAYER
  8
DATA
  9
$CELTYPE
  6
ByLayer
  9
$CECOLOR
 62
   256
  9
$CELTSCALE
 40
1.0
  9
$DISPSILH
 70
     0
  9
$DIMSCALE
 40
1.0
  9
$DIMASZ
 40
0.18
  9
$DIMEXO
 40
0.0625
  9
$DIMDLI
 40
0.38
  9
$DIMRND
 40
0.0
  9
$DIMDLE
 40
0.0
  9
$DIMEXE
 40
0.18
  9
$DIMTP
 40
0.0
  9
$DIMTM
 40
0.0
  9
$DIMTXT
 40
0.18
  9
$DIMCEN
 40
0.09
  9
$DIMTSZ
 40
0.0
  9
$DIMTOL
 70
     0
  9
$DIMLIM
 70
     0
  9
$DIMTIH
 70
     1
  9
$DIMTOH
 70
     1
  9
$DIMSE1
 70
     0
  9
$DIMSE2
 70
     0
  9
$DIMTAD
 70
     0
  9
$DIMZIN
 70
     0
  9
$DIMBLK
  1

  9
$DIMASO
 70
     1
  9
$DIMSHO
 70
     1
  9
$DIMPOST
  1

  9
$DIMAPOST
  1

  9
$DIMALT
 70
     0
  9
$DIMALTD
 70
     2
  9
$DIMALTF
 40
25.4
  9
$DIMLFAC
 40
1.0
  9
$DIMTOFL
 70
     0
  9
$DIMTVP
 40
0.0
  9
$DIMTIX
 70
     0
  9
$DIMSOXD
 70
     0
  9
$DIMSAH
 70
     0
  9
$DIMBLK1
  1

  9
$DIMBLK2
  1

  9
$DIMSTYLE
  2
STANDARD
  9
$DIMCLRD
 70
     0
  9
$DIMCLRE
 70
     0
  9
$DIMCLRT
 70
     0
  9
$DIMTFAC
 40
1.0
  9
$DIMGAP
 40
0.09
  9
$DIMJUST
 70
     0
  9
$DIMSD1
 70
     0
  9
$DIMSD2
 70
     0
  9
$DIMTOLJ
 70
     1
  9
$DIMTZIN
 70
     0
  9
$DIMALTZ
 70
     0
  9
$DIMALTTZ
 70
     0
  9
$DIMUPT
 70
     0
  9
$DIMDEC
 70
     4
  9
$DIMTDEC
 70
     4
  9
$DIMALTU
 70
     2
  9
$DIMALTTD
 70
     2
  9
$DIMTXSTY
  7
STANDARD
  9
$DIMAUNIT
 70
     0
  9
$DIMADEC
 70
     0
  9
$DIMALTRND
 40
0.0
  9
$DIMAZIN
 70
     0
  9
$DIMDSEP
 70
    46
  9
$DIMATFIT
 70
     3
  9
$DIMFRAC
 70
     0
  9
$DIMLDRBLK
  1

  9
$DIMLUNIT
 70
     2
  9
$DIMLWD
 70
    -2
  9
$DIMLWE
 70
    -2
  9
$DIMTMOVE
 70
     0
  9
$LUNITS
 70
     2
  9
$LUPREC
 70
     4
  9
$SKETCHINC
 40
0.1
  9
$FILLETRAD
 40
0.5
  9
$AUNITS
 70
     0
  9
$AUPREC
 70
     0
  9
$MENU
  1
.
  9
$ELEVATION
 40
0.0
  9
$PELEVATION
 40
0.0
  9
$THICKNESS
 40
0.0
  9
$LIMCHECK
 70
     0
  9
$CHAMFERA
 40
0.5
  9
$CHAMFERB
 40
0.5
  9
$CHAMFERC
 40
0.0
  9
$CHAMFERD
 40
0.0
  9
$SKPOLY
 70
     0
  9
$TDCREATE
 40
2455861.606834479
  9
$TDUCREATE
 40
2455861.231834479
  9
$TDUPDATE
 40
2455861.739860996
  9
$TDUUPDATE
 40
2455861.364860995
  9
$TDINDWG
 40
0.0003900347
  9
$TDUSRTIMER
 40
0.0003900347
  9
$USRTIMER
 70
     1
  9
$ANGBASE
 50
0.0
  9
$ANGDIR
 70
     0
  9
$PDMODE
 70
     1
  9
$PDSIZE
 40
-2.0
  9
$PLINEWID
 40
0.0
  9
$SPLFRAME
 70
     0
  9
$SPLINETYPE
 70
     6
  9
$SPLINESEGS
 70
     8
  9
$HANDSEED
  5
52B
  9
$SURFTAB1
 70
     6
  9
$SURFTAB2
 70
     6
  9
$SURFTYPE
 70
     6
  9
$SURFU
 70
     6
  9
$SURFV
 70
     6
  9
$UCSBASE
  2

  9
$UCSNAME
  2

  9
$UCSORG
 10
0.0
 20
0.0
 30
0.0
  9
$UCSXDIR
 10
1.0
 20
0.0
 30
0.0
  9
$UCSYDIR
 10
0.0
 20
1.0
 30
0.0
  9
$UCSORTHOREF
  2

  9
$UCSORTHOVIEW
 70
     0
  9
$UCSORGTOP
 10
0.0
 20
0.0
 30
0.0
  9
$UCSORGBOTTOM
 10
0.0
 20
0.0
 30
0.0
  9
$UCSORGLEFT
 10
0.0
 20
0.0
 30
0.0
  9
$UCSORGRIGHT
 10
0.0
 20
0.0
 30
0.0
  9
$UCSORGFRONT
 10
0.0
 20
0.0
 30
0.0
  9
$UCSORGBACK
 10
0.0
 20
0.0
 30
0.0
  9
$PUCSBASE
  2

  9
$PUCSNAME
  2

  9
$PUCSORG
 10
0.0
 20
0.0
 30
0.0
  9
$PUCSXDIR
 10
1.0
 20
0.0
 30
0.0
  9
$PUCSYDIR
 10
0.0
 20
1.0
 30
0.0
  9
$PUCSORTHOREF
  2

  9
$PUCSORTHOVIEW
 70
     0
  9
$PUCSORGTOP
 10
0.0
 20
0.0
 30
0.0
  9
$PUCSORGBOTTOM
 10
0.0
 20
0.0
 30
0.0
  9
$PUCSORGLEFT
 10
0.0
 20
0.0
 30
0.0
  9
$PUCSORGRIGHT
 10
0.0
 20
0.0
 30
0.0
  9
$PUCSORGFRONT
 10
0.0
 20
0.0
 30
0.0
  9
$PUCSORGBACK
 10
0.0
 20
0.0
 30
0.0
  9
$USERI1
 70
     0
  9
$USERI2
 70
     0
  9
$USERI3
 70
     0
  9
$USERI4
 70
     0
  9
$USERI5
 70
     0
  9
$USERR1
 40
0.0
  9
$USERR2
 40
0.0
  9
$USERR3
 40
0.0
  9
$USERR4
 40
0.0
  9
$USERR5
 40
0.0
  9
$WORLDVIEW
 70
     1
  9
$SHADEDGE
 70
     3
  9
$SHADEDIF
 70
    70
  9
$TILEMODE
 70
     1
  9
$MAXACTVP
 70
    64
  9
$PINSBASE
 10
0.0
 20
0.0
 30
0.0
  9
$PLIMCHECK
 70
     0
  9
$PEXTMIN
 10
1.000000000000000E+20
 20
1.000000000000000E+20
 30
1.000000000000000E+20
  9
$PEXTMAX
 10
-1.000000000000000E+20
 20
-1.000000000000000E+20
 30
-1.000000000000000E+20
  9
$PLIMMIN
 10
-20.0
 20
-7.5
  9
$PLIMMAX
 10
277.0
 20
202.5
  9
$UNITMODE
 70
     0
  9
$VISRETAIN
 70
     1
  9
$PLINEGEN
 70
     0
  9
$PSLTSCALE
 70
     1
  9
$TREEDEPTH
 70
  3020
  9
$CMLSTYLE
  2
Standard
  9
$CMLJUST
 70
     0
  9
$CMLSCALE
 40
1.0
  9
$PROXYGRAPHICS
 70
     1
  9
$MEASUREMENT
 70
     0
  9
$CELWEIGHT
370
    -1
  9
$ENDCAPS
280
     0
  9
$JOINSTYLE
280
     0
  9
$LWDISPLAY
290
     0
  9
$INSUNITS
 70
     0
  9
$HYPERLINKBASE
  1

  9
$STYLESHEET
  1

  9
$XEDIT
290
     1
  9
$CEPSNTYPE
380
     0
  9
$PSTYLEMODE
290
     1
  9
$FINGERPRINTGUID
  2
{5F93500D-813B-4139-AB37-FCD04C45375D}
  9
$VERSIONGUID
  2
{7312D04A-6610-451D-86AA-4C9FCD165606}
  9
$EXTNAMES
290
     1
  9
$PSVPSCALE
 40
0.0
  9
$OLESTARTUP
290
     0
  0
ENDSEC
  0
SECTION
  2
CLASSES
  0
CLASS
  1
ACDBDICTIONARYWDFLT
  2
AcDbDictionaryWithDefault
  3
ObjectDBX Classes
 90
        0
280
     0
281
     0
  0
CLASS
  1
MATERIAL
  2
AcDbMaterial
  3
ObjectDBX Classes
 90
     1153
280
     0
281
     0
  0
CLASS
  1
VISUALSTYLE
  2
AcDbVisualStyle
  3
ObjectDBX Classes
 90
     4095
280
     0
281
     0
  0
CLASS
  1
SCALE
  2
AcDbScale
  3
ObjectDBX Classes
 90
     1153
280
     0
281
     0
  0
CLASS
  1
TABLESTYLE
  2
AcDbTableStyle
  3
ObjectDBX Classes
 90
     4095
280
     0
281
     0
  0
CLASS
  1
MLEADERSTYLE
  2
AcDbMLeaderStyle
  3
ACDB_MLEADERSTYLE_CLASS
 90
     4095
280
     0
281
     0
  0
CLASS
  1
DICTIONARYVAR
  2
AcDbDictionaryVar
  3
ObjectDBX Classes
 90
        0
280
     0
281
     0
  0
CLASS
  1
CELLSTYLEMAP
  2
AcDbCellStyleMap
  3
ObjectDBX Classes
 90
     1152
280
     0
281
     0
  0
CLASS
  1
ACDBPLACEHOLDER
  2
AcDbPlaceHolder
  3
ObjectDBX Classes
 90
        0
280
     0
281
     0
  0
CLASS
  1
LAYOUT
  2
AcDbLayout
  3
ObjectDBX Classes
 90
        0
280
     0
281
     0
  0
ENDSEC
  0
SECTION
  2
TABLES
  0
TABLE
  2
VPORT
  5
461
330
0
100
AcDbSymbolTable
 70
     1
  0
VPORT
  5
4C9
330
461
100
AcDbSymbolTableRecord
100
AcDbViewportTableRecord
  2
*ACTIVE
 70
     0
 10
0.0
 20
0.0
 11
1.0
 21
1.0
 12
100.0000062864264
 22
132.4931159840755
 13
0.0
 23
0.0
 14
0.5
 24
0.5
 15
0.5
 25
0.5
 16
0.0
 26
0.0
 36
1.0
 17
0.0
 27
0.0
 37
0.0
 40
4045.602263852157
 41
2.154046997389034
 42
2000.0
 43
0.0
 44
0.0
 50
0.0
 51
0.0
 71
     0
 72
   100
 73
     1
 74
     3
 75
     0
 76
     0
 77
     0
 78
     0
281
     0
 65
     1
110
0.0
120
0.0
130
0.0
111
1.0
121
0.0
131
0.0
112
0.0
122
1.0
132
0.0
 79
     0
146
0.0
1001
ACAD_NAV_VCDISPLAY
1070
     3
  0
ENDTAB
  0
TABLE
  2
LTYPE
  5
45E
330
0
100
AcDbSymbolTable
 70
    11
  0
LTYPE
  5
4B3
330
45E
100
AcDbSymbolTableRecord
100
AcDbLinetypeTableRecord
  2
ByBlock
 70
     0
  3

 72
    65
 73
     0
 40
0.0
  0
LTYPE
  5
4B4
330
45E
100
AcDbSymbolTableRecord
100
AcDbLinetypeTableRecord
  2
ByLayer
 70
     0
  3

 72
    65
 73
     0
 40
0.0
  0
LTYPE
  5
4B5
330
45E
100
AcDbSymbolTableRecord
100
AcDbLinetypeTableRecord
  2
CONTINUOUS
 70
     0
  3
Solid line
 72
    65
 73
     0
 40
0.0
  0
ENDTAB
  0
TABLE
  2
LAYER
  5
45B
330
0
100
AcDbSymbolTable
 70
     5
  0
LAYER
  5
4AD
330
45B
100
AcDbSymbolTableRecord
100
AcDbLayerTableRecord
  2
0
 70
     0
 62
     7
  6
CONTINUOUS
370
    -3
390
468
  0
LAYER
  5
4C8
330
45B
100
AcDbSymbolTableRecord
100
AcDbLayerTableRecord
  2
DATA
 70
     0
 62
     7
  6
CONTINUOUS
370
    -3
390
468
  0
LAYER
  5
4D4
330
45B
100
AcDbSymbolTableRecord
100
AcDbLayerTableRecord
  2
HIBINO-BASE
 70
     0
 62
     7
  6
CONTINUOUS
370
    -3
390
468
  0
LAYER
  5
4D5
330
45B
100
AcDbSymbolTableRecord
100
AcDbLayerTableRecord
  2
SPEC
 70
     0
 62
     7
  6
CONTINUOUS
370
    -3
390
468
  0
LAYER
  5
4D6
330
45B
100
AcDbSymbolTableRecord
100
AcDbLayerTableRecord
  2
DIMNSIONS
 70
     0
 62
     7
  6
CONTINUOUS
370
    -3
390
468
  0
ENDTAB
  0
TABLE
  2
STYLE
  5
45C
330
0
100
AcDbSymbolTable
 70
     3
  0
STYLE
  5
4AE
330
45C
100
AcDbSymbolTableRecord
100
AcDbTextStyleTableRecord
  2
STANDARD
 70
     0
 40
0.0
 41
1.0
 50
0.0
 71
     0
 42
0.2
  3
txt
  4
BIGFONT.SHX
  0
ENDTAB
  0
TABLE
  2
VIEW
  5
45F
330
0
100
AcDbSymbolTable
 70
     0
  0
ENDTAB
  0
TABLE
  2
UCS
  5
460
330
0
100
AcDbSymbolTable
 70
     0
  0
ENDTAB
  0
TABLE
  2
APPID
  5
462
330
0
100
AcDbSymbolTable
 70
     4
  0
APPID
  5
4AF
330
462
100
AcDbSymbolTableRecord
100
AcDbRegAppTableRecord
  2
ACAD
 70
     0
  0
APPID
  5
4B6
330
462
100
AcDbSymbolTableRecord
100
AcDbRegAppTableRecord
  2
AcadAnnotative
 70
     0
  0
APPID
  5
4EB
330
462
100
AcDbSymbolTableRecord
100
AcDbRegAppTableRecord
  2
ACAD_NAV_VCDISPLAY
 70
     0
  0
APPID
  5
526
330
462
100
AcDbSymbolTableRecord
100
AcDbRegAppTableRecord
  2
ACAD_MLEADERVER
 70
     0
  0
ENDTAB
  0
TABLE
  2
DIMSTYLE
  5
463
330
0
100
AcDbSymbolTable
 70
     2
100
AcDbDimStyleTable
 71
     0
  0
DIMSTYLE
105
4B0
330
463
100
AcDbSymbolTableRecord
100
AcDbDimStyleTableRecord
  2
STANDARD
 70
     0
279
     2
340
4AE
  0
ENDTAB
  0
TABLE
  2
BLOCK_RECORD
  5
45A
330
0
100
AcDbSymbolTable
 70
     2
  0
BLOCK_RECORD
  5
4C4
330
45A
100
AcDbSymbolTableRecord
100
AcDbBlockTableRecord
  2
*Model_Space
340
4C7
  0
BLOCK_RECORD
  5
4C0
330
45A
100
AcDbSymbolTableRecord
100
AcDbBlockTableRecord
  2
*Paper_Space
340
4C3
  0
ENDTAB
  0
ENDSEC
  0
SECTION
  2
BLOCKS
  0
BLOCK
  5
4C5
330
4C4
100
AcDbEntity
  8
0
100
AcDbBlockBegin
  2
*Model_Space
 70
     0
 10
0.0
 20
0.0
 30
0.0
  3
*Model_Space
  1

  0
ENDBLK
  5
4C6
330
4C4
100
AcDbEntity
  8
0
100
AcDbBlockEnd
  0
BLOCK
  5
4C1
330
4C0
100
AcDbEntity
 67
     1
  8
0
100
AcDbBlockBegin
  2
*Paper_Space
 70
     0
 10
0.0
 20
0.0
 30
0.0
  3
*Paper_Space
  1

  0
ENDBLK
  5
4C2
330
4C0
100
AcDbEntity
 67
     1
  8
0
100
AcDbBlockEnd
  0
ENDSEC
  0
SECTION
  2
ENTITIES
  0
LINE
  5
4F
330
4C4
100
AcDbEntity
  8
HIBINO-BASE
  6
Continuous
 62
     7
100
AcDbLine
 10
-1250.0
 20
2139.471070528123
 30
0.0
 11
1450.0
 21
2139.471070528123
 31
0.0
  0
LINE
  5
50
330
4C4
100
AcDbEntity
  8
HIBINO-BASE
  6
Continuous
 62
     7
100
AcDbLine
 10
1450.0
 20
-1760.528929471877
 30
0.0
 11
-1250.0
 21
-1760.528929471877
 31
0.0
  0
LINE
  5
51
330
4C4
100
AcDbEntity
  8
HIBINO-BASE
  6
Continuous
 62
     7
100
AcDbLine
 10
-1250.0
 20
-1760.528929471877
 30
0.0
 11
-1250.0
 21
2139.471070528123
 31
0.0
  0
LINE
  5
52
330
4C4
100
AcDbEntity
  8
HIBINO-BASE
  6
Continuous
 62
     7
100
AcDbLine
 10
1450.0
 20
2139.471070528123
 30
0.0
 11
1450.0
 21
-1760.528929471877
 31
0.0
  0
LINE
  5
53
330
4C4
100
AcDbEntity
  8
HIBINO-BASE
  6
Continuous
 62
     7
100
AcDbLine
 10
100.0
 20
-1423.028929471877
 30
0.0
 11
1450.0
 21
-1423.028929471877
 31
0.0
  0
LINE
  5
54
330
4C4
100
AcDbEntity
  8
HIBINO-BASE
  6
Continuous
 62
     7
100
AcDbLine
 10
100.0
 20
-1760.528929471877
 30
0.0
 11
100.0
 21
-1423.028929471877
 31
0.0
  0
TEXT
  5
55
330
4C4
100
AcDbEntity
  8
HIBINO-BASE
 62
     7
100
AcDbText
 10
113.5
 20
-1460.659329471877
 30
0.0
 40
24.4326171875
  1
NOTE
 41
0.7
 11
113.5
 21
-1436.226712284377
 31
0.0
100
AcDbText
 73
     3
  0
LINE
  5
56
330
4C4
100
AcDbEntity
  8
HIBINO-BASE
  6
Continuous
 62
     7
100
AcDbLine
 10
625.0
 20
-1760.528929471877
 30
0.0
 11
625.0
 21
-1423.028929471877
 31
0.0
  0
TEXT
  5
57
330
4C4
100
AcDbEntity
  8
HIBINO-BASE
 62
     7
100
AcDbText
 10
638.4999999999999
 20
-1460.659329471877
 30
0.0
 40
24.4326171875
  1
TITLE
 41
0.7
 11
638.4999999999999
 21
-1436.226712284377
 31
0.0
100
AcDbText
 73
     3
  0
LINE
  5
58
330
4C4
100
AcDbEntity
  8
HIBINO-BASE
  6
Continuous
 62
     7
100
AcDbLine
 10
100.0
 20
-1610.528929471877
 30
0.0
 11
1450.0
 21
-1610.528929471877
 31
0.0
  0
TEXT
  5
59
330
4C4
100
AcDbEntity
  8
HIBINO-BASE
 62
     7
100
AcDbText
 10
826.0
 20
-1647.314529471877
 30
0.0
 40
24.4326171875
  1
DRAWN
 41
0.7
 11
826.0
 21
-1622.881912284377
 31
0.0
100
AcDbText
 73
     3
  0
TEXT
  5
5A
330
4C4
100
AcDbEntity
  8
HIBINO-BASE
 62
     7
100
AcDbText
 10
451.0
 20
-1647.314529471877
 30
0.0
 40
24.4326171875
  1
DATE
 41
0.7
 11
451.0
 21
-1622.881912284377
 31
0.0
100
AcDbText
 73
     3
  0
TEXT
  5
5B
330
4C4
100
AcDbEntity
  8
HIBINO-BASE
 62
     7
100
AcDbText
 10
300.9999999999999
 20
-1647.314529471877
 30
0.0
 40
24.4326171875
  1
SCALE
 41
0.7
 11
300.9999999999999
 21
-1622.881912284377
 31
0.0
100
AcDbText
 73
     3
  0
TEXT
  5
5C
330
4C4
100
AcDbEntity
  8
HIBINO-BASE
 62
     7
100
AcDbText
 10
638.4999999999999
 20
-1647.314529471877
 30
0.0
 40
24.4326171875
  1
DESIGN
 41
0.7
 11
638.4999999999999
 21
-1622.881912284377
 31
0.0
100
AcDbText
 73
     3
  0
TEXT
  5
5D
330
4C4
100
AcDbEntity
  8
HIBINO-BASE
 62
     7
100
AcDbText
 10
1201.0
 20
-1647.314529471877
 30
0.0
 40
24.4326171875
  1
DRAWING NO.
 41
0.7
 11
1201.0
 21
-1622.881912284377
 31
0.0
100
AcDbText
 73
     3
  0
TEXT
  5
5E
330
4C4
100
AcDbEntity
  8
HIBINO-BASE
 62
     7
100
AcDbText
 10
1013.5
 20
-1647.314529471877
 30
0.0
 40
24.4326171875
  1
CHECK
 41
0.7
 11
1013.5
 21
-1622.881912284377
 31
0.0
100
AcDbText
 73
     3
  0
LINE
  5
5F
330
4C4
100
AcDbEntity
  8
HIBINO-BASE
  6
Continuous
 62
     7
100
AcDbLine
 10
315.6249999999999
 20
-1741.778929471877
 30
0.0
 11
371.875
 21
-1685.528929471877
 31
0.0
  0
TEXT
  5
60
330
4C4
100
AcDbEntity
  8
HIBINO-BASE
 62
     7
100
AcDbText
 10
306.2499999999999
 20
-1702.163079471877
 30
0.0
 40
24.4326171875
  1
1
 41
0.7
 11
306.2499999999999
 21
-1677.730462284377
 31
0.0
100
AcDbText
 73
     3
  0
LINE
  5
61
330
4C4
100
AcDbEntity
  8
HIBINO-BASE
  6
Continuous
 62
     7
100
AcDbLine
 10
287.4999999999999
 20
-1760.528929471877
 30
0.0
 11
287.4999999999999
 21
-1610.528929471877
 31
0.0
  0
LINE
  5
62
330
4C4
100
AcDbEntity
  8
HIBINO-BASE
  6
Continuous
 62
     7
100
AcDbLine
 10
437.4999999999998
 20
-1760.528929471877
 30
0.0
 11
437.4999999999998
 21
-1610.528929471877
 31
0.0
  0
LINE
  5
63
330
4C4
100
AcDbEntity
  8
HIBINO-BASE
  6
Continuous
 62
     7
100
AcDbLine
 10
812.4999999999998
 20
-1610.528929471877
 30
0.0
 11
812.4999999999998
 21
-1760.528929471877
 31
0.0
  0
LINE
  5
64
330
4C4
100
AcDbEntity
  8
HIBINO-BASE
  6
Continuous
 62
     7
100
AcDbLine
 10
1187.5
 20
-1610.528929471877
 30
0.0
 11
1187.5
 21
-1760.528929471877
 31
0.0
  0
LINE
  5
65
330
4C4
100
AcDbEntity
  8
HIBINO-BASE
  6
Continuous
 62
     7
100
AcDbLine
 10
1000.0
 20
-1760.528929471877
 30
0.0
 11
1000.0
 21
-1610.528929471877
 31
0.0
  0
TEXT
  5
66
330
4C4
100
AcDbEntity
  8
HIBINO-BASE
 62
     7
100
AcDbText
 10
450.3480999999999
 20
-1717.574229471877
 30
0.0
 40
24.4326171875
  1
'11.05.
 41
0.7
 11
450.3480999999999
 21
-1693.141612284377
 31
0.0
100
AcDbText
 73
     3
  0
TEXT
  5
67
330
4C4
100
AcDbEntity
  8
HIBINO-BASE
 62
     7
100
AcDbText
 10
362.5
 20
-1730.288079471877
 30
0.0
 40
24.4326171875
  1
15
 41
0.7
 11
362.5
 21
-1705.855462284377
 31
0.0
100
AcDbText
 73
     3
  0
TEXT
  5
68
330
4C4
100
AcDbEntity
  8
HIBINO-BASE
 62
     7
100
AcDbText
 10
835.0871501655191
 20
-1717.574229471877
 30
0.0
 40
24.4326171875
  1
T.Ootake
 41
0.7
 11
835.0871501655191
 21
-1693.141612284377
 31
0.0
100
AcDbText
 73
     3
  0
TEXT
  5
69
330
4C4
100
AcDbEntity
  8
HIBINO-BASE
 62
     7
100
AcDbText
 10
158.2500000000002
 20
-1730.888929471877
 30
0.0
 40
48.86523437499999
  1
A4
 41
0.7
 11
158.2500000000002
 21
-1682.023695096877
 31
0.0
100
AcDbText
 73
     3
  0
TEXT
  5
6A
330
4C4
100
AcDbEntity
  8
HIBINO-BASE
 62
     7
100
AcDbText
 10
114.375
 20
-1649.820754471877
 30
0.0
 40
24.4326171875
  1
PAPER SIZE
 41
0.7
 11
114.375
 21
-1625.388137284377
 31
0.0
100
AcDbText
 73
     3
  0
TEXT
  5
6B
330
4C4
100
AcDbEntity
  8
HIBINO-BASE
 62
     7
100
AcDbText
 10
-1208.605471146647
 20
-1856.907532984521
 30
0.0
 40
52.93733723958332
  1
Hibino-Intersound Corporation
 41
0.7
 11
-1208.605471146647
 21
-1803.970195744938
 31
0.0
100
AcDbText
 73
     3
  0
TEXT
  5
6C
330
4C4
100
AcDbEntity
  8
HIBINO-BASE
 62
     7
100
AcDbText
 10
402.7091452032085
 20
-1851.64120918518
 30
0.0
 40
52.93733723958332
  1
ヒビノインターサウンド株式会社
 41
0.7
 11
402.7091452032085
 21
-1798.703871945597
 31
0.0
100
AcDbText
 73
     3
  0
LINE
  5
6D
330
4C4
100
AcDbEntity
  8
SPEC
  6
Continuous
 62
     7
100
AcDbLine
 10
-1137.5
 20
1989.471070528122
 30
0.0
 11
1075.0
 21
1989.471070528122
 31
0.0
  0
LINE
  5
6E
330
4C4
100
AcDbEntity
  8
SPEC
  6
Continuous
 62
     7
100
AcDbLine
 10
-1137.5
 20
1933.221070528122
 30
0.0
 11
1075.0
 21
1933.221070528122
 31
0.0
  0
LINE
  5
6F
330
4C4
100
AcDbEntity
  8
SPEC
  6
Continuous
 62
     7
100
AcDbLine
 10
-1137.5
 20
1820.721070528122
 30
0.0
 11
1075.0
 21
1820.721070528122
 31
0.0
  0
LINE
  5
70
330
4C4
100
AcDbEntity
  8
SPEC
  6
Continuous
 62
     7
100
AcDbLine
 10
-1137.5
 20
1876.971070528122
 30
0.0
 11
1075.0
 21
1876.971070528122
 31
0.0
  0
LINE
  5
71
330
4C4
100
AcDbEntity
  8
SPEC
  6
Continuous
 62
     7
100
AcDbLine
 10
-1137.5
 20
1989.471070528122
 30
0.0
 11
-1137.5
 21
1201.971070528122
 31
0.0
  0
TEXT
  5
72
330
4C4
100
AcDbEntity
  8
SPEC
 62
     7
100
AcDbText
 10
-1118.75
 20
2010.370120528123
 30
0.0
 40
36.64892578125
  1
仕様
 41
0.7
 11
-1118.75
 21
2047.019046309373
 31
0.0
100
AcDbText
 73
     3
  0
LINE
  5
73
330
4C4
100
AcDbEntity
  8
SPEC
  6
Continuous
 62
     7
100
AcDbLine
 10
-649.9999999999999
 20
1989.471070528122
 30
0.0
 11
-649.9999999999999
 21
1201.971070528122
 31
0.0
  0
LINE
  5
74
330
4C4
100
AcDbEntity
  8
SPEC
  6
Continuous
 62
     7
100
AcDbLine
 10
1075.0
 20
1989.471070528122
 30
0.0
 11
1075.0
 21
1201.971070528122
 31
0.0
  0
LINE
  5
75
330
4C4
100
AcDbEntity
  8
SPEC
  6
Continuous
 62
     7
100
AcDbLine
 10
-1137.5
 20
1764.471070528122
 30
0.0
 11
1075.0
 21
1764.471070528122
 31
0.0
  0
LINE
  5
76
330
4C4
100
AcDbEntity
  8
SPEC
  6
Continuous
 62
     7
100
AcDbLine
 10
-1137.5
 20
1708.221070528122
 30
0.0
 11
1075.0
 21
1708.221070528122
 31
0.0
  0
LINE
  5
77
330
4C4
100
AcDbEntity
  8
SPEC
  6
Continuous
 62
     7
100
AcDbLine
 10
-649.9999999999999
 20
1651.971070528122
 30
0.0
 11
1075.0
 21
1651.971070528122
 31
0.0
  0
LINE
  5
78
330
4C4
100
AcDbEntity
  8
SPEC
  6
Continuous
 62
     7
100
AcDbLine
 10
-1137.5
 20
1595.721070528122
 30
0.0
 11
1075.0
 21
1595.721070528122
 31
0.0
  0
LINE
  5
79
330
4C4
100
AcDbEntity
  8
SPEC
  6
Continuous
 62
     7
100
AcDbLine
 10
-1137.5
 20
1539.471070528122
 30
0.0
 11
1075.0
 21
1539.471070528122
 31
0.0
  0
LINE
  5
7A
330
4C4
100
AcDbEntity
  8
SPEC
  6
Continuous
 62
     7
100
AcDbLine
 10
-1137.5
 20
1483.221070528122
 30
0.0
 11
1075.0
 21
1483.221070528122
 31
0.0
  0
LINE
  5
7B
330
4C4
100
AcDbEntity
  8
SPEC
  6
Continuous
 62
     7
100
AcDbLine
 10
-1137.5
 20
1426.971070528122
 30
0.0
 11
1075.0
 21
1426.971070528122
 31
0.0
  0
LINE
  5
7C
330
4C4
100
AcDbEntity
  8
SPEC
  6
Continuous
 62
     7
100
AcDbLine
 10
-1137.5
 20
1370.721070528122
 30
0.0
 11
1075.0
 21
1370.721070528122
 31
0.0
  0
LINE
  5
7D
330
4C4
100
AcDbEntity
  8
SPEC
  6
Continuous
 62
     7
100
AcDbLine
 10
-1137.5
 20
1314.471070528122
 30
0.0
 11
1075.0
 21
1314.471070528122
 31
0.0
  0
LINE
  5
7E
330
4C4
100
AcDbEntity
  8
SPEC
  6
Continuous
 62
     7
100
AcDbLine
 10
-1137.5
 20
1258.221070528122
 30
0.0
 11
1075.0
 21
1258.221070528122
 31
0.0
  0
TEXT
  5
7F
330
4C4
100
AcDbEntity
  8
SPEC
 62
     7
100
AcDbText
 10
-640.2399303006891
 20
1946.554991832918
 30
0.0
 40
28.50472005208333
  1
ラインアレイ・システム・サブウーファー
 41
0.7
 11
-640.2399303006891
 21
1975.059711885001
 31
0.0
100
AcDbText
 73
     3
  0
TEXT
  5
80
330
4C4
100
AcDbEntity
  8
SPEC
 62
     7
100
AcDbText
 10
-1126.075723212408
 20
1383.801415181388
 30
0.0
 40
28.50472005208334
  1
エンクロージャー
 41
0.7
 11
-1126.075723212408
 21
1412.306135233471
 31
0.0
100
AcDbText
 73
     3
  0
TEXT
  5
81
330
4C4
100
AcDbEntity
  8
SPEC
 62
     7
100
AcDbText
 10
-636.140667783661
 20
1272.868281731479
 30
0.0
 40
28.50472005208334
  1
502(W)\U+00D7450(H)\U+00D7600(D)mm(突起部含まず）
 41
0.7
 11
-636.140667783661
 21
1301.373001783562
 31
0.0
100
AcDbText
 73
     3
  0
TEXT
  5
82
330
4C4
100
AcDbEntity
  8
SPEC
 62
     7
100
AcDbText
 10
-637.0869981721019
 20
1329.400340644926
 30
0.0
 40
28.50472005208334
  1
黒
 41
0.7
 11
-637.0869981721019
 21
1357.905060697009
 31
0.0
100
AcDbText
 73
     3
  0
TEXT
  5
83
330
4C4
100
AcDbEntity
  8
SPEC
 62
     7
100
AcDbText
 10
-1123.81392402605
 20
1330.440549086566
 30
0.0
 40
28.50472005208334
  1
仕上げ
 41
0.7
 11
-1123.81392402605
 21
1358.945269138649
 31
0.0
100
AcDbText
 73
     3
  0
TEXT
  5
84
330
4C4
100
AcDbEntity
  8
SPEC
 62
     7
100
AcDbText
 10
-1124.571170072855
 20
1496.376851732556
 30
0.0
 40
28.50472005208334
  1
入力コネクター
 41
0.7
 11
-1124.571170072855
 21
1524.881571784639
 31
0.0
100
AcDbText
 73
     3
  0
TEXT
  5
85
330
4C4
100
AcDbEntity
  8
SPEC
 62
     7
100
AcDbText
 10
-636.2330768106003
 20
1497.070007153061
 30
0.0
 40
28.50472005208334
  1
2\U+00D7Neutrik NL4MP
 41
0.7
 11
-636.2330768106003
 21
1525.574727205144
 31
0.0
100
AcDbText
 73
     3
  0
TEXT
  5
86
330
4C4
100
AcDbEntity
  8
SPEC
 62
     7
100
AcDbText
 10
-1124.586855777005
 20
1553.825839292931
 30
0.0
 40
28.50472005208334
  1
公称インピーダンス
 41
0.7
 11
-1124.586855777005
 21
1582.330559345014
 31
0.0
100
AcDbText
 73
     3
  0
TEXT
  5
87
330
4C4
100
AcDbEntity
  8
SPEC
 62
     7
100
AcDbText
 10
-1124.341101480567
 20
1945.885420575299
 30
0.0
 40
28.50472005208334
  1
形式
 41
0.7
 11
-1124.341101480567
 21
1974.390140627382
 31
0.0
100
AcDbText
 73
     3
  0
TEXT
  5
88
330
4C4
100
AcDbEntity
  8
SPEC
 62
     7
100
AcDbText
 10
-1124.275495642415
 20
1889.593151335613
 30
0.0
 40
28.50472005208334
  1
周波数特性
 41
0.7
 11
-1124.275495642415
 21
1918.097871387696
 31
0.0
100
AcDbText
 73
     3
  0
TEXT
  5
89
330
4C4
100
AcDbEntity
  8
SPEC
 62
     7
100
AcDbText
 10
-1124.144669022236
 20
1834.72019026891
 30
0.0
 40
28.50472005208334
  1
許容入力(AES/ピーク）
 41
0.7
 11
-1124.144669022236
 21
1863.224910320993
 31
0.0
100
AcDbText
 73
     3
  0
TEXT
  5
8A
330
4C4
100
AcDbEntity
  8
SPEC
 62
     7
100
AcDbText
 10
-1124.20260987938
 20
1778.141630892124
 30
0.0
 40
28.50472005208334
  1
感度(1W/1m)
 41
0.7
 11
-1124.20260987938
 21
1806.646350944207
 31
0.0
100
AcDbText
 73
     3
  0
TEXT
  5
8B
330
4C4
100
AcDbEntity
  8
SPEC
 62
     7
100
AcDbText
 10
-1123.495043971821
 20
1723.032327959051
 30
0.0
 40
28.50472005208334
  1
最大音圧
 41
0.7
 11
-1123.495043971821
 21
1751.537048011135
 31
0.0
100
AcDbText
 73
     3
  0
TEXT
  5
8C
330
4C4
100
AcDbEntity
  8
SPEC
 62
     7
100
AcDbText
 10
-1135.481162233873
 20
1665.625866720214
 30
0.0
 40
28.50472005208334
  1
ドライバー構成
 41
0.7
 11
-1135.481162233873
 21
1694.130586772297
 31
0.0
100
AcDbText
 73
     3
  0
TEXT
  5
8D
330
4C4
100
AcDbEntity
  8
SPEC
 62
     7
100
AcDbText
 10
-1125.183466609654
 20
1272.260328577355
 30
0.0
 40
28.50472005208334
  1
寸法
 41
0.7
 11
-1125.183466609654
 21
1300.765048629439
 31
0.0
100
AcDbText
 73
     3
  0
TEXT
  5
8E
330
4C4
100
AcDbEntity
  8
SPEC
 62
     7
100
AcDbText
 10
-636.4218768183595
 20
1216.143318280512
 30
0.0
 40
28.50472005208334
  1
約32kg
 41
0.7
 11
-636.4218768183595
 21
1244.648038332595
 31
0.0
100
AcDbText
 73
     3
  0
TEXT
  5
8F
330
4C4
100
AcDbEntity
  8
SPEC
 62
     7
100
AcDbText
 10
-1124.906368862027
 20
1217.545570205144
 30
0.0
 40
28.50472005208334
  1
重量
 41
0.7
 11
-1124.906368862027
 21
1246.050290257228
 31
0.0
100
AcDbText
 73
     3
  0
TEXT
  5
90
330
4C4
100
AcDbEntity
  8
SPEC
 62
     7
100
AcDbText
 10
-635.8433636127126
 20
1889.083068642517
 30
0.0
 40
28.50472005208334
  1
40Hz～160Hz
 41
0.7
 11
-635.8433636127126
 21
1917.5877886946
 31
0.0
100
AcDbText
 73
     3
  0
TEXT
  5
91
330
4C4
100
AcDbEntity
  8
SPEC
 62
     7
100
AcDbText
 10
-638.9815057881788
 20
1834.331231313259
 30
0.0
 40
28.50472005208334
  1
1000W
 41
0.7
 11
-638.9815057881788
 21
1862.835951365342
 31
0.0
100
AcDbText
 73
     3
  0
TEXT
  5
92
330
4C4
100
AcDbEntity
  8
SPEC
 62
     7
100
AcDbText
 10
-638.0063555565672
 20
1666.26337772937
 30
0.0
 40
28.50472005208334
  1
15インチネオジム磁石採用、超低歪率
 41
0.7
 11
-638.0063555565672
 21
1694.768097781454
 31
0.0
100
AcDbText
 73
     3
  0
TEXT
  5
93
330
4C4
100
AcDbEntity
  8
SPEC
 62
     7
100
AcDbText
 10
-637.1330984373912
 20
1384.444175707858
 30
0.0
 40
28.50472005208334
  1
合板
 41
0.7
 11
-637.1330984373912
 21
1412.948895759941
 31
0.0
100
AcDbText
 73
     3
  0
TEXT
  5
94
330
4C4
100
AcDbEntity
  8
SPEC
 62
     7
100
AcDbText
 10
-636.4560232903426
 20
1778.163720781041
 30
0.0
 40
28.50472005208334
  1
97dB
 41
0.7
 11
-636.4560232903426
 21
1806.668440833124
 31
0.0
100
AcDbText
 73
     3
  0
TEXT
  5
95
330
4C4
100
AcDbEntity
  8
SPEC
 62
     7
100
AcDbText
 10
-635.6615448331866
 20
1608.147463116325
 30
0.0
 40
28.50472005208334
  1
4インチ(101.6mm)ボイスコイル 
 41
0.7
 11
-635.6615448331866
 21
1636.652183168409
 31
0.0
100
AcDbText
 73
     3
  0
TEXT
  5
96
330
4C4
100
AcDbEntity
  8
SPEC
 62
     7
100
AcDbText
 10
-636.456351004995
 20
1551.303228112776
 30
0.0
 40
28.50472005208334
  1
8\U+03A9
 41
0.7
 11
-636.456351004995
 21
1579.80794816486
 31
0.0
100
AcDbText
 73
     3
  0
TEXT
  5
97
330
4C4
100
AcDbEntity
  8
SPEC
 62
     7
100
AcDbText
 10
-637.0758958179138
 20
1441.127465540774
 30
0.0
 40
28.50472005208334
  1
製品に含む
 41
0.7
 11
-637.0758958179138
 21
1469.632185592858
 31
0.0
100
AcDbText
 73
     3
  0
TEXT
  5
98
330
4C4
100
AcDbEntity
  8
SPEC
 62
     7
100
AcDbText
 10
-1128.311756853612
 20
1440.298492612151
 30
0.0
 40
28.50472005208334
  1
フライング金具
 41
0.7
 11
-1128.311756853612
 21
1468.803212664234
 31
0.0
100
AcDbText
 73
     3
  0
LINE
  5
99
330
4C4
100
AcDbEntity
  8
SPEC
  6
Continuous
 62
     7
100
AcDbLine
 10
-1137.5
 20
1201.971070528122
 30
0.0
 11
1075.0
 21
1201.971070528122
 31
0.0
  0
TEXT
  5
9A
330
4C4
100
AcDbEntity
  8
SPEC
 62
     7
100
AcDbText
 10
-637.8884194687786
 20
1721.968091760617
 30
0.0
 40
28.50472005208333
  1
127dB　133dB(ピーク）
 41
0.7
 11
-637.8884194687786
 21
1750.4728118127
 31
0.0
100
AcDbText
 73
     3
  0
TEXT
  5
9B
330
4C4
100
AcDbEntity
  8
DIMNSIONS
 62
     7
100
AcDbText
 10
-200.0
 20
-1576.486579471877
 30
0.0
 40
36.64892578125
  1
(単位：mm)
 41
0.7
 11
-200.0
 21
-1539.837653690627
 31
0.0
100
AcDbText
 73
     3
  0
LINE
  5
9C
330
4C4
100
AcDbEntity
  8
DIMNSIONS
  6
Continuous
 62
     7
100
AcDbLine
 10
-651.0000000000027
 20
-26.37984864883208
 30
0.0
 11
-651.0000000000027
 21
-580.0
 31
0.0
  0
LINE
  5
9D
330
4C4
100
AcDbEntity
  8
DIMNSIONS
  6
Continuous
 62
     7
100
AcDbLine
 10
-148.9999999999968
 20
-26.37984864883208
 30
0.0
 11
-148.9999999999968
 21
-580.0
 31
0.0
  0
LINE
  5
9E
330
4C4
100
AcDbEntity
  8
DIMNSIONS
  6
Continuous
 62
     7
100
AcDbLine
 10
-651.0000000000027
 20
-550.0
 30
0.0
 11
-148.9999999999968
 21
-550.0
 31
0.0
  0
LWPOLYLINE
  5
9F
330
4C4
100
AcDbEntity
  8
DIMNSIONS
  6
Continuous
 62
     7
100
AcDbPolyline
 90
        3
 70
   128
 43
0.0
 10
-613.4906616210964
 20
-560.0505969272537
 10
-651.0000000000027
 20
-550.0
 10
-613.4906616210964
 20
-539.9494030727462
  0
LWPOLYLINE
  5
A4
330
4C4
100
AcDbEntity
  8
DIMNSIONS
  6
Continuous
 62
     7
100
AcDbPolyline
 90
        3
 70
   128
 43
0.0
 10
-186.509338378903
 20
-539.9494030727462
 10
-148.9999999999968
 20
-550.0
 10
-186.509338378903
 20
-560.0505969272537
  0
TEXT
  5
A9
330
4C4
100
AcDbEntity
  8
DIMNSIONS
 62
     7
100
AcDbText
 10
-439.6874999999998
 20
-535.0916666666665
 30
0.0
 40
40.72102864583334
  1
502
 41
0.7
 11
-439.6874999999998
 21
-494.3706380208332
 31
0.0
100
AcDbText
 73
     3
  0
LINE
  5
AA
330
4C4
100
AcDbEntity
  8
DIMNSIONS
  6
Continuous
 62
     7
100
AcDbLine
 10
-674.0000000067017
 20
199.9999999948611
 30
0.0
 11
-830.0
 21
199.9999999948611
 31
0.0
  0
LINE
  5
AB
330
4C4
100
AcDbEntity
  8
DIMNSIONS
  6
Continuous
 62
     7
100
AcDbLine
 10
-664.0000000067016
 20
799.9999999948575
 30
0.0
 11
-830.0
 21
799.9999999948575
 31
0.0
  0
LINE
  5
AC
330
4C4
100
AcDbEntity
  8
DIMNSIONS
  6
Continuous
 62
     7
100
AcDbLine
 10
-800.0
 20
199.9999999948611
 30
0.0
 11
-800.0
 21
799.9999999948575
 31
0.0
  0
LWPOLYLINE
  5
AD
330
4C4
100
AcDbEntity
  8
DIMNSIONS
  6
Continuous
 62
     7
100
AcDbPolyline
 90
        3
 70
   128
 43
0.0
 10
-789.9494030727462
 20
237.5093383737673
 10
-800.0
 20
199.9999999948611
 10
-810.0505969272537
 20
237.5093383737673
  0
LWPOLYLINE
  5
B2
330
4C4
100
AcDbEntity
  8
DIMNSIONS
  6
Continuous
 62
     7
100
AcDbPolyline
 90
        3
 70
   128
 43
0.0
 10
-810.0505969272537
 20
762.4906616159512
 10
-800.0
 20
799.9999999948575
 10
-789.9494030727462
 20
762.4906616159512
  0
TEXT
  5
B7
330
4C4
100
AcDbEntity
  8
DIMNSIONS
 62
     7
100
AcDbText
 10
-814.9083333333333
 20
460.3124999948593
 30
0.0
 40
40.72102864583334
  1
600
 50
90.0
 41
0.7
 11
-855.6293619791667
 21
460.3124999948593
 31
0.0
100
AcDbText
 73
     3
  0
LINE
  5
B8
330
4C4
100
AcDbEntity
  8
DIMNSIONS
  6
Continuous
 62
     7
100
AcDbLine
 10
-670.0000000000027
 20
-400.0
 30
0.0
 11
-830.0
 21
-400.0
 31
0.0
  0
LINE
  5
B9
330
4C4
100
AcDbEntity
  8
DIMNSIONS
  6
Continuous
 62
     7
100
AcDbLine
 10
-670.0000000000027
 20
50.00000000000074
 30
0.0
 11
-830.0
 21
50.00000000000074
 31
0.0
  0
LINE
  5
BA
330
4C4
100
AcDbEntity
  8
DIMNSIONS
  6
Continuous
 62
     7
100
AcDbLine
 10
-800.0
 20
-400.0
 30
0.0
 11
-800.0
 21
50.00000000000074
 31
0.0
  0
LWPOLYLINE
  5
BB
330
4C4
100
AcDbEntity
  8
DIMNSIONS
  6
Continuous
 62
     7
100
AcDbPolyline
 90
        3
 70
   128
 43
0.0
 10
-789.9494030727462
 20
-362.4906616210938
 10
-800.0
 20
-400.0
 10
-810.0505969272537
 20
-362.4906616210938
  0
LWPOLYLINE
  5
C0
330
4C4
100
AcDbEntity
  8
DIMNSIONS
  6
Continuous
 62
     7
100
AcDbPolyline
 90
        3
 70
   128
 43
0.0
 10
-810.0505969272537
 20
12.49066162109449
 10
-800.0
 20
50.00000000000074
 10
-789.9494030727462
 20
12.49066162109449
  0
TEXT
  5
C5
330
4C4
100
AcDbEntity
  8
DIMNSIONS
 62
     7
100
AcDbText
 10
-814.9083333333333
 20
-214.6874999999997
 30
0.0
 40
40.72102864583334
  1
450
 50
90.0
 41
0.7
 11
-855.6293619791667
 21
-214.6874999999997
 31
0.0
100
AcDbText
 73
     3
  0
LINE
  5
C6
330
4C4
100
AcDbEntity
  8
DIMNSIONS
  6
Continuous
 62
     7
100
AcDbLine
 10
-625.0000000000014
 20
-405.0
 30
0.0
 11
-830.0
 21
-405.0
 31
0.0
  0
LINE
  5
C7
330
4C4
100
AcDbEntity
  8
DIMNSIONS
  6
Continuous
 62
     7
100
AcDbLine
 10
-670.0000000000027
 20
-400.0
 30
0.0
 11
-830.0
 21
-400.0
 31
0.0
  0
LINE
  5
C8
330
4C4
100
AcDbEntity
  8
DIMNSIONS
  6
Continuous
 62
     7
100
AcDbLine
 10
-800.0
 20
-400.0
 30
0.0
 11
-800.0
 21
-405.0
 31
0.0
  0
LINE
  5
C9
330
4C4
100
AcDbEntity
  8
DIMNSIONS
  6
Continuous
 62
     7
100
AcDbLine
 10
-800.0
 20
-405.0
 30
0.0
 11
-800.0
 21
-476.4583333381024
 31
0.0
  0
LWPOLYLINE
  5
CA
330
4C4
100
AcDbEntity
  8
DIMNSIONS
  6
Continuous
 62
     7
100
AcDbPolyline
 90
        3
 70
   128
 43
0.0
 10
-810.0505969272537
 20
-442.5093383789062
 10
-800.0
 20
-405.0
 10
-789.9494030727462
 20
-442.5093383789062
  0
LINE
  5
CF
330
4C4
100
AcDbEntity
  8
DIMNSIONS
  6
Continuous
 62
     7
100
AcDbLine
 10
-800.0
 20
-400.0
 30
0.0
 11
-800.0
 21
-325.0
 31
0.0
  0
LWPOLYLINE
  5
D0
330
4C4
100
AcDbEntity
  8
DIMNSIONS
  6
Continuous
 62
     7
100
AcDbPolyline
 90
        3
 70
   128
 43
0.0
 10
-789.9494030727462
 20
-362.4906616210938
 10
-800.0
 20
-400.0
 10
-810.0505969272537
 20
-362.4906616210938
  0
TEXT
  5
D5
330
4C4
100
AcDbEntity
  8
DIMNSIONS
 62
     7
100
AcDbText
 10
-814.9083333333333
 20
-476.4583333381024
 30
0.0
 40
40.72102864583334
  1
5
 50
90.0
 41
0.7
 11
-855.6293619791667
 21
-476.4583333381024
 31
0.0
100
AcDbText
 73
     3
  0
TEXT
  5
D6
330
4C4
100
AcDbEntity
  8
DATA
 62
     7
100
AcDbText
 10
-1100.0
 20
-1696.958929471877
 30
0.0
 40
24.4326171875
  1
仕様および外観は予告なく変更されることがありますので、ご了承ください。
 41
0.7
 11
-1100.0
 21
-1672.526312284377
 31
0.0
100
AcDbText
 73
     3
  0
POLYLINE
  5
D7
330
4C4
100
AcDbEntity
  8
DATA
  6
Continuous
 62
     7
100
AcDb3dPolyline
 66
     1
 10
0.0
 20
0.0
 30
0.0
 70
     8
  0
VERTEX
  5
D8
330
D7
100
AcDbEntity
  8
DATA
  6
Continuous
 62
     7
100
AcDbVertex
100
AcDb3dPolylineVertex
 10
-630.0000000000025
 20
-106.4300603694383
 30
-0.0000497307663636
 70
    32
  0
VERTEX
  5
D9
330
D7
100
AcDbEntity
  8
DATA
  6
Continuous
 62
     7
100
AcDbVertex
100
AcDb3dPolylineVertex
 10
-630.0000000000025
 20
-185.2990472946594
 30
-0.0000497307663636
 70
    32
  0
SEQEND
  5
DA
330
D7
100
AcDbEntity
  8
DATA
  6
Continuous
 62
     7
  0
CIRCLE
  5
DB
330
4C4
100
AcDbEntity
  8
DATA
  6
Continuous
 62
     7
100
AcDbCircle
 10
-399.9999999999984
 20
-174.9999999999991
 30
0.0
 40
177.7517697027715
  0
CIRCLE
  5
DC
330
4C4
100
AcDbEntity
  8
DATA
  6
Continuous
 62
     7
100
AcDbCircle
 10
-399.9999999999936
 20
-174.9999999999871
 30
0.0
 40
193.4126999999989
  0
CIRCLE
  5
DD
330
4C4
100
AcDbEntity
  8
DATA
  6
Continuous
 62
     7
100
AcDbCircle
 10
-471.0043595952238
 20
-346.3727844222554
 30
0.0
 40
5.0
  0
CIRCLE
  5
DE
330
4C4
100
AcDbEntity
  8
DATA
  6
Continuous
 62
     7
100
AcDbCircle
 10
-329.0288061877825
 20
-346.3865221393884
 30
0.0
 40
5.000000000000226
  0
CIRCLE
  5
DF
330
4C4
100
AcDbEntity
  8
DATA
  6
Continuous
 62
     7
100
AcDbCircle
 10
-228.6272155777249
 20
-246.0043595952166
 30
0.0
 40
5.0
  0
CIRCLE
  5
E0
330
4C4
100
AcDbEntity
  8
DATA
  6
Continuous
 62
     7
100
AcDbCircle
 10
-571.3727844222638
 20
-103.9956404047577
 30
0.0
 40
5.0
  0
CIRCLE
  5
E1
330
4C4
100
AcDbEntity
  8
DATA
  6
Continuous
 62
     7
100
AcDbCircle
 10
-571.3865221393968
 20
-245.9711938121986
 30
0.0
 40
5.0
  0
CIRCLE
  5
E2
330
4C4
100
AcDbEntity
  8
DATA
  6
Continuous
 62
     7
100
AcDbCircle
 10
-399.9999999999984
 20
-174.9999999999991
 30
0.0
 40
68.09076633763599
  0
CIRCLE
  5
E3
330
4C4
100
AcDbEntity
  8
DATA
  6
Continuous
 62
     7
100
AcDbCircle
 10
-228.6134778605922
 20
-104.0288061877761
 30
0.0
 40
5.0
  0
CIRCLE
  5
E4
330
4C4
100
AcDbEntity
  8
DATA
  6
Continuous
 62
     7
100
AcDbCircle
 10
-470.9711938122055
 20
-3.613477860586784
 30
0.0
 40
5.0
  0
CIRCLE
  5
E5
330
4C4
100
AcDbEntity
  8
DATA
  6
Continuous
 62
     7
100
AcDbCircle
 10
-328.9956404047642
 20
-3.627215577719709
 30
0.0
 40
5.000000000000226
  0
CIRCLE
  5
E6
330
4C4
100
AcDbEntity
  8
DATA
  6
Continuous
 62
     7
100
AcDbCircle
 10
129.9999999999962
 20
-12.00000000445218
 30
0.0
 40
5.000000000053433
  0
CIRCLE
  5
E7
330
4C4
100
AcDbEntity
  8
DATA
  6
Continuous
 62
     7
100
AcDbCircle
 10
129.9999999999962
 20
-12.00000000445218
 30
0.0
 40
1.500000000020235
  0
CIRCLE
  5
E8
330
4C4
100
AcDbEntity
  8
DATA
  6
Continuous
 62
     7
100
AcDbCircle
 10
129.9999999999962
 20
-12.00000000445218
 30
0.0
 40
9.0
  0
CIRCLE
  5
E9
330
4C4
100
AcDbEntity
  8
DATA
  6
Continuous
 62
     7
100
AcDbCircle
 10
282.9999999999547
 20
12.62015134671387
 30
0.0
 40
9.0
  0
CIRCLE
  5
EA
330
4C4
100
AcDbEntity
  8
DATA
  6
Continuous
 62
     7
100
AcDbCircle
 10
282.9999999999547
 20
12.62015134671387
 30
0.0
 40
1.500000000020235
  0
CIRCLE
  5
EB
330
4C4
100
AcDbEntity
  8
DATA
  6
Continuous
 62
     7
100
AcDbCircle
 10
282.9999999999547
 20
12.62015134671387
 30
0.0
 40
5.000000000053433
  0
CIRCLE
  5
EC
330
4C4
100
AcDbEntity
  8
DATA
  6
Continuous
 62
     7
100
AcDbCircle
 10
129.9999999999962
 20
67.99999999554811
 30
0.0
 40
4.299999999999955
  0
CIRCLE
  5
ED
330
4C4
100
AcDbEntity
  8
DATA
  6
Continuous
 62
     7
100
AcDbCircle
 10
128.4999999999983
 20
-80.00000000445197
 30
0.0
 40
6.249999999976552
  0
LINE
  5
EE
330
4C4
100
AcDbEntity
  8
DATA
  6
Continuous
 62
     7
100
AcDbLine
 10
126.3349364905372
 20
-81.25000000445197
 30
0.0
 11
126.3349364905372
 21
-78.75000000445197
 31
0.0
  0
LINE
  5
EF
330
4C4
100
AcDbEntity
  8
DATA
  6
Continuous
 62
     7
100
AcDbLine
 10
130.6650635094591
 20
-78.75000000445197
 30
0.0
 11
130.6650635094591
 21
-81.25000000445197
 31
0.0
  0
CIRCLE
  5
F0
330
4C4
100
AcDbEntity
  8
DATA
  6
Continuous
 62
     7
100
AcDbCircle
 10
128.4999999999983
 20
-80.00000000445197
 30
0.0
 40
5.999987999938838
  0
LINE
  5
F1
330
4C4
100
AcDbEntity
  8
DATA
  6
Continuous
 62
     7
100
AcDbLine
 10
130.6650635094591
 20
-81.25000000445197
 30
0.0
 11
128.4999999999983
 21
-82.50000000445186
 31
0.0
  0
LINE
  5
F2
330
4C4
100
AcDbEntity
  8
DATA
  6
Continuous
 62
     7
100
AcDbLine
 10
128.4999999999983
 20
-82.50000000445186
 30
0.0
 11
126.3349364905372
 21
-81.25000000445197
 31
0.0
  0
LINE
  5
F3
330
4C4
100
AcDbEntity
  8
DATA
  6
Continuous
 62
     7
100
AcDbLine
 10
128.4999999999983
 20
-77.50000000445197
 30
0.0
 11
130.6650635094591
 21
-78.75000000445197
 31
0.0
  0
LINE
  5
F4
330
4C4
100
AcDbEntity
  8
DATA
  6
Continuous
 62
     7
100
AcDbLine
 10
126.3349364905372
 20
-78.75000000445197
 30
0.0
 11
128.4999999999983
 21
-77.50000000445197
 31
0.0
  0
LINE
  5
F5
330
4C4
100
AcDbEntity
  8
DATA
  6
Continuous
 62
     7
100
AcDbLine
 10
112.0849364905371
 20
-43.75000000445542
 30
0.0
 11
114.2499999999982
 21
-42.50000000445542
 31
0.0
  0
LINE
  5
F6
330
4C4
100
AcDbEntity
  8
DATA
  6
Continuous
 62
     7
100
AcDbLine
 10
114.2499999999982
 20
-42.50000000445542
 30
0.0
 11
116.415063509459
 21
-43.75000000445542
 31
0.0
  0
LINE
  5
F7
330
4C4
100
AcDbEntity
  8
DATA
  6
Continuous
 62
     7
100
AcDbLine
 10
114.2499999999982
 20
-47.50000000445542
 30
0.0
 11
112.0849364905371
 21
-46.25000000445542
 31
0.0
  0
LINE
  5
F8
330
4C4
100
AcDbEntity
  8
DATA
  6
Continuous
 62
     7
100
AcDbLine
 10
116.415063509459
 20
-46.25000000445542
 30
0.0
 11
114.2499999999982
 21
-47.50000000445542
 31
0.0
  0
CIRCLE
  5
F9
330
4C4
100
AcDbEntity
  8
DATA
  6
Continuous
 62
     7
100
AcDbCircle
 10
114.2499999999982
 20
-45.00000000445542
 30
0.0
 40
5.999987999938994
  0
LINE
  5
FA
330
4C4
100
AcDbEntity
  8
DATA
  6
Continuous
 62
     7
100
AcDbLine
 10
116.415063509459
 20
-43.75000000445542
 30
0.0
 11
116.415063509459
 21
-46.25000000445542
 31
0.0
  0
LINE
  5
FB
330
4C4
100
AcDbEntity
  8
DATA
  6
Continuous
 62
     7
100
AcDbLine
 10
112.0849364905371
 20
-46.25000000445542
 30
0.0
 11
112.0849364905371
 21
-43.75000000445542
 31
0.0
  0
CIRCLE
  5
FC
330
4C4
100
AcDbEntity
  8
DATA
  6
Continuous
 62
     7
100
AcDbCircle
 10
114.2499999999982
 20
-45.00000000445542
 30
0.0
 40
6.249999999976706
  0
CIRCLE
  5
FD
330
4C4
100
AcDbEntity
  8
DATA
  6
Continuous
 62
     7
100
AcDbCircle
 10
128.4999999999983
 20
-175.0000000044533
 30
0.0
 40
6.249999999976552
  0
LINE
  5
FE
330
4C4
100
AcDbEntity
  8
DATA
  6
Continuous
 62
     7
100
AcDbLine
 10
126.3349364905372
 20
-176.2500000044532
 30
0.0
 11
126.3349364905372
 21
-173.7500000044533
 31
0.0
  0
LINE
  5
FF
330
4C4
100
AcDbEntity
  8
DATA
  6
Continuous
 62
     7
100
AcDbLine
 10
130.6650635094591
 20
-173.7500000044533
 30
0.0
 11
130.6650635094591
 21
-176.2500000044532
 31
0.0
  0
CIRCLE
  5
100
330
4C4
100
AcDbEntity
  8
DATA
  6
Continuous
 62
     7
100
AcDbCircle
 10
128.4999999999983
 20
-175.0000000044533
 30
0.0
 40
5.999987999938838
  0
LINE
  5
101
330
4C4
100
AcDbEntity
  8
DATA
  6
Continuous
 62
     7
100
AcDbLine
 10
130.6650635094591
 20
-176.2500000044532
 30
0.0
 11
128.4999999999983
 21
-177.5000000044533
 31
0.0
  0
LINE
  5
102
330
4C4
100
AcDbEntity
  8
DATA
  6
Continuous
 62
     7
100
AcDbLine
 10
128.4999999999983
 20
-177.5000000044533
 30
0.0
 11
126.3349364905372
 21
-176.2500000044532
 31
0.0
  0
LINE
  5
103
330
4C4
100
AcDbEntity
  8
DATA
  6
Continuous
 62
     7
100
AcDbLine
 10
128.4999999999983
 20
-172.5000000044532
 30
0.0
 11
130.6650635094591
 21
-173.7500000044533
 31
0.0
  0
LINE
  5
104
330
4C4
100
AcDbEntity
  8
DATA
  6
Continuous
 62
     7
100
AcDbLine
 10
126.3349364905372
 20
-173.7500000044533
 30
0.0
 11
128.4999999999983
 21
-172.5000000044532
 31
0.0
  0
LINE
  5
105
330
4C4
100
AcDbEntity
  8
DATA
  6
Continuous
 62
     7
100
AcDbLine
 10
112.0849364905382
 20
-303.7500000044538
 30
0.0
 11
114.25
 21
-302.5000000044538
 31
0.0
  0
LINE
  5
106
330
4C4
100
AcDbEntity
  8
DATA
  6
Continuous
 62
     7
100
AcDbLine
 10
114.25
 20
-302.5000000044538
 30
0.0
 11
116.4150635094611
 21
-303.7500000044538
 31
0.0
  0
LINE
  5
107
330
4C4
100
AcDbEntity
  8
DATA
  6
Continuous
 62
     7
100
AcDbLine
 10
114.25
 20
-307.5000000044538
 30
0.0
 11
112.0849364905382
 21
-306.2500000044538
 31
0.0
  0
LINE
  5
108
330
4C4
100
AcDbEntity
  8
DATA
  6
Continuous
 62
     7
100
AcDbLine
 10
116.4150635094611
 20
-306.2500000044538
 30
0.0
 11
114.25
 21
-307.5000000044538
 31
0.0
  0
LINE
  5
109
330
4C4
100
AcDbEntity
  8
DATA
  6
Continuous
 62
     7
100
AcDbLine
 10
116.4150635094611
 20
-303.7500000044538
 30
0.0
 11
116.4150635094611
 21
-306.2500000044538
 31
0.0
  0
LINE
  5
10A
330
4C4
100
AcDbEntity
  8
DATA
  6
Continuous
 62
     7
100
AcDbLine
 10
112.0849364905382
 20
-306.2500000044538
 30
0.0
 11
112.0849364905382
 21
-303.7500000044538
 31
0.0
  0
CIRCLE
  5
10B
330
4C4
100
AcDbEntity
  8
DATA
  6
Continuous
 62
     7
100
AcDbCircle
 10
114.25
 20
-305.0000000044538
 30
0.0
 40
6.249999999976706
  0
CIRCLE
  5
10C
330
4C4
100
AcDbEntity
  8
DATA
  6
Continuous
 62
     7
100
AcDbCircle
 10
128.5000000000001
 20
-362.0000000044539
 30
0.0
 40
6.249999999976552
  0
LINE
  5
10D
330
4C4
100
AcDbEntity
  8
DATA
  6
Continuous
 62
     7
100
AcDbLine
 10
126.3349364905383
 20
-363.2500000044539
 30
0.0
 11
126.3349364905383
 21
-360.7500000044539
 31
0.0
  0
LINE
  5
10E
330
4C4
100
AcDbEntity
  8
DATA
  6
Continuous
 62
     7
100
AcDbLine
 10
130.6650635094612
 20
-360.7500000044539
 30
0.0
 11
130.6650635094612
 21
-363.2500000044539
 31
0.0
  0
LINE
  5
10F
330
4C4
100
AcDbEntity
  8
DATA
  6
Continuous
 62
     7
100
AcDbLine
 10
130.6650635094612
 20
-363.2500000044539
 30
0.0
 11
128.5000000000001
 21
-364.5000000044539
 31
0.0
  0
LINE
  5
110
330
4C4
100
AcDbEntity
  8
DATA
  6
Continuous
 62
     7
100
AcDbLine
 10
128.5000000000001
 20
-364.5000000044539
 30
0.0
 11
126.3349364905383
 21
-363.2500000044539
 31
0.0
  0
LINE
  5
111
330
4C4
100
AcDbEntity
  8
DATA
  6
Continuous
 62
     7
100
AcDbLine
 10
128.5000000000001
 20
-359.5000000044539
 30
0.0
 11
130.6650635094612
 21
-360.7500000044539
 31
0.0
  0
LINE
  5
112
330
4C4
100
AcDbEntity
  8
DATA
  6
Continuous
 62
     7
100
AcDbLine
 10
126.3349364905383
 20
-360.7500000044539
 30
0.0
 11
128.5000000000001
 21
-359.5000000044539
 31
0.0
  0
CIRCLE
  5
113
330
4C4
100
AcDbEntity
  8
DATA
  6
Continuous
 62
     7
100
AcDbCircle
 10
129.9999999999962
 20
-385.0000000044541
 30
0.0
 40
4.5
  0
LINE
  5
114
330
4C4
100
AcDbEntity
  8
DATA
  6
Continuous
 62
     7
100
AcDbLine
 10
277.8349364904975
 20
-173.7500000044533
 30
0.0
 11
279.9999999999587
 21
-172.5000000044532
 31
0.0
  0
LINE
  5
115
330
4C4
100
AcDbEntity
  8
DATA
  6
Continuous
 62
     7
100
AcDbLine
 10
279.9999999999587
 20
-172.5000000044532
 30
0.0
 11
282.1650635094196
 21
-173.7500000044533
 31
0.0
  0
LINE
  5
116
330
4C4
100
AcDbEntity
  8
DATA
  6
Continuous
 62
     7
100
AcDbLine
 10
279.9999999999587
 20
-177.5000000044533
 30
0.0
 11
277.8349364904975
 21
-176.2500000044532
 31
0.0
  0
LINE
  5
117
330
4C4
100
AcDbEntity
  8
DATA
  6
Continuous
 62
     7
100
AcDbLine
 10
282.1650635094196
 20
-176.2500000044532
 30
0.0
 11
279.9999999999587
 21
-177.5000000044533
 31
0.0
  0
LINE
  5
118
330
4C4
100
AcDbEntity
  8
DATA
  6
Continuous
 62
     7
100
AcDbLine
 10
282.1650635094196
 20
-173.7500000044533
 30
0.0
 11
282.1650635094196
 21
-176.2500000044532
 31
0.0
  0
LINE
  5
119
330
4C4
100
AcDbEntity
  8
DATA
  6
Continuous
 62
     7
100
AcDbLine
 10
277.8349364904975
 20
-176.2500000044532
 30
0.0
 11
277.8349364904975
 21
-173.7500000044533
 31
0.0
  0
CIRCLE
  5
11A
330
4C4
100
AcDbEntity
  8
DATA
  6
Continuous
 62
     7
100
AcDbCircle
 10
279.9999999999587
 20
-175.0000000044533
 30
0.0
 40
6.249999999976581
  0
CIRCLE
  5
11B
330
4C4
100
AcDbEntity
  8
DATA
  6
Continuous
 62
     7
100
AcDbCircle
 10
304.9999999999588
 20
-95.00000000445334
 30
0.0
 40
6.249999999976581
  0
LINE
  5
11C
330
4C4
100
AcDbEntity
  8
DATA
  6
Continuous
 62
     7
100
AcDbLine
 10
302.8349364904977
 20
-96.25000000445357
 30
0.0
 11
302.8349364904977
 21
-93.75000000445357
 31
0.0
  0
LINE
  5
11D
330
4C4
100
AcDbEntity
  8
DATA
  6
Continuous
 62
     7
100
AcDbLine
 10
307.1650635094197
 20
-93.75000000445357
 30
0.0
 11
307.1650635094197
 21
-96.25000000445357
 31
0.0
  0
LINE
  5
11E
330
4C4
100
AcDbEntity
  8
DATA
  6
Continuous
 62
     7
100
AcDbLine
 10
307.1650635094197
 20
-96.25000000445357
 30
0.0
 11
304.9999999999588
 21
-97.50000000445334
 31
0.0
  0
LINE
  5
11F
330
4C4
100
AcDbEntity
  8
DATA
  6
Continuous
 62
     7
100
AcDbLine
 10
304.9999999999588
 20
-97.50000000445334
 30
0.0
 11
302.8349364904977
 21
-96.25000000445357
 31
0.0
  0
LINE
  5
120
330
4C4
100
AcDbEntity
  8
DATA
  6
Continuous
 62
     7
100
AcDbLine
 10
304.9999999999588
 20
-92.50000000445357
 30
0.0
 11
307.1650635094197
 21
-93.75000000445357
 31
0.0
  0
LINE
  5
121
330
4C4
100
AcDbEntity
  8
DATA
  6
Continuous
 62
     7
100
AcDbLine
 10
302.8349364904977
 20
-93.75000000445357
 30
0.0
 11
304.9999999999588
 21
-92.50000000445357
 31
0.0
  0
LINE
  5
122
330
4C4
100
AcDbEntity
  8
DATA
  6
Continuous
 62
     7
100
AcDbLine
 10
263.8349364904977
 20
20.24999999554612
 30
0.0
 11
265.9999999999588
 21
21.49999999554612
 31
0.0
  0
LINE
  5
123
330
4C4
100
AcDbEntity
  8
DATA
  6
Continuous
 62
     7
100
AcDbLine
 10
265.9999999999588
 20
21.49999999554612
 30
0.0
 11
268.1650635094196
 21
20.24999999554612
 31
0.0
  0
LINE
  5
124
330
4C4
100
AcDbEntity
  8
DATA
  6
Continuous
 62
     7
100
AcDbLine
 10
265.9999999999588
 20
16.49999999554606
 30
0.0
 11
263.8349364904977
 21
17.74999999554612
 31
0.0
  0
LINE
  5
125
330
4C4
100
AcDbEntity
  8
DATA
  6
Continuous
 62
     7
100
AcDbLine
 10
268.1650635094196
 20
17.74999999554612
 30
0.0
 11
265.9999999999588
 21
16.49999999554606
 31
0.0
  0
LINE
  5
126
330
4C4
100
AcDbEntity
  8
DATA
  6
Continuous
 62
     7
100
AcDbLine
 10
268.1650635094196
 20
20.24999999554612
 30
0.0
 11
268.1650635094196
 21
17.74999999554612
 31
0.0
  0
LINE
  5
127
330
4C4
100
AcDbEntity
  8
DATA
  6
Continuous
 62
     7
100
AcDbLine
 10
263.8349364904977
 20
17.74999999554612
 30
0.0
 11
263.8349364904977
 21
20.24999999554612
 31
0.0
  0
CIRCLE
  5
128
330
4C4
100
AcDbEntity
  8
DATA
  6
Continuous
 62
     7
100
AcDbCircle
 10
265.9999999999588
 20
18.99999999554612
 30
0.0
 40
6.249999999976522
  0
CIRCLE
  5
129
330
4C4
100
AcDbEntity
  8
DATA
  6
Continuous
 62
     7
100
AcDbCircle
 10
304.9999999999588
 20
-305.0000000044538
 30
0.0
 40
6.249999999976581
  0
LINE
  5
12A
330
4C4
100
AcDbEntity
  8
DATA
  6
Continuous
 62
     7
100
AcDbLine
 10
302.8349364904977
 20
-306.2500000044538
 30
0.0
 11
302.8349364904977
 21
-303.7500000044538
 31
0.0
  0
LINE
  5
12B
330
4C4
100
AcDbEntity
  8
DATA
  6
Continuous
 62
     7
100
AcDbLine
 10
307.1650635094197
 20
-303.7500000044538
 30
0.0
 11
307.1650635094197
 21
-306.2500000044538
 31
0.0
  0
LINE
  5
12C
330
4C4
100
AcDbEntity
  8
DATA
  6
Continuous
 62
     7
100
AcDbLine
 10
307.1650635094197
 20
-306.2500000044538
 30
0.0
 11
304.9999999999588
 21
-307.5000000044538
 31
0.0
  0
LINE
  5
12D
330
4C4
100
AcDbEntity
  8
DATA
  6
Continuous
 62
     7
100
AcDbLine
 10
304.9999999999588
 20
-307.5000000044538
 30
0.0
 11
302.8349364904977
 21
-306.2500000044538
 31
0.0
  0
LINE
  5
12E
330
4C4
100
AcDbEntity
  8
DATA
  6
Continuous
 62
     7
100
AcDbLine
 10
304.9999999999588
 20
-302.5000000044538
 30
0.0
 11
307.1650635094197
 21
-303.7500000044538
 31
0.0
  0
LINE
  5
12F
330
4C4
100
AcDbEntity
  8
DATA
  6
Continuous
 62
     7
100
AcDbLine
 10
302.8349364904977
 20
-303.7500000044538
 30
0.0
 11
304.9999999999588
 21
-302.5000000044538
 31
0.0
  0
LINE
  5
130
330
4C4
100
AcDbEntity
  8
DATA
  6
Continuous
 62
     7
100
AcDbLine
 10
268.1650635094196
 20
-367.7500000044539
 30
0.0
 11
268.1650635094196
 21
-370.2500000044539
 31
0.0
  0
LINE
  5
131
330
4C4
100
AcDbEntity
  8
DATA
  6
Continuous
 62
     7
100
AcDbLine
 10
263.8349364904977
 20
-370.2500000044539
 30
0.0
 11
263.8349364904977
 21
-367.7500000044539
 31
0.0
  0
CIRCLE
  5
132
330
4C4
100
AcDbEntity
  8
DATA
  6
Continuous
 62
     7
100
AcDbCircle
 10
265.9999999999588
 20
-369.0000000044539
 30
0.0
 40
6.249999999976522
  0
LINE
  5
133
330
4C4
100
AcDbEntity
  8
DATA
  6
Continuous
 62
     7
100
AcDbLine
 10
265.9999999999588
 20
-371.5000000044539
 30
0.0
 11
263.8349364904977
 21
-370.2500000044539
 31
0.0
  0
LINE
  5
134
330
4C4
100
AcDbEntity
  8
DATA
  6
Continuous
 62
     7
100
AcDbLine
 10
268.1650635094196
 20
-370.2500000044539
 30
0.0
 11
265.9999999999588
 21
-371.5000000044539
 31
0.0
  0
LINE
  5
135
330
4C4
100
AcDbEntity
  8
DATA
  6
Continuous
 62
     7
100
AcDbLine
 10
263.8349364904977
 20
-367.7500000044539
 30
0.0
 11
265.9999999999588
 21
-366.5000000044539
 31
0.0
  0
LINE
  5
136
330
4C4
100
AcDbEntity
  8
DATA
  6
Continuous
 62
     7
100
AcDbLine
 10
265.9999999999588
 20
-366.5000000044539
 30
0.0
 11
268.1650635094196
 21
-367.7500000044539
 31
0.0
  0
CIRCLE
  5
137
330
4C4
100
AcDbEntity
  8
DATA
  6
Continuous
 62
     7
100
AcDbCircle
 10
282.9999999999537
 20
-67.37984865321846
 30
0.0
 40
4.0
  0
CIRCLE
  5
138
330
4C4
100
AcDbEntity
  8
DATA
  6
Continuous
 62
     7
100
AcDbCircle
 10
311.0087773376679
 20
-335.6992307838563
 30
0.0
 40
4.0
  0
CIRCLE
  5
139
330
4C4
100
AcDbEntity
  8
DATA
  6
Continuous
 62
     7
100
AcDbCircle
 10
296.9999999999938
 20
-338.9267689143844
 30
0.0
 40
4.0
  0
CIRCLE
  5
13A
330
4C4
100
AcDbEntity
  8
DATA
  6
Continuous
 62
     7
100
AcDbCircle
 10
282.9999999999937
 20
-344.2369431170837
 30
0.0
 40
4.0
  0
CIRCLE
  5
13B
330
4C4
100
AcDbEntity
  8
DATA
  6
Continuous
 62
     7
100
AcDbCircle
 10
282.9999999999567
 20
-360.3798486533534
 30
0.0
 40
4.0
  0
CIRCLE
  5
13C
330
4C4
100
AcDbEntity
  8
DATA
  6
Continuous
 62
     7
100
AcDbCircle
 10
296.9999999999938
 20
-355.9361232595375
 30
0.0
 40
4.0
  0
CIRCLE
  5
13D
330
4C4
100
AcDbEntity
  8
DATA
  6
Continuous
 62
     7
100
AcDbCircle
 10
311.0087773376679
 20
-353.4220296573867
 30
0.0
 40
4.0
  0
CIRCLE
  5
13E
330
4C4
100
AcDbEntity
  8
DATA
  6
Continuous
 62
     7
100
AcDbCircle
 10
311.0087773376679
 20
-371.5378010681881
 30
0.0
 40
4.0
  0
CIRCLE
  5
13F
330
4C4
100
AcDbEntity
  8
DATA
  6
Continuous
 62
     7
100
AcDbCircle
 10
296.9999999999938
 20
-373.023813427178
 30
0.0
 40
4.0
  0
CIRCLE
  5
140
330
4C4
100
AcDbEntity
  8
DATA
  6
Continuous
 62
     7
100
AcDbCircle
 10
282.9999999999937
 20
-376.3442748746268
 30
0.0
 40
4.0
  0
CIRCLE
  5
141
330
4C4
100
AcDbEntity
  8
DATA
  6
Continuous
 62
     7
100
AcDbCircle
 10
296.9999999999938
 20
-390.429312334701
 30
0.0
 40
4.0
  0
CIRCLE
  5
142
330
4C4
100
AcDbEntity
  8
DATA
  6
Continuous
 62
     7
100
AcDbCircle
 10
311.0087773376679
 20
-390.3122300423723
 30
0.0
 40
4.0
  0
POLYLINE
  5
143
330
4C4
100
AcDbEntity
  8
DATA
  6
Continuous
 62
     7
100
AcDb3dPolyline
 66
     1
 10
0.0
 20
0.0
 30
0.0
 70
     8
  0
VERTEX
  5
144
330
143
100
AcDbEntity
  8
DATA
  6
Continuous
 62
     7
100
AcDbVertex
100
AcDb3dPolylineVertex
 10
-630.0000000050022
 20
-920.9999999999892
 30
0.0000106386637526
 70
    32
  0
VERTEX
  5
145
330
143
100
AcDbEntity
  8
DATA
  6
Continuous
 62
     7
100
AcDbVertex
100
AcDb3dPolylineVertex
 10
-630.0000000050028
 20
-920.9999999999892
 30
-0.0000024361150963
 70
    32
  0
SEQEND
  5
146
330
143
100
AcDbEntity
  8
DATA
  6
Continuous
 62
     7
  0
POLYLINE
  5
147
330
4C4
100
AcDbEntity
  8
DATA
  6
Continuous
 62
     7
100
AcDb3dPolyline
 66
     1
 10
0.0
 20
0.0
 30
0.0
 70
     8
  0
VERTEX
  5
148
330
147
100
AcDbEntity
  8
DATA
  6
Continuous
 62
     7
100
AcDbVertex
100
AcDb3dPolylineVertex
 10
-170.0000000049985
 20
-920.9999999999887
 30
-0.0000101002225392
 70
    32
  0
VERTEX
  5
149
330
147
100
AcDbEntity
  8
DATA
  6
Continuous
 62
     7
100
AcDbVertex
100
AcDb3dPolylineVertex
 10
-170.0000000049985
 20
-920.9999999999887
 30
0.000002974556196
 70
    32
  0
SEQEND
  5
14A
330
147
100
AcDbEntity
  8
DATA
  6
Continuous
 62
     7
  0
POLYLINE
  5
14B
330
4C4
100
AcDbEntity
  8
DATA
  6
Continuous
 62
     7
100
AcDb3dPolyline
 66
     1
 10
0.0
 20
0.0
 30
0.0
 70
     8
  0
VERTEX
  5
14C
330
14B
100
AcDbEntity
  8
DATA
  6
Continuous
 62
     7
100
AcDbVertex
100
AcDb3dPolylineVertex
 10
-170.0000000049978
 20
-920.9999999999892
 30
0.0000106386637526
 70
    32
  0
VERTEX
  5
14D
330
14B
100
AcDbEntity
  8
DATA
  6
Continuous
 62
     7
100
AcDbVertex
100
AcDb3dPolylineVertex
 10
-170.0000000049976
 20
-920.9999999999892
 30
-0.0000024361150963
 70
    32
  0
SEQEND
  5
14E
330
14B
100
AcDbEntity
  8
DATA
  6
Continuous
 62
     7
  0
POLYLINE
  5
14F
330
4C4
100
AcDbEntity
  8
DATA
  6
Continuous
 62
     7
100
AcDb3dPolyline
 66
     1
 10
0.0
 20
0.0
 30
0.0
 70
     8
  0
VERTEX
  5
150
330
14F
100
AcDbEntity
  8
DATA
  6
Continuous
 62
     7
100
AcDbVertex
100
AcDb3dPolylineVertex
 10
-159.0000000049975
 20
-716.9999999999973
 30
1.825170011160003
 70
    32
  0
VERTEX
  5
151
330
14F
100
AcDbEntity
  8
DATA
  6
Continuous
 62
     7
100
AcDbVertex
100
AcDb3dPolylineVertex
 10
-167.0000000049971
 20
-716.9999999999973
 30
0.0000502692158761
 70
    32
  0
SEQEND
  5
152
330
14F
100
AcDbEntity
  8
DATA
  6
Continuous
 62
     7
  0
LINE
  5
153
330
4C4
100
AcDbEntity
  8
DATA
  6
Continuous
 62
     7
100
AcDbLine
 10
-633.0000000050023
 20
-716.9999999999959
 30
0.0
 11
-641.0000000050023
 21
-716.9999999999959
 31
0.0
  0
CIRCLE
  5
154
330
4C4
100
AcDbEntity
  8
DATA
  6
Continuous
 62
     7
100
AcDbCircle
 10
129.9999999999971
 20
20.99999999554817
 30
0.0
 40
4.5
  0
LINE
  5
155
330
4C4
100
AcDbEntity
  8
DATA
  6
Continuous
 62
     7
100
AcDbLine
 10
-622.000000005002
 20
-719.9999999999995
 30
0.0
 11
-622.0000000050023
 21
-700.0
 31
0.0
  0
LINE
  5
156
330
4C4
100
AcDbEntity
  8
DATA
  6
Continuous
 62
     7
100
AcDbLine
 10
-622.0000000050023
 20
-700.0
 30
0.0
 11
-630.0000000050006
 21
-700.0
 31
0.0
  0
LINE
  5
157
330
4C4
100
AcDbEntity
  8
DATA
  6
Continuous
 62
     7
100
AcDbLine
 10
-630.0000000050006
 20
-700.0
 30
0.0
 11
-630.0000000050023
 21
-752.078574570532
 31
0.0
  0
LINE
  5
158
330
4C4
100
AcDbEntity
  8
DATA
  6
Continuous
 62
     7
100
AcDbLine
 10
-630.0000000050023
 20
-752.078574570532
 30
0.0
 11
-640.0000000050027
 21
-752.078574570532
 31
0.0
  0
LINE
  5
159
330
4C4
100
AcDbEntity
  8
DATA
  6
Continuous
 62
     7
100
AcDbLine
 10
-640.0000000050027
 20
-752.078574570532
 30
0.0
 11
-640.0000000050015
 21
-857.9999999999996
 31
0.0
  0
LINE
  5
15A
330
4C4
100
AcDbEntity
  8
DATA
  6
Continuous
 62
     7
100
AcDbLine
 10
-640.0000000050015
 20
-857.9999999999996
 30
0.0
 11
-630.0000000049967
 21
-857.9999999999996
 31
0.0
  0
LINE
  5
15B
330
4C4
100
AcDbEntity
  8
DATA
  6
Continuous
 62
     7
100
AcDbLine
 10
-630.0000000049967
 20
-857.9999999999996
 30
0.0
 11
-630.0000000050042
 21
-989.9308586866547
 31
0.0
  0
LINE
  5
15C
330
4C4
100
AcDbEntity
  8
DATA
  6
Continuous
 62
     7
100
AcDbLine
 10
-630.0000000050042
 20
-989.9308586866547
 30
0.0
 11
-640.0000000050028
 21
-989.9308586866547
 31
0.0
  0
LINE
  5
15D
330
4C4
100
AcDbEntity
  8
DATA
  6
Continuous
 62
     7
100
AcDbLine
 10
-640.0000000050028
 20
-989.9308586866547
 30
0.0
 11
-640.0000000050028
 21
-1293.999999999996
 31
0.0
  0
ARC
  5
15E
330
4C4
100
AcDbEntity
  8
DATA
  6
Continuous
 62
     7
100
AcDbCircle
 10
-634.0000000050029
 20
-1293.999999999996
 30
0.0
 40
6.0
100
AcDbArc
 50
180.0
 51
270.0
  0
LINE
  5
15F
330
4C4
100
AcDbEntity
  8
DATA
  6
Continuous
 62
     7
100
AcDbLine
 10
-634.0000000050031
 20
-1299.999999999996
 30
0.0
 11
-166.0000000049976
 21
-1299.999999999997
 31
0.0
  0
ARC
  5
160
330
4C4
100
AcDbEntity
  8
DATA
  6
Continuous
 62
     7
100
AcDbCircle
 10
-166.0000000049976
 20
-1293.999999999997
 30
0.0
 40
6.0
100
AcDbArc
 50
270.0
 51
0.0
  0
LINE
  5
161
330
4C4
100
AcDbEntity
  8
DATA
  6
Continuous
 62
     7
100
AcDbLine
 10
-160.0000000049975
 20
-1293.999999999997
 30
0.0
 11
-160.000000004997
 21
-989.9308586866547
 31
0.0
  0
LINE
  5
162
330
4C4
100
AcDbEntity
  8
DATA
  6
Continuous
 62
     7
100
AcDbLine
 10
-160.000000004997
 20
-989.9308586866547
 30
0.0
 11
-170.0000000049976
 21
-989.9308586866547
 31
0.0
  0
LINE
  5
163
330
4C4
100
AcDbEntity
  8
DATA
  6
Continuous
 62
     7
100
AcDbLine
 10
-170.0000000049976
 20
-989.9308586866547
 30
0.0
 11
-170.0000000049976
 21
-857.9999999999996
 31
0.0
  0
LINE
  5
164
330
4C4
100
AcDbEntity
  8
DATA
  6
Continuous
 62
     7
100
AcDbLine
 10
-170.0000000049976
 20
-857.9999999999996
 30
0.0
 11
-160.0000000049975
 21
-857.9999999999996
 31
0.0
  0
LINE
  5
165
330
4C4
100
AcDbEntity
  8
DATA
  6
Continuous
 62
     7
100
AcDbLine
 10
-160.0000000049975
 20
-857.9999999999996
 30
0.0
 11
-160.0000000049955
 21
-752.078574570532
 31
0.0
  0
LINE
  5
166
330
4C4
100
AcDbEntity
  8
DATA
  6
Continuous
 62
     7
100
AcDbLine
 10
-160.0000000049955
 20
-752.078574570532
 30
0.0
 11
-170.0000000049973
 21
-752.078574570532
 31
0.0
  0
LINE
  5
167
330
4C4
100
AcDbEntity
  8
DATA
  6
Continuous
 62
     7
100
AcDbLine
 10
-170.0000000049973
 20
-752.078574570532
 30
0.0
 11
-170.0000000049976
 21
-699.9999999999995
 31
0.0
  0
LINE
  5
168
330
4C4
100
AcDbEntity
  8
DATA
  6
Continuous
 62
     7
100
AcDbLine
 10
-170.0000000049976
 20
-699.9999999999995
 30
0.0
 11
-178.0000000049976
 21
-699.9999999999995
 31
0.0
  0
LINE
  5
169
330
4C4
100
AcDbEntity
  8
DATA
  6
Continuous
 62
     7
100
AcDbLine
 10
-178.0000000049976
 20
-699.9999999999995
 30
0.0
 11
-178.0000000049976
 21
-719.9999999999995
 31
0.0
  0
LINE
  5
16A
330
4C4
100
AcDbEntity
  8
DATA
  6
Continuous
 62
     7
100
AcDbLine
 10
-178.0000000049976
 20
-719.9999999999995
 30
0.0
 11
-622.000000005002
 21
-719.9999999999995
 31
0.0
  0
CIRCLE
  5
16B
330
4C4
100
AcDbEntity
  8
DATA
  6
Continuous
 62
     7
100
AcDbCircle
 10
-575.0000000050012
 20
-1249.999999999996
 30
0.0
 40
19.00000000000023
  0
CIRCLE
  5
16C
330
4C4
100
AcDbEntity
  8
DATA
  6
Continuous
 62
     7
100
AcDbCircle
 10
-575.0000000050012
 20
-1249.999999999996
 30
0.0
 40
7.0
  0
LINE
  5
16D
330
4C4
100
AcDbEntity
  8
DATA
  6
Continuous
 62
     7
100
AcDbLine
 10
-575.0000000050012
 20
-1252.999999999996
 30
0.0
 11
-575.0000000050012
 21
-1246.999999999996
 31
0.0
  0
LINE
  5
16E
330
4C4
100
AcDbEntity
  8
DATA
  6
Continuous
 62
     7
100
AcDbLine
 10
-578.0000000050015
 20
-1249.999999999996
 30
0.0
 11
-572.0000000050012
 21
-1249.999999999996
 31
0.0
  0
LINE
  5
16F
330
4C4
100
AcDbEntity
  8
DATA
  6
Continuous
 62
     7
100
AcDbLine
 10
-633.0000000050015
 20
-858.9999999999996
 30
0.0
 11
-630.0000000050028
 21
-858.9999999999996
 31
0.0
  0
LINE
  5
170
330
4C4
100
AcDbEntity
  8
DATA
  6
Continuous
 62
     7
100
AcDbLine
 10
-630.0000000050028
 20
-858.9999999999996
 30
0.0
 11
-630.0000000050017
 21
-920.9999999999887
 31
0.0
  0
LINE
  5
171
330
4C4
100
AcDbEntity
  8
DATA
  6
Continuous
 62
     7
100
AcDbLine
 10
-630.0000000050017
 20
-920.9999999999887
 30
0.0
 11
-633.0000000050012
 21
-920.9999999999892
 31
0.0
  0
LINE
  5
172
330
4C4
100
AcDbEntity
  8
DATA
  6
Continuous
 62
     7
100
AcDbLine
 10
-633.0000000050012
 20
-920.9999999999892
 30
0.0
 11
-633.0000000050015
 21
-858.9999999999996
 31
0.0
  0
LINE
  5
173
330
4C4
100
AcDbEntity
  8
DATA
  6
Continuous
 62
     7
100
AcDbLine
 10
-644.0000000050027
 20
-858.9999999999996
 30
0.0
 11
-641.0000000050031
 21
-858.9999999999996
 31
0.0
  0
LINE
  5
174
330
4C4
100
AcDbEntity
  8
DATA
  6
Continuous
 62
     7
100
AcDbLine
 10
-641.0000000050031
 20
-858.9999999999996
 30
0.0
 11
-641.0000000050027
 21
-920.9999999999887
 31
0.0
  0
LINE
  5
175
330
4C4
100
AcDbEntity
  8
DATA
  6
Continuous
 62
     7
100
AcDbLine
 10
-641.0000000050027
 20
-920.9999999999887
 30
0.0
 11
-644.0000000050027
 21
-920.9999999999887
 31
0.0
  0
LINE
  5
176
330
4C4
100
AcDbEntity
  8
DATA
  6
Continuous
 62
     7
100
AcDbLine
 10
-644.0000000050027
 20
-920.9999999999887
 30
0.0
 11
-644.0000000050027
 21
-858.9999999999996
 31
0.0
  0
LINE
  5
177
330
4C4
100
AcDbEntity
  8
DATA
  6
Continuous
 62
     7
100
AcDbLine
 10
-630.0000000050028
 20
-921.9999999999886
 30
0.0
 11
-640.0000000050028
 21
-921.9999999999886
 31
0.0
  0
LINE
  5
178
330
4C4
100
AcDbEntity
  8
DATA
  6
Continuous
 62
     7
100
AcDbLine
 10
-640.0000000050028
 20
-921.9999999999886
 30
0.0
 11
-640.0000000050028
 21
-989.9308586866547
 31
0.0
  0
LINE
  5
179
330
4C4
100
AcDbEntity
  8
DATA
  6
Continuous
 62
     7
100
AcDbLine
 10
-640.0000000050028
 20
-989.9308586866547
 30
0.0
 11
-630.0000000050042
 21
-989.9308586866547
 31
0.0
  0
LINE
  5
17A
330
4C4
100
AcDbEntity
  8
DATA
  6
Continuous
 62
     7
100
AcDbLine
 10
-630.0000000050042
 20
-989.9308586866547
 30
0.0
 11
-630.0000000050028
 21
-921.9999999999886
 31
0.0
  0
LINE
  5
17B
330
4C4
100
AcDbEntity
  8
DATA
  6
Continuous
 62
     7
100
AcDbLine
 10
-641.0000000050027
 20
-920.9999999999887
 30
0.0
 11
-633.0000000050012
 21
-920.9999999999887
 31
0.0
  0
LINE
  5
17C
330
4C4
100
AcDbEntity
  8
DATA
  6
Continuous
 62
     7
100
AcDbLine
 10
-644.0000000050023
 20
-886.9999999999995
 30
0.0
 11
-644.0000000050023
 21
-904.9999999999997
 31
0.0
  0
LINE
  5
17D
330
4C4
100
AcDbEntity
  8
DATA
  6
Continuous
 62
     7
100
AcDbLine
 10
-644.0000000050023
 20
-904.9999999999997
 30
0.0
 11
-651.0000000050029
 21
-904.9999999999997
 31
0.0
  0
LINE
  5
17E
330
4C4
100
AcDbEntity
  8
DATA
  6
Continuous
 62
     7
100
AcDbLine
 10
-651.0000000050029
 20
-904.9999999999997
 30
0.0
 11
-651.0000000050029
 21
-886.9999999999995
 31
0.0
  0
LINE
  5
17F
330
4C4
100
AcDbEntity
  8
DATA
  6
Continuous
 62
     7
100
AcDbLine
 10
-651.0000000050029
 20
-886.9999999999995
 30
0.0
 11
-644.0000000050023
 21
-886.9999999999995
 31
0.0
  0
LINE
  5
180
330
4C4
100
AcDbEntity
  8
DATA
  6
Continuous
 62
     7
100
AcDbLine
 10
-641.0000000050015
 20
-885.9999999999917
 30
0.0
 11
-636.0000000050015
 21
-885.9999999999912
 31
0.0
  0
LINE
  5
181
330
4C4
100
AcDbEntity
  8
DATA
  6
Continuous
 62
     7
100
AcDbLine
 10
-636.0000000050015
 20
-885.9999999999912
 30
0.0
 11
-636.0000000050015
 21
-905.999999999992
 31
0.0
  0
LINE
  5
182
330
4C4
100
AcDbEntity
  8
DATA
  6
Continuous
 62
     7
100
AcDbLine
 10
-636.0000000050015
 20
-905.999999999992
 30
0.0
 11
-641.0000000050019
 21
-905.9999999999966
 31
0.0
  0
LINE
  5
183
330
4C4
100
AcDbEntity
  8
DATA
  6
Continuous
 62
     7
100
AcDbLine
 10
-641.0000000050019
 20
-905.9999999999966
 30
0.0
 11
-641.0000000050015
 21
-885.9999999999917
 31
0.0
  0
LINE
  5
184
330
4C4
100
AcDbEntity
  8
DATA
  6
Continuous
 62
     7
100
AcDbLine
 10
-636.0000000050015
 20
-900.9999999999996
 30
0.0
 11
-633.0000000050017
 21
-900.9999999999996
 31
0.0
  0
LINE
  5
185
330
4C4
100
AcDbEntity
  8
DATA
  6
Continuous
 62
     7
100
AcDbLine
 10
-636.0000000050015
 20
-890.9999999999996
 30
0.0
 11
-633.0000000050017
 21
-890.9999999999996
 31
0.0
  0
LINE
  5
186
330
4C4
100
AcDbEntity
  8
DATA
  6
Continuous
 62
     7
100
AcDbLine
 10
-641.0000000050027
 20
-858.9999999999996
 30
0.0
 11
-633.0000000050027
 21
-858.9999999999996
 31
0.0
  0
LINE
  5
187
330
4C4
100
AcDbEntity
  8
DATA
  6
Continuous
 62
     7
100
AcDbLine
 10
-633.0000000050027
 20
-858.9999999999996
 30
0.0
 11
-633.0000000050015
 21
-868.9999999999995
 31
0.0
  0
LINE
  5
188
330
4C4
100
AcDbEntity
  8
DATA
  6
Continuous
 62
     7
100
AcDbLine
 10
-633.0000000050015
 20
-868.9999999999995
 30
0.0
 11
-641.0000000050031
 21
-868.9999999999995
 31
0.0
  0
LINE
  5
189
330
4C4
100
AcDbEntity
  8
DATA
  6
Continuous
 62
     7
100
AcDbLine
 10
-641.0000000050031
 20
-868.9999999999995
 30
0.0
 11
-641.0000000050015
 21
-858.9999999999996
 31
0.0
  0
CIRCLE
  5
18A
330
4C4
100
AcDbEntity
  8
DATA
  6
Continuous
 62
     7
100
AcDbCircle
 10
-225.000000004998
 20
-1249.999999999996
 30
0.0
 40
19.0
  0
CIRCLE
  5
18B
330
4C4
100
AcDbEntity
  8
DATA
  6
Continuous
 62
     7
100
AcDbCircle
 10
-225.000000004998
 20
-1249.999999999996
 30
0.0
 40
7.0
  0
LINE
  5
18C
330
4C4
100
AcDbEntity
  8
DATA
  6
Continuous
 62
     7
100
AcDbLine
 10
-225.000000004998
 20
-1252.999999999996
 30
0.0
 11
-225.000000004998
 21
-1246.999999999996
 31
0.0
  0
LINE
  5
18D
330
4C4
100
AcDbEntity
  8
DATA
  6
Continuous
 62
     7
100
AcDbLine
 10
-228.000000004998
 20
-1249.999999999996
 30
0.0
 11
-222.000000004998
 21
-1249.999999999996
 31
0.0
  0
LINE
  5
18E
330
4C4
100
AcDbEntity
  8
DATA
  6
Continuous
 62
     7
100
AcDbLine
 10
-156.0000000049975
 20
-858.9999999999996
 30
0.0
 11
-159.0000000049973
 21
-858.9999999999996
 31
0.0
  0
LINE
  5
18F
330
4C4
100
AcDbEntity
  8
DATA
  6
Continuous
 62
     7
100
AcDbLine
 10
-159.0000000049973
 20
-858.9999999999996
 30
0.0
 11
-159.0000000049975
 21
-920.9999999999887
 31
0.0
  0
LINE
  5
190
330
4C4
100
AcDbEntity
  8
DATA
  6
Continuous
 62
     7
100
AcDbLine
 10
-159.0000000049975
 20
-920.9999999999887
 30
0.0
 11
-156.0000000049975
 21
-920.9999999999887
 31
0.0
  0
LINE
  5
191
330
4C4
100
AcDbEntity
  8
DATA
  6
Continuous
 62
     7
100
AcDbLine
 10
-156.0000000049975
 20
-920.9999999999887
 30
0.0
 11
-156.0000000049975
 21
-858.9999999999996
 31
0.0
  0
LINE
  5
192
330
4C4
100
AcDbEntity
  8
DATA
  6
Continuous
 62
     7
100
AcDbLine
 10
-167.0000000049989
 20
-858.9999999999996
 30
0.0
 11
-170.0000000049976
 21
-858.9999999999996
 31
0.0
  0
LINE
  5
193
330
4C4
100
AcDbEntity
  8
DATA
  6
Continuous
 62
     7
100
AcDbLine
 10
-170.0000000049976
 20
-858.9999999999996
 30
0.0
 11
-170.0000000049985
 21
-920.9999999999887
 31
0.0
  0
LINE
  5
194
330
4C4
100
AcDbEntity
  8
DATA
  6
Continuous
 62
     7
100
AcDbLine
 10
-170.0000000049985
 20
-920.9999999999887
 30
0.0
 11
-167.0000000049989
 21
-920.9999999999892
 31
0.0
  0
LINE
  5
195
330
4C4
100
AcDbEntity
  8
DATA
  6
Continuous
 62
     7
100
AcDbLine
 10
-167.0000000049989
 20
-920.9999999999892
 30
0.0
 11
-167.0000000049989
 21
-858.9999999999996
 31
0.0
  0
LINE
  5
196
330
4C4
100
AcDbEntity
  8
DATA
  6
Continuous
 62
     7
100
AcDbLine
 10
-170.0000000049973
 20
-921.9999999999886
 30
0.0
 11
-160.000000004997
 21
-921.9999999999886
 31
0.0
  0
LINE
  5
197
330
4C4
100
AcDbEntity
  8
DATA
  6
Continuous
 62
     7
100
AcDbLine
 10
-160.000000004997
 20
-921.9999999999886
 30
0.0
 11
-160.000000004997
 21
-989.9308586866547
 31
0.0
  0
LINE
  5
198
330
4C4
100
AcDbEntity
  8
DATA
  6
Continuous
 62
     7
100
AcDbLine
 10
-160.000000004997
 20
-989.9308586866547
 30
0.0
 11
-170.0000000049976
 21
-989.9308586866547
 31
0.0
  0
LINE
  5
199
330
4C4
100
AcDbEntity
  8
DATA
  6
Continuous
 62
     7
100
AcDbLine
 10
-170.0000000049976
 20
-989.9308586866547
 30
0.0
 11
-170.0000000049973
 21
-921.9999999999886
 31
0.0
  0
LINE
  5
19A
330
4C4
100
AcDbEntity
  8
DATA
  6
Continuous
 62
     7
100
AcDbLine
 10
-159.0000000049975
 20
-920.9999999999887
 30
0.0
 11
-167.0000000049989
 21
-920.9999999999887
 31
0.0
  0
LINE
  5
19B
330
4C4
100
AcDbEntity
  8
DATA
  6
Continuous
 62
     7
100
AcDbLine
 10
-156.0000000049977
 20
-886.9999999999995
 30
0.0
 11
-156.0000000049977
 21
-904.9999999999997
 31
0.0
  0
LINE
  5
19C
330
4C4
100
AcDbEntity
  8
DATA
  6
Continuous
 62
     7
100
AcDbLine
 10
-156.0000000049977
 20
-904.9999999999997
 30
0.0
 11
-149.0000000049977
 21
-904.9999999999997
 31
0.0
  0
LINE
  5
19D
330
4C4
100
AcDbEntity
  8
DATA
  6
Continuous
 62
     7
100
AcDbLine
 10
-149.0000000049977
 20
-904.9999999999997
 30
0.0
 11
-149.0000000049977
 21
-886.9999999999995
 31
0.0
  0
LINE
  5
19E
330
4C4
100
AcDbEntity
  8
DATA
  6
Continuous
 62
     7
100
AcDbLine
 10
-149.0000000049977
 20
-886.9999999999995
 30
0.0
 11
-156.0000000049977
 21
-886.9999999999995
 31
0.0
  0
LINE
  5
19F
330
4C4
100
AcDbEntity
  8
DATA
  6
Continuous
 62
     7
100
AcDbLine
 10
-159.0000000049984
 20
-885.9999999999917
 30
0.0
 11
-164.0000000049985
 21
-885.9999999999912
 31
0.0
  0
LINE
  5
1A0
330
4C4
100
AcDbEntity
  8
DATA
  6
Continuous
 62
     7
100
AcDbLine
 10
-164.0000000049985
 20
-885.9999999999912
 30
0.0
 11
-164.0000000049985
 21
-905.999999999992
 31
0.0
  0
LINE
  5
1A1
330
4C4
100
AcDbEntity
  8
DATA
  6
Continuous
 62
     7
100
AcDbLine
 10
-164.0000000049985
 20
-905.999999999992
 30
0.0
 11
-159.000000004998
 21
-905.9999999999966
 31
0.0
  0
LINE
  5
1A2
330
4C4
100
AcDbEntity
  8
DATA
  6
Continuous
 62
     7
100
AcDbLine
 10
-159.000000004998
 20
-905.9999999999966
 30
0.0
 11
-159.0000000049984
 21
-885.9999999999917
 31
0.0
  0
LINE
  5
1A3
330
4C4
100
AcDbEntity
  8
DATA
  6
Continuous
 62
     7
100
AcDbLine
 10
-164.0000000049985
 20
-890.9999999999996
 30
0.0
 11
-167.0000000049982
 21
-890.9999999999996
 31
0.0
  0
LINE
  5
1A4
330
4C4
100
AcDbEntity
  8
DATA
  6
Continuous
 62
     7
100
AcDbLine
 10
-164.0000000049985
 20
-900.9999999999996
 30
0.0
 11
-167.0000000049982
 21
-900.9999999999996
 31
0.0
  0
LINE
  5
1A5
330
4C4
100
AcDbEntity
  8
DATA
  6
Continuous
 62
     7
100
AcDbLine
 10
-159.0000000049975
 20
-858.9999999999996
 30
0.0
 11
-167.0000000049976
 21
-858.9999999999996
 31
0.0
  0
LINE
  5
1A6
330
4C4
100
AcDbEntity
  8
DATA
  6
Continuous
 62
     7
100
AcDbLine
 10
-167.0000000049976
 20
-858.9999999999996
 30
0.0
 11
-167.0000000049989
 21
-868.9999999999995
 31
0.0
  0
LINE
  5
1A7
330
4C4
100
AcDbEntity
  8
DATA
  6
Continuous
 62
     7
100
AcDbLine
 10
-167.0000000049989
 20
-868.9999999999995
 30
0.0
 11
-159.0000000049973
 21
-868.9999999999995
 31
0.0
  0
LINE
  5
1A8
330
4C4
100
AcDbEntity
  8
DATA
  6
Continuous
 62
     7
100
AcDbLine
 10
-159.0000000049973
 20
-868.9999999999995
 30
0.0
 11
-159.0000000049989
 21
-858.9999999999996
 31
0.0
  0
LINE
  5
1A9
330
4C4
100
AcDbEntity
  8
DATA
  6
Continuous
 62
     7
100
AcDbLine
 10
-326.0213058206426
 20
-3.235637001059615
 30
0.0
 11
-327.8475901076689
 21
-0.8555769801859014
 31
0.0
  0
LINE
  5
1AA
330
4C4
100
AcDbEntity
  8
DATA
  6
Continuous
 62
     7
100
AcDbLine
 10
-327.8475901076689
 20
-0.8555769801859014
 30
0.0
 11
-330.8219246917905
 21
-1.247155556845995
 31
0.0
  0
LINE
  5
1AB
330
4C4
100
AcDbEntity
  8
DATA
  6
Continuous
 62
     7
100
AcDbLine
 10
-330.8219246917905
 20
-1.247155556845995
 30
0.0
 11
-331.9699749888858
 21
-4.018794154379805
 31
0.0
  0
LINE
  5
1AC
330
4C4
100
AcDbEntity
  8
DATA
  6
Continuous
 62
     7
100
AcDbLine
 10
-331.9699749888858
 20
-4.018794154379805
 30
0.0
 11
-330.1436907018595
 21
-6.398854175253575
 31
0.0
  0
LINE
  5
1AD
330
4C4
100
AcDbEntity
  8
DATA
  6
Continuous
 62
     7
100
AcDbLine
 10
-330.1436907018595
 20
-6.398854175253575
 30
0.0
 11
-327.1693561177379
 21
-6.00727559859348
 31
0.0
  0
LINE
  5
1AE
330
4C4
100
AcDbEntity
  8
DATA
  6
Continuous
 62
     7
100
AcDbLine
 10
-327.1693561177379
 20
-6.00727559859348
 30
0.0
 11
-326.0213058206426
 21
-3.235637001059615
 31
0.0
  0
LINE
  5
1AF
330
4C4
100
AcDbEntity
  8
DATA
  6
Continuous
 62
     7
100
AcDbLine
 10
-469.1449095251793
 20
-1.23341783971307
 30
0.0
 11
-472.1192441093008
 21
-0.8418392630529751
 31
0.0
  0
LINE
  5
1B0
330
4C4
100
AcDbEntity
  8
DATA
  6
Continuous
 62
     7
100
AcDbLine
 10
-472.1192441093008
 20
-0.8418392630529751
 30
0.0
 11
-473.9455283963271
 21
-3.221899283926688
 31
0.0
  0
LINE
  5
1B1
330
4C4
100
AcDbEntity
  8
DATA
  6
Continuous
 62
     7
100
AcDbLine
 10
-473.9455283963271
 20
-3.221899283926688
 30
0.0
 11
-472.7974780992314
 21
-5.993537881460553
 31
0.0
  0
LINE
  5
1B2
330
4C4
100
AcDbEntity
  8
DATA
  6
Continuous
 62
     7
100
AcDbLine
 10
-472.7974780992314
 20
-5.993537881460553
 30
0.0
 11
-469.8231435151104
 21
-6.385116458120648
 31
0.0
  0
LINE
  5
1B3
330
4C4
100
AcDbEntity
  8
DATA
  6
Continuous
 62
     7
100
AcDbLine
 10
-469.8231435151104
 20
-6.385116458120648
 30
0.0
 11
-467.9968592280841
 21
-4.005056437247106
 31
0.0
  0
LINE
  5
1B4
330
4C4
100
AcDbEntity
  8
DATA
  6
Continuous
 62
     7
100
AcDbLine
 10
-467.9968592280841
 20
-4.005056437247106
 30
0.0
 11
-469.1449095251793
 21
-1.23341783971307
 31
0.0
  0
LINE
  5
1B5
330
4C4
100
AcDbEntity
  8
DATA
  6
Continuous
 62
     7
100
AcDbLine
 10
-169.9999999999969
 20
48.0000000000008
 30
0.0
 11
-166.9999999999976
 21
48.00000000000068
 31
0.0
  0
LINE
  5
1B6
330
4C4
100
AcDbEntity
  8
DATA
  6
Continuous
 62
     7
100
AcDbLine
 10
-166.9999999999976
 20
48.00000000000068
 30
0.0
 11
-166.9999999999969
 21
-398.0
 31
0.0
  0
LINE
  5
1B7
330
4C4
100
AcDbEntity
  8
DATA
  6
Continuous
 62
     7
100
AcDbLine
 10
-166.9999999999969
 20
-398.0
 30
0.0
 11
-169.9999999999966
 21
-398.0
 31
0.0
  0
LINE
  5
1B8
330
4C4
100
AcDbEntity
  8
DATA
  6
Continuous
 62
     7
100
AcDbLine
 10
-169.9999999999966
 20
-398.0
 30
0.0
 11
-169.9999999999969
 21
48.0000000000008
 31
0.0
  0
LINE
  5
1B9
330
4C4
100
AcDbEntity
  8
DATA
  6
Continuous
 62
     7
100
AcDbLine
 10
-166.9999999999966
 20
-398.0
 30
0.0
 11
-158.9999999999966
 21
-398.0
 31
0.0
  0
LINE
  5
1BA
330
4C4
100
AcDbEntity
  8
DATA
  6
Continuous
 62
     7
100
AcDbLine
 10
-158.9999999999966
 20
-398.0
 30
0.0
 11
-158.9999999999973
 21
48.00000000000022
 31
0.0
  0
LINE
  5
1BB
330
4C4
100
AcDbEntity
  8
DATA
  6
Continuous
 62
     7
100
AcDbLine
 10
-158.9999999999973
 20
48.00000000000022
 30
0.0
 11
-166.9999999999966
 21
48.0000000000008
 31
0.0
  0
LINE
  5
1BC
330
4C4
100
AcDbEntity
  8
DATA
  6
Continuous
 62
     7
100
AcDbLine
 10
-166.9999999999966
 20
48.0000000000008
 30
0.0
 11
-166.9999999999966
 21
-398.0
 31
0.0
  0
LINE
  5
1BD
330
4C4
100
AcDbEntity
  8
DATA
  6
Continuous
 62
     7
100
AcDbLine
 10
-155.999999999997
 20
48.0000000000008
 30
0.0
 11
-158.9999999999964
 21
48.00000000000068
 31
0.0
  0
LINE
  5
1BE
330
4C4
100
AcDbEntity
  8
DATA
  6
Continuous
 62
     7
100
AcDbLine
 10
-158.9999999999964
 20
48.00000000000068
 30
0.0
 11
-158.9999999999968
 21
-398.0
 31
0.0
  0
LINE
  5
1BF
330
4C4
100
AcDbEntity
  8
DATA
  6
Continuous
 62
     7
100
AcDbLine
 10
-158.9999999999968
 20
-398.0
 30
0.0
 11
-155.9999999999973
 21
-398.0
 31
0.0
  0
LINE
  5
1C0
330
4C4
100
AcDbEntity
  8
DATA
  6
Continuous
 62
     7
100
AcDbLine
 10
-155.9999999999973
 20
-398.0
 30
0.0
 11
-155.999999999997
 21
48.0000000000008
 31
0.0
  0
LINE
  5
1C1
330
4C4
100
AcDbEntity
  8
DATA
  6
Continuous
 62
     7
100
AcDbLine
 10
-644.0000000000019
 20
48.0000000000008
 30
0.0
 11
-641.0000000000029
 21
48.00000000000068
 31
0.0
  0
LINE
  5
1C2
330
4C4
100
AcDbEntity
  8
DATA
  6
Continuous
 62
     7
100
AcDbLine
 10
-641.0000000000029
 20
48.00000000000068
 30
0.0
 11
-641.0000000000025
 21
-398.0
 31
0.0
  0
LINE
  5
1C3
330
4C4
100
AcDbEntity
  8
DATA
  6
Continuous
 62
     7
100
AcDbLine
 10
-641.0000000000025
 20
-398.0
 30
0.0
 11
-644.0000000000019
 21
-398.0
 31
0.0
  0
LINE
  5
1C4
330
4C4
100
AcDbEntity
  8
DATA
  6
Continuous
 62
     7
100
AcDbLine
 10
-644.0000000000019
 20
-398.0
 30
0.0
 11
-644.0000000000019
 21
48.0000000000008
 31
0.0
  0
LINE
  5
1C5
330
4C4
100
AcDbEntity
  8
DATA
  6
Continuous
 62
     7
100
AcDbLine
 10
-633.0000000000024
 20
-398.0
 30
0.0
 11
-641.0000000000027
 21
-398.0
 31
0.0
  0
LINE
  5
1C6
330
4C4
100
AcDbEntity
  8
DATA
  6
Continuous
 62
     7
100
AcDbLine
 10
-641.0000000000027
 20
-398.0
 30
0.0
 11
-641.0000000000019
 21
48.00000000000022
 31
0.0
  0
LINE
  5
1C7
330
4C4
100
AcDbEntity
  8
DATA
  6
Continuous
 62
     7
100
AcDbLine
 10
-641.0000000000019
 20
48.00000000000022
 30
0.0
 11
-633.0000000000024
 21
48.0000000000008
 31
0.0
  0
LINE
  5
1C8
330
4C4
100
AcDbEntity
  8
DATA
  6
Continuous
 62
     7
100
AcDbLine
 10
-633.0000000000024
 20
48.0000000000008
 30
0.0
 11
-633.0000000000024
 21
-398.0
 31
0.0
  0
LINE
  5
1C9
330
4C4
100
AcDbEntity
  8
DATA
  6
Continuous
 62
     7
100
AcDbLine
 10
-630.0000000000025
 20
48.0000000000008
 30
0.0
 11
-633.0000000000016
 21
48.00000000000068
 31
0.0
  0
LINE
  5
1CA
330
4C4
100
AcDbEntity
  8
DATA
  6
Continuous
 62
     7
100
AcDbLine
 10
-633.0000000000016
 20
48.00000000000068
 30
0.0
 11
-633.0000000000019
 21
-398.0
 31
0.0
  0
LINE
  5
1CB
330
4C4
100
AcDbEntity
  8
DATA
  6
Continuous
 62
     7
100
AcDbLine
 10
-633.0000000000019
 20
-398.0
 30
0.0
 11
-630.0000000000025
 21
-398.0
 31
0.0
  0
LINE
  5
1CC
330
4C4
100
AcDbEntity
  8
DATA
  6
Continuous
 62
     7
100
AcDbLine
 10
-630.0000000000025
 20
-398.0
 30
0.0
 11
-630.0000000000025
 21
48.0000000000008
 31
0.0
  0
LINE
  5
1CD
330
4C4
100
AcDbEntity
  8
DATA
  6
Continuous
 62
     7
100
AcDbLine
 10
-622.0000000000019
 20
31.99999999999375
 30
0.0
 11
-622.0000000000019
 21
-381.9999999999829
 31
0.0
  0
LINE
  5
1CE
330
4C4
100
AcDbEntity
  8
DATA
  6
Continuous
 62
     7
100
AcDbLine
 10
-622.0000000000019
 20
-381.9999999999829
 30
0.0
 11
-178.0000004324864
 21
-382.0
 31
0.0
  0
LINE
  5
1CF
330
4C4
100
AcDbEntity
  8
DATA
  6
Continuous
 62
     7
100
AcDbLine
 10
-178.0000004324864
 20
-382.0
 30
0.0
 11
-178.0000004324923
 21
31.99999999999989
 31
0.0
  0
LINE
  5
1D0
330
4C4
100
AcDbEntity
  8
DATA
  6
Continuous
 62
     7
100
AcDbLine
 10
-178.0000004324923
 20
31.99999999999989
 30
0.0
 11
-622.0000000000019
 21
31.99999999999375
 31
0.0
  0
LINE
  5
1D1
330
4C4
100
AcDbEntity
  8
DATA
  6
Continuous
 62
     7
100
AcDbLine
 10
-629.9999999999998
 20
50.00000000000074
 30
0.0
 11
-169.9999999999994
 21
50.00000000000085
 31
0.0
  0
LINE
  5
1D2
330
4C4
100
AcDbEntity
  8
DATA
  6
Continuous
 62
     7
100
AcDbLine
 10
-169.9999999999994
 20
50.00000000000085
 30
0.0
 11
-169.9999999999994
 21
-400.0
 31
0.0
  0
LINE
  5
1D3
330
4C4
100
AcDbEntity
  8
DATA
  6
Continuous
 62
     7
100
AcDbLine
 10
-169.9999999999994
 20
-400.0
 30
0.0
 11
-630.0000000000007
 21
-400.0
 31
0.0
  0
LINE
  5
1D4
330
4C4
100
AcDbEntity
  8
DATA
  6
Continuous
 62
     7
100
AcDbLine
 10
-630.0000000000007
 20
-400.0
 30
0.0
 11
-629.9999999999998
 21
50.00000000000074
 31
0.0
  0
LINE
  5
1D5
330
4C4
100
AcDbEntity
  8
DATA
  6
Continuous
 62
     7
100
AcDbLine
 10
-622.0000000000015
 20
-67.99999999999937
 30
0.0
 11
-522.0000000000011
 21
32.00000000000081
 31
0.0
  0
LINE
  5
1D6
330
4C4
100
AcDbEntity
  8
DATA
  6
Continuous
 62
     7
100
AcDbLine
 10
-522.0000000000011
 20
32.00000000000081
 30
0.0
 11
-622.0000000000019
 21
31.99999999999375
 31
0.0
  0
LINE
  5
1D7
330
4C4
100
AcDbEntity
  8
DATA
  6
Continuous
 62
     7
100
AcDbLine
 10
-622.0000000000019
 20
31.99999999999375
 30
0.0
 11
-622.0000000000015
 21
-67.99999999999937
 31
0.0
  0
LINE
  5
1D8
330
4C4
100
AcDbEntity
  8
DATA
  6
Continuous
 62
     7
100
AcDbLine
 10
-177.9999999999973
 20
-67.99999999999937
 30
0.0
 11
-277.9999999999966
 21
32.00000000000081
 31
0.0
  0
LINE
  5
1D9
330
4C4
100
AcDbEntity
  8
DATA
  6
Continuous
 62
     7
100
AcDbLine
 10
-277.9999999999966
 20
32.00000000000081
 30
0.0
 11
-177.9999999999969
 21
31.99999999999375
 31
0.0
  0
LINE
  5
1DA
330
4C4
100
AcDbEntity
  8
DATA
  6
Continuous
 62
     7
100
AcDbLine
 10
-177.9999999999969
 20
31.99999999999375
 30
0.0
 11
-177.9999999999973
 21
-67.99999999999937
 31
0.0
  0
LINE
  5
1DB
330
4C4
100
AcDbEntity
  8
DATA
  6
Continuous
 62
     7
100
AcDbLine
 10
-622.000000005002
 20
-719.9999999999995
 30
0.0
 11
-622.0000000050017
 21
-700.0
 31
0.0
  0
LINE
  5
1DC
330
4C4
100
AcDbEntity
  8
DATA
  6
Continuous
 62
     7
100
AcDbLine
 10
-622.0000000050017
 20
-700.0
 30
0.0
 11
-178.0000000049973
 21
-700.0
 31
0.0
  0
LINE
  5
1DD
330
4C4
100
AcDbEntity
  8
DATA
  6
Continuous
 62
     7
100
AcDbLine
 10
-178.0000000049973
 20
-700.0
 30
0.0
 11
-178.0000000049973
 21
-719.9999999999995
 31
0.0
  0
LINE
  5
1DE
330
4C4
100
AcDbEntity
  8
DATA
  6
Continuous
 62
     7
100
AcDbLine
 10
-178.0000000049973
 20
-719.9999999999995
 30
0.0
 11
-622.000000005002
 21
-719.9999999999995
 31
0.0
  0
LINE
  5
1DF
330
4C4
100
AcDbEntity
  8
DATA
  6
Continuous
 62
     7
100
AcDbLine
 10
-622.0000000000029
 20
-381.9999999999829
 30
0.0
 11
-178.0000004324864
 21
-382.0
 31
0.0
  0
LINE
  5
1E0
330
4C4
100
AcDbEntity
  8
DATA
  6
Continuous
 62
     7
100
AcDbLine
 10
-595.0000000000013
 20
-400.0
 30
0.0
 11
-555.0000000000006
 21
-400.0
 31
0.0
  0
LINE
  5
1E1
330
4C4
100
AcDbEntity
  8
DATA
  6
Continuous
 62
     7
100
AcDbLine
 10
-555.0000000000006
 20
-400.0
 30
0.0
 11
-555.0000000000006
 21
-405.0
 31
0.0
  0
LINE
  5
1E2
330
4C4
100
AcDbEntity
  8
DATA
  6
Continuous
 62
     7
100
AcDbLine
 10
-555.0000000000006
 20
-405.0
 30
0.0
 11
-595.0000000000013
 21
-405.0
 31
0.0
  0
LINE
  5
1E3
330
4C4
100
AcDbEntity
  8
DATA
  6
Continuous
 62
     7
100
AcDbLine
 10
-595.0000000000013
 20
-405.0
 30
0.0
 11
-595.0000000000013
 21
-400.0
 31
0.0
  0
CIRCLE
  5
1E4
330
4C4
100
AcDbEntity
  8
DATA
  6
Continuous
 62
     7
100
AcDbCircle
 10
-575.0000000050012
 20
-769.9999999999995
 30
0.0
 40
19.00000000000023
  0
CIRCLE
  5
1E5
330
4C4
100
AcDbEntity
  8
DATA
  6
Continuous
 62
     7
100
AcDbCircle
 10
-575.0000000050012
 20
-769.9999999999995
 30
0.0
 40
7.0
  0
LINE
  5
1E6
330
4C4
100
AcDbEntity
  8
DATA
  6
Continuous
 62
     7
100
AcDbLine
 10
-575.0000000050012
 20
-772.9999999999995
 30
0.0
 11
-575.0000000050012
 21
-766.9999999999995
 31
0.0
  0
LINE
  5
1E7
330
4C4
100
AcDbEntity
  8
DATA
  6
Continuous
 62
     7
100
AcDbLine
 10
-578.0000000050011
 20
-769.9999999999995
 30
0.0
 11
-572.0000000050012
 21
-769.9999999999995
 31
0.0
  0
LINE
  5
1E8
330
4C4
100
AcDbEntity
  8
DATA
  6
Continuous
 62
     7
100
AcDbLine
 10
-651.0000000050028
 20
-721.0011659454807
 30
0.0
 11
-644.0000000050023
 21
-721.0011659454807
 31
0.0
  0
LINE
  5
1E9
330
4C4
100
AcDbEntity
  8
DATA
  6
Continuous
 62
     7
100
AcDbLine
 10
-644.0000000050023
 20
-721.0011659454807
 30
0.0
 11
-644.0000000050023
 21
-739.0011659454808
 31
0.0
  0
LINE
  5
1EA
330
4C4
100
AcDbEntity
  8
DATA
  6
Continuous
 62
     7
100
AcDbLine
 10
-644.0000000050023
 20
-739.0011659454808
 30
0.0
 11
-651.0000000050028
 21
-739.0011659454808
 31
0.0
  0
LINE
  5
1EB
330
4C4
100
AcDbEntity
  8
DATA
  6
Continuous
 62
     7
100
AcDbLine
 10
-651.0000000050028
 20
-739.0011659454808
 30
0.0
 11
-651.0000000050028
 21
-721.0011659454807
 31
0.0
  0
LINE
  5
1EC
330
4C4
100
AcDbEntity
  8
DATA
  6
Continuous
 62
     7
100
AcDbLine
 10
-641.0000000050019
 20
-740.0000000000013
 30
0.0
 11
-641.0000000050027
 21
-700.0
 31
0.0
  0
LINE
  5
1ED
330
4C4
100
AcDbEntity
  8
DATA
  6
Continuous
 62
     7
100
AcDbLine
 10
-641.0000000050027
 20
-700.0
 30
0.0
 11
-644.0000000050027
 21
-700.0
 31
0.0
  0
LINE
  5
1EE
330
4C4
100
AcDbEntity
  8
DATA
  6
Continuous
 62
     7
100
AcDbLine
 10
-644.0000000050027
 20
-700.0
 30
0.0
 11
-644.0000000050027
 21
-740.0000000000013
 31
0.0
  0
LINE
  5
1EF
330
4C4
100
AcDbEntity
  8
DATA
  6
Continuous
 62
     7
100
AcDbLine
 10
-644.0000000050027
 20
-740.0000000000013
 30
0.0
 11
-641.0000000050019
 21
-740.0000000000009
 31
0.0
  0
LINE
  5
1F0
330
4C4
100
AcDbEntity
  8
DATA
  6
Continuous
 62
     7
100
AcDbLine
 10
-633.0000000050023
 20
-740.0000000000013
 30
0.0
 11
-633.0000000050023
 21
-700.0
 31
0.0
  0
LINE
  5
1F1
330
4C4
100
AcDbEntity
  8
DATA
  6
Continuous
 62
     7
100
AcDbLine
 10
-633.0000000050023
 20
-700.0
 30
0.0
 11
-641.0000000050027
 21
-700.0
 31
0.0
  0
LINE
  5
1F2
330
4C4
100
AcDbEntity
  8
DATA
  6
Continuous
 62
     7
100
AcDbLine
 10
-641.0000000050027
 20
-700.0
 30
0.0
 11
-641.0000000050019
 21
-740.0000000000013
 31
0.0
  0
LINE
  5
1F3
330
4C4
100
AcDbEntity
  8
DATA
  6
Continuous
 62
     7
100
AcDbLine
 10
-641.0000000050019
 20
-740.0000000000013
 30
0.0
 11
-633.0000000050023
 21
-740.0000000000013
 31
0.0
  0
LINE
  5
1F4
330
4C4
100
AcDbEntity
  8
DATA
  6
Continuous
 62
     7
100
AcDbLine
 10
-630.0000000050006
 20
-700.0
 30
0.0
 11
-633.0000000050023
 21
-700.0
 31
0.0
  0
LINE
  5
1F5
330
4C4
100
AcDbEntity
  8
DATA
  6
Continuous
 62
     7
100
AcDbLine
 10
-633.0000000050023
 20
-700.0
 30
0.0
 11
-633.0000000050023
 21
-740.0000000000013
 31
0.0
  0
LINE
  5
1F6
330
4C4
100
AcDbEntity
  8
DATA
  6
Continuous
 62
     7
100
AcDbLine
 10
-633.0000000050023
 20
-740.0000000000013
 30
0.0
 11
-630.0000000050023
 21
-740.0000000000013
 31
0.0
  0
LINE
  5
1F7
330
4C4
100
AcDbEntity
  8
DATA
  6
Continuous
 62
     7
100
AcDbLine
 10
-630.0000000050023
 20
-740.0000000000013
 30
0.0
 11
-630.0000000050006
 21
-700.0
 31
0.0
  0
LINE
  5
1F8
330
4C4
100
AcDbEntity
  8
DATA
  6
Continuous
 62
     7
100
AcDbLine
 10
-630.0000000000007
 20
-400.0
 30
0.0
 11
-640.0000000000027
 21
-400.0
 31
0.0
  0
LINE
  5
1F9
330
4C4
100
AcDbEntity
  8
DATA
  6
Continuous
 62
     7
100
AcDbLine
 10
-640.0000000000027
 20
-400.0
 30
0.0
 11
-640.0000000000027
 21
-398.0
 31
0.0
  0
LINE
  5
1FA
330
4C4
100
AcDbEntity
  8
DATA
  6
Continuous
 62
     7
100
AcDbLine
 10
-573.7665821602702
 20
-244.1449095251723
 30
0.0
 11
-574.1581607369304
 21
-247.1192441092939
 31
0.0
  0
LINE
  5
1FB
330
4C4
100
AcDbEntity
  8
DATA
  6
Continuous
 62
     7
100
AcDbLine
 10
-574.1581607369304
 20
-247.1192441092939
 30
0.0
 11
-571.7781007160567
 21
-248.94552839632
 31
0.0
  0
LINE
  5
1FC
330
4C4
100
AcDbEntity
  8
DATA
  6
Continuous
 62
     7
100
AcDbLine
 10
-571.7781007160567
 20
-248.94552839632
 30
0.0
 11
-569.0064621185229
 21
-247.7974780992247
 31
0.0
  0
LINE
  5
1FD
330
4C4
100
AcDbEntity
  8
DATA
  6
Continuous
 62
     7
100
AcDbLine
 10
-569.0064621185229
 20
-247.7974780992247
 30
0.0
 11
-568.6148835418626
 21
-244.8231435151033
 31
0.0
  0
LINE
  5
1FE
330
4C4
100
AcDbEntity
  8
DATA
  6
Continuous
 62
     7
100
AcDbLine
 10
-568.6148835418626
 20
-244.8231435151033
 30
0.0
 11
-570.9949435627366
 21
-242.9968592280771
 31
0.0
  0
LINE
  5
1FF
330
4C4
100
AcDbEntity
  8
DATA
  6
Continuous
 62
     7
100
AcDbLine
 10
-570.9949435627366
 20
-242.9968592280771
 30
0.0
 11
-573.7665821602702
 21
-244.1449095251723
 31
0.0
  0
LINE
  5
200
330
4C4
100
AcDbEntity
  8
DATA
  6
Continuous
 62
     7
100
AcDbLine
 10
-622.0000000000015
 20
-281.9999999999995
 30
0.0
 11
-522.0000000000011
 21
-382.0
 31
0.0
  0
LINE
  5
201
330
4C4
100
AcDbEntity
  8
DATA
  6
Continuous
 62
     7
100
AcDbLine
 10
-522.0000000000011
 20
-382.0
 30
0.0
 11
-622.0000000000019
 21
-381.9999999999927
 31
0.0
  0
LINE
  5
202
330
4C4
100
AcDbEntity
  8
DATA
  6
Continuous
 62
     7
100
AcDbLine
 10
-622.0000000000019
 20
-381.9999999999927
 30
0.0
 11
-622.0000000000015
 21
-281.9999999999995
 31
0.0
  0
LINE
  5
203
330
4C4
100
AcDbEntity
  8
DATA
  6
Continuous
 62
     7
100
AcDbLine
 10
-473.9786941793453
 20
-346.7643629989155
 30
0.0
 11
-472.1524098923189
 21
-349.1444230197893
 31
0.0
  0
LINE
  5
204
330
4C4
100
AcDbEntity
  8
DATA
  6
Continuous
 62
     7
100
AcDbLine
 10
-472.1524098923189
 20
-349.1444230197893
 30
0.0
 11
-469.1780753081975
 21
-348.7528444431292
 31
0.0
  0
LINE
  5
205
330
4C4
100
AcDbEntity
  8
DATA
  6
Continuous
 62
     7
100
AcDbLine
 10
-469.1780753081975
 20
-348.7528444431292
 30
0.0
 11
-468.0300250111025
 21
-345.9812058455952
 31
0.0
  0
LINE
  5
206
330
4C4
100
AcDbEntity
  8
DATA
  6
Continuous
 62
     7
100
AcDbLine
 10
-468.0300250111025
 20
-345.9812058455952
 30
0.0
 11
-469.8563092981284
 21
-343.6011458247216
 31
0.0
  0
LINE
  5
207
330
4C4
100
AcDbEntity
  8
DATA
  6
Continuous
 62
     7
100
AcDbLine
 10
-469.8563092981284
 20
-343.6011458247216
 30
0.0
 11
-472.8306438822499
 21
-343.9927244013817
 31
0.0
  0
LINE
  5
208
330
4C4
100
AcDbEntity
  8
DATA
  6
Continuous
 62
     7
100
AcDbLine
 10
-472.8306438822499
 20
-343.9927244013817
 30
0.0
 11
-473.9786941793453
 21
-346.7643629989155
 31
0.0
  0
LINE
  5
209
330
4C4
100
AcDbEntity
  8
DATA
  6
Continuous
 62
     7
100
AcDbLine
 10
-330.8550904748086
 20
-348.7665821602619
 30
0.0
 11
-327.880755890687
 21
-349.1581607369221
 31
0.0
  0
LINE
  5
20A
330
4C4
100
AcDbEntity
  8
DATA
  6
Continuous
 62
     7
100
AcDbLine
 10
-327.880755890687
 20
-349.1581607369221
 30
0.0
 11
-326.0544716036607
 21
-346.7781007160485
 31
0.0
  0
LINE
  5
20B
330
4C4
100
AcDbEntity
  8
DATA
  6
Continuous
 62
     7
100
AcDbLine
 10
-326.0544716036607
 20
-346.7781007160485
 30
0.0
 11
-327.202521900756
 21
-344.0064621185146
 31
0.0
  0
LINE
  5
20C
330
4C4
100
AcDbEntity
  8
DATA
  6
Continuous
 62
     7
100
AcDbLine
 10
-327.202521900756
 20
-344.0064621185146
 30
0.0
 11
-330.1768564848779
 21
-343.6148835418545
 31
0.0
  0
LINE
  5
20D
330
4C4
100
AcDbEntity
  8
DATA
  6
Continuous
 62
     7
100
AcDbLine
 10
-330.1768564848779
 20
-343.6148835418545
 30
0.0
 11
-332.0031407719037
 21
-345.9949435627281
 31
0.0
  0
LINE
  5
20E
330
4C4
100
AcDbEntity
  8
DATA
  6
Continuous
 62
     7
100
AcDbLine
 10
-332.0031407719037
 20
-345.9949435627281
 30
0.0
 11
-330.8550904748086
 21
-348.7665821602619
 31
0.0
  0
LINE
  5
20F
330
4C4
100
AcDbEntity
  8
DATA
  6
Continuous
 62
     7
100
AcDbLine
 10
-571.7643629989241
 20
-101.0213058206363
 30
0.0
 11
-574.1444230197976
 21
-102.8475901076624
 31
0.0
  0
LINE
  5
210
330
4C4
100
AcDbEntity
  8
DATA
  6
Continuous
 62
     7
100
AcDbLine
 10
-574.1444230197976
 20
-102.8475901076624
 30
0.0
 11
-573.7528444431375
 21
-105.8219246917839
 31
0.0
  0
LINE
  5
211
330
4C4
100
AcDbEntity
  8
DATA
  6
Continuous
 62
     7
100
AcDbLine
 10
-573.7528444431375
 20
-105.8219246917839
 30
0.0
 11
-570.9812058456037
 21
-106.9699749888792
 31
0.0
  0
LINE
  5
212
330
4C4
100
AcDbEntity
  8
DATA
  6
Continuous
 62
     7
100
AcDbLine
 10
-570.9812058456037
 20
-106.9699749888792
 30
0.0
 11
-568.6011458247299
 21
-105.143690701853
 31
0.0
  0
LINE
  5
213
330
4C4
100
AcDbEntity
  8
DATA
  6
Continuous
 62
     7
100
AcDbLine
 10
-568.6011458247299
 20
-105.143690701853
 30
0.0
 11
-568.9927244013902
 21
-102.1693561177315
 31
0.0
  0
LINE
  5
214
330
4C4
100
AcDbEntity
  8
DATA
  6
Continuous
 62
     7
100
AcDbLine
 10
-568.9927244013902
 20
-102.1693561177315
 30
0.0
 11
-571.7643629989241
 21
-101.0213058206363
 31
0.0
  0
CIRCLE
  5
215
330
4C4
100
AcDbEntity
  8
DATA
  6
Continuous
 62
     7
100
AcDbCircle
 10
-225.0000000049978
 20
-769.9999999999995
 30
0.0
 40
19.0
  0
CIRCLE
  5
216
330
4C4
100
AcDbEntity
  8
DATA
  6
Continuous
 62
     7
100
AcDbCircle
 10
-225.0000000049978
 20
-769.9999999999995
 30
0.0
 40
7.0
  0
LINE
  5
217
330
4C4
100
AcDbEntity
  8
DATA
  6
Continuous
 62
     7
100
AcDbLine
 10
-225.0000000049978
 20
-773.0
 30
0.0
 11
-225.0000000049978
 21
-767.0
 31
0.0
  0
LINE
  5
218
330
4C4
100
AcDbEntity
  8
DATA
  6
Continuous
 62
     7
100
AcDbLine
 10
-228.0000000049978
 20
-769.9999999999995
 30
0.0
 11
-222.0000000049978
 21
-769.9999999999995
 31
0.0
  0
LINE
  5
219
330
4C4
100
AcDbEntity
  8
DATA
  6
Continuous
 62
     7
100
AcDbLine
 10
-149.0000000049968
 20
-721.0011659454807
 30
0.0
 11
-156.000000004997
 21
-721.0011659454807
 31
0.0
  0
LINE
  5
21A
330
4C4
100
AcDbEntity
  8
DATA
  6
Continuous
 62
     7
100
AcDbLine
 10
-156.000000004997
 20
-721.0011659454807
 30
0.0
 11
-156.000000004997
 21
-739.0011659454808
 31
0.0
  0
LINE
  5
21B
330
4C4
100
AcDbEntity
  8
DATA
  6
Continuous
 62
     7
100
AcDbLine
 10
-156.000000004997
 20
-739.0011659454808
 30
0.0
 11
-149.0000000049968
 21
-739.0011659454808
 31
0.0
  0
LINE
  5
21C
330
4C4
100
AcDbEntity
  8
DATA
  6
Continuous
 62
     7
100
AcDbLine
 10
-149.0000000049968
 20
-739.0011659454808
 30
0.0
 11
-149.0000000049968
 21
-721.0011659454807
 31
0.0
  0
LINE
  5
21D
330
4C4
100
AcDbEntity
  8
DATA
  6
Continuous
 62
     7
100
AcDbLine
 10
-167.0000000049971
 20
-740.0000000000013
 30
0.0
 11
-167.0000000049976
 21
-700.0
 31
0.0
  0
LINE
  5
21E
330
4C4
100
AcDbEntity
  8
DATA
  6
Continuous
 62
     7
100
AcDbLine
 10
-167.0000000049976
 20
-700.0
 30
0.0
 11
-159.000000004997
 21
-700.0
 31
0.0
  0
LINE
  5
21F
330
4C4
100
AcDbEntity
  8
DATA
  6
Continuous
 62
     7
100
AcDbLine
 10
-159.000000004997
 20
-700.0
 30
0.0
 11
-159.000000004998
 21
-740.0000000000013
 31
0.0
  0
LINE
  5
220
330
4C4
100
AcDbEntity
  8
DATA
  6
Continuous
 62
     7
100
AcDbLine
 10
-159.000000004998
 20
-740.0000000000013
 30
0.0
 11
-167.0000000049971
 21
-740.0000000000013
 31
0.0
  0
LINE
  5
221
330
4C4
100
AcDbEntity
  8
DATA
  6
Continuous
 62
     7
100
AcDbLine
 10
-170.0000000049992
 20
-700.0
 30
0.0
 11
-167.0000000049971
 21
-700.0
 31
0.0
  0
LINE
  5
222
330
4C4
100
AcDbEntity
  8
DATA
  6
Continuous
 62
     7
100
AcDbLine
 10
-167.0000000049971
 20
-700.0
 30
0.0
 11
-167.0000000049973
 21
-740.0000000000013
 31
0.0
  0
LINE
  5
223
330
4C4
100
AcDbEntity
  8
DATA
  6
Continuous
 62
     7
100
AcDbLine
 10
-167.0000000049973
 20
-740.0000000000013
 30
0.0
 11
-170.0000000049973
 21
-740.0000000000013
 31
0.0
  0
LINE
  5
224
330
4C4
100
AcDbEntity
  8
DATA
  6
Continuous
 62
     7
100
AcDbLine
 10
-170.0000000049973
 20
-740.0000000000013
 30
0.0
 11
-170.0000000049992
 21
-700.0
 31
0.0
  0
LINE
  5
225
330
4C4
100
AcDbEntity
  8
DATA
  6
Continuous
 62
     7
100
AcDbLine
 10
-159.000000004998
 20
-740.0000000000013
 30
0.0
 11
-159.000000004997
 21
-700.0
 31
0.0
  0
LINE
  5
226
330
4C4
100
AcDbEntity
  8
DATA
  6
Continuous
 62
     7
100
AcDbLine
 10
-159.000000004997
 20
-700.0
 30
0.0
 11
-156.000000004997
 21
-700.0
 31
0.0
  0
LINE
  5
227
330
4C4
100
AcDbEntity
  8
DATA
  6
Continuous
 62
     7
100
AcDbLine
 10
-156.000000004997
 20
-700.0
 30
0.0
 11
-156.000000004997
 21
-740.0000000000013
 31
0.0
  0
LINE
  5
228
330
4C4
100
AcDbEntity
  8
DATA
  6
Continuous
 62
     7
100
AcDbLine
 10
-156.000000004997
 20
-740.0000000000013
 30
0.0
 11
-159.000000004998
 21
-740.0000000000009
 31
0.0
  0
LINE
  5
229
330
4C4
100
AcDbEntity
  8
DATA
  6
Continuous
 62
     7
100
AcDbLine
 10
-204.9999999999982
 20
-400.0
 30
0.0
 11
-244.999999999998
 21
-400.0
 31
0.0
  0
LINE
  5
22A
330
4C4
100
AcDbEntity
  8
DATA
  6
Continuous
 62
     7
100
AcDbLine
 10
-244.999999999998
 20
-400.0
 30
0.0
 11
-244.999999999998
 21
-405.0
 31
0.0
  0
LINE
  5
22B
330
4C4
100
AcDbEntity
  8
DATA
  6
Continuous
 62
     7
100
AcDbLine
 10
-244.999999999998
 20
-405.0
 30
0.0
 11
-204.9999999999982
 21
-405.0
 31
0.0
  0
LINE
  5
22C
330
4C4
100
AcDbEntity
  8
DATA
  6
Continuous
 62
     7
100
AcDbLine
 10
-204.9999999999982
 20
-405.0
 30
0.0
 11
-204.9999999999982
 21
-400.0
 31
0.0
  0
LINE
  5
22D
330
4C4
100
AcDbEntity
  8
DATA
  6
Continuous
 62
     7
100
AcDbLine
 10
-169.9999999999985
 20
-400.0
 30
0.0
 11
-159.9999999999966
 21
-400.0
 31
0.0
  0
LINE
  5
22E
330
4C4
100
AcDbEntity
  8
DATA
  6
Continuous
 62
     7
100
AcDbLine
 10
-159.9999999999966
 20
-400.0
 30
0.0
 11
-159.9999999999966
 21
-398.0
 31
0.0
  0
LINE
  5
22F
330
4C4
100
AcDbEntity
  8
DATA
  6
Continuous
 62
     7
100
AcDbLine
 10
-177.9999999999973
 20
-281.9999999999995
 30
0.0
 11
-277.9999999999966
 21
-382.0
 31
0.0
  0
LINE
  5
230
330
4C4
100
AcDbEntity
  8
DATA
  6
Continuous
 62
     7
100
AcDbLine
 10
-277.9999999999966
 20
-382.0
 30
0.0
 11
-177.9999999999969
 21
-381.9999999999927
 31
0.0
  0
LINE
  5
231
330
4C4
100
AcDbEntity
  8
DATA
  6
Continuous
 62
     7
100
AcDbLine
 10
-177.9999999999969
 20
-381.9999999999927
 30
0.0
 11
-177.9999999999973
 21
-281.9999999999995
 31
0.0
  0
LINE
  5
232
330
4C4
100
AcDbEntity
  8
DATA
  6
Continuous
 62
     7
100
AcDbLine
 10
-228.2356370010648
 20
-248.9786941793381
 30
0.0
 11
-225.8555769801911
 21
-247.1524098923119
 31
0.0
  0
LINE
  5
233
330
4C4
100
AcDbEntity
  8
DATA
  6
Continuous
 62
     7
100
AcDbLine
 10
-225.8555769801911
 20
-247.1524098923119
 30
0.0
 11
-226.2471555568512
 21
-244.1780753081904
 31
0.0
  0
LINE
  5
234
330
4C4
100
AcDbEntity
  8
DATA
  6
Continuous
 62
     7
100
AcDbLine
 10
-226.2471555568512
 20
-244.1780753081904
 30
0.0
 11
-229.018794154385
 21
-243.0300250110951
 31
0.0
  0
LINE
  5
235
330
4C4
100
AcDbEntity
  8
DATA
  6
Continuous
 62
     7
100
AcDbLine
 10
-229.018794154385
 20
-243.0300250110951
 30
0.0
 11
-231.3988541752588
 21
-244.8563092981214
 31
0.0
  0
LINE
  5
236
330
4C4
100
AcDbEntity
  8
DATA
  6
Continuous
 62
     7
100
AcDbLine
 10
-231.3988541752588
 20
-244.8563092981214
 30
0.0
 11
-231.0072755985987
 21
-247.8306438822429
 31
0.0
  0
LINE
  5
237
330
4C4
100
AcDbEntity
  8
DATA
  6
Continuous
 62
     7
100
AcDbLine
 10
-231.0072755985987
 20
-247.8306438822429
 30
0.0
 11
-228.2356370010648
 21
-248.9786941793381
 31
0.0
  0
LINE
  5
238
330
4C4
100
AcDbEntity
  8
DATA
  6
Continuous
 62
     7
100
AcDbLine
 10
-226.2334178397181
 20
-105.8550904748024
 30
0.0
 11
-225.8418392630581
 21
-102.8807558906809
 31
0.0
  0
LINE
  5
239
330
4C4
100
AcDbEntity
  8
DATA
  6
Continuous
 62
     7
100
AcDbLine
 10
-225.8418392630581
 20
-102.8807558906809
 30
0.0
 11
-228.2218992839319
 21
-101.0544716036547
 31
0.0
  0
LINE
  5
23A
330
4C4
100
AcDbEntity
  8
DATA
  6
Continuous
 62
     7
100
AcDbLine
 10
-228.2218992839319
 20
-101.0544716036547
 30
0.0
 11
-230.9935378814656
 21
-102.2025219007499
 31
0.0
  0
LINE
  5
23B
330
4C4
100
AcDbEntity
  8
DATA
  6
Continuous
 62
     7
100
AcDbLine
 10
-230.9935378814656
 20
-102.2025219007499
 30
0.0
 11
-231.3851164581259
 21
-105.1768564848713
 31
0.0
  0
LINE
  5
23C
330
4C4
100
AcDbEntity
  8
DATA
  6
Continuous
 62
     7
100
AcDbLine
 10
-231.3851164581259
 20
-105.1768564848713
 30
0.0
 11
-229.0050564372521
 21
-107.0031407718974
 31
0.0
  0
LINE
  5
23D
330
4C4
100
AcDbEntity
  8
DATA
  6
Continuous
 62
     7
100
AcDbLine
 10
-229.0050564372521
 20
-107.0031407718974
 30
0.0
 11
-226.2334178397181
 21
-105.8550904748024
 31
0.0
  0
LINE
  5
23E
330
4C4
100
AcDbEntity
  8
DATA
  6
Continuous
 62
     7
100
AcDbLine
 10
-622.0000000000019
 20
31.99999999999375
 30
0.0
 11
-177.9999999999971
 21
31.99999999999989
 31
0.0
  0
LINE
  5
23F
330
4C4
100
AcDbEntity
  8
DATA
  6
Continuous
 62
     7
100
AcDbLine
 10
-651.0000000000027
 20
47.00000000000226
 30
0.0
 11
-644.0000000000025
 21
47.00000000000226
 31
0.0
  0
LINE
  5
240
330
4C4
100
AcDbEntity
  8
DATA
  6
Continuous
 62
     7
100
AcDbLine
 10
-644.0000000000025
 20
47.00000000000226
 30
0.0
 11
-644.0000000000025
 21
29.00000000000216
 31
0.0
  0
LINE
  5
241
330
4C4
100
AcDbEntity
  8
DATA
  6
Continuous
 62
     7
100
AcDbLine
 10
-644.0000000000025
 20
29.00000000000216
 30
0.0
 11
-651.0000000000027
 21
29.00000000000216
 31
0.0
  0
LINE
  5
242
330
4C4
100
AcDbEntity
  8
DATA
  6
Continuous
 62
     7
100
AcDbLine
 10
-651.0000000000027
 20
29.00000000000216
 30
0.0
 11
-651.0000000000027
 21
47.00000000000226
 31
0.0
  0
LINE
  5
243
330
4C4
100
AcDbEntity
  8
DATA
  6
Continuous
 62
     7
100
AcDbLine
 10
-651.0000000000027
 20
9.000000000002216
 30
0.0
 11
-644.0000000000025
 21
9.000000000002216
 31
0.0
  0
LINE
  5
244
330
4C4
100
AcDbEntity
  8
DATA
  6
Continuous
 62
     7
100
AcDbLine
 10
-644.0000000000025
 20
9.000000000002216
 30
0.0
 11
-644.0000000000025
 21
3.620151351167919
 31
0.0
  0
LINE
  5
245
330
4C4
100
AcDbEntity
  8
DATA
  6
Continuous
 62
     7
100
AcDbLine
 10
-644.0000000000025
 20
3.620151351167919
 30
0.0
 11
-651.0000000000027
 21
3.620151351167919
 31
0.0
  0
LINE
  5
246
330
4C4
100
AcDbEntity
  8
DATA
  6
Continuous
 62
     7
100
AcDbLine
 10
-651.0000000000027
 20
3.620151351167919
 30
0.0
 11
-651.0000000000027
 21
9.000000000002216
 31
0.0
  0
LINE
  5
247
330
4C4
100
AcDbEntity
  8
DATA
  6
Continuous
 62
     7
100
AcDbLine
 10
-651.0000000000027
 20
27.00000000000239
 30
0.0
 11
-644.0000000000025
 21
27.00000000000239
 31
0.0
  0
LINE
  5
248
330
4C4
100
AcDbEntity
  8
DATA
  6
Continuous
 62
     7
100
AcDbLine
 10
-644.0000000000025
 20
27.00000000000239
 30
0.0
 11
-644.0000000000025
 21
9.000000000002216
 31
0.0
  0
LINE
  5
249
330
4C4
100
AcDbEntity
  8
DATA
  6
Continuous
 62
     7
100
AcDbLine
 10
-644.0000000000025
 20
9.000000000002216
 30
0.0
 11
-651.0000000000027
 21
9.000000000002216
 31
0.0
  0
LINE
  5
24A
330
4C4
100
AcDbEntity
  8
DATA
  6
Continuous
 62
     7
100
AcDbLine
 10
-651.0000000000027
 20
9.000000000002216
 30
0.0
 11
-651.0000000000027
 21
27.00000000000239
 31
0.0
  0
LINE
  5
24B
330
4C4
100
AcDbEntity
  8
DATA
  6
Continuous
 62
     7
100
AcDbLine
 10
-630.0000000000015
 20
50.00000000000017
 30
0.0
 11
-640.0000000000027
 21
50.00000000000074
 31
0.0
  0
LINE
  5
24C
330
4C4
100
AcDbEntity
  8
DATA
  6
Continuous
 62
     7
100
AcDbLine
 10
-640.0000000000027
 20
50.00000000000074
 30
0.0
 11
-640.0000000000027
 21
48.0000000000008
 31
0.0
  0
LINE
  5
24D
330
4C4
100
AcDbEntity
  8
DATA
  6
Continuous
 62
     7
100
AcDbLine
 10
-148.9999999999968
 20
47.00000000000226
 30
0.0
 11
-155.9999999999968
 21
47.00000000000226
 31
0.0
  0
LINE
  5
24E
330
4C4
100
AcDbEntity
  8
DATA
  6
Continuous
 62
     7
100
AcDbLine
 10
-155.9999999999968
 20
47.00000000000226
 30
0.0
 11
-155.9999999999968
 21
29.00000000000216
 31
0.0
  0
LINE
  5
24F
330
4C4
100
AcDbEntity
  8
DATA
  6
Continuous
 62
     7
100
AcDbLine
 10
-155.9999999999968
 20
29.00000000000216
 30
0.0
 11
-148.9999999999968
 21
29.00000000000216
 31
0.0
  0
LINE
  5
250
330
4C4
100
AcDbEntity
  8
DATA
  6
Continuous
 62
     7
100
AcDbLine
 10
-148.9999999999968
 20
29.00000000000216
 30
0.0
 11
-148.9999999999968
 21
47.00000000000226
 31
0.0
  0
LINE
  5
251
330
4C4
100
AcDbEntity
  8
DATA
  6
Continuous
 62
     7
100
AcDbLine
 10
-148.9999999999968
 20
9.000000000002216
 30
0.0
 11
-155.9999999999968
 21
9.000000000002216
 31
0.0
  0
LINE
  5
252
330
4C4
100
AcDbEntity
  8
DATA
  6
Continuous
 62
     7
100
AcDbLine
 10
-155.9999999999968
 20
9.000000000002216
 30
0.0
 11
-155.9999999999968
 21
3.620151351167919
 31
0.0
  0
LINE
  5
253
330
4C4
100
AcDbEntity
  8
DATA
  6
Continuous
 62
     7
100
AcDbLine
 10
-155.9999999999968
 20
3.620151351167919
 30
0.0
 11
-148.9999999999968
 21
3.620151351167919
 31
0.0
  0
LINE
  5
254
330
4C4
100
AcDbEntity
  8
DATA
  6
Continuous
 62
     7
100
AcDbLine
 10
-148.9999999999968
 20
3.620151351167919
 30
0.0
 11
-148.9999999999968
 21
9.000000000002216
 31
0.0
  0
LINE
  5
255
330
4C4
100
AcDbEntity
  8
DATA
  6
Continuous
 62
     7
100
AcDbLine
 10
-148.9999999999968
 20
27.00000000000239
 30
0.0
 11
-155.9999999999968
 21
27.00000000000239
 31
0.0
  0
LINE
  5
256
330
4C4
100
AcDbEntity
  8
DATA
  6
Continuous
 62
     7
100
AcDbLine
 10
-155.9999999999968
 20
27.00000000000239
 30
0.0
 11
-155.9999999999968
 21
9.000000000002216
 31
0.0
  0
LINE
  5
257
330
4C4
100
AcDbEntity
  8
DATA
  6
Continuous
 62
     7
100
AcDbLine
 10
-155.9999999999968
 20
9.000000000002216
 30
0.0
 11
-148.9999999999968
 21
9.000000000002216
 31
0.0
  0
LINE
  5
258
330
4C4
100
AcDbEntity
  8
DATA
  6
Continuous
 62
     7
100
AcDbLine
 10
-148.9999999999968
 20
9.000000000002216
 30
0.0
 11
-148.9999999999968
 21
27.00000000000239
 31
0.0
  0
LINE
  5
259
330
4C4
100
AcDbEntity
  8
DATA
  6
Continuous
 62
     7
100
AcDbLine
 10
137.0
 20
49.99999999554625
 30
0.0
 11
109.0
 21
49.99999999554694
 31
0.0
  0
ARC
  5
25A
330
4C4
100
AcDbEntity
  8
DATA
  6
Continuous
 62
     7
100
AcDbCircle
 10
109.0000000000011
 20
40.99999999554552
 30
0.0
 40
9.000000000001422
100
AcDbArc
 50
90.00000000000868
 51
179.9999999999971
  0
LINE
  5
25B
330
4C4
100
AcDbEntity
  8
DATA
  6
Continuous
 62
     7
100
AcDbLine
 10
100.0
 20
40.99999999554597
 30
0.0
 11
100.0
 21
-391.0000000044541
 31
0.0
  0
ARC
  5
25C
330
4C4
100
AcDbEntity
  8
DATA
  6
Continuous
 62
     7
100
AcDbCircle
 10
108.9999999999982
 20
-391.0000000044578
 30
0.0
 40
8.999999999997925
100
AcDbArc
 50
179.9999999999768
 51
270.000000000013
  0
LINE
  5
25D
330
4C4
100
AcDbEntity
  8
DATA
  6
Continuous
 62
     7
100
AcDbLine
 10
109.0
 20
-400.0000000044559
 30
0.0
 11
690.9999999999959
 21
-400.0000000044541
 31
0.0
  0
ARC
  5
25E
330
4C4
100
AcDbEntity
  8
DATA
  6
Continuous
 62
     7
100
AcDbCircle
 10
690.9999999999959
 20
-391.0000000044541
 30
0.0
 40
9.0
100
AcDbArc
 50
270.0
 51
0.0
  0
LINE
  5
25F
330
4C4
100
AcDbEntity
  8
DATA
  6
Continuous
 62
     7
100
AcDbLine
 10
699.9999999999957
 20
-391.0000000044541
 30
0.0
 11
699.9999999999957
 21
40.99999999554597
 31
0.0
  0
ARC
  5
260
330
4C4
100
AcDbEntity
  8
DATA
  6
Continuous
 62
     7
100
AcDbCircle
 10
690.9999999999959
 20
40.99999999554597
 30
0.0
 40
8.999999999999772
100
AcDbArc
 50
0.0
 51
90.0
  0
LINE
  5
261
330
4C4
100
AcDbEntity
  8
DATA
  6
Continuous
 62
     7
100
AcDbLine
 10
690.9999999999959
 20
49.99999999554592
 30
0.0
 11
292.9999999999548
 21
49.99999999554672
 31
0.0
  0
ARC
  5
262
330
4C4
100
AcDbEntity
  8
DATA
  6
Continuous
 62
     7
100
AcDbCircle
 10
389.9308586866536
 20
-397.0000000044573
 30
0.0
 40
2.999999999997611
100
AcDbArc
 50
189.10605780058
 51
270.000000000013
  0
ARC
  5
263
330
4C4
100
AcDbEntity
  8
DATA
  6
Continuous
 62
     7
100
AcDbCircle
 10
290.2921960082027
 20
-412.9703331314283
 30
0.0
 40
97.91042879968859
100
AcDbArc
 50
9.106057800621753
 51
71.72177578815987
  0
LINE
  5
264
330
4C4
100
AcDbEntity
  8
DATA
  6
Continuous
 62
     7
100
AcDbLine
 10
320.9999999999959
 20
-320.0000000044538
 30
0.0
 11
320.9999999999959
 21
-85.10011405924398
 31
0.0
  0
ARC
  5
265
330
4C4
100
AcDbEntity
  8
DATA
  6
Continuous
 62
     7
100
AcDbCircle
 10
324.152910711308
 20
-84.4433904994562
 30
0.0
 40
3.220579417975928
100
AcDbArc
 50
117.024572856902
 51
191.7659753427112
  0
ARC
  5
266
330
4C4
100
AcDbEntity
  8
DATA
  6
Continuous
 62
     7
100
AcDbCircle
 10
266.1457097513177
 20
34.87006088516208
 30
0.0
 40
129.4470333590534
100
AcDbArc
 50
295.9005718895975
 51
5.254700910885618
  0
ARC
  5
267
330
4C4
100
AcDbEntity
  8
DATA
  6
Continuous
 62
     7
100
AcDbCircle
 10
398.0361234393205
 20
46.99999999554625
 30
0.0
 40
2.999999999999772
100
AcDbArc
 50
89.99999999999566
 51
185.2547009108963
  0
LINE
  5
268
330
4C4
100
AcDbEntity
  8
DATA
  6
Continuous
 62
     7
100
AcDbLine
 10
373.0000000000006
 20
-120.0000000044533
 30
0.0
 11
382.9500415973677
 21
-120.0000000044538
 31
0.0
  0
ARC
  5
269
330
4C4
100
AcDbEntity
  8
DATA
  6
Continuous
 62
     7
100
AcDbCircle
 10
413.0000000000001
 20
-59.00000000444712
 30
0.0
 40
68.00000000000555
100
AcDbArc
 50
243.7741160705505
 51
296.2258839294495
  0
LINE
  5
26A
330
4C4
100
AcDbEntity
  8
DATA
  6
Continuous
 62
     7
100
AcDbLine
 10
443.0499584026328
 20
-120.0000000044538
 30
0.0
 11
452.9999999999994
 21
-120.0000000044533
 31
0.0
  0
ARC
  5
26B
330
4C4
100
AcDbEntity
  8
DATA
  6
Continuous
 62
     7
100
AcDbCircle
 10
452.9999999999994
 20
-135.000000004453
 30
0.0
 40
14.99999999999949
100
AcDbArc
 50
0.0000000000130276
 51
90.00000000000088
  0
LINE
  5
26C
330
4C4
100
AcDbEntity
  8
DATA
  6
Continuous
 62
     7
100
AcDbLine
 10
467.9999999999991
 20
-135.0000000044496
 30
0.0
 11
468.0000000000003
 21
-144.9500416018154
 31
0.0
  0
ARC
  5
26D
330
4C4
100
AcDbEntity
  8
DATA
  6
Continuous
 62
     7
100
AcDbCircle
 10
529.0000000000043
 20
-175.0000000044515
 30
0.0
 40
68.00000000000489
100
AcDbArc
 50
153.7741160705467
 51
206.2258839294541
  0
LINE
  5
26E
330
4C4
100
AcDbEntity
  8
DATA
  6
Continuous
 62
     7
100
AcDbLine
 10
468.0000000000003
 20
-205.0499584070884
 30
0.0
 11
467.9999999999991
 21
-215.0000000044552
 31
0.0
  0
ARC
  5
26F
330
4C4
100
AcDbEntity
  8
DATA
  6
Continuous
 62
     7
100
AcDbCircle
 10
452.9999999999994
 20
-215.0000000044513
 30
0.0
 40
15.00000000000023
100
AcDbArc
 50
270.0000000000009
 51
359.9999999999853
  0
LINE
  5
270
330
4C4
100
AcDbEntity
  8
DATA
  6
Continuous
 62
     7
100
AcDbLine
 10
452.9999999999994
 20
-230.0000000044516
 30
0.0
 11
443.0499584026308
 21
-230.0000000044525
 31
0.0
  0
ARC
  5
271
330
4C4
100
AcDbEntity
  8
DATA
  6
Continuous
 62
     7
100
AcDbCircle
 10
412.9999999999991
 20
-291.0000000044599
 30
0.0
 40
68.0000000000059
100
AcDbArc
 50
63.77411607055141
 51
116.2258839294468
  0
LINE
  5
272
330
4C4
100
AcDbEntity
  8
DATA
  6
Continuous
 62
     7
100
AcDbLine
 10
382.9500415973697
 20
-230.0000000044516
 30
0.0
 11
373.0000000000006
 21
-230.0000000044525
 31
0.0
  0
ARC
  5
273
330
4C4
100
AcDbEntity
  8
DATA
  6
Continuous
 62
     7
100
AcDbCircle
 10
372.9999999999997
 20
-215.0000000044528
 30
0.0
 40
14.99999999999955
100
AcDbArc
 50
180.0000000000108
 51
270.0000000000009
  0
LINE
  5
274
330
4C4
100
AcDbEntity
  8
DATA
  6
Continuous
 62
     7
100
AcDbLine
 10
358.0000000000008
 20
-215.0000000044556
 30
0.0
 11
357.9999999999969
 21
-205.0499584070903
 31
0.0
  0
ARC
  5
275
330
4C4
100
AcDbEntity
  8
DATA
  6
Continuous
 62
     7
100
AcDbCircle
 10
296.9999999999918
 20
-175.0000000044507
 30
0.0
 40
68.00000000000792
100
AcDbArc
 50
333.7741160705447
 51
26.22588392944834
  0
LINE
  5
276
330
4C4
100
AcDbEntity
  8
DATA
  6
Continuous
 62
     7
100
AcDbLine
 10
358.0000000000008
 20
-144.9500416018185
 30
0.0
 11
357.999999999999
 21
-135.0000000044532
 31
0.0
  0
ARC
  5
277
330
4C4
100
AcDbEntity
  8
DATA
  6
Continuous
 62
     7
100
AcDbCircle
 10
372.9999999999967
 20
-135.0000000044514
 30
0.0
 40
14.99999999999807
100
AcDbArc
 50
89.99999999998612
 51
180.000000000007
  0
ARC
  5
278
330
4C4
100
AcDbEntity
  8
DATA
  6
Continuous
 62
     7
100
AcDbCircle
 10
261.9999999999988
 20
45.99999999554655
 30
0.0
 40
2.999999999999828
100
AcDbArc
 50
89.99999999999566
 51
180.0000000000066
  0
LINE
  5
279
330
4C4
100
AcDbEntity
  8
DATA
  6
Continuous
 62
     7
100
AcDbLine
 10
261.9999999999988
 20
48.99999999554625
 30
0.0
 11
317.9999999999948
 21
48.99999999554649
 31
0.0
  0
ARC
  5
27A
330
4C4
100
AcDbEntity
  8
DATA
  6
Continuous
 62
     7
100
AcDbCircle
 10
317.9999999999959
 20
45.99999999554677
 30
0.0
 40
2.999999999999545
100
AcDbArc
 50
359.9999999999978
 51
90.00000000000431
  0
LINE
  5
27B
330
4C4
100
AcDbEntity
  8
DATA
  6
Continuous
 62
     7
100
AcDbLine
 10
320.9999999999959
 20
45.99999999554666
 30
0.0
 11
320.9999999999959
 21
-396.0000000044542
 31
0.0
  0
ARC
  5
27C
330
4C4
100
AcDbEntity
  8
DATA
  6
Continuous
 62
     7
100
AcDbCircle
 10
317.9999999999948
 20
-396.0000000044542
 30
0.0
 40
3.0
100
AcDbArc
 50
270.0
 51
0.0
  0
LINE
  5
27D
330
4C4
100
AcDbEntity
  8
DATA
  6
Continuous
 62
     7
100
AcDbLine
 10
317.9999999999948
 20
-399.0000000044542
 30
0.0
 11
261.9999999999988
 21
-399.0000000044546
 31
0.0
  0
ARC
  5
27E
330
4C4
100
AcDbEntity
  8
DATA
  6
Continuous
 62
     7
100
AcDbCircle
 10
261.9999999999997
 20
-396.0000000044542
 30
0.0
 40
3.000000000000454
100
AcDbArc
 50
180.0000000000087
 51
269.9999999999913
  0
ARC
  5
27F
330
4C4
100
AcDbEntity
  8
DATA
  6
Continuous
 62
     7
100
AcDbCircle
 10
137.0
 20
-397.0000000044541
 30
0.0
 40
3.0
100
AcDbArc
 50
270.0
 51
0.0
  0
LINE
  5
280
330
4C4
100
AcDbEntity
  8
DATA
  6
Continuous
 62
     7
100
AcDbLine
 10
140.0000000000001
 20
-397.0000000044541
 30
0.0
 11
140.0000000000001
 21
46.99999999554625
 31
0.0
  0
ARC
  5
281
330
4C4
100
AcDbEntity
  8
DATA
  6
Continuous
 62
     7
100
AcDbCircle
 10
137.0
 20
46.99999999554603
 30
0.0
 40
3.000000000000226
100
AcDbArc
 50
0.0000000000043201
 51
89.9999999999957
  0
LINE
  5
282
330
4C4
100
AcDbEntity
  8
DATA
  6
Continuous
 62
     7
100
AcDbLine
 10
140.0000000000001
 20
49.99999999554625
 30
0.0
 11
140.0000000000001
 21
-372.0000000044539
 31
0.0
  0
LINE
  5
283
330
4C4
100
AcDbEntity
  8
DATA
  6
Continuous
 62
     7
100
AcDbLine
 10
140.0000000000001
 20
-372.0000000044539
 30
0.0
 11
150.9732270577711
 21
-398.1604252058972
 31
0.0
  0
ARC
  5
284
330
4C4
100
AcDbEntity
  8
DATA
  6
Continuous
 62
     7
100
AcDbCircle
 10
153.7397073761302
 20
-397.0000000044528
 30
0.0
 40
3.000000000002381
100
AcDbArc
 50
202.7560539496355
 51
269.9999999999826
  0
LINE
  5
285
330
4C4
100
AcDbEntity
  8
DATA
  6
Continuous
 62
     7
100
AcDbLine
 10
258.9999999999988
 20
49.99999999554603
 30
0.0
 11
259.0000000000006
 21
-400.0000000044555
 31
0.0
  0
LINE
  5
286
330
4C4
100
AcDbEntity
  8
DATA
  6
Continuous
 62
     7
100
AcDbLine
 10
134.2999999999932
 20
-19.90632658511109
 30
0.0
 11
134.2999999999973
 21
-59.00000000445211
 31
0.0
  0
ARC
  5
287
330
4C4
100
AcDbEntity
  8
DATA
  6
Continuous
 62
     7
100
AcDbCircle
 10
129.9999999999962
 20
-59.00000000445132
 30
0.0
 40
4.300000000001062
100
AcDbArc
 50
179.9999999999909
 51
359.9999999999909
  0
LINE
  5
288
330
4C4
100
AcDbEntity
  8
DATA
  6
Continuous
 62
     7
100
AcDbLine
 10
125.6999999999902
 20
-59.00000000445199
 30
0.0
 11
125.6999999999913
 21
-19.90632658510609
 31
0.0
  0
LINE
  5
289
330
4C4
100
AcDbEntity
  8
DATA
  6
Continuous
 62
     7
100
AcDbLine
 10
119.9999999999953
 20
49.99999999554694
 30
0.0
 11
119.9999999999962
 21
67.99999999554811
 31
0.0
  0
ARC
  5
28A
330
4C4
100
AcDbEntity
  8
DATA
  6
Continuous
 62
     7
100
AcDbCircle
 10
129.9999999999962
 20
67.99999999554811
 30
0.0
 40
10.0
100
AcDbArc
 50
0.0
 51
180.0
  0
LINE
  5
28B
330
4C4
100
AcDbEntity
  8
DATA
  6
Continuous
 62
     7
100
AcDbLine
 10
139.9999999999962
 20
67.99999999554811
 30
0.0
 11
140.0000000000001
 21
46.99999999554603
 31
0.0
  0
LINE
  5
28C
330
4C4
100
AcDbEntity
  8
DATA
  6
Continuous
 62
     7
100
AcDbLine
 10
292.9999999999548
 20
49.99999999554672
 30
0.0
 11
139.9999999999992
 21
49.99999999554694
 31
0.0
  0
POLYLINE
  5
28D
330
4C4
100
AcDbEntity
  8
DATA
  6
Continuous
 62
     7
100
AcDb3dPolyline
 66
     1
 10
0.0
 20
0.0
 30
0.0
 70
     8
  0
VERTEX
  5
28E
330
28D
100
AcDbEntity
  8
DATA
  6
Continuous
 62
     7
100
AcDbVertex
100
AcDb3dPolylineVertex
 10
-630.0000000067007
 20
420.9999999948496
 30
-0.0000101002096926
 70
    32
  0
VERTEX
  5
28F
330
28D
100
AcDbEntity
  8
DATA
  6
Continuous
 62
     7
100
AcDbVertex
100
AcDb3dPolylineVertex
 10
-630.0000000067007
 20
420.9999999948496
 30
0.0000029745690426
 70
    32
  0
SEQEND
  5
290
330
28D
100
AcDbEntity
  8
DATA
  6
Continuous
 62
     7
  0
POLYLINE
  5
291
330
4C4
100
AcDbEntity
  8
DATA
  6
Continuous
 62
     7
100
AcDb3dPolyline
 66
     1
 10
0.0
 20
0.0
 30
0.0
 70
     8
  0
VERTEX
  5
292
330
291
100
AcDbEntity
  8
DATA
  6
Continuous
 62
     7
100
AcDbVertex
100
AcDb3dPolylineVertex
 10
-170.0000000067029
 20
420.9999999948496
 30
0.0000106386765992
 70
    32
  0
VERTEX
  5
293
330
291
100
AcDbEntity
  8
DATA
  6
Continuous
 62
     7
100
AcDbVertex
100
AcDb3dPolylineVertex
 10
-170.0000000067024
 20
420.9999999948496
 30
-0.0000024361022497
 70
    32
  0
SEQEND
  5
294
330
291
100
AcDbEntity
  8
DATA
  6
Continuous
 62
     7
  0
POLYLINE
  5
295
330
4C4
100
AcDbEntity
  8
DATA
  6
Continuous
 62
     7
100
AcDb3dPolyline
 66
     1
 10
0.0
 20
0.0
 30
0.0
 70
     8
  0
VERTEX
  5
296
330
295
100
AcDbEntity
  8
DATA
  6
Continuous
 62
     7
100
AcDbVertex
100
AcDb3dPolylineVertex
 10
-630.0000000067016
 20
420.9999999948496
 30
0.0000106386765992
 70
    32
  0
VERTEX
  5
297
330
295
100
AcDbEntity
  8
DATA
  6
Continuous
 62
     7
100
AcDbVertex
100
AcDb3dPolylineVertex
 10
-630.0000000067016
 20
420.9999999948496
 30
-0.0000024361022497
 70
    32
  0
SEQEND
  5
298
330
295
100
AcDbEntity
  8
DATA
  6
Continuous
 62
     7
  0
CIRCLE
  5
299
330
4C4
100
AcDbEntity
  8
DATA
  6
Continuous
 62
     7
100
AcDbCircle
 10
-225.0000000067029
 20
269.9999999948608
 30
0.0
 40
20.0
  0
CIRCLE
  5
29A
330
4C4
100
AcDbEntity
  8
DATA
  6
Continuous
 62
     7
100
AcDbCircle
 10
-575.0000000067006
 20
269.999999994861
 30
0.0
 40
20.0
  0
CIRCLE
  5
29B
330
4C4
100
AcDbEntity
  8
DATA
  6
Continuous
 62
     7
100
AcDbCircle
 10
-575.0000000067006
 20
749.9999999948567
 30
0.0
 40
20.0
  0
CIRCLE
  5
29C
330
4C4
100
AcDbEntity
  8
DATA
  6
Continuous
 62
     7
100
AcDbCircle
 10
-225.0000000067029
 20
749.9999999948565
 30
0.0
 40
20.0
  0
LINE
  5
29D
330
4C4
100
AcDbEntity
  8
DATA
  6
Continuous
 62
     7
100
AcDbLine
 10
-178.0000000067031
 20
219.9999999948609
 30
0.0
 11
-178.0000000067034
 21
199.9999999948611
 31
0.0
  0
LINE
  5
29E
330
4C4
100
AcDbEntity
  8
DATA
  6
Continuous
 62
     7
100
AcDbLine
 10
-178.0000000067034
 20
199.9999999948611
 30
0.0
 11
-622.0000000067016
 21
199.9999999948611
 31
0.0
  0
LINE
  5
29F
330
4C4
100
AcDbEntity
  8
DATA
  6
Continuous
 62
     7
100
AcDbLine
 10
-622.0000000067016
 20
199.9999999948611
 30
0.0
 11
-622.0000000067016
 21
219.9999999948611
 31
0.0
  0
LINE
  5
2A0
330
4C4
100
AcDbEntity
  8
DATA
  6
Continuous
 62
     7
100
AcDbLine
 10
-622.0000000067016
 20
219.9999999948611
 30
0.0
 11
-178.0000000067031
 21
219.9999999948609
 31
0.0
  0
LINE
  5
2A1
330
4C4
100
AcDbEntity
  8
DATA
  6
Continuous
 62
     7
100
AcDbLine
 10
-178.0000000067031
 20
219.9999999948609
 30
0.0
 11
-178.0000000067027
 21
199.9999999948611
 31
0.0
  0
LINE
  5
2A2
330
4C4
100
AcDbEntity
  8
DATA
  6
Continuous
 62
     7
100
AcDbLine
 10
-178.0000000067027
 20
199.9999999948611
 30
0.0
 11
-170.0000000067045
 21
199.9999999948611
 31
0.0
  0
LINE
  5
2A3
330
4C4
100
AcDbEntity
  8
DATA
  6
Continuous
 62
     7
100
AcDbLine
 10
-170.0000000067045
 20
199.9999999948611
 30
0.0
 11
-170.0000000067045
 21
240.9999999948625
 31
0.0
  0
LINE
  5
2A4
330
4C4
100
AcDbEntity
  8
DATA
  6
Continuous
 62
     7
100
AcDbLine
 10
-170.0000000067045
 20
240.9999999948625
 30
0.0
 11
-160.0000000067026
 21
240.9999999948625
 31
0.0
  0
LINE
  5
2A5
330
4C4
100
AcDbEntity
  8
DATA
  6
Continuous
 62
     7
100
AcDbLine
 10
-160.0000000067026
 20
240.9999999948625
 30
0.0
 11
-160.0000000067035
 21
357.9999999948604
 31
0.0
  0
LINE
  5
2A6
330
4C4
100
AcDbEntity
  8
DATA
  6
Continuous
 62
     7
100
AcDbLine
 10
-160.0000000067035
 20
357.9999999948604
 30
0.0
 11
-170.0000000067083
 21
357.9999999948604
 31
0.0
  0
LINE
  5
2A7
330
4C4
100
AcDbEntity
  8
DATA
  6
Continuous
 62
     7
100
AcDbLine
 10
-170.0000000067083
 20
357.9999999948604
 30
0.0
 11
-170.0000000067008
 21
495.8197920188884
 31
0.0
  0
LINE
  5
2A8
330
4C4
100
AcDbEntity
  8
DATA
  6
Continuous
 62
     7
100
AcDbLine
 10
-170.0000000067008
 20
495.8197920188884
 30
0.0
 11
-160.0000000067024
 21
495.8197920188884
 31
0.0
  0
LINE
  5
2A9
330
4C4
100
AcDbEntity
  8
DATA
  6
Continuous
 62
     7
100
AcDbLine
 10
-160.0000000067024
 20
495.8197920188884
 30
0.0
 11
-160.0000000067024
 21
793.9999999948566
 31
0.0
  0
ARC
  5
2AA
330
4C4
100
AcDbEntity
  8
DATA
  6
Continuous
 62
     7
100
AcDbCircle
 10
-166.0000000067024
 20
793.9999999948566
 30
0.0
 40
6.000000000000056
100
AcDbArc
 50
0.0
 51
90.0
  0
LINE
  5
2AB
330
4C4
100
AcDbEntity
  8
DATA
  6
Continuous
 62
     7
100
AcDbLine
 10
-166.0000000067024
 20
799.9999999948567
 30
0.0
 11
-634.0000000067016
 21
799.9999999948575
 31
0.0
  0
ARC
  5
2AC
330
4C4
100
AcDbEntity
  8
DATA
  6
Continuous
 62
     7
100
AcDbCircle
 10
-634.0000000067016
 20
793.9999999948574
 30
0.0
 40
6.0
100
AcDbArc
 50
90.0
 51
180.0
  0
LINE
  5
2AD
330
4C4
100
AcDbEntity
  8
DATA
  6
Continuous
 62
     7
100
AcDbLine
 10
-640.0000000067016
 20
793.9999999948574
 30
0.0
 11
-640.0000000067016
 21
495.8197920188884
 31
0.0
  0
LINE
  5
2AE
330
4C4
100
AcDbEntity
  8
DATA
  6
Continuous
 62
     7
100
AcDbLine
 10
-640.0000000067016
 20
495.8197920188884
 30
0.0
 11
-630.0000000067016
 21
495.8197920188884
 31
0.0
  0
LINE
  5
2AF
330
4C4
100
AcDbEntity
  8
DATA
  6
Continuous
 62
     7
100
AcDbLine
 10
-630.0000000067016
 20
495.8197920188884
 30
0.0
 11
-630.0000000067016
 21
357.9999999948604
 31
0.0
  0
LINE
  5
2B0
330
4C4
100
AcDbEntity
  8
DATA
  6
Continuous
 62
     7
100
AcDbLine
 10
-630.0000000067016
 20
357.9999999948604
 30
0.0
 11
-640.0000000067016
 21
357.9999999948604
 31
0.0
  0
LINE
  5
2B1
330
4C4
100
AcDbEntity
  8
DATA
  6
Continuous
 62
     7
100
AcDbLine
 10
-640.0000000067016
 20
357.9999999948604
 30
0.0
 11
-640.0000000067016
 21
240.9999999948625
 31
0.0
  0
LINE
  5
2B2
330
4C4
100
AcDbEntity
  8
DATA
  6
Continuous
 62
     7
100
AcDbLine
 10
-640.0000000067016
 20
240.9999999948625
 30
0.0
 11
-630.0000000067016
 21
240.9999999948625
 31
0.0
  0
LINE
  5
2B3
330
4C4
100
AcDbEntity
  8
DATA
  6
Continuous
 62
     7
100
AcDbLine
 10
-630.0000000067016
 20
240.9999999948625
 30
0.0
 11
-630.0000000067016
 21
199.9999999948611
 31
0.0
  0
LINE
  5
2B4
330
4C4
100
AcDbEntity
  8
DATA
  6
Continuous
 62
     7
100
AcDbLine
 10
-630.0000000067016
 20
199.9999999948611
 30
0.0
 11
-622.0000000067016
 21
199.9999999948609
 31
0.0
  0
LINE
  5
2B5
330
4C4
100
AcDbEntity
  8
DATA
  6
Continuous
 62
     7
100
AcDbLine
 10
-622.0000000067016
 20
199.9999999948609
 30
0.0
 11
-622.0000000067016
 21
219.9999999948611
 31
0.0
  0
LINE
  5
2B6
330
4C4
100
AcDbEntity
  8
DATA
  6
Continuous
 62
     7
100
AcDbLine
 10
-622.0000000067016
 20
219.9999999948611
 30
0.0
 11
-178.0000000067031
 21
219.9999999948609
 31
0.0
  0
LINE
  5
2B7
330
4C4
100
AcDbEntity
  8
DATA
  6
Continuous
 62
     7
100
AcDbLine
 10
-159.0000000067026
 20
358.9999999948604
 30
0.0
 11
-167.0000000067024
 21
358.9999999948604
 31
0.0
  0
LINE
  5
2B8
330
4C4
100
AcDbEntity
  8
DATA
  6
Continuous
 62
     7
100
AcDbLine
 10
-167.0000000067024
 20
358.9999999948604
 30
0.0
 11
-167.0000000067038
 21
368.9999999948601
 31
0.0
  0
LINE
  5
2B9
330
4C4
100
AcDbEntity
  8
DATA
  6
Continuous
 62
     7
100
AcDbLine
 10
-167.0000000067038
 20
368.9999999948601
 30
0.0
 11
-159.0000000067024
 21
368.9999999948601
 31
0.0
  0
LINE
  5
2BA
330
4C4
100
AcDbEntity
  8
DATA
  6
Continuous
 62
     7
100
AcDbLine
 10
-159.0000000067024
 20
368.9999999948601
 30
0.0
 11
-159.0000000067037
 21
358.9999999948604
 31
0.0
  0
LINE
  5
2BB
330
4C4
100
AcDbEntity
  8
DATA
  6
Continuous
 62
     7
100
AcDbLine
 10
-170.0000000067024
 20
421.9999999948494
 30
0.0
 11
-160.0000000067024
 21
421.9999999948494
 31
0.0
  0
LINE
  5
2BC
330
4C4
100
AcDbEntity
  8
DATA
  6
Continuous
 62
     7
100
AcDbLine
 10
-160.0000000067024
 20
421.9999999948494
 30
0.0
 11
-160.0000000067024
 21
495.8197920188884
 31
0.0
  0
LINE
  5
2BD
330
4C4
100
AcDbEntity
  8
DATA
  6
Continuous
 62
     7
100
AcDbLine
 10
-160.0000000067024
 20
495.8197920188884
 30
0.0
 11
-170.0000000067024
 21
495.8197920188884
 31
0.0
  0
LINE
  5
2BE
330
4C4
100
AcDbEntity
  8
DATA
  6
Continuous
 62
     7
100
AcDbLine
 10
-170.0000000067024
 20
495.8197920188884
 30
0.0
 11
-170.0000000067024
 21
421.9999999948494
 31
0.0
  0
LINE
  5
2BF
330
4C4
100
AcDbEntity
  8
DATA
  6
Continuous
 62
     7
100
AcDbLine
 10
-159.0000000067026
 20
420.9999999948494
 30
0.0
 11
-167.000000006704
 21
420.9999999948494
 31
0.0
  0
LINE
  5
2C0
330
4C4
100
AcDbEntity
  8
DATA
  6
Continuous
 62
     7
100
AcDbLine
 10
-164.0000000067035
 20
390.9999999948603
 30
0.0
 11
-167.0000000067035
 21
390.9999999948603
 31
0.0
  0
LINE
  5
2C1
330
4C4
100
AcDbEntity
  8
DATA
  6
Continuous
 62
     7
100
AcDbLine
 10
-164.0000000067035
 20
400.9999999948603
 30
0.0
 11
-167.0000000067035
 21
400.9999999948603
 31
0.0
  0
LINE
  5
2C2
330
4C4
100
AcDbEntity
  8
DATA
  6
Continuous
 62
     7
100
AcDbLine
 10
-156.0000000067025
 20
358.9999999948604
 30
0.0
 11
-159.0000000067021
 21
358.9999999948602
 31
0.0
  0
LINE
  5
2C3
330
4C4
100
AcDbEntity
  8
DATA
  6
Continuous
 62
     7
100
AcDbLine
 10
-159.0000000067021
 20
358.9999999948602
 30
0.0
 11
-159.0000000067026
 21
420.9999999948494
 31
0.0
  0
LINE
  5
2C4
330
4C4
100
AcDbEntity
  8
DATA
  6
Continuous
 62
     7
100
AcDbLine
 10
-159.0000000067026
 20
420.9999999948494
 30
0.0
 11
-156.0000000067025
 21
420.9999999948494
 31
0.0
  0
LINE
  5
2C5
330
4C4
100
AcDbEntity
  8
DATA
  6
Continuous
 62
     7
100
AcDbLine
 10
-156.0000000067025
 20
420.9999999948494
 30
0.0
 11
-156.0000000067025
 21
358.9999999948604
 31
0.0
  0
LINE
  5
2C6
330
4C4
100
AcDbEntity
  8
DATA
  6
Continuous
 62
     7
100
AcDbLine
 10
-159.0000000067037
 20
385.9999999948524
 30
0.0
 11
-164.0000000067035
 21
385.9999999948524
 31
0.0
  0
LINE
  5
2C7
330
4C4
100
AcDbEntity
  8
DATA
  6
Continuous
 62
     7
100
AcDbLine
 10
-164.0000000067035
 20
385.9999999948524
 30
0.0
 11
-164.0000000067035
 21
405.9999999948523
 31
0.0
  0
LINE
  5
2C8
330
4C4
100
AcDbEntity
  8
DATA
  6
Continuous
 62
     7
100
AcDbLine
 10
-164.0000000067035
 20
405.9999999948523
 30
0.0
 11
-159.0000000067033
 21
405.9999999948568
 31
0.0
  0
LINE
  5
2C9
330
4C4
100
AcDbEntity
  8
DATA
  6
Continuous
 62
     7
100
AcDbLine
 10
-159.0000000067033
 20
405.9999999948568
 30
0.0
 11
-159.0000000067037
 21
385.9999999948524
 31
0.0
  0
LINE
  5
2CA
330
4C4
100
AcDbEntity
  8
DATA
  6
Continuous
 62
     7
100
AcDbLine
 10
-156.0000000067027
 20
386.9999999948602
 30
0.0
 11
-156.0000000067027
 21
404.9999999948601
 31
0.0
  0
LINE
  5
2CB
330
4C4
100
AcDbEntity
  8
DATA
  6
Continuous
 62
     7
100
AcDbLine
 10
-156.0000000067027
 20
404.9999999948601
 30
0.0
 11
-149.0000000067027
 21
404.9999999948601
 31
0.0
  0
LINE
  5
2CC
330
4C4
100
AcDbEntity
  8
DATA
  6
Continuous
 62
     7
100
AcDbLine
 10
-149.0000000067027
 20
404.9999999948601
 30
0.0
 11
-149.0000000067027
 21
386.9999999948602
 31
0.0
  0
LINE
  5
2CD
330
4C4
100
AcDbEntity
  8
DATA
  6
Continuous
 62
     7
100
AcDbLine
 10
-149.0000000067027
 20
386.9999999948602
 30
0.0
 11
-156.0000000067027
 21
386.9999999948602
 31
0.0
  0
LINE
  5
2CE
330
4C4
100
AcDbEntity
  8
DATA
  6
Continuous
 62
     7
100
AcDbLine
 10
-167.0000000067038
 20
358.9999999948604
 30
0.0
 11
-170.0000000067024
 21
358.9999999948604
 31
0.0
  0
LINE
  5
2CF
330
4C4
100
AcDbEntity
  8
DATA
  6
Continuous
 62
     7
100
AcDbLine
 10
-170.0000000067024
 20
358.9999999948604
 30
0.0
 11
-170.0000000067033
 21
420.9999999948496
 31
0.0
  0
LINE
  5
2D0
330
4C4
100
AcDbEntity
  8
DATA
  6
Continuous
 62
     7
100
AcDbLine
 10
-170.0000000067033
 20
420.9999999948496
 30
0.0
 11
-167.000000006704
 21
420.9999999948496
 31
0.0
  0
LINE
  5
2D1
330
4C4
100
AcDbEntity
  8
DATA
  6
Continuous
 62
     7
100
AcDbLine
 10
-167.000000006704
 20
420.9999999948496
 30
0.0
 11
-167.0000000067038
 21
358.9999999948604
 31
0.0
  0
LINE
  5
2D2
330
4C4
100
AcDbEntity
  8
DATA
  6
Continuous
 62
     7
100
AcDbLine
 10
-167.0000000067022
 20
199.9999999948613
 30
0.0
 11
-159.0000000067028
 21
199.9999999948611
 31
0.0
  0
LINE
  5
2D3
330
4C4
100
AcDbEntity
  8
DATA
  6
Continuous
 62
     7
100
AcDbLine
 10
-159.0000000067028
 20
199.9999999948611
 30
0.0
 11
-159.0000000067028
 21
216.999999994857
 31
0.0
  0
LINE
  5
2D4
330
4C4
100
AcDbEntity
  8
DATA
  6
Continuous
 62
     7
100
AcDbLine
 10
-159.0000000067028
 20
216.999999994857
 30
0.0
 11
-167.0000000067026
 21
216.999999994857
 31
0.0
  0
LINE
  5
2D5
330
4C4
100
AcDbEntity
  8
DATA
  6
Continuous
 62
     7
100
AcDbLine
 10
-167.0000000067026
 20
216.999999994857
 30
0.0
 11
-167.0000000067022
 21
199.9999999948613
 31
0.0
  0
LINE
  5
2D6
330
4C4
100
AcDbEntity
  8
DATA
  6
Continuous
 62
     7
100
AcDbLine
 10
-149.0000000067029
 20
221.0011659403419
 30
0.0
 11
-156.0000000067027
 21
221.0011659403419
 31
0.0
  0
LINE
  5
2D7
330
4C4
100
AcDbEntity
  8
DATA
  6
Continuous
 62
     7
100
AcDbLine
 10
-156.0000000067027
 20
221.0011659403419
 30
0.0
 11
-156.0000000067027
 21
239.0011659403419
 31
0.0
  0
LINE
  5
2D8
330
4C4
100
AcDbEntity
  8
DATA
  6
Continuous
 62
     7
100
AcDbLine
 10
-156.0000000067027
 20
239.0011659403419
 30
0.0
 11
-149.0000000067029
 21
239.0011659403419
 31
0.0
  0
LINE
  5
2D9
330
4C4
100
AcDbEntity
  8
DATA
  6
Continuous
 62
     7
100
AcDbLine
 10
-149.0000000067029
 20
239.0011659403419
 30
0.0
 11
-149.0000000067029
 21
221.0011659403419
 31
0.0
  0
LINE
  5
2DA
330
4C4
100
AcDbEntity
  8
DATA
  6
Continuous
 62
     7
100
AcDbLine
 10
-159.0000000067033
 20
239.9999999948625
 30
0.0
 11
-159.0000000067028
 21
199.9999999948611
 31
0.0
  0
LINE
  5
2DB
330
4C4
100
AcDbEntity
  8
DATA
  6
Continuous
 62
     7
100
AcDbLine
 10
-159.0000000067028
 20
199.9999999948611
 30
0.0
 11
-156.0000000067027
 21
199.9999999948611
 31
0.0
  0
LINE
  5
2DC
330
4C4
100
AcDbEntity
  8
DATA
  6
Continuous
 62
     7
100
AcDbLine
 10
-156.0000000067027
 20
199.9999999948611
 30
0.0
 11
-156.0000000067027
 21
239.9999999948625
 31
0.0
  0
LINE
  5
2DD
330
4C4
100
AcDbEntity
  8
DATA
  6
Continuous
 62
     7
100
AcDbLine
 10
-156.0000000067027
 20
239.9999999948625
 30
0.0
 11
-159.0000000067033
 21
239.999999994862
 31
0.0
  0
LINE
  5
2DE
330
4C4
100
AcDbEntity
  8
DATA
  6
Continuous
 62
     7
100
AcDbLine
 10
-159.0000000067021
 20
219.9999999948588
 30
0.0
 11
-164.0000000067019
 21
219.9999999948588
 31
0.0
  0
LINE
  5
2DF
330
4C4
100
AcDbEntity
  8
DATA
  6
Continuous
 62
     7
100
AcDbLine
 10
-164.0000000067019
 20
219.9999999948588
 30
0.0
 11
-164.0000000067021
 21
239.9999999948593
 31
0.0
  0
LINE
  5
2E0
330
4C4
100
AcDbEntity
  8
DATA
  6
Continuous
 62
     7
100
AcDbLine
 10
-164.0000000067021
 20
239.9999999948593
 30
0.0
 11
-159.0000000067033
 21
239.9999999948593
 31
0.0
  0
LINE
  5
2E1
330
4C4
100
AcDbEntity
  8
DATA
  6
Continuous
 62
     7
100
AcDbLine
 10
-159.0000000067033
 20
239.9999999948593
 30
0.0
 11
-159.000000006703
 21
222.9289321829944
 31
0.0
  0
LINE
  5
2E2
330
4C4
100
AcDbEntity
  8
DATA
  6
Continuous
 62
     7
100
AcDbLine
 10
-159.000000006703
 20
222.9289321829944
 30
0.0
 11
-159.0000000067021
 21
219.9999999948588
 31
0.0
  0
LINE
  5
2E3
330
4C4
100
AcDbEntity
  8
DATA
  6
Continuous
 62
     7
100
AcDbLine
 10
-170.0000000067045
 20
199.9999999948611
 30
0.0
 11
-167.0000000067026
 21
199.9999999948611
 31
0.0
  0
LINE
  5
2E4
330
4C4
100
AcDbEntity
  8
DATA
  6
Continuous
 62
     7
100
AcDbLine
 10
-167.0000000067026
 20
199.9999999948611
 30
0.0
 11
-167.0000000067026
 21
239.9999999948625
 31
0.0
  0
LINE
  5
2E5
330
4C4
100
AcDbEntity
  8
DATA
  6
Continuous
 62
     7
100
AcDbLine
 10
-167.0000000067026
 20
239.9999999948625
 30
0.0
 11
-170.0000000067024
 21
239.9999999948625
 31
0.0
  0
LINE
  5
2E6
330
4C4
100
AcDbEntity
  8
DATA
  6
Continuous
 62
     7
100
AcDbLine
 10
-170.0000000067024
 20
239.9999999948625
 30
0.0
 11
-170.0000000067045
 21
199.9999999948611
 31
0.0
  0
CIRCLE
  5
2E7
330
4C4
100
AcDbEntity
  8
DATA
  6
Continuous
 62
     7
100
AcDbCircle
 10
-400.0000000067016
 20
399.999999994861
 30
0.0
 40
9.999999999999772
  0
CIRCLE
  5
2E8
330
4C4
100
AcDbEntity
  8
DATA
  6
Continuous
 62
     7
100
AcDbCircle
 10
-428.2842712541606
 20
371.7157287473993
 30
0.0
 40
6.0
  0
CIRCLE
  5
2E9
330
4C4
100
AcDbEntity
  8
DATA
  6
Continuous
 62
     7
100
AcDbCircle
 10
-371.7157287592389
 20
371.7157287473991
 30
0.0
 40
5.999999999999886
  0
CIRCLE
  5
2EA
330
4C4
100
AcDbEntity
  8
DATA
  6
Continuous
 62
     7
100
AcDbCircle
 10
-371.7157287592389
 20
428.2842712423226
 30
0.0
 40
5.999999999999886
  0
CIRCLE
  5
2EB
330
4C4
100
AcDbEntity
  8
DATA
  6
Continuous
 62
     7
100
AcDbCircle
 10
-428.2842712541606
 20
428.2842712423226
 30
0.0
 40
6.0
  0
CIRCLE
  5
2EC
330
4C4
100
AcDbEntity
  8
DATA
  6
Continuous
 62
     7
100
AcDbCircle
 10
-400.0000000067021
 20
399.999999994861
 30
0.0
 40
53.49999999999933
  0
LINE
  5
2ED
330
4C4
100
AcDbEntity
  8
DATA
  6
Continuous
 62
     7
100
AcDbLine
 10
-644.0000000067017
 20
358.9999999948604
 30
0.0
 11
-641.0000000067017
 21
358.9999999948602
 31
0.0
  0
LINE
  5
2EE
330
4C4
100
AcDbEntity
  8
DATA
  6
Continuous
 62
     7
100
AcDbLine
 10
-641.0000000067017
 20
358.9999999948602
 30
0.0
 11
-641.0000000067017
 21
420.9999999948494
 31
0.0
  0
LINE
  5
2EF
330
4C4
100
AcDbEntity
  8
DATA
  6
Continuous
 62
     7
100
AcDbLine
 10
-641.0000000067017
 20
420.9999999948494
 30
0.0
 11
-644.0000000067017
 21
420.9999999948494
 31
0.0
  0
LINE
  5
2F0
330
4C4
100
AcDbEntity
  8
DATA
  6
Continuous
 62
     7
100
AcDbLine
 10
-644.0000000067017
 20
420.9999999948494
 30
0.0
 11
-644.0000000067017
 21
358.9999999948604
 31
0.0
  0
LINE
  5
2F1
330
4C4
100
AcDbEntity
  8
DATA
  6
Continuous
 62
     7
100
AcDbLine
 10
-633.0000000067006
 20
358.9999999948604
 30
0.0
 11
-630.0000000067016
 21
358.9999999948604
 31
0.0
  0
LINE
  5
2F2
330
4C4
100
AcDbEntity
  8
DATA
  6
Continuous
 62
     7
100
AcDbLine
 10
-630.0000000067016
 20
358.9999999948604
 30
0.0
 11
-630.0000000067007
 21
420.9999999948496
 31
0.0
  0
LINE
  5
2F3
330
4C4
100
AcDbEntity
  8
DATA
  6
Continuous
 62
     7
100
AcDbLine
 10
-630.0000000067007
 20
420.9999999948496
 30
0.0
 11
-633.0000000067006
 21
420.9999999948496
 31
0.0
  0
LINE
  5
2F4
330
4C4
100
AcDbEntity
  8
DATA
  6
Continuous
 62
     7
100
AcDbLine
 10
-633.0000000067006
 20
420.9999999948496
 30
0.0
 11
-633.0000000067006
 21
358.9999999948604
 31
0.0
  0
LINE
  5
2F5
330
4C4
100
AcDbEntity
  8
DATA
  6
Continuous
 62
     7
100
AcDbLine
 10
-630.0000000067016
 20
421.9999999948494
 30
0.0
 11
-640.0000000067016
 21
421.9999999948494
 31
0.0
  0
LINE
  5
2F6
330
4C4
100
AcDbEntity
  8
DATA
  6
Continuous
 62
     7
100
AcDbLine
 10
-640.0000000067016
 20
421.9999999948494
 30
0.0
 11
-640.0000000067016
 21
495.8197920188884
 31
0.0
  0
LINE
  5
2F7
330
4C4
100
AcDbEntity
  8
DATA
  6
Continuous
 62
     7
100
AcDbLine
 10
-640.0000000067016
 20
495.8197920188884
 30
0.0
 11
-630.0000000067016
 21
495.8197920188884
 31
0.0
  0
LINE
  5
2F8
330
4C4
100
AcDbEntity
  8
DATA
  6
Continuous
 62
     7
100
AcDbLine
 10
-630.0000000067016
 20
495.8197920188884
 30
0.0
 11
-630.0000000067016
 21
421.9999999948494
 31
0.0
  0
LINE
  5
2F9
330
4C4
100
AcDbEntity
  8
DATA
  6
Continuous
 62
     7
100
AcDbLine
 10
-641.0000000067017
 20
420.9999999948494
 30
0.0
 11
-633.0000000067006
 21
420.9999999948494
 31
0.0
  0
LINE
  5
2FA
330
4C4
100
AcDbEntity
  8
DATA
  6
Continuous
 62
     7
100
AcDbLine
 10
-641.0000000067009
 20
385.9999999948524
 30
0.0
 11
-636.0000000067009
 21
385.9999999948524
 31
0.0
  0
LINE
  5
2FB
330
4C4
100
AcDbEntity
  8
DATA
  6
Continuous
 62
     7
100
AcDbLine
 10
-636.0000000067009
 20
385.9999999948524
 30
0.0
 11
-636.0000000067009
 21
405.9999999948523
 31
0.0
  0
LINE
  5
2FC
330
4C4
100
AcDbEntity
  8
DATA
  6
Continuous
 62
     7
100
AcDbLine
 10
-636.0000000067009
 20
405.9999999948523
 30
0.0
 11
-641.0000000067017
 21
405.9999999948568
 31
0.0
  0
LINE
  5
2FD
330
4C4
100
AcDbEntity
  8
DATA
  6
Continuous
 62
     7
100
AcDbLine
 10
-641.0000000067017
 20
405.9999999948568
 30
0.0
 11
-641.0000000067009
 21
385.9999999948524
 31
0.0
  0
LINE
  5
2FE
330
4C4
100
AcDbEntity
  8
DATA
  6
Continuous
 62
     7
100
AcDbLine
 10
-641.0000000067017
 20
358.9999999948604
 30
0.0
 11
-633.0000000067016
 21
358.9999999948604
 31
0.0
  0
LINE
  5
2FF
330
4C4
100
AcDbEntity
  8
DATA
  6
Continuous
 62
     7
100
AcDbLine
 10
-633.0000000067016
 20
358.9999999948604
 30
0.0
 11
-633.0000000067006
 21
368.9999999948601
 31
0.0
  0
LINE
  5
300
330
4C4
100
AcDbEntity
  8
DATA
  6
Continuous
 62
     7
100
AcDbLine
 10
-633.0000000067006
 20
368.9999999948601
 30
0.0
 11
-641.0000000067017
 21
368.9999999948601
 31
0.0
  0
LINE
  5
301
330
4C4
100
AcDbEntity
  8
DATA
  6
Continuous
 62
     7
100
AcDbLine
 10
-641.0000000067017
 20
368.9999999948601
 30
0.0
 11
-641.0000000067009
 21
358.9999999948604
 31
0.0
  0
LINE
  5
302
330
4C4
100
AcDbEntity
  8
DATA
  6
Continuous
 62
     7
100
AcDbLine
 10
-636.0000000067009
 20
400.9999999948603
 30
0.0
 11
-633.0000000067006
 21
400.9999999948603
 31
0.0
  0
LINE
  5
303
330
4C4
100
AcDbEntity
  8
DATA
  6
Continuous
 62
     7
100
AcDbLine
 10
-636.0000000067009
 20
390.9999999948603
 30
0.0
 11
-633.0000000067006
 21
390.9999999948603
 31
0.0
  0
LINE
  5
304
330
4C4
100
AcDbEntity
  8
DATA
  6
Continuous
 62
     7
100
AcDbLine
 10
-644.0000000067017
 20
386.9999999948602
 30
0.0
 11
-644.0000000067017
 21
404.9999999948601
 31
0.0
  0
LINE
  5
305
330
4C4
100
AcDbEntity
  8
DATA
  6
Continuous
 62
     7
100
AcDbLine
 10
-644.0000000067017
 20
404.9999999948601
 30
0.0
 11
-651.0000000067017
 21
404.9999999948601
 31
0.0
  0
LINE
  5
306
330
4C4
100
AcDbEntity
  8
DATA
  6
Continuous
 62
     7
100
AcDbLine
 10
-651.0000000067017
 20
404.9999999948601
 30
0.0
 11
-651.0000000067017
 21
386.9999999948602
 31
0.0
  0
LINE
  5
307
330
4C4
100
AcDbEntity
  8
DATA
  6
Continuous
 62
     7
100
AcDbLine
 10
-651.0000000067017
 20
386.9999999948602
 30
0.0
 11
-644.0000000067017
 21
386.9999999948602
 31
0.0
  0
LINE
  5
308
330
4C4
100
AcDbEntity
  8
DATA
  6
Continuous
 62
     7
100
AcDbLine
 10
-651.000000006703
 20
221.0011659403419
 30
0.0
 11
-644.0000000067031
 21
221.0011659403419
 31
0.0
  0
LINE
  5
309
330
4C4
100
AcDbEntity
  8
DATA
  6
Continuous
 62
     7
100
AcDbLine
 10
-644.0000000067031
 20
221.0011659403419
 30
0.0
 11
-644.0000000067031
 21
239.0011659403419
 31
0.0
  0
LINE
  5
30A
330
4C4
100
AcDbEntity
  8
DATA
  6
Continuous
 62
     7
100
AcDbLine
 10
-644.0000000067031
 20
239.0011659403419
 30
0.0
 11
-651.000000006703
 21
239.0011659403419
 31
0.0
  0
LINE
  5
30B
330
4C4
100
AcDbEntity
  8
DATA
  6
Continuous
 62
     7
100
AcDbLine
 10
-651.000000006703
 20
239.0011659403419
 30
0.0
 11
-651.000000006703
 21
221.0011659403419
 31
0.0
  0
LINE
  5
30C
330
4C4
100
AcDbEntity
  8
DATA
  6
Continuous
 62
     7
100
AcDbLine
 10
-641.0000000067017
 20
239.9999999948625
 30
0.0
 11
-641.0000000067017
 21
199.9999999948611
 31
0.0
  0
LINE
  5
30D
330
4C4
100
AcDbEntity
  8
DATA
  6
Continuous
 62
     7
100
AcDbLine
 10
-641.0000000067017
 20
199.9999999948611
 30
0.0
 11
-644.0000000067017
 21
199.9999999948611
 31
0.0
  0
LINE
  5
30E
330
4C4
100
AcDbEntity
  8
DATA
  6
Continuous
 62
     7
100
AcDbLine
 10
-644.0000000067017
 20
199.9999999948611
 30
0.0
 11
-644.0000000067017
 21
239.9999999948625
 31
0.0
  0
LINE
  5
30F
330
4C4
100
AcDbEntity
  8
DATA
  6
Continuous
 62
     7
100
AcDbLine
 10
-644.0000000067017
 20
239.9999999948625
 30
0.0
 11
-641.0000000067017
 21
239.999999994862
 31
0.0
  0
LINE
  5
310
330
4C4
100
AcDbEntity
  8
DATA
  6
Continuous
 62
     7
100
AcDbLine
 10
-641.000000006703
 20
219.9999999948588
 30
0.0
 11
-636.0000000067031
 21
219.9999999948588
 31
0.0
  0
LINE
  5
311
330
4C4
100
AcDbEntity
  8
DATA
  6
Continuous
 62
     7
100
AcDbLine
 10
-636.0000000067031
 20
219.9999999948588
 30
0.0
 11
-636.0000000067031
 21
239.9999999948593
 31
0.0
  0
LINE
  5
312
330
4C4
100
AcDbEntity
  8
DATA
  6
Continuous
 62
     7
100
AcDbLine
 10
-636.0000000067031
 20
239.9999999948593
 30
0.0
 11
-641.0000000067017
 21
239.9999999948593
 31
0.0
  0
LINE
  5
313
330
4C4
100
AcDbEntity
  8
DATA
  6
Continuous
 62
     7
100
AcDbLine
 10
-641.0000000067017
 20
239.9999999948593
 30
0.0
 11
-641.0000000067017
 21
222.9289321829944
 31
0.0
  0
LINE
  5
314
330
4C4
100
AcDbEntity
  8
DATA
  6
Continuous
 62
     7
100
AcDbLine
 10
-641.0000000067017
 20
222.9289321829944
 30
0.0
 11
-641.000000006703
 21
219.9999999948588
 31
0.0
  0
LINE
  5
315
330
4C4
100
AcDbEntity
  8
DATA
  6
Continuous
 62
     7
100
AcDbLine
 10
-630.0000000067007
 20
199.9999999948611
 30
0.0
 11
-633.0000000067016
 21
199.9999999948611
 31
0.0
  0
LINE
  5
316
330
4C4
100
AcDbEntity
  8
DATA
  6
Continuous
 62
     7
100
AcDbLine
 10
-633.0000000067016
 20
199.9999999948611
 30
0.0
 11
-633.0000000067016
 21
239.9999999948625
 31
0.0
  0
LINE
  5
317
330
4C4
100
AcDbEntity
  8
DATA
  6
Continuous
 62
     7
100
AcDbLine
 10
-633.0000000067016
 20
239.9999999948625
 30
0.0
 11
-630.0000000067016
 21
239.9999999948625
 31
0.0
  0
LINE
  5
318
330
4C4
100
AcDbEntity
  8
DATA
  6
Continuous
 62
     7
100
AcDbLine
 10
-630.0000000067016
 20
239.9999999948625
 30
0.0
 11
-630.0000000067007
 21
199.9999999948611
 31
0.0
  0
LINE
  5
319
330
4C4
100
AcDbEntity
  8
DATA
  6
Continuous
 62
     7
100
AcDbLine
 10
-633.000000006703
 20
199.9999999948613
 30
0.0
 11
-641.0000000067017
 21
199.9999999948611
 31
0.0
  0
LINE
  5
31A
330
4C4
100
AcDbEntity
  8
DATA
  6
Continuous
 62
     7
100
AcDbLine
 10
-641.0000000067017
 20
199.9999999948611
 30
0.0
 11
-641.0000000067017
 21
216.999999994857
 31
0.0
  0
LINE
  5
31B
330
4C4
100
AcDbEntity
  8
DATA
  6
Continuous
 62
     7
100
AcDbLine
 10
-641.0000000067017
 20
216.999999994857
 30
0.0
 11
-633.0000000067016
 21
216.999999994857
 31
0.0
  0
LINE
  5
31C
330
4C4
100
AcDbEntity
  8
DATA
  6
Continuous
 62
     7
100
AcDbLine
 10
-633.0000000067016
 20
216.999999994857
 30
0.0
 11
-633.000000006703
 21
199.9999999948613
 31
0.0
  0
LINE
  5
31D
330
4C4
100
AcDbEntity
  8
DATA
  6
Continuous
 62
     7
100
AcDbLine
 10
-370.4657287592389
 20
426.1192077328618
 30
0.0
 11
-369.215728759239
 21
428.2842712423226
 31
0.0
  0
LINE
  5
31E
330
4C4
100
AcDbEntity
  8
DATA
  6
Continuous
 62
     7
100
AcDbLine
 10
-369.215728759239
 20
428.2842712423226
 30
0.0
 11
-370.4657287592389
 21
430.449334751784
 31
0.0
  0
LINE
  5
31F
330
4C4
100
AcDbEntity
  8
DATA
  6
Continuous
 62
     7
100
AcDbLine
 10
-370.4657287592389
 20
430.449334751784
 30
0.0
 11
-372.9657287592387
 21
430.449334751784
 31
0.0
  0
LINE
  5
320
330
4C4
100
AcDbEntity
  8
DATA
  6
Continuous
 62
     7
100
AcDbLine
 10
-372.9657287592387
 20
430.449334751784
 30
0.0
 11
-374.2157287592389
 21
428.2842712423226
 31
0.0
  0
LINE
  5
321
330
4C4
100
AcDbEntity
  8
DATA
  6
Continuous
 62
     7
100
AcDbLine
 10
-374.2157287592389
 20
428.2842712423226
 30
0.0
 11
-372.9657287592387
 21
426.1192077328618
 31
0.0
  0
LINE
  5
322
330
4C4
100
AcDbEntity
  8
DATA
  6
Continuous
 62
     7
100
AcDbLine
 10
-372.9657287592387
 20
426.1192077328618
 30
0.0
 11
-370.4657287592389
 21
426.1192077328618
 31
0.0
  0
LINE
  5
323
330
4C4
100
AcDbEntity
  8
DATA
  6
Continuous
 62
     7
100
AcDbLine
 10
-427.0342712541603
 20
426.1192077328618
 30
0.0
 11
-425.7842712541606
 21
428.2842712423226
 31
0.0
  0
LINE
  5
324
330
4C4
100
AcDbEntity
  8
DATA
  6
Continuous
 62
     7
100
AcDbLine
 10
-425.7842712541606
 20
428.2842712423226
 30
0.0
 11
-427.0342712541603
 21
430.449334751784
 31
0.0
  0
LINE
  5
325
330
4C4
100
AcDbEntity
  8
DATA
  6
Continuous
 62
     7
100
AcDbLine
 10
-427.0342712541603
 20
430.449334751784
 30
0.0
 11
-429.5342712541603
 21
430.449334751784
 31
0.0
  0
LINE
  5
326
330
4C4
100
AcDbEntity
  8
DATA
  6
Continuous
 62
     7
100
AcDbLine
 10
-429.5342712541603
 20
430.449334751784
 30
0.0
 11
-430.7842712541606
 21
428.2842712423226
 31
0.0
  0
LINE
  5
327
330
4C4
100
AcDbEntity
  8
DATA
  6
Continuous
 62
     7
100
AcDbLine
 10
-430.7842712541606
 20
428.2842712423226
 30
0.0
 11
-429.5342712541603
 21
426.1192077328618
 31
0.0
  0
LINE
  5
328
330
4C4
100
AcDbEntity
  8
DATA
  6
Continuous
 62
     7
100
AcDbLine
 10
-429.5342712541603
 20
426.1192077328618
 30
0.0
 11
-427.0342712541603
 21
426.1192077328618
 31
0.0
  0
LINE
  5
329
330
4C4
100
AcDbEntity
  8
DATA
  6
Continuous
 62
     7
100
AcDbLine
 10
-370.4657287592389
 20
369.5506652379378
 30
0.0
 11
-369.215728759239
 21
371.7157287473991
 31
0.0
  0
LINE
  5
32A
330
4C4
100
AcDbEntity
  8
DATA
  6
Continuous
 62
     7
100
AcDbLine
 10
-369.215728759239
 20
371.7157287473991
 30
0.0
 11
-370.4657287592389
 21
373.8807922568601
 31
0.0
  0
LINE
  5
32B
330
4C4
100
AcDbEntity
  8
DATA
  6
Continuous
 62
     7
100
AcDbLine
 10
-370.4657287592389
 20
373.8807922568601
 30
0.0
 11
-372.9657287592387
 21
373.8807922568601
 31
0.0
  0
LINE
  5
32C
330
4C4
100
AcDbEntity
  8
DATA
  6
Continuous
 62
     7
100
AcDbLine
 10
-372.9657287592387
 20
373.8807922568601
 30
0.0
 11
-374.2157287592389
 21
371.7157287473991
 31
0.0
  0
LINE
  5
32D
330
4C4
100
AcDbEntity
  8
DATA
  6
Continuous
 62
     7
100
AcDbLine
 10
-374.2157287592389
 20
371.7157287473991
 30
0.0
 11
-372.9657287592387
 21
369.5506652379378
 31
0.0
  0
LINE
  5
32E
330
4C4
100
AcDbEntity
  8
DATA
  6
Continuous
 62
     7
100
AcDbLine
 10
-372.9657287592387
 20
369.5506652379378
 30
0.0
 11
-370.4657287592389
 21
369.5506652379378
 31
0.0
  0
LINE
  5
32F
330
4C4
100
AcDbEntity
  8
DATA
  6
Continuous
 62
     7
100
AcDbLine
 10
-427.0342712541603
 20
369.5506652379383
 30
0.0
 11
-425.7842712541606
 21
371.7157287473993
 31
0.0
  0
LINE
  5
330
330
4C4
100
AcDbEntity
  8
DATA
  6
Continuous
 62
     7
100
AcDbLine
 10
-425.7842712541606
 20
371.7157287473993
 30
0.0
 11
-427.0342712541603
 21
373.8807922568603
 31
0.0
  0
LINE
  5
331
330
4C4
100
AcDbEntity
  8
DATA
  6
Continuous
 62
     7
100
AcDbLine
 10
-427.0342712541603
 20
373.8807922568603
 30
0.0
 11
-429.5342712541603
 21
373.8807922568603
 31
0.0
  0
LINE
  5
332
330
4C4
100
AcDbEntity
  8
DATA
  6
Continuous
 62
     7
100
AcDbLine
 10
-429.5342712541603
 20
373.8807922568603
 30
0.0
 11
-430.7842712541606
 21
371.7157287473993
 31
0.0
  0
LINE
  5
333
330
4C4
100
AcDbEntity
  8
DATA
  6
Continuous
 62
     7
100
AcDbLine
 10
-430.7842712541606
 20
371.7157287473993
 30
0.0
 11
-429.5342712541603
 21
369.5506652379383
 31
0.0
  0
LINE
  5
334
330
4C4
100
AcDbEntity
  8
DATA
  6
Continuous
 62
     7
100
AcDbLine
 10
-429.5342712541603
 20
369.5506652379383
 30
0.0
 11
-427.0342712541603
 21
369.5506652379383
 31
0.0
  0
CIRCLE
  5
335
330
4C4
100
AcDbEntity
  8
DATA
  6
Continuous
 62
     7
100
AcDbCircle
 10
895.9999999999977
 20
-68.00000004058739
 30
0.0
 40
5.999999999999772
  0
CIRCLE
  5
336
330
4C4
100
AcDbEntity
  8
DATA
  6
Continuous
 62
     7
100
AcDbCircle
 10
835.9999999999981
 20
-68.00000004058739
 30
0.0
 40
5.999999999999772
  0
CIRCLE
  5
337
330
4C4
100
AcDbEntity
  8
DATA
  6
Continuous
 62
     7
100
AcDbCircle
 10
835.9999999999981
 20
11.99999995941198
 30
0.0
 40
5.999999999999772
  0
CIRCLE
  5
338
330
4C4
100
AcDbEntity
  8
DATA
  6
Continuous
 62
     7
100
AcDbCircle
 10
895.9999999999977
 20
11.99999995941198
 30
0.0
 40
5.999999999999772
  0
CIRCLE
  5
339
330
4C4
100
AcDbEntity
  8
DATA
  6
Continuous
 62
     7
100
AcDbCircle
 10
835.9999999999986
 20
-362.0000000405854
 30
0.0
 40
6.0
  0
CIRCLE
  5
33A
330
4C4
100
AcDbEntity
  8
DATA
  6
Continuous
 62
     7
100
AcDbCircle
 10
895.9999999999988
 20
-362.0000000405854
 30
0.0
 40
5.999999999999772
  0
CIRCLE
  5
33B
330
4C4
100
AcDbEntity
  8
DATA
  6
Continuous
 62
     7
100
AcDbCircle
 10
835.9999999999986
 20
-282.0000000405851
 30
0.0
 40
6.0
  0
CIRCLE
  5
33C
330
4C4
100
AcDbEntity
  8
DATA
  6
Continuous
 62
     7
100
AcDbCircle
 10
895.9999999999988
 20
-282.0000000405851
 30
0.0
 40
5.999999999999772
  0
CIRCLE
  5
33D
330
4C4
100
AcDbEntity
  8
DATA
  6
Continuous
 62
     7
100
AcDbCircle
 10
1252.000000000002
 20
-282.0000000405851
 30
0.0
 40
6.0
  0
CIRCLE
  5
33E
330
4C4
100
AcDbEntity
  8
DATA
  6
Continuous
 62
     7
100
AcDbCircle
 10
1192.000000000002
 20
-282.0000000405851
 30
0.0
 40
6.0
  0
CIRCLE
  5
33F
330
4C4
100
AcDbEntity
  8
DATA
  6
Continuous
 62
     7
100
AcDbCircle
 10
1192.000000000002
 20
-362.0000000405854
 30
0.0
 40
6.0
  0
CIRCLE
  5
340
330
4C4
100
AcDbEntity
  8
DATA
  6
Continuous
 62
     7
100
AcDbCircle
 10
1252.000000000002
 20
-362.0000000405854
 30
0.0
 40
6.0
  0
CIRCLE
  5
341
330
4C4
100
AcDbEntity
  8
DATA
  6
Continuous
 62
     7
100
AcDbCircle
 10
1192.000000000001
 20
-68.00000004058739
 30
0.0
 40
6.0
  0
CIRCLE
  5
342
330
4C4
100
AcDbEntity
  8
DATA
  6
Continuous
 62
     7
100
AcDbCircle
 10
1252.000000000001
 20
-68.00000004058739
 30
0.0
 40
6.0
  0
CIRCLE
  5
343
330
4C4
100
AcDbEntity
  8
DATA
  6
Continuous
 62
     7
100
AcDbCircle
 10
1192.000000000001
 20
11.99999995941198
 30
0.0
 40
6.0
  0
CIRCLE
  5
344
330
4C4
100
AcDbEntity
  8
DATA
  6
Continuous
 62
     7
100
AcDbCircle
 10
1252.000000000001
 20
11.99999995941198
 30
0.0
 40
6.0
  0
LINE
  5
345
330
4C4
100
AcDbEntity
  8
DATA
  6
Continuous
 62
     7
100
AcDbLine
 10
1273.999999999998
 20
-400.0000000405864
 30
0.0
 11
1274.000000011967
 21
-400.0000000405056
 31
0.0
  0
LINE
  5
346
330
4C4
100
AcDbEntity
  8
DATA
  6
Continuous
 62
     7
100
AcDbLine
 10
1273.999999999998
 20
-400.0000000405864
 30
0.0
 11
814.0000000000013
 21
-400.0000000405862
 31
0.0
  0
LINE
  5
347
330
4C4
100
AcDbEntity
  8
DATA
  6
Continuous
 62
     7
100
AcDbLine
 10
814.0000000000023
 20
49.99999995941266
 30
0.0
 11
1273.999999999998
 21
49.99999995941266
 31
0.0
  0
LINE
  5
348
330
4C4
100
AcDbEntity
  8
DATA
  6
Continuous
 62
     7
100
AcDbLine
 10
814.0000000000013
 20
-400.0000000405862
 30
0.0
 11
803.9999999999993
 21
-400.0000000405862
 31
0.0
  0
LINE
  5
349
330
4C4
100
AcDbEntity
  8
DATA
  6
Continuous
 62
     7
100
AcDbLine
 10
803.9999999999993
 20
-400.0000000405862
 30
0.0
 11
804.0000000000301
 21
49.99999995941266
 31
0.0
  0
LINE
  5
34A
330
4C4
100
AcDbEntity
  8
DATA
  6
Continuous
 62
     7
100
AcDbLine
 10
799.9999999999996
 20
47.99999995941266
 30
0.0
 11
802.999999999999
 21
47.99999995941243
 31
0.0
  0
LINE
  5
34B
330
4C4
100
AcDbEntity
  8
DATA
  6
Continuous
 62
     7
100
AcDbLine
 10
802.999999999999
 20
47.99999995941243
 30
0.0
 11
802.9999999999995
 21
-398.0000000405863
 31
0.0
  0
LINE
  5
34C
330
4C4
100
AcDbEntity
  8
DATA
  6
Continuous
 62
     7
100
AcDbLine
 10
802.9999999999995
 20
-398.0000000405863
 30
0.0
 11
800.0
 21
-398.0000000405864
 31
0.0
  0
LINE
  5
34D
330
4C4
100
AcDbEntity
  8
DATA
  6
Continuous
 62
     7
100
AcDbLine
 10
800.0
 20
-398.0000000405864
 30
0.0
 11
799.9999999999996
 21
47.99999995941266
 31
0.0
  0
LINE
  5
34E
330
4C4
100
AcDbEntity
  8
DATA
  6
Continuous
 62
     7
100
AcDbLine
 10
802.9999999999995
 20
-398.0000000405863
 30
0.0
 11
803.9999999999997
 21
-398.0000000405864
 31
0.0
  0
LINE
  5
34F
330
4C4
100
AcDbEntity
  8
DATA
  6
Continuous
 62
     7
100
AcDbLine
 10
849.0000000000001
 20
-400.0000000405863
 30
0.0
 11
888.9999999999998
 21
-400.0000000405863
 31
0.0
  0
LINE
  5
350
330
4C4
100
AcDbEntity
  8
DATA
  6
Continuous
 62
     7
100
AcDbLine
 10
888.9999999999998
 20
-400.0000000405863
 30
0.0
 11
888.9999999999998
 21
-405.0000000405863
 31
0.0
  0
LINE
  5
351
330
4C4
100
AcDbEntity
  8
DATA
  6
Continuous
 62
     7
100
AcDbLine
 10
888.9999999999998
 20
-405.0000000405863
 30
0.0
 11
849.0000000000001
 21
-405.0000000405863
 31
0.0
  0
LINE
  5
352
330
4C4
100
AcDbEntity
  8
DATA
  6
Continuous
 62
     7
100
AcDbLine
 10
849.0000000000001
 20
-405.0000000405863
 30
0.0
 11
849.0000000000001
 21
-400.0000000405863
 31
0.0
  0
CIRCLE
  5
353
330
4C4
100
AcDbEntity
  8
DATA
  6
Continuous
 62
     7
100
AcDbCircle
 10
835.9999999999986
 20
-362.0000000405854
 30
0.0
 40
5.0
  0
CIRCLE
  5
354
330
4C4
100
AcDbEntity
  8
DATA
  6
Continuous
 62
     7
100
AcDbCircle
 10
895.9999999999988
 20
-362.0000000405854
 30
0.0
 40
4.999999999999773
  0
CIRCLE
  5
355
330
4C4
100
AcDbEntity
  8
DATA
  6
Continuous
 62
     7
100
AcDbCircle
 10
835.9999999999986
 20
-282.0000000405851
 30
0.0
 40
5.0
  0
CIRCLE
  5
356
330
4C4
100
AcDbEntity
  8
DATA
  6
Continuous
 62
     7
100
AcDbCircle
 10
895.9999999999988
 20
-282.0000000405851
 30
0.0
 40
4.999999999999773
  0
LINE
  5
357
330
4C4
100
AcDbEntity
  8
DATA
  6
Continuous
 62
     7
100
AcDbLine
 10
804.0000000000192
 20
-106.8884213483124
 30
0.0
 11
802.9999999999997
 21
-106.8884213483124
 31
0.0
  0
CIRCLE
  5
358
330
4C4
100
AcDbEntity
  8
DATA
  6
Continuous
 62
     7
100
AcDbCircle
 10
835.9999999999981
 20
-68.00000004058751
 30
0.0
 40
4.999999999999773
  0
CIRCLE
  5
359
330
4C4
100
AcDbEntity
  8
DATA
  6
Continuous
 62
     7
100
AcDbCircle
 10
895.9999999999977
 20
-68.00000004058751
 30
0.0
 40
4.999999999999773
  0
LINE
  5
35A
330
4C4
100
AcDbEntity
  8
DATA
  6
Continuous
 62
     7
100
AcDbLine
 10
814.0000000000004
 20
49.99999995941197
 30
0.0
 11
803.9999999999993
 21
49.99999995941266
 31
0.0
  0
LINE
  5
35B
330
4C4
100
AcDbEntity
  8
DATA
  6
Continuous
 62
     7
100
AcDbLine
 10
803.9999999999993
 20
49.99999995941266
 30
0.0
 11
803.9999999999993
 21
47.99999995941266
 31
0.0
  0
LINE
  5
35C
330
4C4
100
AcDbEntity
  8
DATA
  6
Continuous
 62
     7
100
AcDbLine
 10
792.9999999999992
 20
46.99999995941403
 30
0.0
 11
799.9999999999991
 21
46.99999995941403
 31
0.0
  0
LINE
  5
35D
330
4C4
100
AcDbEntity
  8
DATA
  6
Continuous
 62
     7
100
AcDbLine
 10
799.9999999999991
 20
46.99999995941403
 30
0.0
 11
799.9999999999991
 21
28.99999995941391
 31
0.0
  0
LINE
  5
35E
330
4C4
100
AcDbEntity
  8
DATA
  6
Continuous
 62
     7
100
AcDbLine
 10
799.9999999999991
 20
28.99999995941391
 30
0.0
 11
792.9999999999992
 21
28.99999995941391
 31
0.0
  0
LINE
  5
35F
330
4C4
100
AcDbEntity
  8
DATA
  6
Continuous
 62
     7
100
AcDbLine
 10
792.9999999999992
 20
28.99999995941391
 30
0.0
 11
792.9999999999992
 21
46.99999995941403
 31
0.0
  0
LINE
  5
360
330
4C4
100
AcDbEntity
  8
DATA
  6
Continuous
 62
     7
100
AcDbLine
 10
802.9999999999997
 20
10.09111629464269
 30
0.0
 11
804.0000000000272
 21
10.09111629464269
 31
0.0
  0
LINE
  5
361
330
4C4
100
AcDbEntity
  8
DATA
  6
Continuous
 62
     7
100
AcDbLine
 10
792.9999999999992
 20
26.99999995941391
 30
0.0
 11
799.9999999999991
 21
26.99999995941391
 31
0.0
  0
LINE
  5
362
330
4C4
100
AcDbEntity
  8
DATA
  6
Continuous
 62
     7
100
AcDbLine
 10
799.9999999999991
 20
21.62015131058013
 30
0.0
 11
792.9999999999992
 21
21.62015131058013
 31
0.0
  0
LINE
  5
363
330
4C4
100
AcDbEntity
  8
DATA
  6
Continuous
 62
     7
100
AcDbLine
 10
792.9999999999992
 20
21.62015131058013
 30
0.0
 11
792.9999999999992
 21
26.99999995941391
 31
0.0
  0
LINE
  5
364
330
4C4
100
AcDbEntity
  8
DATA
  6
Continuous
 62
     7
100
AcDbLine
 10
792.9999999999992
 20
21.62015131058013
 30
0.0
 11
799.9999999999991
 21
21.62015131058013
 31
0.0
  0
LINE
  5
365
330
4C4
100
AcDbEntity
  8
DATA
  6
Continuous
 62
     7
100
AcDbLine
 10
799.9999999999991
 20
21.62015131058013
 30
0.0
 11
799.9999999999991
 21
3.620151310579786
 31
0.0
  0
LINE
  5
366
330
4C4
100
AcDbEntity
  8
DATA
  6
Continuous
 62
     7
100
AcDbLine
 10
799.9999999999991
 20
3.620151310579786
 30
0.0
 11
792.9999999999992
 21
3.620151310579786
 31
0.0
  0
LINE
  5
367
330
4C4
100
AcDbEntity
  8
DATA
  6
Continuous
 62
     7
100
AcDbLine
 10
792.9999999999992
 20
3.620151310579786
 30
0.0
 11
792.9999999999992
 21
21.62015131058013
 31
0.0
  0
LINE
  5
368
330
4C4
100
AcDbEntity
  8
DATA
  6
Continuous
 62
     7
100
AcDbLine
 10
802.999999999999
 20
47.99999995941243
 30
0.0
 11
804.0000000000299
 21
47.99999995941243
 31
0.0
  0
CIRCLE
  5
369
330
4C4
100
AcDbEntity
  8
DATA
  6
Continuous
 62
     7
100
AcDbCircle
 10
835.9999999999981
 20
11.99999995941175
 30
0.0
 40
4.999999999999773
  0
CIRCLE
  5
36A
330
4C4
100
AcDbEntity
  8
DATA
  6
Continuous
 62
     7
100
AcDbCircle
 10
895.9999999999977
 20
11.99999995941175
 30
0.0
 40
4.999999999999773
  0
LINE
  5
36B
330
4C4
100
AcDbEntity
  8
DATA
  6
Continuous
 62
     7
100
AcDbLine
 10
1273.999999999999
 20
-400.0000000405862
 30
0.0
 11
1284.000000000001
 21
-400.0000000405862
 31
0.0
  0
LINE
  5
36C
330
4C4
100
AcDbEntity
  8
DATA
  6
Continuous
 62
     7
100
AcDbLine
 10
1284.000000000001
 20
-400.0000000405862
 30
0.0
 11
1284.000000000001
 21
49.99999995941266
 31
0.0
  0
LINE
  5
36D
330
4C4
100
AcDbEntity
  8
DATA
  6
Continuous
 62
     7
100
AcDbLine
 10
1288.000000000001
 20
47.99999995941266
 30
0.0
 11
1285.000000000002
 21
47.99999995941243
 31
0.0
  0
LINE
  5
36E
330
4C4
100
AcDbEntity
  8
DATA
  6
Continuous
 62
     7
100
AcDbLine
 10
1285.000000000002
 20
47.99999995941243
 30
0.0
 11
1285.000000000001
 21
-398.0000000405863
 31
0.0
  0
LINE
  5
36F
330
4C4
100
AcDbEntity
  8
DATA
  6
Continuous
 62
     7
100
AcDbLine
 10
1285.000000000001
 20
-398.0000000405863
 30
0.0
 11
1288.000000000001
 21
-398.0000000405864
 31
0.0
  0
LINE
  5
370
330
4C4
100
AcDbEntity
  8
DATA
  6
Continuous
 62
     7
100
AcDbLine
 10
1288.000000000001
 20
-398.0000000405864
 30
0.0
 11
1288.000000000001
 21
47.99999995941266
 31
0.0
  0
LINE
  5
371
330
4C4
100
AcDbEntity
  8
DATA
  6
Continuous
 62
     7
100
AcDbLine
 10
1284.000000000001
 20
-398.0000000405864
 30
0.0
 11
1285.000000000001
 21
-398.0000000405864
 31
0.0
  0
LINE
  5
372
330
4C4
100
AcDbEntity
  8
DATA
  6
Continuous
 62
     7
100
AcDbLine
 10
1285.000000000001
 20
-398.0000000405864
 30
0.0
 11
1285.000000000001
 21
47.99999995941197
 31
0.0
  0
LINE
  5
373
330
4C4
100
AcDbEntity
  8
DATA
  6
Continuous
 62
     7
100
AcDbLine
 10
1285.000000000001
 20
47.99999995941197
 30
0.0
 11
1284.000000000001
 21
47.99999995941197
 31
0.0
  0
LINE
  5
374
330
4C4
100
AcDbEntity
  8
DATA
  6
Continuous
 62
     7
100
AcDbLine
 10
1238.999999999999
 20
-400.0000000405863
 30
0.0
 11
1198.999999999999
 21
-400.0000000405863
 31
0.0
  0
LINE
  5
375
330
4C4
100
AcDbEntity
  8
DATA
  6
Continuous
 62
     7
100
AcDbLine
 10
1198.999999999999
 20
-400.0000000405863
 30
0.0
 11
1198.999999999999
 21
-405.0000000405863
 31
0.0
  0
LINE
  5
376
330
4C4
100
AcDbEntity
  8
DATA
  6
Continuous
 62
     7
100
AcDbLine
 10
1198.999999999999
 20
-405.0000000405863
 30
0.0
 11
1238.999999999999
 21
-405.0000000405863
 31
0.0
  0
LINE
  5
377
330
4C4
100
AcDbEntity
  8
DATA
  6
Continuous
 62
     7
100
AcDbLine
 10
1238.999999999999
 20
-405.0000000405863
 30
0.0
 11
1238.999999999999
 21
-400.0000000405863
 31
0.0
  0
CIRCLE
  5
378
330
4C4
100
AcDbEntity
  8
DATA
  6
Continuous
 62
     7
100
AcDbCircle
 10
1011.5
 20
-213.0000000405859
 30
0.0
 40
4.0
  0
LINE
  5
379
330
4C4
100
AcDbEntity
  8
DATA
  6
Continuous
 62
     7
100
AcDbLine
 10
1009.499999999999
 20
-213.0000000405859
 30
0.0
 11
1013.5
 21
-213.0000000405859
 31
0.0
  0
LINE
  5
37A
330
4C4
100
AcDbEntity
  8
DATA
  6
Continuous
 62
     7
100
AcDbLine
 10
1011.5
 20
-211.0000000405859
 30
0.0
 11
1011.5
 21
-215.0000000405859
 31
0.0
  0
ARC
  5
37B
330
4C4
100
AcDbEntity
  8
DATA
  6
Continuous
 62
     7
100
AcDbCircle
 10
1014.5
 20
-175.0000000405863
 30
0.0
 40
9.000000000000012
100
AcDbArc
 50
99.59406822685899
 51
253.8723797868359
  0
ARC
  5
37C
330
4C4
100
AcDbEntity
  8
DATA
  6
Continuous
 62
     7
100
AcDbCircle
 10
1014.5
 20
-175.0000000405863
 30
0.0
 40
8.999999999999761
100
AcDbArc
 50
286.1276202131627
 51
80.40593177314248
  0
CIRCLE
  5
37D
330
4C4
100
AcDbEntity
  8
DATA
  6
Continuous
 62
     7
100
AcDbCircle
 10
1014.5
 20
-175.0000000405863
 30
0.0
 40
12.0
  0
CIRCLE
  5
37E
330
4C4
100
AcDbEntity
  8
DATA
  6
Continuous
 62
     7
100
AcDbCircle
 10
982.4999999999993
 20
-175.0000000405863
 30
0.0
 40
4.0
  0
LINE
  5
37F
330
4C4
100
AcDbEntity
  8
DATA
  6
Continuous
 62
     7
100
AcDbLine
 10
982.4999999999993
 20
-177.0000000405861
 30
0.0
 11
982.4999999999993
 21
-173.0000000405863
 31
0.0
  0
LINE
  5
380
330
4C4
100
AcDbEntity
  8
DATA
  6
Continuous
 62
     7
100
AcDbLine
 10
980.4999999999996
 20
-175.0000000405863
 30
0.0
 11
984.4999999999995
 21
-175.0000000405863
 31
0.0
  0
CIRCLE
  5
381
330
4C4
100
AcDbEntity
  8
DATA
  6
Continuous
 62
     7
100
AcDbCircle
 10
1025.813708498985
 20
-186.313708539571
 30
0.0
 40
3.0
  0
ARC
  5
382
330
4C4
100
AcDbEntity
  8
DATA
  6
Continuous
 62
     7
100
AcDbCircle
 10
1014.5
 20
-175.0000000405863
 30
0.0
 40
3.999999999999871
100
AcDbArc
 50
224.9999999999976
 51
315.0000000000023
  0
LINE
  5
383
330
4C4
100
AcDbEntity
  8
DATA
  6
Continuous
 62
     7
100
AcDbLine
 10
1011.999999999999
 20
-183.6458082734815
 30
0.0
 11
1011.999999999999
 21
-185.1980390677717
 31
0.0
  0
LINE
  5
384
330
4C4
100
AcDbEntity
  8
DATA
  6
Continuous
 62
     7
100
AcDbLine
 10
1017.0
 20
-183.6458082734814
 30
0.0
 11
1017.0
 21
-185.1980390677717
 31
0.0
  0
ARC
  5
385
330
4C4
100
AcDbEntity
  8
DATA
  6
Continuous
 62
     7
100
AcDbCircle
 10
1014.5
 20
-175.0000000405863
 30
0.0
 40
10.49999999999985
100
AcDbArc
 50
256.2258530019693
 51
283.7741469980231
  0
CIRCLE
  5
386
330
4C4
100
AcDbEntity
  8
DATA
  6
Continuous
 62
     7
100
AcDbCircle
 10
1025.813708498985
 20
-186.313708539571
 30
0.0
 40
1.0
  0
ARC
  5
387
330
4C4
100
AcDbEntity
  8
DATA
  6
Continuous
 62
     7
100
AcDbCircle
 10
1014.5
 20
-175.0000000405863
 30
0.0
 40
2.999999999999782
100
AcDbArc
 50
315.0000000000015
 51
45.00000000000152
  0
ARC
  5
388
330
4C4
100
AcDbEntity
  8
DATA
  6
Continuous
 62
     7
100
AcDbCircle
 10
1014.5
 20
-175.0000000405863
 30
0.0
 40
3.000000000000104
100
AcDbArc
 50
135.0000000000016
 51
224.9999999999954
  0
LINE
  5
389
330
4C4
100
AcDbEntity
  8
DATA
  6
Continuous
 62
     7
100
AcDbLine
 10
1012.37867965644
 20
-177.1213203841457
 30
0.0
 11
1011.671572875253
 21
-177.8284271653324
 31
0.0
  0
LINE
  5
38A
330
4C4
100
AcDbEntity
  8
DATA
  6
Continuous
 62
     7
100
AcDbLine
 10
1016.621320343559
 20
-177.1213203841457
 30
0.0
 11
1017.328427124746
 21
-177.8284271653324
 31
0.0
  0
LINE
  5
38B
330
4C4
100
AcDbEntity
  8
DATA
  6
Continuous
 62
     7
100
AcDbLine
 10
1012.37867965644
 20
-172.8786796970265
 30
0.0
 11
1011.671572875253
 21
-172.17157291584
 31
0.0
  0
LINE
  5
38C
330
4C4
100
AcDbEntity
  8
DATA
  6
Continuous
 62
     7
100
AcDbLine
 10
1016.621320343559
 20
-172.8786796970265
 30
0.0
 11
1017.328427124746
 21
-172.17157291584
 31
0.0
  0
ARC
  5
38D
330
4C4
100
AcDbEntity
  8
DATA
  6
Continuous
 62
     7
100
AcDbCircle
 10
1014.5
 20
-175.0000000405863
 30
0.0
 40
4.000000000000031
100
AcDbArc
 50
45.0
 51
135.0
  0
CIRCLE
  5
38E
330
4C4
100
AcDbEntity
  8
DATA
  6
Continuous
 62
     7
100
AcDbCircle
 10
1003.186291501015
 20
-163.6862915416014
 30
0.0
 40
1.0
  0
CIRCLE
  5
38F
330
4C4
100
AcDbEntity
  8
DATA
  6
Continuous
 62
     7
100
AcDbCircle
 10
1003.186291501015
 20
-163.6862915416014
 30
0.0
 40
3.0
  0
LINE
  5
390
330
4C4
100
AcDbEntity
  8
DATA
  6
Continuous
 62
     7
100
AcDbLine
 10
1012.999999999999
 20
-166.1258803659368
 30
0.0
 11
1012.999999999999
 21
-164.5000000405863
 31
0.0
  0
LINE
  5
391
330
4C4
100
AcDbEntity
  8
DATA
  6
Continuous
 62
     7
100
AcDbLine
 10
1016.0
 20
-166.1258803659368
 30
0.0
 11
1016.0
 21
-164.5000000405863
 31
0.0
  0
LINE
  5
392
330
4C4
100
AcDbEntity
  8
DATA
  6
Continuous
 62
     7
100
AcDbLine
 10
1012.999999999999
 20
-164.5000000405863
 30
0.0
 11
1016.0
 21
-164.5000000405863
 31
0.0
  0
LINE
  5
393
330
4C4
100
AcDbEntity
  8
DATA
  6
Continuous
 62
     7
100
AcDbLine
 10
1009.499999999999
 20
-137.0000000405865
 30
0.0
 11
1013.5
 21
-137.0000000405865
 31
0.0
  0
CIRCLE
  5
394
330
4C4
100
AcDbEntity
  8
DATA
  6
Continuous
 62
     7
100
AcDbCircle
 10
1011.5
 20
-137.0000000405865
 30
0.0
 40
4.0
  0
LINE
  5
395
330
4C4
100
AcDbEntity
  8
DATA
  6
Continuous
 62
     7
100
AcDbLine
 10
1011.5
 20
-139.0000000405865
 30
0.0
 11
1011.5
 21
-135.0000000405865
 31
0.0
  0
CIRCLE
  5
396
330
4C4
100
AcDbEntity
  8
DATA
  6
Continuous
 62
     7
100
AcDbCircle
 10
1076.499999999999
 20
-213.0000000405859
 30
0.0
 40
4.0
  0
LINE
  5
397
330
4C4
100
AcDbEntity
  8
DATA
  6
Continuous
 62
     7
100
AcDbLine
 10
1078.499999999999
 20
-213.0000000405859
 30
0.0
 11
1074.499999999999
 21
-213.0000000405859
 31
0.0
  0
LINE
  5
398
330
4C4
100
AcDbEntity
  8
DATA
  6
Continuous
 62
     7
100
AcDbLine
 10
1076.499999999999
 20
-211.0000000405859
 30
0.0
 11
1076.499999999999
 21
-215.0000000405859
 31
0.0
  0
CIRCLE
  5
399
330
4C4
100
AcDbEntity
  8
DATA
  6
Continuous
 62
     7
100
AcDbCircle
 10
1073.5
 20
-175.0000000405863
 30
0.0
 40
12.0
  0
ARC
  5
39A
330
4C4
100
AcDbEntity
  8
DATA
  6
Continuous
 62
     7
100
AcDbCircle
 10
1073.5
 20
-175.0000000405863
 30
0.0
 40
9.000000000000012
100
AcDbArc
 50
99.59406822685899
 51
253.8723797868359
  0
ARC
  5
39B
330
4C4
100
AcDbEntity
  8
DATA
  6
Continuous
 62
     7
100
AcDbCircle
 10
1073.5
 20
-175.0000000405863
 30
0.0
 40
8.999999999999761
100
AcDbArc
 50
286.1276202131627
 51
80.40593177314248
  0
CIRCLE
  5
39C
330
4C4
100
AcDbEntity
  8
DATA
  6
Continuous
 62
     7
100
AcDbCircle
 10
1084.813708498984
 20
-186.313708539571
 30
0.0
 40
1.0
  0
CIRCLE
  5
39D
330
4C4
100
AcDbEntity
  8
DATA
  6
Continuous
 62
     7
100
AcDbCircle
 10
1084.813708498984
 20
-186.313708539571
 30
0.0
 40
3.0
  0
ARC
  5
39E
330
4C4
100
AcDbEntity
  8
DATA
  6
Continuous
 62
     7
100
AcDbCircle
 10
1073.5
 20
-175.0000000405863
 30
0.0
 40
3.999999999999871
100
AcDbArc
 50
224.9999999999976
 51
315.0000000000023
  0
ARC
  5
39F
330
4C4
100
AcDbEntity
  8
DATA
  6
Continuous
 62
     7
100
AcDbCircle
 10
1073.5
 20
-175.0000000405863
 30
0.0
 40
10.49999999999991
100
AcDbArc
 50
256.2258530019759
 51
283.7741469980296
  0
LINE
  5
3A0
330
4C4
100
AcDbEntity
  8
DATA
  6
Continuous
 62
     7
100
AcDbLine
 10
1070.999999999999
 20
-183.6458082734814
 30
0.0
 11
1070.999999999999
 21
-185.1980390677717
 31
0.0
  0
LINE
  5
3A1
330
4C4
100
AcDbEntity
  8
DATA
  6
Continuous
 62
     7
100
AcDbLine
 10
1076.0
 20
-183.6458082734815
 30
0.0
 11
1076.0
 21
-185.1980390677717
 31
0.0
  0
ARC
  5
3A2
330
4C4
100
AcDbEntity
  8
DATA
  6
Continuous
 62
     7
100
AcDbCircle
 10
1073.5
 20
-175.0000000405863
 30
0.0
 40
4.000000000000031
100
AcDbArc
 50
45.0
 51
135.0
  0
LINE
  5
3A3
330
4C4
100
AcDbEntity
  8
DATA
  6
Continuous
 62
     7
100
AcDbLine
 10
1071.37867965644
 20
-172.8786796970265
 30
0.0
 11
1070.671572875253
 21
-172.17157291584
 31
0.0
  0
LINE
  5
3A4
330
4C4
100
AcDbEntity
  8
DATA
  6
Continuous
 62
     7
100
AcDbLine
 10
1071.37867965644
 20
-177.1213203841457
 30
0.0
 11
1070.671572875253
 21
-177.8284271653324
 31
0.0
  0
ARC
  5
3A5
330
4C4
100
AcDbEntity
  8
DATA
  6
Continuous
 62
     7
100
AcDbCircle
 10
1073.5
 20
-175.0000000405863
 30
0.0
 40
3.000000000000104
100
AcDbArc
 50
135.0000000000016
 51
224.9999999999954
  0
LINE
  5
3A6
330
4C4
100
AcDbEntity
  8
DATA
  6
Continuous
 62
     7
100
AcDbLine
 10
1075.621320343559
 20
-172.8786796970265
 30
0.0
 11
1076.328427124746
 21
-172.17157291584
 31
0.0
  0
LINE
  5
3A7
330
4C4
100
AcDbEntity
  8
DATA
  6
Continuous
 62
     7
100
AcDbLine
 10
1075.621320343559
 20
-177.1213203841457
 30
0.0
 11
1076.328427124746
 21
-177.8284271653324
 31
0.0
  0
ARC
  5
3A8
330
4C4
100
AcDbEntity
  8
DATA
  6
Continuous
 62
     7
100
AcDbCircle
 10
1073.5
 20
-175.0000000405863
 30
0.0
 40
2.999999999999782
100
AcDbArc
 50
315.0000000000015
 51
45.00000000000152
  0
CIRCLE
  5
3A9
330
4C4
100
AcDbEntity
  8
DATA
  6
Continuous
 62
     7
100
AcDbCircle
 10
1105.499999999999
 20
-175.0000000405863
 30
0.0
 40
4.0
  0
LINE
  5
3AA
330
4C4
100
AcDbEntity
  8
DATA
  6
Continuous
 62
     7
100
AcDbLine
 10
1107.499999999999
 20
-175.0000000405863
 30
0.0
 11
1103.499999999999
 21
-175.0000000405863
 31
0.0
  0
LINE
  5
3AB
330
4C4
100
AcDbEntity
  8
DATA
  6
Continuous
 62
     7
100
AcDbLine
 10
1105.499999999999
 20
-177.0000000405861
 30
0.0
 11
1105.499999999999
 21
-173.0000000405863
 31
0.0
  0
CIRCLE
  5
3AC
330
4C4
100
AcDbEntity
  8
DATA
  6
Continuous
 62
     7
100
AcDbCircle
 10
1062.186291501015
 20
-163.6862915416015
 30
0.0
 40
3.0
  0
LINE
  5
3AD
330
4C4
100
AcDbEntity
  8
DATA
  6
Continuous
 62
     7
100
AcDbLine
 10
1075.0
 20
-164.5000000405863
 30
0.0
 11
1071.999999999999
 21
-164.5000000405863
 31
0.0
  0
CIRCLE
  5
3AE
330
4C4
100
AcDbEntity
  8
DATA
  6
Continuous
 62
     7
100
AcDbCircle
 10
1062.186291501015
 20
-163.6862915416015
 30
0.0
 40
1.0
  0
LINE
  5
3AF
330
4C4
100
AcDbEntity
  8
DATA
  6
Continuous
 62
     7
100
AcDbLine
 10
1071.999999999999
 20
-166.1258803659368
 30
0.0
 11
1071.999999999999
 21
-164.5000000405863
 31
0.0
  0
LINE
  5
3B0
330
4C4
100
AcDbEntity
  8
DATA
  6
Continuous
 62
     7
100
AcDbLine
 10
1075.0
 20
-166.1258803659368
 30
0.0
 11
1075.0
 21
-164.5000000405863
 31
0.0
  0
CIRCLE
  5
3B1
330
4C4
100
AcDbEntity
  8
DATA
  6
Continuous
 62
     7
100
AcDbCircle
 10
1076.499999999999
 20
-137.0000000405865
 30
0.0
 40
4.0
  0
LINE
  5
3B2
330
4C4
100
AcDbEntity
  8
DATA
  6
Continuous
 62
     7
100
AcDbLine
 10
1076.499999999999
 20
-139.0000000405865
 30
0.0
 11
1076.499999999999
 21
-135.0000000405865
 31
0.0
  0
LINE
  5
3B3
330
4C4
100
AcDbEntity
  8
DATA
  6
Continuous
 62
     7
100
AcDbLine
 10
1078.499999999999
 20
-137.0000000405865
 30
0.0
 11
1074.499999999999
 21
-137.0000000405865
 31
0.0
  0
CIRCLE
  5
3B4
330
4C4
100
AcDbEntity
  8
DATA
  6
Continuous
 62
     7
100
AcDbCircle
 10
1192.000000000002
 20
-362.0000000405854
 30
0.0
 40
5.0
  0
CIRCLE
  5
3B5
330
4C4
100
AcDbEntity
  8
DATA
  6
Continuous
 62
     7
100
AcDbCircle
 10
1192.000000000002
 20
-282.0000000405851
 30
0.0
 40
5.0
  0
CIRCLE
  5
3B6
330
4C4
100
AcDbEntity
  8
DATA
  6
Continuous
 62
     7
100
AcDbCircle
 10
1192.000000000001
 20
-68.00000004058751
 30
0.0
 40
5.0
  0
CIRCLE
  5
3B7
330
4C4
100
AcDbEntity
  8
DATA
  6
Continuous
 62
     7
100
AcDbCircle
 10
1252.000000000002
 20
-362.0000000405854
 30
0.0
 40
5.0
  0
CIRCLE
  5
3B8
330
4C4
100
AcDbEntity
  8
DATA
  6
Continuous
 62
     7
100
AcDbCircle
 10
1252.000000000002
 20
-282.0000000405851
 30
0.0
 40
5.0
  0
LINE
  5
3B9
330
4C4
100
AcDbEntity
  8
DATA
  6
Continuous
 62
     7
100
AcDbLine
 10
1284.000000000001
 20
-106.8884213483124
 30
0.0
 11
1285.000000000001
 21
-106.8884213483124
 31
0.0
  0
CIRCLE
  5
3BA
330
4C4
100
AcDbEntity
  8
DATA
  6
Continuous
 62
     7
100
AcDbCircle
 10
1252.000000000001
 20
-68.00000004058751
 30
0.0
 40
5.0
  0
CIRCLE
  5
3BB
330
4C4
100
AcDbEntity
  8
DATA
  6
Continuous
 62
     7
100
AcDbCircle
 10
1192.000000000001
 20
11.99999995941175
 30
0.0
 40
5.0
  0
LINE
  5
3BC
330
4C4
100
AcDbEntity
  8
DATA
  6
Continuous
 62
     7
100
AcDbLine
 10
1284.000000000001
 20
49.99999995941266
 30
0.0
 11
1273.999999999998
 21
49.99999995941266
 31
0.0
  0
CIRCLE
  5
3BD
330
4C4
100
AcDbEntity
  8
DATA
  6
Continuous
 62
     7
100
AcDbCircle
 10
1252.000000000001
 20
11.99999995941175
 30
0.0
 40
5.0
  0
LINE
  5
3BE
330
4C4
100
AcDbEntity
  8
DATA
  6
Continuous
 62
     7
100
AcDbLine
 10
1295.000000000001
 20
46.99999995941403
 30
0.0
 11
1288.000000000001
 21
46.99999995941403
 31
0.0
  0
LINE
  5
3BF
330
4C4
100
AcDbEntity
  8
DATA
  6
Continuous
 62
     7
100
AcDbLine
 10
1288.000000000001
 20
46.99999995941403
 30
0.0
 11
1288.000000000001
 21
28.99999995941391
 31
0.0
  0
LINE
  5
3C0
330
4C4
100
AcDbEntity
  8
DATA
  6
Continuous
 62
     7
100
AcDbLine
 10
1288.000000000001
 20
28.99999995941391
 30
0.0
 11
1295.000000000001
 21
28.99999995941391
 31
0.0
  0
LINE
  5
3C1
330
4C4
100
AcDbEntity
  8
DATA
  6
Continuous
 62
     7
100
AcDbLine
 10
1295.000000000001
 20
28.99999995941391
 30
0.0
 11
1295.000000000001
 21
46.99999995941403
 31
0.0
  0
LINE
  5
3C2
330
4C4
100
AcDbEntity
  8
DATA
  6
Continuous
 62
     7
100
AcDbLine
 10
1285.000000000001
 20
10.09111629464269
 30
0.0
 11
1284.000000000001
 21
10.09111629464269
 31
0.0
  0
LINE
  5
3C3
330
4C4
100
AcDbEntity
  8
DATA
  6
Continuous
 62
     7
100
AcDbLine
 10
1295.000000000001
 20
21.62015131058013
 30
0.0
 11
1288.000000000001
 21
21.62015131058013
 31
0.0
  0
LINE
  5
3C4
330
4C4
100
AcDbEntity
  8
DATA
  6
Continuous
 62
     7
100
AcDbLine
 10
1288.000000000001
 20
21.62015131058013
 30
0.0
 11
1288.000000000001
 21
3.620151310579786
 31
0.0
  0
LINE
  5
3C5
330
4C4
100
AcDbEntity
  8
DATA
  6
Continuous
 62
     7
100
AcDbLine
 10
1288.000000000001
 20
3.620151310579786
 30
0.0
 11
1295.000000000001
 21
3.620151310579786
 31
0.0
  0
LINE
  5
3C6
330
4C4
100
AcDbEntity
  8
DATA
  6
Continuous
 62
     7
100
AcDbLine
 10
1295.000000000001
 20
3.620151310579786
 30
0.0
 11
1295.000000000001
 21
21.62015131058013
 31
0.0
  0
LINE
  5
3C7
330
4C4
100
AcDbEntity
  8
DATA
  6
Continuous
 62
     7
100
AcDbLine
 10
1295.000000000001
 20
26.99999995941391
 30
0.0
 11
1288.000000000001
 21
26.99999995941391
 31
0.0
  0
LINE
  5
3C8
330
4C4
100
AcDbEntity
  8
DATA
  6
Continuous
 62
     7
100
AcDbLine
 10
1288.000000000001
 20
26.99999995941391
 30
0.0
 11
1288.000000000001
 21
21.62015131058013
 31
0.0
  0
LINE
  5
3C9
330
4C4
100
AcDbEntity
  8
DATA
  6
Continuous
 62
     7
100
AcDbLine
 10
1288.000000000001
 20
21.62015131058013
 30
0.0
 11
1295.000000000001
 21
21.62015131058013
 31
0.0
  0
LINE
  5
3CA
330
4C4
100
AcDbEntity
  8
DATA
  6
Continuous
 62
     7
100
AcDbLine
 10
1295.000000000001
 20
21.62015131058013
 30
0.0
 11
1295.000000000001
 21
26.99999995941391
 31
0.0
  0
LINE
  5
3CB
330
4C4
100
AcDbEntity
  8
DATA
  6
Continuous
 62
     7
100
AcDbLine
 10
834.4999999999988
 20
-359.4019238292319
 30
0.0
 11
832.9999999999989
 21
-362.0000000405854
 31
0.0
  0
LINE
  5
3CC
330
4C4
100
AcDbEntity
  8
DATA
  6
Continuous
 62
     7
100
AcDbLine
 10
832.9999999999989
 20
-362.0000000405854
 30
0.0
 11
834.4999999999988
 21
-364.5980762519387
 31
0.0
  0
LINE
  5
3CD
330
4C4
100
AcDbEntity
  8
DATA
  6
Continuous
 62
     7
100
AcDbLine
 10
834.4999999999988
 20
-364.5980762519387
 30
0.0
 11
837.4999999999989
 21
-364.5980762519387
 31
0.0
  0
LINE
  5
3CE
330
4C4
100
AcDbEntity
  8
DATA
  6
Continuous
 62
     7
100
AcDbLine
 10
837.4999999999989
 20
-364.5980762519387
 30
0.0
 11
838.9999999999988
 21
-362.0000000405854
 31
0.0
  0
LINE
  5
3CF
330
4C4
100
AcDbEntity
  8
DATA
  6
Continuous
 62
     7
100
AcDbLine
 10
838.9999999999988
 20
-362.0000000405854
 30
0.0
 11
837.4999999999989
 21
-359.4019238292319
 31
0.0
  0
LINE
  5
3D0
330
4C4
100
AcDbEntity
  8
DATA
  6
Continuous
 62
     7
100
AcDbLine
 10
837.4999999999989
 20
-359.4019238292319
 30
0.0
 11
834.4999999999988
 21
-359.4019238292319
 31
0.0
  0
LINE
  5
3D1
330
4C4
100
AcDbEntity
  8
DATA
  6
Continuous
 62
     7
100
AcDbLine
 10
894.4999999999986
 20
-359.4019238292319
 30
0.0
 11
892.9999999999985
 21
-362.0000000405854
 31
0.0
  0
LINE
  5
3D2
330
4C4
100
AcDbEntity
  8
DATA
  6
Continuous
 62
     7
100
AcDbLine
 10
892.9999999999985
 20
-362.0000000405854
 30
0.0
 11
894.4999999999986
 21
-364.5980762519387
 31
0.0
  0
LINE
  5
3D3
330
4C4
100
AcDbEntity
  8
DATA
  6
Continuous
 62
     7
100
AcDbLine
 10
894.4999999999986
 20
-364.5980762519387
 30
0.0
 11
897.4999999999987
 21
-364.5980762519387
 31
0.0
  0
LINE
  5
3D4
330
4C4
100
AcDbEntity
  8
DATA
  6
Continuous
 62
     7
100
AcDbLine
 10
897.4999999999987
 20
-364.5980762519387
 30
0.0
 11
898.9999999999986
 21
-362.0000000405854
 31
0.0
  0
LINE
  5
3D5
330
4C4
100
AcDbEntity
  8
DATA
  6
Continuous
 62
     7
100
AcDbLine
 10
898.9999999999986
 20
-362.0000000405854
 30
0.0
 11
897.4999999999987
 21
-359.4019238292319
 31
0.0
  0
LINE
  5
3D6
330
4C4
100
AcDbEntity
  8
DATA
  6
Continuous
 62
     7
100
AcDbLine
 10
897.4999999999987
 20
-359.4019238292319
 30
0.0
 11
894.4999999999986
 21
-359.4019238292319
 31
0.0
  0
LINE
  5
3D7
330
4C4
100
AcDbEntity
  8
DATA
  6
Continuous
 62
     7
100
AcDbLine
 10
834.4999999999988
 20
-279.4019238292317
 30
0.0
 11
832.9999999999989
 21
-282.0000000405851
 31
0.0
  0
LINE
  5
3D8
330
4C4
100
AcDbEntity
  8
DATA
  6
Continuous
 62
     7
100
AcDbLine
 10
832.9999999999989
 20
-282.0000000405851
 30
0.0
 11
834.4999999999988
 21
-284.5980762519384
 31
0.0
  0
LINE
  5
3D9
330
4C4
100
AcDbEntity
  8
DATA
  6
Continuous
 62
     7
100
AcDbLine
 10
834.4999999999988
 20
-284.5980762519384
 30
0.0
 11
837.4999999999989
 21
-284.5980762519384
 31
0.0
  0
LINE
  5
3DA
330
4C4
100
AcDbEntity
  8
DATA
  6
Continuous
 62
     7
100
AcDbLine
 10
837.4999999999989
 20
-284.5980762519384
 30
0.0
 11
838.9999999999988
 21
-282.0000000405851
 31
0.0
  0
LINE
  5
3DB
330
4C4
100
AcDbEntity
  8
DATA
  6
Continuous
 62
     7
100
AcDbLine
 10
838.9999999999988
 20
-282.0000000405851
 30
0.0
 11
837.4999999999989
 21
-279.4019238292317
 31
0.0
  0
LINE
  5
3DC
330
4C4
100
AcDbEntity
  8
DATA
  6
Continuous
 62
     7
100
AcDbLine
 10
837.4999999999989
 20
-279.4019238292317
 30
0.0
 11
834.4999999999988
 21
-279.4019238292317
 31
0.0
  0
LINE
  5
3DD
330
4C4
100
AcDbEntity
  8
DATA
  6
Continuous
 62
     7
100
AcDbLine
 10
894.4999999999986
 20
-279.4019238292317
 30
0.0
 11
892.9999999999985
 21
-282.0000000405851
 31
0.0
  0
LINE
  5
3DE
330
4C4
100
AcDbEntity
  8
DATA
  6
Continuous
 62
     7
100
AcDbLine
 10
892.9999999999985
 20
-282.0000000405851
 30
0.0
 11
894.4999999999986
 21
-284.5980762519384
 31
0.0
  0
LINE
  5
3DF
330
4C4
100
AcDbEntity
  8
DATA
  6
Continuous
 62
     7
100
AcDbLine
 10
894.4999999999986
 20
-284.5980762519384
 30
0.0
 11
897.4999999999987
 21
-284.5980762519384
 31
0.0
  0
LINE
  5
3E0
330
4C4
100
AcDbEntity
  8
DATA
  6
Continuous
 62
     7
100
AcDbLine
 10
897.4999999999987
 20
-284.5980762519384
 30
0.0
 11
898.9999999999986
 21
-282.0000000405851
 31
0.0
  0
LINE
  5
3E1
330
4C4
100
AcDbEntity
  8
DATA
  6
Continuous
 62
     7
100
AcDbLine
 10
898.9999999999986
 20
-282.0000000405851
 30
0.0
 11
897.4999999999987
 21
-279.4019238292317
 31
0.0
  0
LINE
  5
3E2
330
4C4
100
AcDbEntity
  8
DATA
  6
Continuous
 62
     7
100
AcDbLine
 10
897.4999999999987
 20
-279.4019238292317
 30
0.0
 11
894.4999999999986
 21
-279.4019238292317
 31
0.0
  0
LINE
  5
3E3
330
4C4
100
AcDbEntity
  8
DATA
  6
Continuous
 62
     7
100
AcDbLine
 10
834.4999999999981
 20
-65.40192382923414
 30
0.0
 11
832.9999999999982
 21
-68.00000004058751
 31
0.0
  0
LINE
  5
3E4
330
4C4
100
AcDbEntity
  8
DATA
  6
Continuous
 62
     7
100
AcDbLine
 10
832.9999999999982
 20
-68.00000004058751
 30
0.0
 11
834.4999999999981
 21
-70.59807625194077
 31
0.0
  0
LINE
  5
3E5
330
4C4
100
AcDbEntity
  8
DATA
  6
Continuous
 62
     7
100
AcDbLine
 10
834.4999999999981
 20
-70.59807625194077
 30
0.0
 11
837.4999999999982
 21
-70.59807625194077
 31
0.0
  0
LINE
  5
3E6
330
4C4
100
AcDbEntity
  8
DATA
  6
Continuous
 62
     7
100
AcDbLine
 10
837.4999999999982
 20
-70.59807625194077
 30
0.0
 11
838.9999999999982
 21
-68.00000004058751
 31
0.0
  0
LINE
  5
3E7
330
4C4
100
AcDbEntity
  8
DATA
  6
Continuous
 62
     7
100
AcDbLine
 10
838.9999999999982
 20
-68.00000004058751
 30
0.0
 11
837.4999999999982
 21
-65.40192382923414
 31
0.0
  0
LINE
  5
3E8
330
4C4
100
AcDbEntity
  8
DATA
  6
Continuous
 62
     7
100
AcDbLine
 10
837.4999999999982
 20
-65.40192382923414
 30
0.0
 11
834.4999999999981
 21
-65.40192382923414
 31
0.0
  0
LINE
  5
3E9
330
4C4
100
AcDbEntity
  8
DATA
  6
Continuous
 62
     7
100
AcDbLine
 10
894.4999999999977
 20
-65.40192382923414
 30
0.0
 11
892.9999999999976
 21
-68.00000004058751
 31
0.0
  0
LINE
  5
3EA
330
4C4
100
AcDbEntity
  8
DATA
  6
Continuous
 62
     7
100
AcDbLine
 10
892.9999999999976
 20
-68.00000004058751
 30
0.0
 11
894.4999999999977
 21
-70.59807625194077
 31
0.0
  0
LINE
  5
3EB
330
4C4
100
AcDbEntity
  8
DATA
  6
Continuous
 62
     7
100
AcDbLine
 10
894.4999999999977
 20
-70.59807625194077
 30
0.0
 11
897.4999999999976
 21
-70.59807625194077
 31
0.0
  0
LINE
  5
3EC
330
4C4
100
AcDbEntity
  8
DATA
  6
Continuous
 62
     7
100
AcDbLine
 10
897.4999999999976
 20
-70.59807625194077
 30
0.0
 11
898.9999999999977
 21
-68.00000004058751
 31
0.0
  0
LINE
  5
3ED
330
4C4
100
AcDbEntity
  8
DATA
  6
Continuous
 62
     7
100
AcDbLine
 10
898.9999999999977
 20
-68.00000004058751
 30
0.0
 11
897.4999999999976
 21
-65.40192382923414
 31
0.0
  0
LINE
  5
3EE
330
4C4
100
AcDbEntity
  8
DATA
  6
Continuous
 62
     7
100
AcDbLine
 10
897.4999999999976
 20
-65.40192382923414
 30
0.0
 11
894.4999999999977
 21
-65.40192382923414
 31
0.0
  0
LINE
  5
3EF
330
4C4
100
AcDbEntity
  8
DATA
  6
Continuous
 62
     7
100
AcDbLine
 10
834.4999999999981
 20
14.59807617076513
 30
0.0
 11
832.9999999999982
 21
11.99999995941175
 31
0.0
  0
LINE
  5
3F0
330
4C4
100
AcDbEntity
  8
DATA
  6
Continuous
 62
     7
100
AcDbLine
 10
832.9999999999982
 20
11.99999995941175
 30
0.0
 11
834.4999999999981
 21
9.401923748058381
 31
0.0
  0
LINE
  5
3F1
330
4C4
100
AcDbEntity
  8
DATA
  6
Continuous
 62
     7
100
AcDbLine
 10
834.4999999999981
 20
9.401923748058381
 30
0.0
 11
837.4999999999982
 21
9.401923748058381
 31
0.0
  0
LINE
  5
3F2
330
4C4
100
AcDbEntity
  8
DATA
  6
Continuous
 62
     7
100
AcDbLine
 10
837.4999999999982
 20
9.401923748058381
 30
0.0
 11
838.9999999999982
 21
11.99999995941175
 31
0.0
  0
LINE
  5
3F3
330
4C4
100
AcDbEntity
  8
DATA
  6
Continuous
 62
     7
100
AcDbLine
 10
838.9999999999982
 20
11.99999995941175
 30
0.0
 11
837.4999999999982
 21
14.59807617076513
 31
0.0
  0
LINE
  5
3F4
330
4C4
100
AcDbEntity
  8
DATA
  6
Continuous
 62
     7
100
AcDbLine
 10
837.4999999999982
 20
14.59807617076513
 30
0.0
 11
834.4999999999981
 21
14.59807617076513
 31
0.0
  0
LINE
  5
3F5
330
4C4
100
AcDbEntity
  8
DATA
  6
Continuous
 62
     7
100
AcDbLine
 10
894.4999999999977
 20
14.59807617076513
 30
0.0
 11
892.9999999999976
 21
11.99999995941175
 31
0.0
  0
LINE
  5
3F6
330
4C4
100
AcDbEntity
  8
DATA
  6
Continuous
 62
     7
100
AcDbLine
 10
892.9999999999976
 20
11.99999995941175
 30
0.0
 11
894.4999999999977
 21
9.401923748058381
 31
0.0
  0
LINE
  5
3F7
330
4C4
100
AcDbEntity
  8
DATA
  6
Continuous
 62
     7
100
AcDbLine
 10
894.4999999999977
 20
9.401923748058381
 30
0.0
 11
897.4999999999976
 21
9.401923748058381
 31
0.0
  0
LINE
  5
3F8
330
4C4
100
AcDbEntity
  8
DATA
  6
Continuous
 62
     7
100
AcDbLine
 10
897.4999999999976
 20
9.401923748058381
 30
0.0
 11
898.9999999999977
 21
11.99999995941175
 31
0.0
  0
LINE
  5
3F9
330
4C4
100
AcDbEntity
  8
DATA
  6
Continuous
 62
     7
100
AcDbLine
 10
898.9999999999977
 20
11.99999995941175
 30
0.0
 11
897.4999999999976
 21
14.59807617076513
 31
0.0
  0
LINE
  5
3FA
330
4C4
100
AcDbEntity
  8
DATA
  6
Continuous
 62
     7
100
AcDbLine
 10
897.4999999999976
 20
14.59807617076513
 30
0.0
 11
894.4999999999977
 21
14.59807617076513
 31
0.0
  0
LINE
  5
3FB
330
4C4
100
AcDbEntity
  8
DATA
  6
Continuous
 62
     7
100
AcDbLine
 10
994.4999999999996
 20
-131.0000000405866
 30
0.0
 11
1093.499999999999
 21
-131.0000000405865
 31
0.0
  0
ARC
  5
3FC
330
4C4
100
AcDbEntity
  8
DATA
  6
Continuous
 62
     7
100
AcDbCircle
 10
1093.499999999999
 20
-149.0000000405863
 30
0.0
 40
18.0
100
AcDbArc
 50
0.0
 51
90.0
  0
LINE
  5
3FD
330
4C4
100
AcDbEntity
  8
DATA
  6
Continuous
 62
     7
100
AcDbLine
 10
1111.499999999999
 20
-149.0000000405863
 30
0.0
 11
1111.499999999999
 21
-201.0000000405859
 31
0.0
  0
ARC
  5
3FE
330
4C4
100
AcDbEntity
  8
DATA
  6
Continuous
 62
     7
100
AcDbCircle
 10
1093.5
 20
-201.0000000405859
 30
0.0
 40
18.0
100
AcDbArc
 50
270.0
 51
359.9999999999997
  0
LINE
  5
3FF
330
4C4
100
AcDbEntity
  8
DATA
  6
Continuous
 62
     7
100
AcDbLine
 10
1093.499999999999
 20
-219.000000040586
 30
0.0
 11
994.4999999999996
 21
-219.000000040586
 31
0.0
  0
ARC
  5
400
330
4C4
100
AcDbEntity
  8
DATA
  6
Continuous
 62
     7
100
AcDbCircle
 10
994.4999999999996
 20
-201.0000000405859
 30
0.0
 40
18.0
100
AcDbArc
 50
180.0
 51
270.0
  0
LINE
  5
401
330
4C4
100
AcDbEntity
  8
DATA
  6
Continuous
 62
     7
100
AcDbLine
 10
976.4999999999995
 20
-201.0000000405859
 30
0.0
 11
976.4999999999995
 21
-149.0000000405863
 31
0.0
  0
ARC
  5
402
330
4C4
100
AcDbEntity
  8
DATA
  6
Continuous
 62
     7
100
AcDbCircle
 10
994.4999999999996
 20
-149.0000000405863
 30
0.0
 40
17.99999999999977
100
AcDbArc
 50
90.0
 51
180.0
  0
LINE
  5
403
330
4C4
100
AcDbEntity
  8
DATA
  6
Continuous
 62
     7
100
AcDbLine
 10
1190.500000000002
 20
-359.4019238292319
 30
0.0
 11
1189.000000000002
 21
-362.0000000405854
 31
0.0
  0
LINE
  5
404
330
4C4
100
AcDbEntity
  8
DATA
  6
Continuous
 62
     7
100
AcDbLine
 10
1189.000000000002
 20
-362.0000000405854
 30
0.0
 11
1190.500000000002
 21
-364.5980762519387
 31
0.0
  0
LINE
  5
405
330
4C4
100
AcDbEntity
  8
DATA
  6
Continuous
 62
     7
100
AcDbLine
 10
1190.500000000002
 20
-364.5980762519387
 30
0.0
 11
1193.500000000002
 21
-364.5980762519387
 31
0.0
  0
LINE
  5
406
330
4C4
100
AcDbEntity
  8
DATA
  6
Continuous
 62
     7
100
AcDbLine
 10
1193.500000000002
 20
-364.5980762519387
 30
0.0
 11
1195.000000000002
 21
-362.0000000405854
 31
0.0
  0
LINE
  5
407
330
4C4
100
AcDbEntity
  8
DATA
  6
Continuous
 62
     7
100
AcDbLine
 10
1195.000000000002
 20
-362.0000000405854
 30
0.0
 11
1193.500000000002
 21
-359.4019238292319
 31
0.0
  0
LINE
  5
408
330
4C4
100
AcDbEntity
  8
DATA
  6
Continuous
 62
     7
100
AcDbLine
 10
1193.500000000002
 20
-359.4019238292319
 30
0.0
 11
1190.500000000002
 21
-359.4019238292319
 31
0.0
  0
LINE
  5
409
330
4C4
100
AcDbEntity
  8
DATA
  6
Continuous
 62
     7
100
AcDbLine
 10
1190.500000000002
 20
-279.4019238292317
 30
0.0
 11
1189.000000000002
 21
-282.0000000405851
 31
0.0
  0
LINE
  5
40A
330
4C4
100
AcDbEntity
  8
DATA
  6
Continuous
 62
     7
100
AcDbLine
 10
1189.000000000002
 20
-282.0000000405851
 30
0.0
 11
1190.500000000002
 21
-284.5980762519384
 31
0.0
  0
LINE
  5
40B
330
4C4
100
AcDbEntity
  8
DATA
  6
Continuous
 62
     7
100
AcDbLine
 10
1190.500000000002
 20
-284.5980762519384
 30
0.0
 11
1193.500000000002
 21
-284.5980762519384
 31
0.0
  0
LINE
  5
40C
330
4C4
100
AcDbEntity
  8
DATA
  6
Continuous
 62
     7
100
AcDbLine
 10
1193.500000000002
 20
-284.5980762519384
 30
0.0
 11
1195.000000000002
 21
-282.0000000405851
 31
0.0
  0
LINE
  5
40D
330
4C4
100
AcDbEntity
  8
DATA
  6
Continuous
 62
     7
100
AcDbLine
 10
1195.000000000002
 20
-282.0000000405851
 30
0.0
 11
1193.500000000002
 21
-279.4019238292317
 31
0.0
  0
LINE
  5
40E
330
4C4
100
AcDbEntity
  8
DATA
  6
Continuous
 62
     7
100
AcDbLine
 10
1193.500000000002
 20
-279.4019238292317
 30
0.0
 11
1190.500000000002
 21
-279.4019238292317
 31
0.0
  0
LINE
  5
40F
330
4C4
100
AcDbEntity
  8
DATA
  6
Continuous
 62
     7
100
AcDbLine
 10
1018.035533905932
 20
-171.4644661346534
 30
0.0
 11
1018.742640687119
 21
-170.7573593534669
 31
0.0
  0
ARC
  5
410
330
4C4
100
AcDbEntity
  8
DATA
  6
Continuous
 62
     7
100
AcDbCircle
 10
1014.5
 20
-175.0000000405863
 30
0.0
 40
6.000000000000048
100
AcDbArc
 50
45.0
 51
135.0
  0
LINE
  5
411
330
4C4
100
AcDbEntity
  8
DATA
  6
Continuous
 62
     7
100
AcDbLine
 10
1010.25735931288
 20
-170.7573593534669
 30
0.0
 11
1010.964466094067
 21
-171.4644661346534
 31
0.0
  0
ARC
  5
412
330
4C4
100
AcDbEntity
  8
DATA
  6
Continuous
 62
     7
100
AcDbCircle
 10
1014.5
 20
-175.0000000405863
 30
0.0
 40
5.000000000000201
100
AcDbArc
 50
135.0
 51
224.9999999999972
  0
LINE
  5
413
330
4C4
100
AcDbEntity
  8
DATA
  6
Continuous
 62
     7
100
AcDbLine
 10
1010.964466094067
 20
-178.5355339465188
 30
0.0
 11
1010.25735931288
 21
-179.2426407277053
 31
0.0
  0
ARC
  5
414
330
4C4
100
AcDbEntity
  8
DATA
  6
Continuous
 62
     7
100
AcDbCircle
 10
1014.5
 20
-175.0000000405861
 30
0.0
 40
5.999999999999968
100
AcDbArc
 50
224.9999999999992
 51
315.0000000000007
  0
LINE
  5
415
330
4C4
100
AcDbEntity
  8
DATA
  6
Continuous
 62
     7
100
AcDbLine
 10
1018.742640687119
 20
-179.2426407277053
 30
0.0
 11
1018.035533905932
 21
-178.5355339465188
 31
0.0
  0
ARC
  5
416
330
4C4
100
AcDbEntity
  8
DATA
  6
Continuous
 62
     7
100
AcDbCircle
 10
1014.499999999999
 20
-175.0000000405863
 30
0.0
 40
4.999999999999798
100
AcDbArc
 50
315.0000000000009
 51
45.00000000000091
  0
LINE
  5
417
330
4C4
100
AcDbEntity
  8
DATA
  6
Continuous
 62
     7
100
AcDbLine
 10
1069.964466094067
 20
-171.4644661346534
 30
0.0
 11
1069.25735931288
 21
-170.7573593534669
 31
0.0
  0
ARC
  5
418
330
4C4
100
AcDbEntity
  8
DATA
  6
Continuous
 62
     7
100
AcDbCircle
 10
1073.5
 20
-175.0000000405863
 30
0.0
 40
6.000000000000048
100
AcDbArc
 50
45.0
 51
135.0
  0
LINE
  5
419
330
4C4
100
AcDbEntity
  8
DATA
  6
Continuous
 62
     7
100
AcDbLine
 10
1077.742640687119
 20
-170.7573593534669
 30
0.0
 11
1077.035533905932
 21
-171.4644661346534
 31
0.0
  0
ARC
  5
41A
330
4C4
100
AcDbEntity
  8
DATA
  6
Continuous
 62
     7
100
AcDbCircle
 10
1073.499999999999
 20
-175.0000000405863
 30
0.0
 40
4.99999999999996
100
AcDbArc
 50
315.0000000000028
 51
45.00000000000182
  0
LINE
  5
41B
330
4C4
100
AcDbEntity
  8
DATA
  6
Continuous
 62
     7
100
AcDbLine
 10
1077.035533905932
 20
-178.5355339465188
 30
0.0
 11
1077.742640687119
 21
-179.2426407277053
 31
0.0
  0
ARC
  5
41C
330
4C4
100
AcDbEntity
  8
DATA
  6
Continuous
 62
     7
100
AcDbCircle
 10
1073.5
 20
-175.0000000405861
 30
0.0
 40
5.999999999999968
100
AcDbArc
 50
224.9999999999992
 51
315.0000000000007
  0
LINE
  5
41D
330
4C4
100
AcDbEntity
  8
DATA
  6
Continuous
 62
     7
100
AcDbLine
 10
1069.25735931288
 20
-179.2426407277053
 30
0.0
 11
1069.964466094067
 21
-178.5355339465188
 31
0.0
  0
ARC
  5
41E
330
4C4
100
AcDbEntity
  8
DATA
  6
Continuous
 62
     7
100
AcDbCircle
 10
1073.5
 20
-175.0000000405863
 30
0.0
 40
4.99999999999996
100
AcDbArc
 50
134.9999999999991
 51
224.9999999999991
  0
LINE
  5
41F
330
4C4
100
AcDbEntity
  8
DATA
  6
Continuous
 62
     7
100
AcDbLine
 10
1190.500000000001
 20
-65.40192382923414
 30
0.0
 11
1189.000000000001
 21
-68.00000004058751
 31
0.0
  0
LINE
  5
420
330
4C4
100
AcDbEntity
  8
DATA
  6
Continuous
 62
     7
100
AcDbLine
 10
1189.000000000001
 20
-68.00000004058751
 30
0.0
 11
1190.500000000001
 21
-70.59807625194077
 31
0.0
  0
LINE
  5
421
330
4C4
100
AcDbEntity
  8
DATA
  6
Continuous
 62
     7
100
AcDbLine
 10
1190.500000000001
 20
-70.59807625194077
 30
0.0
 11
1193.500000000001
 21
-70.59807625194077
 31
0.0
  0
LINE
  5
422
330
4C4
100
AcDbEntity
  8
DATA
  6
Continuous
 62
     7
100
AcDbLine
 10
1193.500000000001
 20
-70.59807625194077
 30
0.0
 11
1195.000000000001
 21
-68.00000004058751
 31
0.0
  0
LINE
  5
423
330
4C4
100
AcDbEntity
  8
DATA
  6
Continuous
 62
     7
100
AcDbLine
 10
1195.000000000001
 20
-68.00000004058751
 30
0.0
 11
1193.500000000001
 21
-65.40192382923414
 31
0.0
  0
LINE
  5
424
330
4C4
100
AcDbEntity
  8
DATA
  6
Continuous
 62
     7
100
AcDbLine
 10
1193.500000000001
 20
-65.40192382923414
 30
0.0
 11
1190.500000000001
 21
-65.40192382923414
 31
0.0
  0
LINE
  5
425
330
4C4
100
AcDbEntity
  8
DATA
  6
Continuous
 62
     7
100
AcDbLine
 10
1250.500000000002
 20
-359.4019238292319
 30
0.0
 11
1249.000000000002
 21
-362.0000000405854
 31
0.0
  0
LINE
  5
426
330
4C4
100
AcDbEntity
  8
DATA
  6
Continuous
 62
     7
100
AcDbLine
 10
1249.000000000002
 20
-362.0000000405854
 30
0.0
 11
1250.500000000002
 21
-364.5980762519387
 31
0.0
  0
LINE
  5
427
330
4C4
100
AcDbEntity
  8
DATA
  6
Continuous
 62
     7
100
AcDbLine
 10
1250.500000000002
 20
-364.5980762519387
 30
0.0
 11
1253.500000000002
 21
-364.5980762519387
 31
0.0
  0
LINE
  5
428
330
4C4
100
AcDbEntity
  8
DATA
  6
Continuous
 62
     7
100
AcDbLine
 10
1253.500000000002
 20
-364.5980762519387
 30
0.0
 11
1255.000000000002
 21
-362.0000000405854
 31
0.0
  0
LINE
  5
429
330
4C4
100
AcDbEntity
  8
DATA
  6
Continuous
 62
     7
100
AcDbLine
 10
1255.000000000002
 20
-362.0000000405854
 30
0.0
 11
1253.500000000002
 21
-359.4019238292319
 31
0.0
  0
LINE
  5
42A
330
4C4
100
AcDbEntity
  8
DATA
  6
Continuous
 62
     7
100
AcDbLine
 10
1253.500000000002
 20
-359.4019238292319
 30
0.0
 11
1250.500000000002
 21
-359.4019238292319
 31
0.0
  0
LINE
  5
42B
330
4C4
100
AcDbEntity
  8
DATA
  6
Continuous
 62
     7
100
AcDbLine
 10
1250.500000000002
 20
-279.4019238292317
 30
0.0
 11
1249.000000000002
 21
-282.0000000405851
 31
0.0
  0
LINE
  5
42C
330
4C4
100
AcDbEntity
  8
DATA
  6
Continuous
 62
     7
100
AcDbLine
 10
1249.000000000002
 20
-282.0000000405851
 30
0.0
 11
1250.500000000002
 21
-284.5980762519384
 31
0.0
  0
LINE
  5
42D
330
4C4
100
AcDbEntity
  8
DATA
  6
Continuous
 62
     7
100
AcDbLine
 10
1250.500000000002
 20
-284.5980762519384
 30
0.0
 11
1253.500000000002
 21
-284.5980762519384
 31
0.0
  0
LINE
  5
42E
330
4C4
100
AcDbEntity
  8
DATA
  6
Continuous
 62
     7
100
AcDbLine
 10
1253.500000000002
 20
-284.5980762519384
 30
0.0
 11
1255.000000000002
 21
-282.0000000405851
 31
0.0
  0
LINE
  5
42F
330
4C4
100
AcDbEntity
  8
DATA
  6
Continuous
 62
     7
100
AcDbLine
 10
1255.000000000002
 20
-282.0000000405851
 30
0.0
 11
1253.500000000002
 21
-279.4019238292317
 31
0.0
  0
LINE
  5
430
330
4C4
100
AcDbEntity
  8
DATA
  6
Continuous
 62
     7
100
AcDbLine
 10
1253.500000000002
 20
-279.4019238292317
 30
0.0
 11
1250.500000000002
 21
-279.4019238292317
 31
0.0
  0
LINE
  5
431
330
4C4
100
AcDbEntity
  8
DATA
  6
Continuous
 62
     7
100
AcDbLine
 10
1250.500000000001
 20
-65.40192382923414
 30
0.0
 11
1249.000000000001
 21
-68.00000004058751
 31
0.0
  0
LINE
  5
432
330
4C4
100
AcDbEntity
  8
DATA
  6
Continuous
 62
     7
100
AcDbLine
 10
1249.000000000001
 20
-68.00000004058751
 30
0.0
 11
1250.500000000001
 21
-70.59807625194077
 31
0.0
  0
LINE
  5
433
330
4C4
100
AcDbEntity
  8
DATA
  6
Continuous
 62
     7
100
AcDbLine
 10
1250.500000000001
 20
-70.59807625194077
 30
0.0
 11
1253.500000000001
 21
-70.59807625194077
 31
0.0
  0
LINE
  5
434
330
4C4
100
AcDbEntity
  8
DATA
  6
Continuous
 62
     7
100
AcDbLine
 10
1253.500000000001
 20
-70.59807625194077
 30
0.0
 11
1255.000000000001
 21
-68.00000004058751
 31
0.0
  0
LINE
  5
435
330
4C4
100
AcDbEntity
  8
DATA
  6
Continuous
 62
     7
100
AcDbLine
 10
1255.000000000001
 20
-68.00000004058751
 30
0.0
 11
1253.500000000001
 21
-65.40192382923414
 31
0.0
  0
LINE
  5
436
330
4C4
100
AcDbEntity
  8
DATA
  6
Continuous
 62
     7
100
AcDbLine
 10
1253.500000000001
 20
-65.40192382923414
 30
0.0
 11
1250.500000000001
 21
-65.40192382923414
 31
0.0
  0
LINE
  5
437
330
4C4
100
AcDbEntity
  8
DATA
  6
Continuous
 62
     7
100
AcDbLine
 10
1190.500000000001
 20
14.59807617076513
 30
0.0
 11
1189.000000000001
 21
11.99999995941175
 31
0.0
  0
LINE
  5
438
330
4C4
100
AcDbEntity
  8
DATA
  6
Continuous
 62
     7
100
AcDbLine
 10
1189.000000000001
 20
11.99999995941175
 30
0.0
 11
1190.500000000001
 21
9.401923748058381
 31
0.0
  0
LINE
  5
439
330
4C4
100
AcDbEntity
  8
DATA
  6
Continuous
 62
     7
100
AcDbLine
 10
1190.500000000001
 20
9.401923748058381
 30
0.0
 11
1193.500000000001
 21
9.401923748058381
 31
0.0
  0
LINE
  5
43A
330
4C4
100
AcDbEntity
  8
DATA
  6
Continuous
 62
     7
100
AcDbLine
 10
1193.500000000001
 20
9.401923748058381
 30
0.0
 11
1195.000000000001
 21
11.99999995941175
 31
0.0
  0
LINE
  5
43B
330
4C4
100
AcDbEntity
  8
DATA
  6
Continuous
 62
     7
100
AcDbLine
 10
1195.000000000001
 20
11.99999995941175
 30
0.0
 11
1193.500000000001
 21
14.59807617076513
 31
0.0
  0
LINE
  5
43C
330
4C4
100
AcDbEntity
  8
DATA
  6
Continuous
 62
     7
100
AcDbLine
 10
1193.500000000001
 20
14.59807617076513
 30
0.0
 11
1190.500000000001
 21
14.59807617076513
 31
0.0
  0
LINE
  5
43D
330
4C4
100
AcDbEntity
  8
DATA
  6
Continuous
 62
     7
100
AcDbLine
 10
1250.500000000001
 20
14.59807617076513
 30
0.0
 11
1249.000000000001
 21
11.99999995941175
 31
0.0
  0
LINE
  5
43E
330
4C4
100
AcDbEntity
  8
DATA
  6
Continuous
 62
     7
100
AcDbLine
 10
1249.000000000001
 20
11.99999995941175
 30
0.0
 11
1250.500000000001
 21
9.401923748058381
 31
0.0
  0
LINE
  5
43F
330
4C4
100
AcDbEntity
  8
DATA
  6
Continuous
 62
     7
100
AcDbLine
 10
1250.500000000001
 20
9.401923748058381
 30
0.0
 11
1253.500000000001
 21
9.401923748058381
 31
0.0
  0
LINE
  5
440
330
4C4
100
AcDbEntity
  8
DATA
  6
Continuous
 62
     7
100
AcDbLine
 10
1253.500000000001
 20
9.401923748058381
 30
0.0
 11
1255.000000000001
 21
11.99999995941175
 31
0.0
  0
LINE
  5
441
330
4C4
100
AcDbEntity
  8
DATA
  6
Continuous
 62
     7
100
AcDbLine
 10
1255.000000000001
 20
11.99999995941175
 30
0.0
 11
1253.500000000001
 21
14.59807617076513
 31
0.0
  0
LINE
  5
442
330
4C4
100
AcDbEntity
  8
DATA
  6
Continuous
 62
     7
100
AcDbLine
 10
1253.500000000001
 20
14.59807617076513
 30
0.0
 11
1250.500000000001
 21
14.59807617076513
 31
0.0
  0
LWPOLYLINE
  5
443
330
4C4
100
AcDbEntity
  8
DATA
  6
Continuous
 62
     7
100
AcDbPolyline
 90
       12
 70
   129
 43
0.0
 10
1074.999999999999
 20
-104.0000000405866
 10
1074.999999999999
 20
-104.0000000405866
 42
-0.4142135623731332
 10
1068.0
 20
-111.0000000405868
 10
1019.999999999999
 20
-111.0000000405867
 10
1019.999999999999
 20
-111.0000000405867
 42
-0.4142135623730998
 10
1012.999999999999
 20
-104.0000000405866
 10
1012.999999999999
 20
-36.00000004058705
 10
1012.999999999999
 20
-36.00000004058703
 42
-0.4142135623730891
 10
1019.999999999999
 20
-29.00000004058683
 10
1068.0
 20
-29.00000004058705
 10
1068.0
 20
-29.00000004058705
 42
-0.4142135623731141
 10
1074.999999999999
 20
-36.00000004058683
  0
TEXT
  5
451
330
4C4
100
AcDbEntity
  8
DATA
 62
     7
100
AcDbText
 10
852.9267405535902
 20
-1594.145
 30
0.0
 40
36.64892578125
  1
LA4-SUB
 41
0.7
 11
852.9267405535902
 21
-1557.49607421875
 31
0.0
100
AcDbText
 73
     3
  0
TEXT
  5
452
330
4C4
100
AcDbEntity
  8
DATA
 62
     7
100
AcDbText
 10
853.5647982227725
 20
-1471.913726157196
 30
0.0
 40
36.64892578125
  1
CODA
 41
0.7
 11
853.5647982227725
 21
-1435.264800375946
 31
0.0
100
AcDbText
 73
     3
  0
TEXT
  5
453
330
4C4
100
AcDbEntity
  8
DATA
 62
     7
100
AcDbText
 10
815.4157911724517
 20
-1527.192319537006
 30
0.0
 40
24.4326171875
  1
ラインアレイ・システム・サブウーファー
 41
0.7
 11
815.4157911724517
 21
-1502.759702349506
 31
0.0
100
AcDbText
 73
     3
  0
VIEWPORT
  5
454
102
{ACAD_XDICTIONARY
360
4F0
102
}
330
4C0
100
AcDbEntity
 67
     1
  8
0
100
AcDbViewport
 10
128.5
 20
97.5
 30
0.0
 40
314.226
 41
222.18
 68
     1
 69
     1
 12
128.5
 22
97.5
 13
0.0
 23
0.0
 14
10.0
 24
10.0
 15
10.0
 25
10.0
 16
0.0
 26
0.0
 36
1.0
 17
0.0
 27
0.0
 37
0.0
 42
50.0
 43
0.0
 44
0.0
 45
222.18
 50
0.0
 51
0.0
 72
   100
 90
   557152
  1

281
     0
 71
     0
 74
     0
110
0.0
120
0.0
130
0.0
111
1.0
121
0.0
131
0.0
112
0.0
122
1.0
132
0.0
 79
     0
146
0.0
  0
ENDSEC
  0
SECTION
  2
OBJECTS
  0
DICTIONARY
  5
465
330
0
100
AcDbDictionary
281
     1
  3
ACAD_CIP_PREVIOUS_PRODUCT_INFO
350
4E2
  3
ACAD_COLOR
350
4BB
  3
ACAD_GROUP
350
466
  3
ACAD_LAYOUT
350
4BA
  3
ACAD_MATERIAL
350
469
  3
ACAD_MLEADERSTYLE
350
4BE
  3
ACAD_MLINESTYLE
350
4B7
  3
ACAD_PLOTSETTINGS
350
4B9
  3
ACAD_PLOTSTYLENAME
350
467
  3
ACAD_SCALELIST
350
49B
  3
ACAD_TABLESTYLE
350
4BC
  3
ACAD_VISUALSTYLE
350
482
  3
ACDB_RECOMPOSE_DATA
350
4EE
  3
AcDbVariableDictionary
350
4E3
  3
DWGPROPS
350
4EF
  0
DICTIONARY
  5
4F0
330
454
100
AcDbDictionary
280
     1
281
     1
  3
ACAD_XREC_ROUNDTRIP
360
4F1
  0
XRECORD
  5
4E2
102
{ACAD_REACTORS
330
465
102
}
330
465
100
AcDbXrecord
280
     1
300
ACDLT
300
2012
300
ACDLT_F_S
  0
DICTIONARY
  5
4BB
102
{ACAD_REACTORS
330
465
102
}
330
465
100
AcDbDictionary
281
     1
  0
DICTIONARY
  5
466
102
{ACAD_REACTORS
330
465
102
}
330
465
100
AcDbDictionary
281
     1
  0
DICTIONARY
  5
4BA
102
{ACAD_REACTORS
330
465
102
}
330
465
100
AcDbDictionary
281
     1
  3
Model
350
4C7
  3
レイアウト1
350
4C3
  0
DICTIONARY
  5
469
102
{ACAD_REACTORS
330
465
102
}
330
465
100
AcDbDictionary
281
     1
  3
ByBlock
350
472
  3
ByLayer
350
46A
  3
Global
350
47A
  0
DICTIONARY
  5
4BE
102
{ACAD_REACTORS
330
465
102
}
330
465
100
AcDbDictionary
281
     1
  3
Standard
350
4BF
  0
DICTIONARY
  5
4B7
102
{ACAD_REACTORS
330
465
102
}
330
465
100
AcDbDictionary
281
     1
  3
Standard
350
4B8
  0
DICTIONARY
  5
4B9
102
{ACAD_REACTORS
330
465
102
}
330
465
100
AcDbDictionary
281
     1
  0
ACDBDICTIONARYWDFLT
  5
467
102
{ACAD_REACTORS
330
465
102
}
330
465
100
AcDbDictionary
281
     1
  3
Normal
350
468
100
AcDbDictionaryWithDefault
340
468
  0
DICTIONARY
  5
49B
102
{ACAD_REACTORS
330
465
102
}
330
465
100
AcDbDictionary
281
     1
  3
A0
350
49C
  3
A1
350
49D
  3
A2
350
49E
  3
A3
350
49F
  3
A4
350
4A0
  3
A5
350
4A1
  3
A6
350
4A2
  3
A7
350
4A3
  3
A8
350
4A4
  3
A9
350
4A5
  3
B0
350
4A6
  3
B1
350
4A7
  3
B2
350
4A8
  3
B3
350
4A9
  3
B4
350
4AA
  3
B5
350
4AB
  3
B6
350
4AC
  0
DICTIONARY
  5
4BC
102
{ACAD_REACTORS
330
465
102
}
330
465
100
AcDbDictionary
281
     1
  3
Standard
350
4BD
  0
DICTIONARY
  5
482
102
{ACAD_REACTORS
330
465
102
}
330
465
100
AcDbDictionary
281
     1
  3
2dWireframe
350
488
  3
Basic
350
487
  3
Brighten
350
48E
  3
ColorChange
350
492
  3
Conceptual
350
48B
  3
Dim
350
48D
  3
EdgeColorOff
350
49A
  3
Facepattern
350
491
  3
Flat
350
483
  3
FlatWithEdges
350
484
  3
Gouraud
350
485
  3
GouraudWithEdges
350
486
  3
Hidden
350
48A
  3
JitterOff
350
498
  3
Linepattern
350
490
  3
OverhangOff
350
499
  3
Realistic
350
48C
  3
Shaded
350
497
  3
Shaded with edges
350
496
  3
Shades of Gray
350
493
  3
Sketchy
350
494
  3
Thicken
350
48F
  3
Wireframe
350
489
  3
X-Ray
350
495
  0
XRECORD
  5
4EE
102
{ACAD_REACTORS
330
465
102
}
330
465
100
AcDbXrecord
280
     1
 90
        1
330
4BD
  0
DICTIONARY
  5
4E3
102
{ACAD_REACTORS
330
465
102
}
330
465
100
AcDbDictionary
281
     1
  3
CANNOSCALE
350
4E6
  3
CMLEADERSTYLE
350
4E5
  3
CTABLESTYLE
350
4E4
  3
DIMASSOC
350
4E9
  3
INDEXCTL
350
4E8
  3
SORTENTS
350
4E7
  3
XCLIPFRAME
350
4EA
  0
XRECORD
  5
4EF
102
{ACAD_REACTORS
330
465
102
}
330
465
100
AcDbXrecord
280
     1
  1
DWGPROPS COOKIE
  2

  3

  4

  6

  7

  8
sasaki_n
  9

300
=
301
=
302
=
303
=
304
=
305
=
306
=
307
=
308
=
309
=
 40
0.000389849537037
 41
2455861.606834479
 42
2455861.739860996
  1

 90
        0
  0
XRECORD
  5
4F1
102
{ACAD_REACTORS
330
4F0
102
}
330
4F0
100
AcDbXrecord
280
     1
102
SHADEPLOT
 70
     0
  0
LAYOUT
  5
4C7
102
{ACAD_XDICTIONARY
360
529
102
}
102
{ACAD_REACTORS
330
4BA
102
}
330
4BA
100
AcDbPlotSettings
  1

  2
Microsoft XPS Document Writer
  4

  6

 40
0.0
 41
0.0
 42
0.0
 43
0.0
 44
0.0
 45
0.0
 46
0.0
 47
0.0
 48
0.0
 49
0.0
140
0.0
141
0.0
142
1.0
143
1.0
 70
  1712
 72
     0
 73
     0
 74
     0
  7

 75
     0
147
1.0
148
0.0
149
0.0
100
AcDbLayout
  1
Model
 70
     1
 71
     0
 10
0.0
 20
0.0
 11
12.0
 21
9.0
 12
0.0
 22
0.0
 32
0.0
 14
0.0
 24
0.0
 34
0.0
 15
0.0
 25
0.0
 35
0.0
146
0.0
 13
0.0
 23
0.0
 33
0.0
 16
1.0
 26
0.0
 36
0.0
 17
0.0
 27
1.0
 37
0.0
 76
     0
330
4C4
331
4C9
  0
LAYOUT
  5
4C3
102
{ACAD_XDICTIONARY
360
527
102
}
102
{ACAD_REACTORS
330
4BA
102
}
330
4BA
100
AcDbPlotSettings
  1

  2
Microsoft XPS Document Writer
  4

  6

 40
0.0
 41
0.0
 42
0.0
 43
0.0
 44
0.0
 45
0.0
 46
0.0
 47
0.0
 48
0.0
 49
0.0
140
0.0
141
0.0
142
1.0
143
1.0
 70
   688
 72
     0
 73
     0
 74
     5
  7

 75
    16
147
1.0
148
0.0
149
0.0
100
AcDbLayout
  1
レイアウト1
 70
     1
 71
     1
 10
-20.0
 20
-7.5
 11
277.0
 21
202.5
 12
0.0
 22
0.0
 32
0.0
 14
1.000000000000000E+20
 24
1.000000000000000E+20
 34
1.000000000000000E+20
 15
-1.000000000000000E+20
 25
-1.000000000000000E+20
 35
-1.000000000000000E+20
146
0.0
 13
0.0
 23
0.0
 33
0.0
 16
1.0
 26
0.0
 36
0.0
 17
0.0
 27
1.0
 37
0.0
 76
     0
330
4C0
331
454
  0
MATERIAL
  5
472
102
{ACAD_XDICTIONARY
360
473
102
}
102
{ACAD_REACTORS
330
469
102
}
330
469
100
AcDbMaterial
  1
ByBlock
 72
     0
 43
0.0208333333333333
 43
0.0
 43
0.0
 43
0.0
 43
0.0
 43
0.0208333333333333
 43
0.0
 43
0.0
 43
0.0
 43
0.0
 43
1.0
 43
0.0
 43
0.0
 43
0.0
 43
0.0
 43
1.0
 77
     0
 47
0.0208333333333333
 47
0.0
 47
0.0
 47
0.0
 47
0.0
 47
0.0208333333333333
 47
0.0
 47
0.0
 47
0.0
 47
0.0
 47
1.0
 47
0.0
 47
0.0
 47
0.0
 47
0.0
 47
1.0
171
     0
 49
0.0208333333333333
 49
0.0
 49
0.0
 49
0.0
 49
0.0
 49
0.0208333333333333
 49
0.0
 49
0.0
 49
0.0
 49
0.0
 49
1.0
 49
0.0
 49
0.0
 49
0.0
 49
0.0
 49
1.0
175
     0
142
0.0208333333333333
142
0.0
142
0.0
142
0.0
142
0.0
142
0.0208333333333333
142
0.0
142
0.0
142
0.0
142
0.0
142
1.0
142
0.0
142
0.0
142
0.0
142
0.0
142
1.0
179
     0
144
0.0208333333333333
144
0.0
144
0.0
144
0.0
144
0.0
144
0.0208333333333333
144
0.0
144
0.0
144
0.0
144
0.0
144
1.0
144
0.0
144
0.0
144
0.0
144
0.0
144
1.0
147
0.0208333333333333
147
0.0
147
0.0
147
0.0
147
0.0
147
0.0208333333333333
147
0.0
147
0.0
147
0.0
147
0.0
147
1.0
147
0.0
147
0.0
147
0.0
147
0.0
147
1.0
  0
MATERIAL
  5
46A
102
{ACAD_XDICTIONARY
360
46B
102
}
102
{ACAD_REACTORS
330
469
102
}
330
469
100
AcDbMaterial
  1
ByLayer
 72
     0
 43
0.0208333333333333
 43
0.0
 43
0.0
 43
0.0
 43
0.0
 43
0.0208333333333333
 43
0.0
 43
0.0
 43
0.0
 43
0.0
 43
1.0
 43
0.0
 43
0.0
 43
0.0
 43
0.0
 43
1.0
 77
     0
 47
0.0208333333333333
 47
0.0
 47
0.0
 47
0.0
 47
0.0
 47
0.0208333333333333
 47
0.0
 47
0.0
 47
0.0
 47
0.0
 47
1.0
 47
0.0
 47
0.0
 47
0.0
 47
0.0
 47
1.0
171
     0
 49
0.0208333333333333
 49
0.0
 49
0.0
 49
0.0
 49
0.0
 49
0.0208333333333333
 49
0.0
 49
0.0
 49
0.0
 49
0.0
 49
1.0
 49
0.0
 49
0.0
 49
0.0
 49
0.0
 49
1.0
175
     0
142
0.0208333333333333
142
0.0
142
0.0
142
0.0
142
0.0
142
0.0208333333333333
142
0.0
142
0.0
142
0.0
142
0.0
142
1.0
142
0.0
142
0.0
142
0.0
142
0.0
142
1.0
179
     0
144
0.0208333333333333
144
0.0
144
0.0
144
0.0
144
0.0
144
0.0208333333333333
144
0.0
144
0.0
144
0.0
144
0.0
144
1.0
144
0.0
144
0.0
144
0.0
144
0.0
144
1.0
147
0.0208333333333333
147
0.0
147
0.0
147
0.0
147
0.0
147
0.0208333333333333
147
0.0
147
0.0
147
0.0
147
0.0
147
1.0
147
0.0
147
0.0
147
0.0
147
0.0
147
1.0
  0
MATERIAL
  5
47A
102
{ACAD_XDICTIONARY
360
47B
102
}
102
{ACAD_REACTORS
330
469
102
}
330
469
100
AcDbMaterial
  1
Global
 72
     0
 43
0.0208333333333333
 43
0.0
 43
0.0
 43
0.0
 43
0.0
 43
0.0208333333333333
 43
0.0
 43
0.0
 43
0.0
 43
0.0
 43
1.0
 43
0.0
 43
0.0
 43
0.0
 43
0.0
 43
1.0
 77
     0
 47
0.0208333333333333
 47
0.0
 47
0.0
 47
0.0
 47
0.0
 47
0.0208333333333333
 47
0.0
 47
0.0
 47
0.0
 47
0.0
 47
1.0
 47
0.0
 47
0.0
 47
0.0
 47
0.0
 47
1.0
171
     0
 49
0.0208333333333333
 49
0.0
 49
0.0
 49
0.0
 49
0.0
 49
0.0208333333333333
 49
0.0
 49
0.0
 49
0.0
 49
0.0
 49
1.0
 49
0.0
 49
0.0
 49
0.0
 49
0.0
 49
1.0
175
     0
142
0.0208333333333333
142
0.0
142
0.0
142
0.0
142
0.0
142
0.0208333333333333
142
0.0
142
0.0
142
0.0
142
0.0
142
1.0
142
0.0
142
0.0
142
0.0
142
0.0
142
1.0
179
     0
144
0.0208333333333333
144
0.0
144
0.0
144
0.0
144
0.0
144
0.0208333333333333
144
0.0
144
0.0
144
0.0
144
0.0
144
1.0
144
0.0
144
0.0
144
0.0
144
0.0
144
1.0
147
0.0208333333333333
147
0.0
147
0.0
147
0.0
147
0.0
147
0.0208333333333333
147
0.0
147
0.0
147
0.0
147
0.0
147
1.0
147
0.0
147
0.0
147
0.0
147
0.0
147
1.0
  0
MLEADERSTYLE
  5
4BF
102
{ACAD_REACTORS
330
4BE
102
}
330
4BE
100
AcDbMLeaderStyle
170
     2
171
     1
172
     0
 90
        2
 40
0.0
 41
0.0
173
     1
 91
-1056964608
340
4B3
 92
       -2
290
     1
 42
0.09
291
     1
 43
0.36
  3
Standard
 44
0.18
300

342
4AE
174
     1
178
     6
175
     1
176
     0
 93
-1056964608
 45
0.18
292
     0
297
     0
 46
0.18
 94
-1056964608
 47
1.0
 49
1.0
140
1.0
293
     1
141
0.0
294
     1
177
     0
142
1.0
295
     0
296
     0
143
0.125
1001
ACAD_MLEADERVER
1070
     2
  0
MLINESTYLE
  5
4B8
102
{ACAD_REACTORS
330
4B7
102
}
330
4B7
100
AcDbMlineStyle
  2
STANDARD
 70
     0
  3

 62
   256
 51
90.0
 52
90.0
 71
     2
 49
0.5
 62
   256
  6
BYLAYER
 49
-0.5
 62
   256
  6
BYLAYER
  0
ACDBPLACEHOLDER
  5
468
102
{ACAD_REACTORS
330
467
102
}
330
467
  0
SCALE
  5
49C
102
{ACAD_REACTORS
330
49B
102
}
330
49B
100
AcDbScale
 70
     0
300
1:1
140
1.0
141
1.0
290
     1
  0
SCALE
  5
49D
102
{ACAD_REACTORS
330
49B
102
}
330
49B
100
AcDbScale
 70
     0
300
1/128" = 1'-0"
140
0.0078125
141
12.0
290
     0
  0
SCALE
  5
49E
102
{ACAD_REACTORS
330
49B
102
}
330
49B
100
AcDbScale
 70
     0
300
1/64" = 1'-0"
140
0.015625
141
12.0
290
     0
  0
SCALE
  5
49F
102
{ACAD_REACTORS
330
49B
102
}
330
49B
100
AcDbScale
 70
     0
300
1/32" = 1'-0"
140
0.03125
141
12.0
290
     0
  0
SCALE
  5
4A0
102
{ACAD_REACTORS
330
49B
102
}
330
49B
100
AcDbScale
 70
     0
300
1/16" = 1'-0"
140
0.0625
141
12.0
290
     0
  0
SCALE
  5
4A1
102
{ACAD_REACTORS
330
49B
102
}
330
49B
100
AcDbScale
 70
     0
300
3/32" = 1'-0"
140
0.09375
141
12.0
290
     0
  0
SCALE
  5
4A2
102
{ACAD_REACTORS
330
49B
102
}
330
49B
100
AcDbScale
 70
     0
300
1/8" = 1'-0"
140
0.125
141
12.0
290
     0
  0
SCALE
  5
4A3
102
{ACAD_REACTORS
330
49B
102
}
330
49B
100
AcDbScale
 70
     0
300
3/16" = 1'-0"
140
0.1875
141
12.0
290
     0
  0
SCALE
  5
4A4
102
{ACAD_REACTORS
330
49B
102
}
330
49B
100
AcDbScale
 70
     0
300
1/4" = 1'-0"
140
0.25
141
12.0
290
     0
  0
SCALE
  5
4A5
102
{ACAD_REACTORS
330
49B
102
}
330
49B
100
AcDbScale
 70
     0
300
3/8" = 1'-0"
140
0.375
141
12.0
290
     0
  0
SCALE
  5
4A6
102
{ACAD_REACTORS
330
49B
102
}
330
49B
100
AcDbScale
 70
     0
300
1/2" = 1'-0"
140
0.5
141
12.0
290
     0
  0
SCALE
  5
4A7
102
{ACAD_REACTORS
330
49B
102
}
330
49B
100
AcDbScale
 70
     0
300
3/4" = 1'-0"
140
0.75
141
12.0
290
     0
  0
SCALE
  5
4A8
102
{ACAD_REACTORS
330
49B
102
}
330
49B
100
AcDbScale
 70
     0
300
1" = 1'-0"
140
1.0
141
12.0
290
     0
  0
SCALE
  5
4A9
102
{ACAD_REACTORS
330
49B
102
}
330
49B
100
AcDbScale
 70
     0
300
1-1/2" = 1'-0"
140
1.5
141
12.0
290
     0
  0
SCALE
  5
4AA
102
{ACAD_REACTORS
330
49B
102
}
330
49B
100
AcDbScale
 70
     0
300
3" = 1'-0"
140
3.0
141
12.0
290
     0
  0
SCALE
  5
4AB
102
{ACAD_REACTORS
330
49B
102
}
330
49B
100
AcDbScale
 70
     0
300
6" = 1'-0"
140
6.0
141
12.0
290
     0
  0
SCALE
  5
4AC
102
{ACAD_REACTORS
330
49B
102
}
330
49B
100
AcDbScale
 70
     0
300
1'-0" = 1'-0"
140
12.0
141
12.0
290
     0
  0
TABLESTYLE
  5
4BD
102
{ACAD_XDICTIONARY
360
4EC
102
}
102
{ACAD_REACTORS
330
4BC
102
}
330
4BC
100
AcDbTableStyle
  3
Standard
 70
     0
 71
     0
 40
0.06
 41
0.06
280
     0
281
     0
  7
STANDARD
140
0.18
170
     2
 62
     0
 63
     7
283
     0
274
    -2
284
     1
 64
     0
275
    -2
285
     1
 65
     0
276
    -2
286
     1
 66
     0
277
    -2
287
     1
 67
     0
278
    -2
288
     1
 68
     0
279
    -2
289
     1
 69
     0
  7
STANDARD
140
0.25
170
     5
 62
     0
 63
     7
283
     0
274
    -2
284
     1
 64
     0
275
    -2
285
     1
 65
     0
276
    -2
286
     1
 66
     0
277
    -2
287
     1
 67
     0
278
    -2
288
     1
 68
     0
279
    -2
289
     1
 69
     0
  7
STANDARD
140
0.18
170
     5
 62
     0
 63
     7
283
     0
274
    -2
284
     1
 64
     0
275
    -2
285
     1
 65
     0
276
    -2
286
     1
 66
     0
277
    -2
287
     1
 67
     0
278
    -2
288
     1
 68
     0
279
    -2
289
     1
 69
     0
  0
VISUALSTYLE
  5
488
102
{ACAD_XDICTIONARY
360
4FF
102
}
102
{ACAD_REACTORS
330
482
102
}
330
482
100
AcDbVisualStyle
  2
2dWireframe
 70
     4
 71
     0
 72
     2
 73
     0
 90
        0
 40
-0.6
 41
-30.0
 62
     5
 63
     7
 74
     1
 91
        4
 64
     7
 65
   257
 75
     1
175
     1
 42
1.0
 92
        0
 66
   257
 43
1.0
 76
     1
 77
     6
 78
     2
 67
     7
 79
     5
170
     0
171
     0
290
     0
174
     0
 93
        1
 44
0.0
173
     0
291
     0
 45
0.0
1001
ACAD
1000
AcDbSavedByObjectVersion
1070
     0
  0
VISUALSTYLE
  5
487
102
{ACAD_XDICTIONARY
360
4FD
102
}
102
{ACAD_REACTORS
330
482
102
}
330
482
100
AcDbVisualStyle
  2
Basic
 70
     7
 71
     1
 72
     0
 73
     1
 90
        0
 40
-0.6
 41
-30.0
 62
     5
 63
     7
 74
     0
 91
        4
 64
     7
 65
   257
 75
     1
175
     1
 42
1.0
 92
        8
 66
     7
 43
1.0
 76
     1
 77
     6
 78
     2
 67
     7
 79
     5
170
     0
171
     0
290
     0
174
     0
 93
        1
 44
0.0
173
     0
291
     1
 45
0.0
1001
ACAD
1000
AcDbSavedByObjectVersion
1070
     0
  0
VISUALSTYLE
  5
48E
102
{ACAD_XDICTIONARY
360
50B
102
}
102
{ACAD_REACTORS
330
482
102
}
330
482
100
AcDbVisualStyle
  2
Brighten
 70
    12
 71
     2
 72
     2
 73
     0
 90
        0
 40
-0.6
 41
-30.0
 62
     5
 63
     7
 74
     1
 91
        4
 64
     7
 65
   257
 75
     1
175
     1
 42
1.0
 92
        8
 66
     7
 43
1.0
 76
     1
 77
     6
 78
     2
 67
     7
 79
     5
170
     0
171
     0
290
     0
174
     0
 93
        1
 44
50.0
173
     0
291
     1
 45
0.0
1001
ACAD
1000
AcDbSavedByObjectVersion
1070
     0
  0
VISUALSTYLE
  5
492
102
{ACAD_XDICTIONARY
360
513
102
}
102
{ACAD_REACTORS
330
482
102
}
330
482
100
AcDbVisualStyle
  2
ColorChange
 70
    16
 71
     2
 72
     2
 73
     3
 90
        0
 40
-0.6
 41
-30.0
 62
     5
 63
     8
 74
     1
 91
        4
 64
     7
 65
   257
 75
     1
175
     1
 42
1.0
 92
        8
 66
     8
 43
1.0
 76
     1
 77
     6
 78
     2
 67
     7
 79
     5
170
     0
171
     0
290
     0
174
     0
 93
        1
 44
0.0
173
     0
291
     1
 45
0.0
1001
ACAD
1000
AcDbSavedByObjectVersion
1070
     0
  0
VISUALSTYLE
  5
48B
102
{ACAD_XDICTIONARY
360
505
102
}
102
{ACAD_REACTORS
330
482
102
}
330
482
100
AcDbVisualStyle
  2
Conceptual
 70
     9
 71
     3
 72
     2
 73
     0
 90
        0
 40
-0.6
 41
-30.0
 62
     5
 63
     7
 74
     2
 91
        2
 64
     7
 65
   257
 75
     1
175
     1
 42
179.0
 92
        8
 66
     7
 43
1.0
 76
     1
 77
     6
 78
     2
 67
     7
 79
     3
170
     0
171
     0
290
     0
174
     0
 93
        1
 44
0.0
173
     0
291
     0
 45
0.0
1001
ACAD
1000
AcDbSavedByObjectVersion
1070
     0
  0
VISUALSTYLE
  5
48D
102
{ACAD_XDICTIONARY
360
509
102
}
102
{ACAD_REACTORS
330
482
102
}
330
482
100
AcDbVisualStyle
  2
Dim
 70
    11
 71
     2
 72
     2
 73
     0
 90
        0
 40
-0.6
 41
-30.0
 62
     5
 63
     7
 74
     1
 91
        4
 64
     7
 65
   257
 75
     1
175
     1
 42
1.0
 92
        8
 66
     7
 43
1.0
 76
     1
 77
     6
 78
     2
 67
     7
 79
     5
170
     0
171
     0
290
     0
174
     0
 93
        1
 44
-50.0
173
     0
291
     1
 45
0.0
1001
ACAD
1000
AcDbSavedByObjectVersion
1070
     0
  0
VISUALSTYLE
  5
49A
102
{ACAD_XDICTIONARY
360
523
102
}
102
{ACAD_REACTORS
330
482
102
}
330
482
100
AcDbVisualStyle
  2
EdgeColorOff
 70
    22
 71
     2
 72
     2
 73
     0
 90
        0
 40
-0.6
 41
-30.0
 62
     5
 63
     7
 74
     1
 91
        4
 64
     7
 65
   257
 75
     1
175
     1
 42
1.0
 92
        8
 66
     7
 43
1.0
 76
     1
 77
     6
 78
     2
 67
     7
 79
     5
170
     0
171
     0
290
     0
174
     0
 93
        1
 44
0.0
173
     0
291
     1
 45
0.0
1001
ACAD
1000
AcDbSavedByObjectVersion
1070
     0
  0
VISUALSTYLE
  5
491
102
{ACAD_XDICTIONARY
360
511
102
}
102
{ACAD_REACTORS
330
482
102
}
330
482
100
AcDbVisualStyle
  2
Facepattern
 70
    15
 71
     2
 72
     2
 73
     0
 90
        0
 40
-0.6
 41
-30.0
 62
     5
 63
     7
 74
     1
 91
        4
 64
     7
 65
   257
 75
     1
175
     1
 42
1.0
 92
        8
 66
     7
 43
1.0
 76
     1
 77
     6
 78
     2
 67
     7
 79
     5
170
     0
171
     0
290
     0
174
     0
 93
        1
 44
0.0
173
     0
291
     1
 45
0.0
1001
ACAD
1000
AcDbSavedByObjectVersion
1070
     0
  0
VISUALSTYLE
  5
483
102
{ACAD_XDICTIONARY
360
4F5
102
}
102
{ACAD_REACTORS
330
482
102
}
330
482
100
AcDbVisualStyle
  2
Flat
 70
     0
 71
     2
 72
     1
 73
     1
 90
        2
 40
-0.6
 41
30.0
 62
     5
 63
     7
 74
     0
 91
        0
 64
     7
 65
   257
 75
     1
175
     1
 42
1.0
 92
        8
 66
     7
 43
1.0
 76
     1
 77
     6
 78
     2
 67
     7
 79
     5
170
     0
171
     0
290
     0
174
     0
 93
       13
 44
0.0
173
     0
291
     1
 45
0.0
1001
ACAD
1000
AcDbSavedByObjectVersion
1070
     0
  0
VISUALSTYLE
  5
484
102
{ACAD_XDICTIONARY
360
4F7
102
}
102
{ACAD_REACTORS
330
482
102
}
330
482
100
AcDbVisualStyle
  2
FlatWithEdges
 70
     1
 71
     2
 72
     1
 73
     1
 90
        2
 40
-0.6
 41
30.0
 62
     5
 63
     7
 74
     1
 91
        0
 64
     7
 65
   257
 75
     1
175
     1
 42
1.0
 92
        0
 66
   257
 43
1.0
 76
     1
 77
     6
 78
     2
 67
     7
 79
     5
170
     0
171
     0
290
     0
174
     0
 93
       13
 44
0.0
173
     0
291
     1
 45
0.0
1001
ACAD
1000
AcDbSavedByObjectVersion
1070
     0
  0
VISUALSTYLE
  5
485
102
{ACAD_XDICTIONARY
360
4F9
102
}
102
{ACAD_REACTORS
330
482
102
}
330
482
100
AcDbVisualStyle
  2
Gouraud
 70
     2
 71
     2
 72
     2
 73
     1
 90
        2
 40
-0.6
 41
30.0
 62
     5
 63
     7
 74
     0
 91
        0
 64
     7
 65
   257
 75
     1
175
     1
 42
1.0
 92
        0
 66
     7
 43
1.0
 76
     1
 77
     6
 78
     2
 67
     7
 79
     5
170
     0
171
     0
290
     0
174
     0
 93
       13
 44
0.0
173
     0
291
     1
 45
0.0
1001
ACAD
1000
AcDbSavedByObjectVersion
1070
     0
  0
VISUALSTYLE
  5
486
102
{ACAD_XDICTIONARY
360
4FB
102
}
102
{ACAD_REACTORS
330
482
102
}
330
482
100
AcDbVisualStyle
  2
GouraudWithEdges
 70
     3
 71
     2
 72
     2
 73
     1
 90
        2
 40
-0.6
 41
30.0
 62
     5
 63
     7
 74
     1
 91
        0
 64
     7
 65
   257
 75
     1
175
     1
 42
1.0
 92
        0
 66
   257
 43
1.0
 76
     1
 77
     6
 78
     2
 67
     7
 79
     5
170
     0
171
     0
290
     0
174
     0
 93
       13
 44
0.0
173
     0
291
     1
 45
0.0
1001
ACAD
1000
AcDbSavedByObjectVersion
1070
     0
  0
VISUALSTYLE
  5
48A
102
{ACAD_XDICTIONARY
360
503
102
}
102
{ACAD_REACTORS
330
482
102
}
330
482
100
AcDbVisualStyle
  2
Hidden
 70
     6
 71
     1
 72
     2
 73
     2
 90
        0
 40
-0.6
 41
-30.0
 62
     5
 63
     7
 74
     2
 91
        2
 64
     7
 65
   257
 75
     2
175
     1
 42
40.0
 92
        0
 66
   257
 43
1.0
 76
     1
 77
     6
 78
     2
 67
     7
 79
     3
170
     0
171
     0
290
     0
174
     0
 93
        1
 44
0.0
173
     0
291
     0
 45
0.0
1001
ACAD
1000
AcDbSavedByObjectVersion
1070
     0
  0
VISUALSTYLE
  5
498
102
{ACAD_XDICTIONARY
360
51F
102
}
102
{ACAD_REACTORS
330
482
102
}
330
482
100
AcDbVisualStyle
  2
JitterOff
 70
    20
 71
     2
 72
     2
 73
     0
 90
        0
 40
-0.6
 41
-30.0
 62
     5
 63
     7
 74
     1
 91
        4
 64
     7
 65
   257
 75
     1
175
     1
 42
1.0
 92
       10
 66
     7
 43
1.0
 76
     1
 77
     6
 78
     2
 67
     7
 79
     5
170
     0
171
     0
290
     0
174
     0
 93
        1
 44
0.0
173
     0
291
     1
 45
0.0
1001
ACAD
1000
AcDbSavedByObjectVersion
1070
     0
  0
VISUALSTYLE
  5
490
102
{ACAD_XDICTIONARY
360
50F
102
}
102
{ACAD_REACTORS
330
482
102
}
330
482
100
AcDbVisualStyle
  2
Linepattern
 70
    14
 71
     2
 72
     2
 73
     0
 90
        0
 40
-0.6
 41
-30.0
 62
     5
 63
     7
 74
     1
 91
        4
 64
     7
 65
   257
 75
     7
175
     7
 42
1.0
 92
        8
 66
     7
 43
1.0
 76
     1
 77
     6
 78
     2
 67
     7
 79
     5
170
     0
171
     0
290
     0
174
     0
 93
        1
 44
0.0
173
     0
291
     1
 45
0.0
1001
ACAD
1000
AcDbSavedByObjectVersion
1070
     0
  0
VISUALSTYLE
  5
499
102
{ACAD_XDICTIONARY
360
521
102
}
102
{ACAD_REACTORS
330
482
102
}
330
482
100
AcDbVisualStyle
  2
OverhangOff
 70
    21
 71
     2
 72
     2
 73
     0
 90
        0
 40
-0.6
 41
-30.0
 62
     5
 63
     7
 74
     1
 91
        4
 64
     7
 65
   257
 75
     1
175
     1
 42
1.0
 92
        9
 66
     7
 43
1.0
 76
     1
 77
     6
 78
     2
 67
     7
 79
     5
170
     0
171
     0
290
     0
174
     0
 93
        1
 44
0.0
173
     0
291
     1
 45
0.0
1001
ACAD
1000
AcDbSavedByObjectVersion
1070
     0
  0
VISUALSTYLE
  5
48C
102
{ACAD_XDICTIONARY
360
507
102
}
102
{ACAD_REACTORS
330
482
102
}
330
482
100
AcDbVisualStyle
  2
Realistic
 70
     8
 71
     2
 72
     3
 73
     0
 90
        2
 40
-0.6
 41
30.0
 62
     5
 63
     7
 74
     0
 91
        0
 64
     7
 65
   257
 75
     1
175
     1
 42
1.0
 92
        8
 66
   257
 43
1.0
 76
     1
 77
     6
 78
     2
 67
     7
 79
     3
170
     0
171
     0
290
     0
174
     0
 93
       13
 44
0.0
173
     0
291
     0
 45
0.0
1001
ACAD
1000
AcDbSavedByObjectVersion
1070
     0
  0
VISUALSTYLE
  5
497
102
{ACAD_XDICTIONARY
360
51D
102
}
102
{ACAD_REACTORS
330
482
102
}
330
482
100
AcDbVisualStyle
  2
Shaded
 70
    27
 71
     2
 72
     2
 73
     1
 90
        2
 40
-0.6
 41
30.0
 62
     5
 63
     7
 74
     0
 91
        4
 64
     7
 65
   257
 75
     1
175
     1
 42
1.0
 92
        8
 66
   257
 43
1.0
 76
     1
 77
     6
 78
     2
 67
     8
 79
     3
170
     0
171
     0
290
     0
174
     0
 93
        5
 44
0.0
173
     0
291
     0
 45
0.0
1001
ACAD
1000
AcDbSavedByObjectVersion
1070
     0
  0
VISUALSTYLE
  5
496
102
{ACAD_XDICTIONARY
360
51B
102
}
102
{ACAD_REACTORS
330
482
102
}
330
482
100
AcDbVisualStyle
  2
Shaded with edges
 70
    26
 71
     2
 72
     2
 73
     1
 90
        2
 40
-0.6
 41
30.0
 62
     5
 63
     7
 74
     1
 91
       10
 64
     7
 65
   257
 75
     2
175
     1
 42
1.0
 92
        8
 66
   257
 43
1.0
 76
     1
 77
     6
 78
     2
 67
     7
 79
     3
170
     0
171
     0
290
     0
174
     0
 93
        5
 44
0.0
173
     0
291
     0
 45
0.0
1001
ACAD
1000
AcDbSavedByObjectVersion
1070
     0
  0
VISUALSTYLE
  5
493
102
{ACAD_XDICTIONARY
360
515
102
}
102
{ACAD_REACTORS
330
482
102
}
330
482
100
AcDbVisualStyle
  2
Shades of Gray
 70
    23
 71
     2
 72
     2
 73
     3
 90
        0
 40
-0.6
 41
-30.0
 62
     5
 63
     7
 74
     2
 91
        2
 64
     7
 65
     7
 75
     1
175
     1
 42
40.0
 92
        8
 66
     7
 43
1.0
 76
     1
 77
     6
 78
     2
 67
     7
 79
     3
170
     0
171
     0
290
     0
174
     0
 93
        1
 44
0.0
173
     0
291
     0
 45
0.0
1001
ACAD
1000
AcDbSavedByObjectVersion
1070
     0
  0
VISUALSTYLE
  5
494
102
{ACAD_XDICTIONARY
360
517
102
}
102
{ACAD_REACTORS
330
482
102
}
330
482
100
AcDbVisualStyle
  2
Sketchy
 70
    24
 71
     1
 72
     2
 73
     2
 90
        0
 40
-0.6
 41
-30.0
 62
     5
 63
     7
 74
     2
 91
        2
 64
     7
 65
     7
 75
     1
175
     1
 42
40.0
 92
       11
 66
     7
 43
1.0
 76
     1
 77
     6
 78
     2
 67
     7
 79
     6
170
     0
171
     0
290
     0
174
     0
 93
        1
 44
0.0
173
     0
291
     0
 45
0.0
1001
ACAD
1000
AcDbSavedByObjectVersion
1070
     0
  0
VISUALSTYLE
  5
48F
102
{ACAD_XDICTIONARY
360
50D
102
}
102
{ACAD_REACTORS
330
482
102
}
330
482
100
AcDbVisualStyle
  2
Thicken
 70
    13
 71
     2
 72
     2
 73
     0
 90
        0
 40
-0.6
 41
-30.0
 62
     5
 63
     7
 74
     1
 91
        4
 64
     7
 65
   257
 75
     1
175
     1
 42
1.0
 92
       12
 66
     7
 43
1.0
 76
     1
 77
     6
 78
     2
 67
     7
 79
     5
170
     0
171
     0
290
     0
174
     0
 93
        1
 44
0.0
173
     0
291
     1
 45
0.0
1001
ACAD
1000
AcDbSavedByObjectVersion
1070
     0
  0
VISUALSTYLE
  5
489
102
{ACAD_XDICTIONARY
360
501
102
}
102
{ACAD_REACTORS
330
482
102
}
330
482
100
AcDbVisualStyle
  2
Wireframe
 70
     5
 71
     0
 72
     2
 73
     0
 90
        0
 40
-0.6
 41
-30.0
 62
     5
 63
     7
 74
     1
 91
        4
 64
     7
 65
   257
 75
     1
175
     1
 42
1.0
 92
        0
 66
   257
 43
1.0
 76
     1
 77
     6
 78
     2
 67
     7
 79
     3
170
     0
171
     0
290
     0
174
     0
 93
        1
 44
0.0
173
     0
291
     0
 45
0.0
1001
ACAD
1000
AcDbSavedByObjectVersion
1070
     0
  0
VISUALSTYLE
  5
495
102
{ACAD_XDICTIONARY
360
519
102
}
102
{ACAD_REACTORS
330
482
102
}
330
482
100
AcDbVisualStyle
  2
X-Ray
 70
    25
 71
     2
 72
     2
 73
     1
 90
        1
 40
0.5
 41
-30.0
 62
     5
 63
     7
 74
     1
 91
        0
 64
     7
 65
   257
 75
     1
175
     1
 42
1.0
 92
        8
 66
     7
 43
1.0
 76
     1
 77
     6
 78
     2
 67
     7
 79
     3
170
     0
171
     0
290
     0
174
     0
 93
       13
 44
0.0
173
     0
291
     0
 45
0.0
1001
ACAD
1000
AcDbSavedByObjectVersion
1070
     0
  0
DICTIONARYVAR
  5
4E6
102
{ACAD_REACTORS
330
4E3
102
}
330
4E3
100
DictionaryVariables
280
     0
  1
1:1
  0
DICTIONARYVAR
  5
4E5
102
{ACAD_REACTORS
330
4E3
102
}
330
4E3
100
DictionaryVariables
280
     0
  1
STANDARD
  0
DICTIONARYVAR
  5
4E4
102
{ACAD_REACTORS
330
4E3
102
}
330
4E3
100
DictionaryVariables
280
     0
  1
STANDARD
  0
DICTIONARYVAR
  5
4E9
102
{ACAD_REACTORS
330
4E3
102
}
330
4E3
100
DictionaryVariables
280
     0
  1
1
  0
DICTIONARYVAR
  5
4E8
102
{ACAD_REACTORS
330
4E3
102
}
330
4E3
100
DictionaryVariables
280
     0
  1
0
  0
DICTIONARYVAR
  5
4E7
102
{ACAD_REACTORS
330
4E3
102
}
330
4E3
100
DictionaryVariables
280
     0
  1
127
  0
DICTIONARYVAR
  5
4EA
102
{ACAD_REACTORS
330
4E3
102
}
330
4E3
100
DictionaryVariables
280
     0
  1
2
  0
DICTIONARY
  5
529
330
4C7
100
AcDbDictionary
280
     1
281
     1
  3
ACAD_XREC_ROUNDTRIP
360
52A
  0
DICTIONARY
  5
527
330
4C3
100
AcDbDictionary
280
     1
281
     1
  3
ACAD_XREC_ROUNDTRIP
360
528
  0
DICTIONARY
  5
473
330
472
100
AcDbDictionary
280
     1
281
     1
  3
ACAD_XREC_ROUNDTRIP
360
4F3
  3
BUMPTILE
360
475
  3
DIFFUSETILE
360
474
  3
OPACITYTILE
360
478
  3
REFLECTIONTILE
360
477
  3
REFRACTIONTILE
360
479
  3
SPECULARTILE
360
476
  0
DICTIONARY
  5
46B
330
46A
100
AcDbDictionary
280
     1
281
     1
  3
ACAD_XREC_ROUNDTRIP
360
4F2
  3
BUMPTILE
360
46D
  3
DIFFUSETILE
360
46C
  3
OPACITYTILE
360
470
  3
REFLECTIONTILE
360
46F
  3
REFRACTIONTILE
360
471
  3
SPECULARTILE
360
46E
  0
DICTIONARY
  5
47B
330
47A
100
AcDbDictionary
280
     1
281
     1
  3
ACAD_XREC_ROUNDTRIP
360
4F4
  3
BUMPTILE
360
47D
  3
DIFFUSETILE
360
47C
  3
OPACITYTILE
360
480
  3
REFLECTIONTILE
360
47F
  3
REFRACTIONTILE
360
481
  3
SPECULARTILE
360
47E
  0
DICTIONARY
  5
4EC
330
4BD
100
AcDbDictionary
280
     1
281
     1
  3
ACAD_ROUNDTRIP_2008_TABLESTYLE_CELLSTYLEMAP
360
4ED
  3
ACAD_XREC_ROUNDTRIP
360
525
  0
DICTIONARY
  5
4FF
330
488
100
AcDbDictionary
280
     1
281
     1
  3
ACAD_XREC_ROUNDTRIP
360
500
  0
DICTIONARY
  5
4FD
330
487
100
AcDbDictionary
280
     1
281
     1
  3
ACAD_XREC_ROUNDTRIP
360
4FE
  0
DICTIONARY
  5
50B
330
48E
100
AcDbDictionary
280
     1
281
     1
  3
ACAD_XREC_ROUNDTRIP
360
50C
  0
DICTIONARY
  5
513
330
492
100
AcDbDictionary
280
     1
281
     1
  3
ACAD_XREC_ROUNDTRIP
360
514
  0
DICTIONARY
  5
505
330
48B
100
AcDbDictionary
280
     1
281
     1
  3
ACAD_XREC_ROUNDTRIP
360
506
  0
DICTIONARY
  5
509
330
48D
100
AcDbDictionary
280
     1
281
     1
  3
ACAD_XREC_ROUNDTRIP
360
50A
  0
DICTIONARY
  5
523
330
49A
100
AcDbDictionary
280
     1
281
     1
  3
ACAD_XREC_ROUNDTRIP
360
524
  0
DICTIONARY
  5
511
330
491
100
AcDbDictionary
280
     1
281
     1
  3
ACAD_XREC_ROUNDTRIP
360
512
  0
DICTIONARY
  5
4F5
330
483
100
AcDbDictionary
280
     1
281
     1
  3
ACAD_XREC_ROUNDTRIP
360
4F6
  0
DICTIONARY
  5
4F7
330
484
100
AcDbDictionary
280
     1
281
     1
  3
ACAD_XREC_ROUNDTRIP
360
4F8
  0
DICTIONARY
  5
4F9
330
485
100
AcDbDictionary
280
     1
281
     1
  3
ACAD_XREC_ROUNDTRIP
360
4FA
  0
DICTIONARY
  5
4FB
330
486
100
AcDbDictionary
280
     1
281
     1
  3
ACAD_XREC_ROUNDTRIP
360
4FC
  0
DICTIONARY
  5
503
330
48A
100
AcDbDictionary
280
     1
281
     1
  3
ACAD_XREC_ROUNDTRIP
360
504
  0
DICTIONARY
  5
51F
330
498
100
AcDbDictionary
280
     1
281
     1
  3
ACAD_XREC_ROUNDTRIP
360
520
  0
DICTIONARY
  5
50F
330
490
100
AcDbDictionary
280
     1
281
     1
  3
ACAD_XREC_ROUNDTRIP
360
510
  0
DICTIONARY
  5
521
330
499
100
AcDbDictionary
280
     1
281
     1
  3
ACAD_XREC_ROUNDTRIP
360
522
  0
DICTIONARY
  5
507
330
48C
100
AcDbDictionary
280
     1
281
     1
  3
ACAD_XREC_ROUNDTRIP
360
508
  0
DICTIONARY
  5
51D
330
497
100
AcDbDictionary
280
     1
281
     1
  3
ACAD_XREC_ROUNDTRIP
360
51E
  0
DICTIONARY
  5
51B
330
496
100
AcDbDictionary
280
     1
281
     1
  3
ACAD_XREC_ROUNDTRIP
360
51C
  0
DICTIONARY
  5
515
330
493
100
AcDbDictionary
280
     1
281
     1
  3
ACAD_XREC_ROUNDTRIP
360
516
  0
DICTIONARY
  5
517
330
494
100
AcDbDictionary
280
     1
281
     1
  3
ACAD_XREC_ROUNDTRIP
360
518
  0
DICTIONARY
  5
50D
330
48F
100
AcDbDictionary
280
     1
281
     1
  3
ACAD_XREC_ROUNDTRIP
360
50E
  0
DICTIONARY
  5
501
330
489
100
AcDbDictionary
280
     1
281
     1
  3
ACAD_XREC_ROUNDTRIP
360
502
  0
DICTIONARY
  5
519
330
495
100
AcDbDictionary
280
     1
281
     1
  3
ACAD_XREC_ROUNDTRIP
360
51A
  0
XRECORD
  5
52A
102
{ACAD_REACTORS
330
529
102
}
330
529
100
AcDbXrecord
280
     1
102
SHADEPLOT
 70
     0
102
SHADEPLOTRESLEVEL
 70
     2
102
SHADEPLOTCUSTOMDPI
 70
   300
  0
XRECORD
  5
528
102
{ACAD_REACTORS
330
527
102
}
330
527
100
AcDbXrecord
280
     1
102
SHADEPLOT
 70
     0
102
SHADEPLOTRESLEVEL
 70
     2
102
SHADEPLOTCUSTOMDPI
 70
   300
  0
XRECORD
  5
4F3
102
{ACAD_REACTORS
330
473
102
}
330
473
100
AcDbXrecord
280
     1
102
MATERIAL
148
0.0
149
0.0
149
0.0
 93
        0
 94
      127
282
     0
 72
     0
 77
     0
171
     0
175
     0
179
     0
273
     0
  0
XRECORD
  5
475
102
{ACAD_REACTORS
330
473
102
}
330
473
100
AcDbXrecord
280
     1
270
     1
271
     1
  0
XRECORD
  5
474
102
{ACAD_REACTORS
330
473
102
}
330
473
100
AcDbXrecord
280
     1
270
     1
271
     1
  0
XRECORD
  5
478
102
{ACAD_REACTORS
330
473
102
}
330
473
100
AcDbXrecord
280
     1
270
     1
271
     1
  0
XRECORD
  5
477
102
{ACAD_REACTORS
330
473
102
}
330
473
100
AcDbXrecord
280
     1
270
     1
271
     1
  0
XRECORD
  5
479
102
{ACAD_REACTORS
330
473
102
}
330
473
100
AcDbXrecord
280
     1
270
     1
271
     1
  0
XRECORD
  5
476
102
{ACAD_REACTORS
330
473
102
}
330
473
100
AcDbXrecord
280
     1
270
     1
271
     1
  0
XRECORD
  5
4F2
102
{ACAD_REACTORS
330
46B
102
}
330
46B
100
AcDbXrecord
280
     1
102
MATERIAL
148
0.0
149
0.0
149
0.0
 93
        0
 94
      127
282
     0
 72
     0
 77
     0
171
     0
175
     0
179
     0
273
     0
  0
XRECORD
  5
46D
102
{ACAD_REACTORS
330
46B
102
}
330
46B
100
AcDbXrecord
280
     1
270
     1
271
     1
  0
XRECORD
  5
46C
102
{ACAD_REACTORS
330
46B
102
}
330
46B
100
AcDbXrecord
280
     1
270
     1
271
     1
  0
XRECORD
  5
470
102
{ACAD_REACTORS
330
46B
102
}
330
46B
100
AcDbXrecord
280
     1
270
     1
271
     1
  0
XRECORD
  5
46F
102
{ACAD_REACTORS
330
46B
102
}
330
46B
100
AcDbXrecord
280
     1
270
     1
271
     1
  0
XRECORD
  5
471
102
{ACAD_REACTORS
330
46B
102
}
330
46B
100
AcDbXrecord
280
     1
270
     1
271
     1
  0
XRECORD
  5
46E
102
{ACAD_REACTORS
330
46B
102
}
330
46B
100
AcDbXrecord
280
     1
270
     1
271
     1
  0
XRECORD
  5
4F4
102
{ACAD_REACTORS
330
47B
102
}
330
47B
100
AcDbXrecord
280
     1
102
MATERIAL
148
0.0
149
0.0
149
0.0
 93
        0
 94
      127
282
     0
 72
     0
 77
     0
171
     0
175
     0
179
     0
273
     0
  0
XRECORD
  5
47D
102
{ACAD_REACTORS
330
47B
102
}
330
47B
100
AcDbXrecord
280
     1
270
     1
271
     1
  0
XRECORD
  5
47C
102
{ACAD_REACTORS
330
47B
102
}
330
47B
100
AcDbXrecord
280
     1
270
     1
271
     1
  0
XRECORD
  5
480
102
{ACAD_REACTORS
330
47B
102
}
330
47B
100
AcDbXrecord
280
     1
270
     1
271
     1
  0
XRECORD
  5
47F
102
{ACAD_REACTORS
330
47B
102
}
330
47B
100
AcDbXrecord
280
     1
270
     1
271
     1
  0
XRECORD
  5
481
102
{ACAD_REACTORS
330
47B
102
}
330
47B
100
AcDbXrecord
280
     1
270
     1
271
     1
  0
XRECORD
  5
47E
102
{ACAD_REACTORS
330
47B
102
}
330
47B
100
AcDbXrecord
280
     1
270
     1
271
     1
  0
CELLSTYLEMAP
  5
4ED
102
{ACAD_REACTORS
330
4EC
102
}
330
4EC
100
AcDbCellStyleMap
 90
        3
300
CELLSTYLE
  1
TABLEFORMAT_BEGIN
 90
        5
170
     1
 91
        0
 92
    32768
 62
   257
 93
        1
300
CONTENTFORMAT
  1
CONTENTFORMAT_BEGIN
 90
        0
 91
        0
 92
      512
 93
        0
300

 40
0.0
140
1.0
 94
        5
 62
     0
340
4AE
144
0.25
309
CONTENTFORMAT_END
171
     0
 94
        0
309
TABLEFORMAT_END
  1
CELLSTYLE_BEGIN
 90
        1
 91
        1
300
_TITLE
309
CELLSTYLE_END
300
CELLSTYLE
  1
TABLEFORMAT_BEGIN
 90
        5
170
     1
 91
        0
 92
        0
 62
   257
 93
        1
300
CONTENTFORMAT
  1
CONTENTFORMAT_BEGIN
 90
        0
 91
        0
 92
      512
 93
        0
300

 40
0.0
140
1.0
 94
        5
 62
     0
340
4AE
144
0.18
309
CONTENTFORMAT_END
171
     0
 94
        0
309
TABLEFORMAT_END
  1
CELLSTYLE_BEGIN
 90
        2
 91
        1
300
_HEADER
309
CELLSTYLE_END
300
CELLSTYLE
  1
TABLEFORMAT_BEGIN
 90
        5
170
     1
 91
        0
 92
        0
 62
   257
 93
        1
300
CONTENTFORMAT
  1
CONTENTFORMAT_BEGIN
 90
        0
 91
        0
 92
      512
 93
        0
300

 40
0.0
140
1.0
 94
        2
 62
     0
340
4AE
144
0.18
309
CONTENTFORMAT_END
171
     0
 94
        0
309
TABLEFORMAT_END
  1
CELLSTYLE_BEGIN
 90
        3
 91
        2
300
_DATA
309
CELLSTYLE_END
  0
XRECORD
  5
525
102
{ACAD_REACTORS
330
4EC
102
}
330
4EC
100
AcDbXrecord
280
     1
102
ACAD_ROUNDTRIP_PRE2007_TABLESTYLE
 90
      512
 91
        0
  1

 92
      512
 93
        0
  2

 94
      512
 95
        0
  3

  0
XRECORD
  5
500
102
{ACAD_REACTORS
330
4FF
102
}
330
4FF
100
AcDbXrecord
280
     1
102
RTVSPropertyOp0
 70
     1
102
RTVSPropertyOp1
 70
     1
102
RTVSPropertyOp2
 70
     1
102
RTVSPropertyOp3
 70
     1
102
RTVSPropertyOp4
 70
     1
102
RTVSPropertyOp5
 70
     1
102
RTVSPropertyOp6
 70
     1
102
RTVSPropertyOp7
 70
     1
102
RTVSPropertyOp8
 70
     1
102
RTVSPropertyOp9
 70
     1
102
RTVSPropertyOp10
 70
     1
102
RTVSPropertyOp11
 70
     1
102
RTVSPropertyOp12
 70
     1
102
RTVSPropertyOp13
 70
     1
102
RTVSPropertyOp14
 70
     1
102
RTVSPropertyOp15
 70
     1
102
RTVSPropertyOp16
 70
     1
102
RTVSPropertyOp17
 70
     1
102
RTVSPropertyOp18
 70
     1
102
RTVSPropertyOp19
 70
     1
102
RTVSPropertyOp20
 70
     1
102
RTVSPropertyOp21
 70
     1
102
RTVSPropertyOp22
 70
     1
102
RTVSPropertyOp23
 70
     1
102
RTVSPropertyOp24
 70
     1
102
RTVSPropertyOp25
 70
     1
102
RTVSPropertyOp26
 70
     1
102
RTVSPropertyOp27
 70
     1
102
RTVSPropertyOp28
 70
     1
102
RTVSPropertyOp29
 70
     1
102
RTVSPropertyOp30
 70
     1
102
RTVSPropertyOp31
 70
     1
102
RTVSPropertyOp32
 70
     1
  0
XRECORD
  5
4FE
102
{ACAD_REACTORS
330
4FD
102
}
330
4FD
100
AcDbXrecord
280
     1
102
RTVSPropertyOp0
 70
     1
102
RTVSPropertyOp1
 70
     1
102
RTVSPropertyOp2
 70
     1
102
RTVSPropertyOp3
 70
     1
102
RTVSPropertyOp4
 70
     1
102
RTVSPropertyOp5
 70
     1
102
RTVSPropertyOp6
 70
     1
102
RTVSPropertyOp7
 70
     1
102
RTVSPropertyOp8
 70
     1
102
RTVSPropertyOp9
 70
     1
102
RTVSPropertyOp10
 70
     1
102
RTVSPropertyOp11
 70
     1
102
RTVSPropertyOp12
 70
     1
102
RTVSPropertyOp13
 70
     1
102
RTVSPropertyOp14
 70
     1
102
RTVSPropertyOp15
 70
     1
102
RTVSPropertyOp16
 70
     1
102
RTVSPropertyOp17
 70
     1
102
RTVSPropertyOp18
 70
     1
102
RTVSPropertyOp19
 70
     1
102
RTVSPropertyOp20
 70
     1
102
RTVSPropertyOp21
 70
     1
102
RTVSPropertyOp22
 70
     1
102
RTVSPropertyOp23
 70
     1
102
RTVSPropertyOp24
 70
     1
102
RTVSPropertyOp25
 70
     1
102
RTVSPropertyOp26
 70
     1
102
RTVSPropertyOp27
 70
     1
102
RTVSPropertyOp28
 70
     1
102
RTVSPropertyOp29
 70
     1
102
RTVSPropertyOp30
 70
     1
102
RTVSPropertyOp31
 70
     1
102
RTVSPropertyOp32
 70
     1
  0
XRECORD
  5
50C
102
{ACAD_REACTORS
330
50B
102
}
330
50B
100
AcDbXrecord
280
     1
102
RTVSPropertyOp0
 70
     1
102
RTVSPropertyOp1
 70
     1
102
RTVSPropertyOp2
 70
     1
102
RTVSPropertyOp3
 70
     1
102
RTVSPropertyOp4
 70
     1
102
RTVSPropertyOp5
 70
     1
102
RTVSPropertyOp6
 70
     1
102
RTVSPropertyOp7
 70
     1
102
RTVSPropertyOp8
 70
     1
102
RTVSPropertyOp9
 70
     1
102
RTVSPropertyOp10
 70
     1
102
RTVSPropertyOp11
 70
     1
102
RTVSPropertyOp12
 70
     1
102
RTVSPropertyOp13
 70
     1
102
RTVSPropertyOp14
 70
     1
102
RTVSPropertyOp15
 70
     1
102
RTVSPropertyOp16
 70
     1
102
RTVSPropertyOp17
 70
     1
102
RTVSPropertyOp18
 70
     1
102
RTVSPropertyOp19
 70
     1
102
RTVSPropertyOp20
 70
     1
102
RTVSPropertyOp21
 70
     1
102
RTVSPropertyOp22
 70
     1
102
RTVSPropertyOp23
 70
     1
102
RTVSPropertyOp24
 70
     1
102
RTVSPropertyOp25
 70
     1
102
RTVSPropertyOp26
 70
     1
102
RTVSPropertyOp27
 70
     1
102
RTVSPropertyOp28
 70
     1
102
RTVSPropertyOp29
 70
     1
102
RTVSPropertyOp30
 70
     1
102
RTVSPropertyOp31
 70
     1
102
RTVSPropertyOp32
 70
     1
  0
XRECORD
  5
514
102
{ACAD_REACTORS
330
513
102
}
330
513
100
AcDbXrecord
280
     1
102
RTVSPropertyOp0
 70
     1
102
RTVSPropertyOp1
 70
     1
102
RTVSPropertyOp2
 70
     1
102
RTVSPropertyOp3
 70
     1
102
RTVSPropertyOp4
 70
     1
102
RTVSPropertyOp5
 70
     1
102
RTVSPropertyOp6
 70
     1
102
RTVSPropertyOp7
 70
     1
102
RTVSPropertyOp8
 70
     1
102
RTVSPropertyOp9
 70
     1
102
RTVSPropertyOp10
 70
     1
102
RTVSPropertyOp11
 70
     1
102
RTVSPropertyOp12
 70
     1
102
RTVSPropertyOp13
 70
     1
102
RTVSPropertyOp14
 70
     1
102
RTVSPropertyOp15
 70
     1
102
RTVSPropertyOp16
 70
     1
102
RTVSPropertyOp17
 70
     1
102
RTVSPropertyOp18
 70
     1
102
RTVSPropertyOp19
 70
     1
102
RTVSPropertyOp20
 70
     1
102
RTVSPropertyOp21
 70
     1
102
RTVSPropertyOp22
 70
     1
102
RTVSPropertyOp23
 70
     1
102
RTVSPropertyOp24
 70
     1
102
RTVSPropertyOp25
 70
     1
102
RTVSPropertyOp26
 70
     1
102
RTVSPropertyOp27
 70
     1
102
RTVSPropertyOp28
 70
     1
102
RTVSPropertyOp29
 70
     1
102
RTVSPropertyOp30
 70
     1
102
RTVSPropertyOp31
 70
     1
102
RTVSPropertyOp32
 70
     1
  0
XRECORD
  5
506
102
{ACAD_REACTORS
330
505
102
}
330
505
100
AcDbXrecord
280
     1
102
RTVSPropertyOp0
 70
     1
102
RTVSPropertyOp1
 70
     1
102
RTVSPropertyOp2
 70
     1
102
RTVSPropertyOp3
 70
     1
102
RTVSPropertyOp4
 70
     1
102
RTVSPropertyOp5
 70
     1
102
RTVSPropertyOp6
 70
     1
102
RTVSPropertyOp7
 70
     1
102
RTVSPropertyOp8
 70
     1
102
RTVSPropertyOp9
 70
     1
102
RTVSPropertyOp10
 70
     1
102
RTVSPropertyOp11
 70
     1
102
RTVSPropertyOp12
 70
     1
102
RTVSPropertyOp13
 70
     1
102
RTVSPropertyOp14
 70
     1
102
RTVSPropertyOp15
 70
     1
102
RTVSPropertyOp16
 70
     1
102
RTVSPropertyOp17
 70
     1
102
RTVSPropertyOp18
 70
     1
102
RTVSPropertyOp19
 70
     1
102
RTVSPropertyOp20
 70
     1
102
RTVSPropertyOp21
 70
     1
102
RTVSPropertyOp22
 70
     1
102
RTVSPropertyOp23
 70
     1
102
RTVSPropertyOp24
 70
     1
102
RTVSPropertyOp25
 70
     1
102
RTVSPropertyOp26
 70
     1
102
RTVSPropertyOp27
 70
     1
102
RTVSPropertyOp28
 70
     1
102
RTVSPropertyOp29
 70
     1
102
RTVSPropertyOp30
 70
     1
102
RTVSPropertyOp31
 70
     1
102
RTVSPropertyOp32
 70
     1
  0
XRECORD
  5
50A
102
{ACAD_REACTORS
330
509
102
}
330
509
100
AcDbXrecord
280
     1
102
RTVSPropertyOp0
 70
     1
102
RTVSPropertyOp1
 70
     1
102
RTVSPropertyOp2
 70
     1
102
RTVSPropertyOp3
 70
     1
102
RTVSPropertyOp4
 70
     1
102
RTVSPropertyOp5
 70
     1
102
RTVSPropertyOp6
 70
     1
102
RTVSPropertyOp7
 70
     1
102
RTVSPropertyOp8
 70
     1
102
RTVSPropertyOp9
 70
     1
102
RTVSPropertyOp10
 70
     1
102
RTVSPropertyOp11
 70
     1
102
RTVSPropertyOp12
 70
     1
102
RTVSPropertyOp13
 70
     1
102
RTVSPropertyOp14
 70
     1
102
RTVSPropertyOp15
 70
     1
102
RTVSPropertyOp16
 70
     1
102
RTVSPropertyOp17
 70
     1
102
RTVSPropertyOp18
 70
     1
102
RTVSPropertyOp19
 70
     1
102
RTVSPropertyOp20
 70
     1
102
RTVSPropertyOp21
 70
     1
102
RTVSPropertyOp22
 70
     1
102
RTVSPropertyOp23
 70
     1
102
RTVSPropertyOp24
 70
     1
102
RTVSPropertyOp25
 70
     1
102
RTVSPropertyOp26
 70
     1
102
RTVSPropertyOp27
 70
     1
102
RTVSPropertyOp28
 70
     1
102
RTVSPropertyOp29
 70
     1
102
RTVSPropertyOp30
 70
     1
102
RTVSPropertyOp31
 70
     1
102
RTVSPropertyOp32
 70
     1
  0
XRECORD
  5
524
102
{ACAD_REACTORS
330
523
102
}
330
523
100
AcDbXrecord
280
     1
102
RTVSPropertyOp0
 70
     0
102
RTVSPropertyOp1
 70
     0
102
RTVSPropertyOp2
 70
     0
102
RTVSPropertyOp3
 70
     0
102
RTVSPropertyOp4
 70
     0
102
RTVSPropertyOp5
 70
     0
102
RTVSPropertyOp6
 70
     0
102
RTVSPropertyOp7
 70
     0
102
RTVSPropertyOp8
 70
     0
102
RTVSPropertyOp9
 70
     0
102
RTVSPropertyOp10
 70
     0
102
RTVSPropertyOp11
 70
     0
102
RTVSPropertyOp12
 70
     0
102
RTVSPropertyOp13
 70
     0
102
RTVSPropertyOp14
 70
     2
102
RTVSPropertyOp15
 70
     0
102
RTVSPropertyOp16
 70
     0
102
RTVSPropertyOp17
 70
     0
102
RTVSPropertyOp18
 70
     0
102
RTVSPropertyOp19
 70
     0
102
RTVSPropertyOp20
 70
     0
102
RTVSPropertyOp21
 70
     0
102
RTVSPropertyOp22
 70
     0
102
RTVSPropertyOp23
 70
     0
102
RTVSPropertyOp24
 70
     0
102
RTVSPropertyOp25
 70
     0
102
RTVSPropertyOp26
 70
     0
102
RTVSPropertyOp27
 70
     0
102
RTVSPropertyOp28
 70
     0
102
RTVSPropertyOp29
 70
     0
102
RTVSPropertyOp30
 70
     0
102
RTVSPropertyOp31
 70
     0
102
RTVSPropertyOp32
 70
     0
  0
XRECORD
  5
512
102
{ACAD_REACTORS
330
511
102
}
330
511
100
AcDbXrecord
280
     1
102
RTVSPropertyOp0
 70
     1
102
RTVSPropertyOp1
 70
     1
102
RTVSPropertyOp2
 70
     1
102
RTVSPropertyOp3
 70
     1
102
RTVSPropertyOp4
 70
     1
102
RTVSPropertyOp5
 70
     1
102
RTVSPropertyOp6
 70
     1
102
RTVSPropertyOp7
 70
     1
102
RTVSPropertyOp8
 70
     1
102
RTVSPropertyOp9
 70
     1
102
RTVSPropertyOp10
 70
     1
102
RTVSPropertyOp11
 70
     1
102
RTVSPropertyOp12
 70
     1
102
RTVSPropertyOp13
 70
     1
102
RTVSPropertyOp14
 70
     1
102
RTVSPropertyOp15
 70
     1
102
RTVSPropertyOp16
 70
     1
102
RTVSPropertyOp17
 70
     1
102
RTVSPropertyOp18
 70
     1
102
RTVSPropertyOp19
 70
     1
102
RTVSPropertyOp20
 70
     1
102
RTVSPropertyOp21
 70
     1
102
RTVSPropertyOp22
 70
     1
102
RTVSPropertyOp23
 70
     1
102
RTVSPropertyOp24
 70
     1
102
RTVSPropertyOp25
 70
     1
102
RTVSPropertyOp26
 70
     1
102
RTVSPropertyOp27
 70
     1
102
RTVSPropertyOp28
 70
     1
102
RTVSPropertyOp29
 70
     1
102
RTVSPropertyOp30
 70
     1
102
RTVSPropertyOp31
 70
     1
102
RTVSPropertyOp32
 70
     1
  0
XRECORD
  5
4F6
102
{ACAD_REACTORS
330
4F5
102
}
330
4F5
100
AcDbXrecord
280
     1
102
RTVSPropertyOp0
 70
     1
102
RTVSPropertyOp1
 70
     1
102
RTVSPropertyOp2
 70
     1
102
RTVSPropertyOp3
 70
     1
102
RTVSPropertyOp4
 70
     1
102
RTVSPropertyOp5
 70
     1
102
RTVSPropertyOp6
 70
     1
102
RTVSPropertyOp7
 70
     1
102
RTVSPropertyOp8
 70
     1
102
RTVSPropertyOp9
 70
     1
102
RTVSPropertyOp10
 70
     1
102
RTVSPropertyOp11
 70
     1
102
RTVSPropertyOp12
 70
     1
102
RTVSPropertyOp13
 70
     1
102
RTVSPropertyOp14
 70
     1
102
RTVSPropertyOp15
 70
     1
102
RTVSPropertyOp16
 70
     1
102
RTVSPropertyOp17
 70
     1
102
RTVSPropertyOp18
 70
     1
102
RTVSPropertyOp19
 70
     1
102
RTVSPropertyOp20
 70
     1
102
RTVSPropertyOp21
 70
     1
102
RTVSPropertyOp22
 70
     1
102
RTVSPropertyOp23
 70
     1
102
RTVSPropertyOp24
 70
     1
102
RTVSPropertyOp25
 70
     1
102
RTVSPropertyOp26
 70
     1
102
RTVSPropertyOp27
 70
     1
102
RTVSPropertyOp28
 70
     1
102
RTVSPropertyOp29
 70
     1
102
RTVSPropertyOp30
 70
     1
102
RTVSPropertyOp31
 70
     1
102
RTVSPropertyOp32
 70
     1
  0
XRECORD
  5
4F8
102
{ACAD_REACTORS
330
4F7
102
}
330
4F7
100
AcDbXrecord
280
     1
102
RTVSPropertyOp0
 70
     1
102
RTVSPropertyOp1
 70
     1
102
RTVSPropertyOp2
 70
     1
102
RTVSPropertyOp3
 70
     1
102
RTVSPropertyOp4
 70
     1
102
RTVSPropertyOp5
 70
     1
102
RTVSPropertyOp6
 70
     1
102
RTVSPropertyOp7
 70
     1
102
RTVSPropertyOp8
 70
     1
102
RTVSPropertyOp9
 70
     1
102
RTVSPropertyOp10
 70
     1
102
RTVSPropertyOp11
 70
     1
102
RTVSPropertyOp12
 70
     1
102
RTVSPropertyOp13
 70
     1
102
RTVSPropertyOp14
 70
     1
102
RTVSPropertyOp15
 70
     1
102
RTVSPropertyOp16
 70
     1
102
RTVSPropertyOp17
 70
     1
102
RTVSPropertyOp18
 70
     1
102
RTVSPropertyOp19
 70
     1
102
RTVSPropertyOp20
 70
     1
102
RTVSPropertyOp21
 70
     1
102
RTVSPropertyOp22
 70
     1
102
RTVSPropertyOp23
 70
     1
102
RTVSPropertyOp24
 70
     1
102
RTVSPropertyOp25
 70
     1
102
RTVSPropertyOp26
 70
     1
102
RTVSPropertyOp27
 70
     1
102
RTVSPropertyOp28
 70
     1
102
RTVSPropertyOp29
 70
     1
102
RTVSPropertyOp30
 70
     1
102
RTVSPropertyOp31
 70
     1
102
RTVSPropertyOp32
 70
     1
  0
XRECORD
  5
4FA
102
{ACAD_REACTORS
330
4F9
102
}
330
4F9
100
AcDbXrecord
280
     1
102
RTVSPropertyOp0
 70
     1
102
RTVSPropertyOp1
 70
     1
102
RTVSPropertyOp2
 70
     1
102
RTVSPropertyOp3
 70
     1
102
RTVSPropertyOp4
 70
     1
102
RTVSPropertyOp5
 70
     1
102
RTVSPropertyOp6
 70
     1
102
RTVSPropertyOp7
 70
     1
102
RTVSPropertyOp8
 70
     1
102
RTVSPropertyOp9
 70
     1
102
RTVSPropertyOp10
 70
     1
102
RTVSPropertyOp11
 70
     1
102
RTVSPropertyOp12
 70
     1
102
RTVSPropertyOp13
 70
     1
102
RTVSPropertyOp14
 70
     1
102
RTVSPropertyOp15
 70
     1
102
RTVSPropertyOp16
 70
     1
102
RTVSPropertyOp17
 70
     1
102
RTVSPropertyOp18
 70
     1
102
RTVSPropertyOp19
 70
     1
102
RTVSPropertyOp20
 70
     1
102
RTVSPropertyOp21
 70
     1
102
RTVSPropertyOp22
 70
     1
102
RTVSPropertyOp23
 70
     1
102
RTVSPropertyOp24
 70
     1
102
RTVSPropertyOp25
 70
     1
102
RTVSPropertyOp26
 70
     1
102
RTVSPropertyOp27
 70
     1
102
RTVSPropertyOp28
 70
     1
102
RTVSPropertyOp29
 70
     1
102
RTVSPropertyOp30
 70
     1
102
RTVSPropertyOp31
 70
     1
102
RTVSPropertyOp32
 70
     1
  0
XRECORD
  5
4FC
102
{ACAD_REACTORS
330
4FB
102
}
330
4FB
100
AcDbXrecord
280
     1
102
RTVSPropertyOp0
 70
     1
102
RTVSPropertyOp1
 70
     1
102
RTVSPropertyOp2
 70
     1
102
RTVSPropertyOp3
 70
     1
102
RTVSPropertyOp4
 70
     1
102
RTVSPropertyOp5
 70
     1
102
RTVSPropertyOp6
 70
     1
102
RTVSPropertyOp7
 70
     1
102
RTVSPropertyOp8
 70
     1
102
RTVSPropertyOp9
 70
     1
102
RTVSPropertyOp10
 70
     1
102
RTVSPropertyOp11
 70
     1
102
RTVSPropertyOp12
 70
     1
102
RTVSPropertyOp13
 70
     1
102
RTVSPropertyOp14
 70
     1
102
RTVSPropertyOp15
 70
     1
102
RTVSPropertyOp16
 70
     1
102
RTVSPropertyOp17
 70
     1
102
RTVSPropertyOp18
 70
     1
102
RTVSPropertyOp19
 70
     1
102
RTVSPropertyOp20
 70
     1
102
RTVSPropertyOp21
 70
     1
102
RTVSPropertyOp22
 70
     1
102
RTVSPropertyOp23
 70
     1
102
RTVSPropertyOp24
 70
     1
102
RTVSPropertyOp25
 70
     1
102
RTVSPropertyOp26
 70
     1
102
RTVSPropertyOp27
 70
     1
102
RTVSPropertyOp28
 70
     1
102
RTVSPropertyOp29
 70
     1
102
RTVSPropertyOp30
 70
     1
102
RTVSPropertyOp31
 70
     1
102
RTVSPropertyOp32
 70
     1
  0
XRECORD
  5
504
102
{ACAD_REACTORS
330
503
102
}
330
503
100
AcDbXrecord
280
     1
102
RTVSPropertyOp0
 70
     1
102
RTVSPropertyOp1
 70
     1
102
RTVSPropertyOp2
 70
     1
102
RTVSPropertyOp3
 70
     1
102
RTVSPropertyOp4
 70
     1
102
RTVSPropertyOp5
 70
     1
102
RTVSPropertyOp6
 70
     1
102
RTVSPropertyOp7
 70
     1
102
RTVSPropertyOp8
 70
     1
102
RTVSPropertyOp9
 70
     1
102
RTVSPropertyOp10
 70
     1
102
RTVSPropertyOp11
 70
     1
102
RTVSPropertyOp12
 70
     1
102
RTVSPropertyOp13
 70
     1
102
RTVSPropertyOp14
 70
     1
102
RTVSPropertyOp15
 70
     1
102
RTVSPropertyOp16
 70
     1
102
RTVSPropertyOp17
 70
     1
102
RTVSPropertyOp18
 70
     1
102
RTVSPropertyOp19
 70
     1
102
RTVSPropertyOp20
 70
     1
102
RTVSPropertyOp21
 70
     1
102
RTVSPropertyOp22
 70
     1
102
RTVSPropertyOp23
 70
     1
102
RTVSPropertyOp24
 70
     1
102
RTVSPropertyOp25
 70
     1
102
RTVSPropertyOp26
 70
     1
102
RTVSPropertyOp27
 70
     1
102
RTVSPropertyOp28
 70
     1
102
RTVSPropertyOp29
 70
     1
102
RTVSPropertyOp30
 70
     1
102
RTVSPropertyOp31
 70
     1
102
RTVSPropertyOp32
 70
     1
  0
XRECORD
  5
520
102
{ACAD_REACTORS
330
51F
102
}
330
51F
100
AcDbXrecord
280
     1
102
RTVSPropertyOp0
 70
     0
102
RTVSPropertyOp1
 70
     0
102
RTVSPropertyOp2
 70
     0
102
RTVSPropertyOp3
 70
     0
102
RTVSPropertyOp4
 70
     0
102
RTVSPropertyOp5
 70
     0
102
RTVSPropertyOp6
 70
     0
102
RTVSPropertyOp7
 70
     0
102
RTVSPropertyOp8
 70
     0
102
RTVSPropertyOp9
 70
     0
102
RTVSPropertyOp10
 70
     0
102
RTVSPropertyOp11
 70
     0
102
RTVSPropertyOp12
 70
     0
102
RTVSPropertyOp13
 70
     0
102
RTVSPropertyOp14
 70
     2
102
RTVSPropertyOp15
 70
     0
102
RTVSPropertyOp16
 70
     0
102
RTVSPropertyOp17
 70
     0
102
RTVSPropertyOp18
 70
     0
102
RTVSPropertyOp19
 70
     0
102
RTVSPropertyOp20
 70
     0
102
RTVSPropertyOp21
 70
     0
102
RTVSPropertyOp22
 70
     0
102
RTVSPropertyOp23
 70
     0
102
RTVSPropertyOp24
 70
     0
102
RTVSPropertyOp25
 70
     0
102
RTVSPropertyOp26
 70
     0
102
RTVSPropertyOp27
 70
     0
102
RTVSPropertyOp28
 70
     0
102
RTVSPropertyOp29
 70
     0
102
RTVSPropertyOp30
 70
     0
102
RTVSPropertyOp31
 70
     0
102
RTVSPropertyOp32
 70
     0
  0
XRECORD
  5
510
102
{ACAD_REACTORS
330
50F
102
}
330
50F
100
AcDbXrecord
280
     1
102
RTVSPropertyOp0
 70
     1
102
RTVSPropertyOp1
 70
     1
102
RTVSPropertyOp2
 70
     1
102
RTVSPropertyOp3
 70
     1
102
RTVSPropertyOp4
 70
     1
102
RTVSPropertyOp5
 70
     1
102
RTVSPropertyOp6
 70
     1
102
RTVSPropertyOp7
 70
     1
102
RTVSPropertyOp8
 70
     1
102
RTVSPropertyOp9
 70
     1
102
RTVSPropertyOp10
 70
     1
102
RTVSPropertyOp11
 70
     1
102
RTVSPropertyOp12
 70
     1
102
RTVSPropertyOp13
 70
     1
102
RTVSPropertyOp14
 70
     1
102
RTVSPropertyOp15
 70
     1
102
RTVSPropertyOp16
 70
     1
102
RTVSPropertyOp17
 70
     1
102
RTVSPropertyOp18
 70
     1
102
RTVSPropertyOp19
 70
     1
102
RTVSPropertyOp20
 70
     1
102
RTVSPropertyOp21
 70
     1
102
RTVSPropertyOp22
 70
     1
102
RTVSPropertyOp23
 70
     1
102
RTVSPropertyOp24
 70
     1
102
RTVSPropertyOp25
 70
     1
102
RTVSPropertyOp26
 70
     1
102
RTVSPropertyOp27
 70
     1
102
RTVSPropertyOp28
 70
     1
102
RTVSPropertyOp29
 70
     1
102
RTVSPropertyOp30
 70
     1
102
RTVSPropertyOp31
 70
     1
102
RTVSPropertyOp32
 70
     1
  0
XRECORD
  5
522
102
{ACAD_REACTORS
330
521
102
}
330
521
100
AcDbXrecord
280
     1
102
RTVSPropertyOp0
 70
     0
102
RTVSPropertyOp1
 70
     0
102
RTVSPropertyOp2
 70
     0
102
RTVSPropertyOp3
 70
     0
102
RTVSPropertyOp4
 70
     0
102
RTVSPropertyOp5
 70
     0
102
RTVSPropertyOp6
 70
     0
102
RTVSPropertyOp7
 70
     0
102
RTVSPropertyOp8
 70
     0
102
RTVSPropertyOp9
 70
     0
102
RTVSPropertyOp10
 70
     0
102
RTVSPropertyOp11
 70
     0
102
RTVSPropertyOp12
 70
     0
102
RTVSPropertyOp13
 70
     0
102
RTVSPropertyOp14
 70
     2
102
RTVSPropertyOp15
 70
     0
102
RTVSPropertyOp16
 70
     0
102
RTVSPropertyOp17
 70
     0
102
RTVSPropertyOp18
 70
     0
102
RTVSPropertyOp19
 70
     0
102
RTVSPropertyOp20
 70
     0
102
RTVSPropertyOp21
 70
     0
102
RTVSPropertyOp22
 70
     0
102
RTVSPropertyOp23
 70
     0
102
RTVSPropertyOp24
 70
     0
102
RTVSPropertyOp25
 70
     0
102
RTVSPropertyOp26
 70
     0
102
RTVSPropertyOp27
 70
     0
102
RTVSPropertyOp28
 70
     0
102
RTVSPropertyOp29
 70
     0
102
RTVSPropertyOp30
 70
     0
102
RTVSPropertyOp31
 70
     0
102
RTVSPropertyOp32
 70
     0
  0
XRECORD
  5
508
102
{ACAD_REACTORS
330
507
102
}
330
507
100
AcDbXrecord
280
     1
102
RTVSPropertyOp0
 70
     1
102
RTVSPropertyOp1
 70
     1
102
RTVSPropertyOp2
 70
     1
102
RTVSPropertyOp3
 70
     1
102
RTVSPropertyOp4
 70
     1
102
RTVSPropertyOp5
 70
     1
102
RTVSPropertyOp6
 70
     1
102
RTVSPropertyOp7
 70
     1
102
RTVSPropertyOp8
 70
     1
102
RTVSPropertyOp9
 70
     1
102
RTVSPropertyOp10
 70
     1
102
RTVSPropertyOp11
 70
     1
102
RTVSPropertyOp12
 70
     1
102
RTVSPropertyOp13
 70
     1
102
RTVSPropertyOp14
 70
     1
102
RTVSPropertyOp15
 70
     1
102
RTVSPropertyOp16
 70
     1
102
RTVSPropertyOp17
 70
     1
102
RTVSPropertyOp18
 70
     1
102
RTVSPropertyOp19
 70
     1
102
RTVSPropertyOp20
 70
     1
102
RTVSPropertyOp21
 70
     1
102
RTVSPropertyOp22
 70
     1
102
RTVSPropertyOp23
 70
     1
102
RTVSPropertyOp24
 70
     1
102
RTVSPropertyOp25
 70
     1
102
RTVSPropertyOp26
 70
     1
102
RTVSPropertyOp27
 70
     1
102
RTVSPropertyOp28
 70
     1
102
RTVSPropertyOp29
 70
     1
102
RTVSPropertyOp30
 70
     1
102
RTVSPropertyOp31
 70
     1
102
RTVSPropertyOp32
 70
     1
  0
XRECORD
  5
51E
102
{ACAD_REACTORS
330
51D
102
}
330
51D
100
AcDbXrecord
280
     1
102
RTVSPropertyOp0
 70
     1
102
RTVSPropertyOp1
 70
     1
102
RTVSPropertyOp2
 70
     1
102
RTVSPropertyOp3
 70
     1
102
RTVSPropertyOp4
 70
     1
102
RTVSPropertyOp5
 70
     1
102
RTVSPropertyOp6
 70
     1
102
RTVSPropertyOp7
 70
     1
102
RTVSPropertyOp8
 70
     1
102
RTVSPropertyOp9
 70
     1
102
RTVSPropertyOp10
 70
     1
102
RTVSPropertyOp11
 70
     1
102
RTVSPropertyOp12
 70
     1
102
RTVSPropertyOp13
 70
     1
102
RTVSPropertyOp14
 70
     1
102
RTVSPropertyOp15
 70
     1
102
RTVSPropertyOp16
 70
     1
102
RTVSPropertyOp17
 70
     1
102
RTVSPropertyOp18
 70
     1
102
RTVSPropertyOp19
 70
     1
102
RTVSPropertyOp20
 70
     1
102
RTVSPropertyOp21
 70
     1
102
RTVSPropertyOp22
 70
     1
102
RTVSPropertyOp23
 70
     1
102
RTVSPropertyOp24
 70
     1
102
RTVSPropertyOp25
 70
     1
102
RTVSPropertyOp26
 70
     1
102
RTVSPropertyOp27
 70
     1
102
RTVSPropertyOp28
 70
     1
102
RTVSPropertyOp29
 70
     1
102
RTVSPropertyOp30
 70
     1
102
RTVSPropertyOp31
 70
     1
102
RTVSPropertyOp32
 70
     1
  0
XRECORD
  5
51C
102
{ACAD_REACTORS
330
51B
102
}
330
51B
100
AcDbXrecord
280
     1
102
RTVSPropertyOp0
 70
     1
102
RTVSPropertyOp1
 70
     1
102
RTVSPropertyOp2
 70
     1
102
RTVSPropertyOp3
 70
     1
102
RTVSPropertyOp4
 70
     1
102
RTVSPropertyOp5
 70
     1
102
RTVSPropertyOp6
 70
     1
102
RTVSPropertyOp7
 70
     1
102
RTVSPropertyOp8
 70
     1
102
RTVSPropertyOp9
 70
     1
102
RTVSPropertyOp10
 70
     1
102
RTVSPropertyOp11
 70
     1
102
RTVSPropertyOp12
 70
     1
102
RTVSPropertyOp13
 70
     1
102
RTVSPropertyOp14
 70
     1
102
RTVSPropertyOp15
 70
     1
102
RTVSPropertyOp16
 70
     1
102
RTVSPropertyOp17
 70
     1
102
RTVSPropertyOp18
 70
     1
102
RTVSPropertyOp19
 70
     1
102
RTVSPropertyOp20
 70
     1
102
RTVSPropertyOp21
 70
     1
102
RTVSPropertyOp22
 70
     1
102
RTVSPropertyOp23
 70
     1
102
RTVSPropertyOp24
 70
     1
102
RTVSPropertyOp25
 70
     1
102
RTVSPropertyOp26
 70
     1
102
RTVSPropertyOp27
 70
     1
102
RTVSPropertyOp28
 70
     1
102
RTVSPropertyOp29
 70
     1
102
RTVSPropertyOp30
 70
     1
102
RTVSPropertyOp31
 70
     1
102
RTVSPropertyOp32
 70
     1
  0
XRECORD
  5
516
102
{ACAD_REACTORS
330
515
102
}
330
515
100
AcDbXrecord
280
     1
102
RTVSPropertyOp0
 70
     1
102
RTVSPropertyOp1
 70
     1
102
RTVSPropertyOp2
 70
     1
102
RTVSPropertyOp3
 70
     1
102
RTVSPropertyOp4
 70
     1
102
RTVSPropertyOp5
 70
     1
102
RTVSPropertyOp6
 70
     1
102
RTVSPropertyOp7
 70
     1
102
RTVSPropertyOp8
 70
     1
102
RTVSPropertyOp9
 70
     1
102
RTVSPropertyOp10
 70
     1
102
RTVSPropertyOp11
 70
     1
102
RTVSPropertyOp12
 70
     1
102
RTVSPropertyOp13
 70
     1
102
RTVSPropertyOp14
 70
     1
102
RTVSPropertyOp15
 70
     1
102
RTVSPropertyOp16
 70
     1
102
RTVSPropertyOp17
 70
     1
102
RTVSPropertyOp18
 70
     1
102
RTVSPropertyOp19
 70
     1
102
RTVSPropertyOp20
 70
     1
102
RTVSPropertyOp21
 70
     1
102
RTVSPropertyOp22
 70
     1
102
RTVSPropertyOp23
 70
     1
102
RTVSPropertyOp24
 70
     1
102
RTVSPropertyOp25
 70
     1
102
RTVSPropertyOp26
 70
     1
102
RTVSPropertyOp27
 70
     1
102
RTVSPropertyOp28
 70
     1
102
RTVSPropertyOp29
 70
     1
102
RTVSPropertyOp30
 70
     1
102
RTVSPropertyOp31
 70
     1
102
RTVSPropertyOp32
 70
     1
  0
XRECORD
  5
518
102
{ACAD_REACTORS
330
517
102
}
330
517
100
AcDbXrecord
280
     1
102
RTVSPropertyOp0
 70
     1
102
RTVSPropertyOp1
 70
     1
102
RTVSPropertyOp2
 70
     1
102
RTVSPropertyOp3
 70
     1
102
RTVSPropertyOp4
 70
     1
102
RTVSPropertyOp5
 70
     1
102
RTVSPropertyOp6
 70
     1
102
RTVSPropertyOp7
 70
     1
102
RTVSPropertyOp8
 70
     1
102
RTVSPropertyOp9
 70
     1
102
RTVSPropertyOp10
 70
     1
102
RTVSPropertyOp11
 70
     1
102
RTVSPropertyOp12
 70
     1
102
RTVSPropertyOp13
 70
     1
102
RTVSPropertyOp14
 70
     1
102
RTVSPropertyOp15
 70
     1
102
RTVSPropertyOp16
 70
     1
102
RTVSPropertyOp17
 70
     1
102
RTVSPropertyOp18
 70
     1
102
RTVSPropertyOp19
 70
     1
102
RTVSPropertyOp20
 70
     1
102
RTVSPropertyOp21
 70
     1
102
RTVSPropertyOp22
 70
     1
102
RTVSPropertyOp23
 70
     1
102
RTVSPropertyOp24
 70
     1
102
RTVSPropertyOp25
 70
     1
102
RTVSPropertyOp26
 70
     1
102
RTVSPropertyOp27
 70
     1
102
RTVSPropertyOp28
 70
     1
102
RTVSPropertyOp29
 70
     1
102
RTVSPropertyOp30
 70
     1
102
RTVSPropertyOp31
 70
     1
102
RTVSPropertyOp32
 70
     1
  0
XRECORD
  5
50E
102
{ACAD_REACTORS
330
50D
102
}
330
50D
100
AcDbXrecord
280
     1
102
RTVSPropertyOp0
 70
     1
102
RTVSPropertyOp1
 70
     1
102
RTVSPropertyOp2
 70
     1
102
RTVSPropertyOp3
 70
     1
102
RTVSPropertyOp4
 70
     1
102
RTVSPropertyOp5
 70
     1
102
RTVSPropertyOp6
 70
     1
102
RTVSPropertyOp7
 70
     1
102
RTVSPropertyOp8
 70
     1
102
RTVSPropertyOp9
 70
     1
102
RTVSPropertyOp10
 70
     1
102
RTVSPropertyOp11
 70
     1
102
RTVSPropertyOp12
 70
     1
102
RTVSPropertyOp13
 70
     1
102
RTVSPropertyOp14
 70
     1
102
RTVSPropertyOp15
 70
     1
102
RTVSPropertyOp16
 70
     1
102
RTVSPropertyOp17
 70
     1
102
RTVSPropertyOp18
 70
     1
102
RTVSPropertyOp19
 70
     1
102
RTVSPropertyOp20
 70
     1
102
RTVSPropertyOp21
 70
     1
102
RTVSPropertyOp22
 70
     1
102
RTVSPropertyOp23
 70
     1
102
RTVSPropertyOp24
 70
     1
102
RTVSPropertyOp25
 70
     1
102
RTVSPropertyOp26
 70
     1
102
RTVSPropertyOp27
 70
     1
102
RTVSPropertyOp28
 70
     1
102
RTVSPropertyOp29
 70
     1
102
RTVSPropertyOp30
 70
     1
102
RTVSPropertyOp31
 70
     1
102
RTVSPropertyOp32
 70
     1
  0
XRECORD
  5
502
102
{ACAD_REACTORS
330
501
102
}
330
501
100
AcDbXrecord
280
     1
102
RTVSPropertyOp0
 70
     1
102
RTVSPropertyOp1
 70
     1
102
RTVSPropertyOp2
 70
     1
102
RTVSPropertyOp3
 70
     1
102
RTVSPropertyOp4
 70
     1
102
RTVSPropertyOp5
 70
     1
102
RTVSPropertyOp6
 70
     1
102
RTVSPropertyOp7
 70
     1
102
RTVSPropertyOp8
 70
     1
102
RTVSPropertyOp9
 70
     1
102
RTVSPropertyOp10
 70
     1
102
RTVSPropertyOp11
 70
     1
102
RTVSPropertyOp12
 70
     1
102
RTVSPropertyOp13
 70
     1
102
RTVSPropertyOp14
 70
     1
102
RTVSPropertyOp15
 70
     1
102
RTVSPropertyOp16
 70
     1
102
RTVSPropertyOp17
 70
     1
102
RTVSPropertyOp18
 70
     1
102
RTVSPropertyOp19
 70
     1
102
RTVSPropertyOp20
 70
     1
102
RTVSPropertyOp21
 70
     1
102
RTVSPropertyOp22
 70
     1
102
RTVSPropertyOp23
 70
     1
102
RTVSPropertyOp24
 70
     1
102
RTVSPropertyOp25
 70
     1
102
RTVSPropertyOp26
 70
     1
102
RTVSPropertyOp27
 70
     1
102
RTVSPropertyOp28
 70
     1
102
RTVSPropertyOp29
 70
     1
102
RTVSPropertyOp30
 70
     1
102
RTVSPropertyOp31
 70
     1
102
RTVSPropertyOp32
 70
     1
  0
XRECORD
  5
51A
102
{ACAD_REACTORS
330
519
102
}
330
519
100
AcDbXrecord
280
     1
102
RTVSPropertyOp0
 70
     1
102
RTVSPropertyOp1
 70
     1
102
RTVSPropertyOp2
 70
     1
102
RTVSPropertyOp3
 70
     1
102
RTVSPropertyOp4
 70
     1
102
RTVSPropertyOp5
 70
     1
102
RTVSPropertyOp6
 70
     1
102
RTVSPropertyOp7
 70
     1
102
RTVSPropertyOp8
 70
     1
102
RTVSPropertyOp9
 70
     1
102
RTVSPropertyOp10
 70
     1
102
RTVSPropertyOp11
 70
     1
102
RTVSPropertyOp12
 70
     1
102
RTVSPropertyOp13
 70
     1
102
RTVSPropertyOp14
 70
     1
102
RTVSPropertyOp15
 70
     1
102
RTVSPropertyOp16
 70
     1
102
RTVSPropertyOp17
 70
     1
102
RTVSPropertyOp18
 70
     1
102
RTVSPropertyOp19
 70
     1
102
RTVSPropertyOp20
 70
     1
102
RTVSPropertyOp21
 70
     1
102
RTVSPropertyOp22
 70
     1
102
RTVSPropertyOp23
 70
     1
102
RTVSPropertyOp24
 70
     1
102
RTVSPropertyOp25
 70
     1
102
RTVSPropertyOp26
 70
     1
102
RTVSPropertyOp27
 70
     1
102
RTVSPropertyOp28
 70
     1
102
RTVSPropertyOp29
 70
     1
102
RTVSPropertyOp30
 70
     1
102
RTVSPropertyOp31
 70
     1
102
RTVSPropertyOp32
 70
     1
  0
ENDSEC
  0
EOF
