  0
SECTION
  2
HEADER
  9
$ACADVER
  1
AC1009
  9
$INSBASE
 10
0.0
 20
0.0
 30
0.0
  9
$EXTMIN
 10
-80.010985489947416
 20
-131.67677505465531
 30
-0.0015258207003583
  9
$EXTMAX
 10
280.01098716632811
 20
403.54994963264153
 30
0.0000000349246037
  9
$LIMMIN
 10
0.0
 20
0.0
  9
$LIMMAX
 10
0.0
 20
0.0
  9
$ORTHOMODE
 70
     0
  9
$REGENMODE
 70
     1
  9
$FILLMODE
 70
     1
  9
$QTEXTMODE
 70
     0
  9
$MIRRTEXT
 70
     1
  9
$DRAGMODE
 70
     2
  9
$LTSCALE
 40
10.16
  9
$OSMODE
 70
   231
  9
$ATTMODE
 70
     1
  9
$TEXTSIZE
 40
0.0
  9
$TRACEWID
 40
1.0
  9
$TEXTSTYLE
  7
STANDARD
  9
$CLAYER
  8
DATA
  9
$CELTYPE
  6
BYLAYER
  9
$CECOLOR
 62
   256
  9
$DIMSCALE
 40
1.0
  9
$DIMASZ
 40
0.18
  9
$DIMEXO
 40
0.0625
  9
$DIMDLI
 40
0.38
  9
$DIMRND
 40
0.0
  9
$DIMDLE
 40
0.0
  9
$DIMEXE
 40
0.18
  9
$DIMTP
 40
0.0
  9
$DIMTM
 40
0.0
  9
$DIMTXT
 40
0.18
  9
$DIMCEN
 40
0.09
  9
$DIMTSZ
 40
0.0
  9
$DIMTOL
 70
     0
  9
$DIMLIM
 70
     0
  9
$DIMTIH
 70
     1
  9
$DIMTOH
 70
     1
  9
$DIMSE1
 70
     0
  9
$DIMSE2
 70
     0
  9
$DIMTAD
 70
     0
  9
$DIMZIN
 70
     0
  9
$DIMBLK
  1

  9
$DIMASO
 70
     1
  9
$DIMSHO
 70
     1
  9
$DIMPOST
  1

  9
$DIMAPOST
  1

  9
$DIMALT
 70
     0
  9
$DIMALTD
 70
     2
  9
$DIMALTF
 40
25.399999999999999
  9
$DIMLFAC
 40
1.0
  9
$DIMTOFL
 70
     0
  9
$DIMTVP
 40
0.0
  9
$DIMTIX
 70
     0
  9
$DIMSOXD
 70
     0
  9
$DIMSAH
 70
     0
  9
$DIMBLK1
  1

  9
$DIMBLK2
  1

  9
$DIMSTYLE
  2
STANDARD
  9
$DIMCLRD
 70
     0
  9
$DIMCLRE
 70
     0
  9
$DIMCLRT
 70
     0
  9
$DIMTFAC
 40
1.0
  9
$DIMGAP
 40
0.09
  9
$LUNITS
 70
     2
  9
$LUPREC
 70
     4
  9
$SKETCHINC
 40
0.1
  9
$FILLETRAD
 40
0.0
  9
$AUNITS
 70
     0
  9
$AUPREC
 70
     0
  9
$MENU
  1
acad
  9
$ELEVATION
 40
0.0
  9
$PELEVATION
 40
0.0
  9
$THICKNESS
 40
0.0
  9
$LIMCHECK
 70
     0
  9
$BLIPMODE
 70
     0
  9
$CHAMFERA
 40
0.0
  9
$CHAMFERB
 40
0.0
  9
$SKPOLY
 70
     0
  9
$TDCREATE
 40
2455715.4054976851
  9
$TDUPDATE
 40
2455715.4092032532
  9
$TDINDWG
 40
0.0002755671
  9
$TDUSRTIMER
 40
0.0002755671
  9
$USRTIMER
 70
     1
  9
$ANGBASE
 50
0.0
  9
$ANGDIR
 70
     0
  9
$PDMODE
 70
     1
  9
$PDSIZE
 40
-2.0
  9
$PLINEWID
 40
0.0
  9
$COORDS
 70
     1
  9
$SPLFRAME
 70
     0
  9
$SPLINETYPE
 70
     6
  9
$SPLINESEGS
 70
     8
  9
$ATTDIA
 70
     0
  9
$ATTREQ
 70
     1
  9
$HANDLING
 70
     1
  9
$HANDSEED
  5
1FD
  9
$SURFTAB1
 70
     6
  9
$SURFTAB2
 70
     6
  9
$SURFTYPE
 70
     6
  9
$SURFU
 70
     6
  9
$SURFV
 70
     6
  9
$UCSNAME
  2

  9
$UCSORG
 10
0.0
 20
0.0
 30
0.0
  9
$UCSXDIR
 10
1.0
 20
0.0
 30
0.0
  9
$UCSYDIR
 10
0.0
 20
1.0
 30
0.0
  9
$PUCSNAME
  2

  9
$PUCSORG
 10
0.0
 20
0.0
 30
0.0
  9
$PUCSXDIR
 10
1.0
 20
0.0
 30
0.0
  9
$PUCSYDIR
 10
0.0
 20
1.0
 30
0.0
  9
$USERI1
 70
     0
  9
$USERI2
 70
     0
  9
$USERI3
 70
     0
  9
$USERI4
 70
     0
  9
$USERI5
 70
     0
  9
$USERR1
 40
0.0
  9
$USERR2
 40
0.0
  9
$USERR3
 40
0.0
  9
$USERR4
 40
0.0
  9
$USERR5
 40
0.0
  9
$WORLDVIEW
 70
     1
  9
$SHADEDGE
 70
     3
  9
$SHADEDIF
 70
    70
  9
$TILEMODE
 70
     1
  9
$MAXACTVP
 70
    64
  9
$PLIMCHECK
 70
     0
  9
$PEXTMIN
 10
1.0000000000000000E+020
 20
1.0000000000000000E+020
 30
1.0000000000000000E+020
  9
$PEXTMAX
 10
-1.0000000000000000E+020
 20
-1.0000000000000000E+020
 30
-1.0000000000000000E+020
  9
$PLIMMIN
 10
0.0
 20
0.0
  9
$PLIMMAX
 10
12.0
 20
9.0
  9
$UNITMODE
 70
     0
  9
$VISRETAIN
 70
     0
  9
$PLINEGEN
 70
     1
  9
$PSLTSCALE
 70
     0
  0
ENDSEC
  0
SECTION
  2
TABLES
  0
TABLE
  2
VPORT
 70
     1
  0
VPORT
  2
*ACTIVE
 70
     0
 10
0.0
 20
0.0
 11
1.0
 21
1.0
 12
100.0000008381904
 22
135.93658728899311
 13
0.0
 23
0.0
 14
1.0
 24
1.0
 15
0.0
 25
0.0
 16
0.0
 26
0.0
 36
1.0
 17
0.0
 27
0.0
 37
0.0
 40
539.16704413284754
 41
1.9619164619164611
 42
50.0
 43
0.0
 44
0.0
 50
0.0
 51
0.0
 71
     0
 72
  2000
 73
     1
 74
     1
 75
     0
 76
     0
 77
     0
 78
     0
  0
ENDTAB
  0
TABLE
  2
LTYPE
 70
    11
  0
LTYPE
  2
CONTINUOUS
 70
     0
  3
Solid line
 72
    65
 73
     0
 40
0.0
  0
LTYPE
  2
STYLE_01
 70
     0
  3

 72
    65
 73
     2
 40
0.4166412353515625
 49
0.208282470703125
 49
-0.2083587646484375
  0
ENDTAB
  0
TABLE
  2
LAYER
 70
     6
  0
LAYER
  2
0
 70
     0
 62
     7
  6
CONTINUOUS
  0
LAYER
  2
DATA
 70
     0
 62
     7
  6
CONTINUOUS
  0
LAYER
  2
HIBINO-BASE
 70
     0
 62
     7
  6
CONTINUOUS
  0
LAYER
  2
SPEC
 70
     0
 62
     7
  6
CONTINUOUS
  0
LAYER
  2
DIMNSIONS
 70
     0
 62
     7
  6
CONTINUOUS
  0
ENDTAB
  0
TABLE
  2
STYLE
 70
     3
  0
STYLE
  2
STANDARD
 70
     0
 40
0.0
 41
1.0
 50
0.0
 71
     0
 42
0.0
  3
txt
  4
BIGFONT.SHX
  0
ENDTAB
  0
TABLE
  2
VIEW
 70
     0
  0
ENDTAB
  0
TABLE
  2
UCS
 70
     0
  0
ENDTAB
  0
TABLE
  2
APPID
 70
     4
  0
APPID
  2
ACAD
 70
     0
  0
APPID
  2
ACADANNOTATIVE
 70
     0
  0
APPID
  2
ACAD_NAV_VCDISPLAY
 70
     0
  0
APPID
  2
ACAD_MLEADERVER
 70
     0
  0
ENDTAB
  0
TABLE
  2
DIMSTYLE
 70
     2
  0
DIMSTYLE
  2
STANDARD
 70
     0
  3

  4

  5

  6

  7

 40
1.0
 41
0.18
 42
0.0625
 43
0.38
 44
0.18
 45
0.0
 46
0.0
 47
0.0
 48
0.0
140
0.18
141
0.09
142
0.0
143
25.399999999999999
144
1.0
145
0.0
146
1.0
147
0.09
 71
     0
 72
     0
 73
     1
 74
     1
 75
     0
 76
     0
 77
     0
 78
     0
170
     0
171
     2
172
     0
173
     0
174
     0
175
     0
176
     0
177
     0
178
     0
  0
ENDTAB
  0
ENDSEC
  0
SECTION
  2
BLOCKS
  0
BLOCK
  8
0
  2
$MODEL_SPACE
 70
     0
 10
0.0
 20
0.0
 30
0.0
  3
$MODEL_SPACE
  1

  0
ENDBLK
  5
191
  8
0
  0
BLOCK
 67
     1
  8
0
  2
$PAPER_SPACE
 70
     0
 10
0.0
 20
0.0
 30
0.0
  3
$PAPER_SPACE
  1

  0
ENDBLK
  5
18D
 67
     1
  8
0
  0
ENDSEC
  0
SECTION
  2
ENTITIES
  0
LINE
  5
2D
  8
HIBINO-BASE
  6
CONTINUOUS
 62
     7
 10
-79.999999999999986
 20
403.53364789486591
 30
0.0
 11
279.99999999999989
 21
403.53364789486591
 31
0.0
  0
LINE
  5
2E
  8
HIBINO-BASE
  6
CONTINUOUS
 62
     7
 10
279.99999999999989
 20
-116.46635210513411
 30
0.0
 11
-79.999999999999986
 21
-116.46635210513411
 31
0.0
  0
LINE
  5
2F
  8
HIBINO-BASE
  6
CONTINUOUS
 62
     7
 10
-79.999999999999986
 20
-116.46635210513411
 30
0.0
 11
-79.999999999999986
 21
403.53364789486591
 31
0.0
  0
LINE
  5
30
  8
HIBINO-BASE
  6
CONTINUOUS
 62
     7
 10
279.99999999999989
 20
403.53364789486591
 30
0.0
 11
279.99999999999989
 21
-116.46635210513411
 31
0.0
  0
LINE
  5
31
  8
HIBINO-BASE
  6
CONTINUOUS
 62
     7
 10
100.0
 20
-71.466352105134064
 30
0.0
 11
279.99999999999989
 21
-71.466352105134064
 31
0.0
  0
LINE
  5
32
  8
HIBINO-BASE
  6
CONTINUOUS
 62
     7
 10
100.0
 20
-116.46635210513411
 30
0.0
 11
100.0
 21
-71.466352105134064
 31
0.0
  0
TEXT
  5
33
  8
HIBINO-BASE
 62
     7
 10
101.8
 20
-76.483738771800731
 30
0.0
 40
3.2576822916666659
  1
NOTE
 41
0.7
 11
101.8
 21
-73.226056480134062
 31
0.0
 73
     3
  0
LINE
  5
34
  8
HIBINO-BASE
  6
CONTINUOUS
 62
     7
 10
170.0
 20
-116.46635210513411
 30
0.0
 11
170.0
 21
-71.466352105134064
 31
0.0
  0
TEXT
  5
35
  8
HIBINO-BASE
 62
     7
 10
171.7999999999999
 20
-76.483738771800731
 30
0.0
 40
3.2576822916666659
  1
TITLE
 41
0.7
 11
171.7999999999999
 21
-73.226056480134062
 31
0.0
 73
     3
  0
LINE
  5
36
  8
HIBINO-BASE
  6
CONTINUOUS
 62
     7
 10
100.0
 20
-96.466352105134064
 30
0.0
 11
279.99999999999989
 21
-96.466352105134064
 31
0.0
  0
TEXT
  5
37
  8
HIBINO-BASE
 62
     7
 10
196.80000000000001
 20
-101.3710987718007
 30
0.0
 40
3.2576822916666659
  1
DRAWN
 41
0.7
 11
196.80000000000001
 21
-98.113416480134106
 31
0.0
 73
     3
  0
TEXT
  5
38
  8
HIBINO-BASE
 62
     7
 10
146.7999999999999
 20
-101.3710987718007
 30
0.0
 40
3.2576822916666659
  1
DATE
 41
0.7
 11
146.7999999999999
 21
-98.113416480134106
 31
0.0
 73
     3
  0
TEXT
  5
39
  8
HIBINO-BASE
 62
     7
 10
126.8
 20
-101.3710987718007
 30
0.0
 40
3.2576822916666659
  1
SCALE
 41
0.7
 11
126.8
 21
-98.113416480134106
 31
0.0
 73
     3
  0
TEXT
  5
3A
  8
HIBINO-BASE
 62
     7
 10
171.7999999999999
 20
-101.3710987718007
 30
0.0
 40
3.2576822916666659
  1
DESIGN
 41
0.7
 11
171.7999999999999
 21
-98.113416480134106
 31
0.0
 73
     3
  0
TEXT
  5
3B
  8
HIBINO-BASE
 62
     7
 10
246.7999999999999
 20
-101.3710987718007
 30
0.0
 40
3.2576822916666659
  1
DRAWING NO.
 41
0.7
 11
246.7999999999999
 21
-98.113416480134106
 31
0.0
 73
     3
  0
TEXT
  5
3C
  8
HIBINO-BASE
 62
     7
 10
221.7999999999999
 20
-101.3710987718007
 30
0.0
 40
3.2576822916666659
  1
CHECK
 41
0.7
 11
221.7999999999999
 21
-98.113416480134106
 31
0.0
 73
     3
  0
LINE
  5
3D
  8
HIBINO-BASE
  6
CONTINUOUS
 62
     7
 10
128.74999999999989
 20
-113.96635210513411
 30
0.0
 11
136.25
 21
-106.46635210513401
 31
0.0
  0
TEXT
  5
3E
  8
HIBINO-BASE
 62
     7
 10
127.5
 20
-108.68423877180069
 30
0.0
 40
3.2576822916666659
  1
1
 41
0.7
 11
127.5
 21
-105.4265564801341
 31
0.0
 73
     3
  0
LINE
  5
3F
  8
HIBINO-BASE
  6
CONTINUOUS
 62
     7
 10
125.0
 20
-116.46635210513411
 30
0.0
 11
125.0
 21
-96.466352105134064
 31
0.0
  0
LINE
  5
40
  8
HIBINO-BASE
  6
CONTINUOUS
 62
     7
 10
145.0
 20
-116.46635210513411
 30
0.0
 11
145.0
 21
-96.466352105134064
 31
0.0
  0
LINE
  5
41
  8
HIBINO-BASE
  6
CONTINUOUS
 62
     7
 10
195.0
 20
-96.466352105134064
 30
0.0
 11
195.0
 21
-116.46635210513411
 31
0.0
  0
LINE
  5
42
  8
HIBINO-BASE
  6
CONTINUOUS
 62
     7
 10
245.0
 20
-96.466352105134064
 30
0.0
 11
245.0
 21
-116.46635210513411
 31
0.0
  0
LINE
  5
43
  8
HIBINO-BASE
  6
CONTINUOUS
 62
     7
 10
220.0
 20
-116.46635210513411
 30
0.0
 11
220.0
 21
-96.466352105134064
 31
0.0
  0
TEXT
  5
44
  8
HIBINO-BASE
 62
     7
 10
146.71307999999999
 20
-110.7390587718007
 30
0.0
 40
3.2576822916666659
  1
'11.05.
 41
0.7
 11
146.71307999999999
 21
-107.4813764801341
 31
0.0
 73
     3
  0
TEXT
  5
45
  8
HIBINO-BASE
 62
     7
 10
135.0
 20
-112.43423877180069
 30
0.0
 40
3.2576822916666659
  1
2
 41
0.7
 11
135.0
 21
-109.1765564801341
 31
0.0
 73
     3
  0
TEXT
  5
46
  8
HIBINO-BASE
 62
     7
 10
198.0116200220692
 20
-110.7390587718007
 30
0.0
 40
3.2576822916666659
  1
T.Ootake
 41
0.7
 11
198.0116200220692
 21
-107.4813764801341
 31
0.0
 73
     3
  0
TEXT
  5
47
  8
HIBINO-BASE
 62
     7
 10
107.76666666666659
 20
-112.51435210513399
 30
0.0
 40
6.5153645833333318
  1
A4
 41
0.7
 11
107.76666666666659
 21
-105.9989875218007
 31
0.0
 73
     3
  0
TEXT
  5
48
  8
HIBINO-BASE
 62
     7
 10
101.9166666666666
 20
-101.7052621051341
 30
0.0
 40
3.2576822916666659
  1
PAPER SIZE
 41
0.7
 11
101.9166666666666
 21
-98.447579813467414
 31
0.0
 73
     3
  0
TEXT
  5
49
  8
HIBINO-BASE
 62
     7
 10
-74.48072948621963
 20
-129.31683257348661
 30
0.0
 40
7.0583116319444441
  1
Hibino-Intersound Corporation
 41
0.7
 11
-74.48072948621963
 21
-122.2585209415421
 31
0.0
 73
     3
  0
TEXT
  5
4A
  8
HIBINO-BASE
 62
     7
 10
140.36121936042781
 20
-128.61465606690771
 30
0.0
 40
7.0583116319444441
  1
ヒビノインターサウンド株式会社
 41
0.7
 11
140.36121936042781
 21
-121.55634443496329
 31
0.0
 73
     3
  0
LINE
  5
4B
  8
SPEC
  6
CONTINUOUS
 62
     7
 10
-64.999999999999986
 20
383.53364789486602
 30
0.0
 11
230.0
 21
383.53364789486602
 31
0.0
  0
LINE
  5
4C
  8
SPEC
  6
CONTINUOUS
 62
     7
 10
-64.999999999999986
 20
376.03364789486591
 30
0.0
 11
230.0
 21
376.03364789486591
 31
0.0
  0
LINE
  5
4D
  8
SPEC
  6
CONTINUOUS
 62
     7
 10
-64.999999999999986
 20
361.03364789486602
 30
0.0
 11
230.0
 21
361.03364789486602
 31
0.0
  0
LINE
  5
4E
  8
SPEC
  6
CONTINUOUS
 62
     7
 10
-64.999999999999986
 20
368.53364789486602
 30
0.0
 11
230.0
 21
368.53364789486602
 31
0.0
  0
LINE
  5
4F
  8
SPEC
  6
CONTINUOUS
 62
     7
 10
-64.999999999999986
 20
383.53364789486602
 30
0.0
 11
-64.999999999999986
 21
263.53364789486591
 31
0.0
  0
TEXT
  5
50
  8
SPEC
 62
     7
 10
-62.5
 20
386.32018789486591
 30
0.0
 40
4.8865234375000002
  1
仕様
 41
0.7
 11
-62.5
 21
391.2067113323659
 31
0.0
 73
     3
  0
LINE
  5
51
  8
SPEC
  6
CONTINUOUS
 62
     7
 10
230.0
 20
383.53364789486602
 30
0.0
 11
230.0
 21
263.53364789486591
 31
0.0
  0
LINE
  5
52
  8
SPEC
  6
CONTINUOUS
 62
     7
 10
-64.999999999999986
 20
353.53364789486602
 30
0.0
 11
230.0
 21
353.53364789486602
 31
0.0
  0
LINE
  5
53
  8
SPEC
  6
CONTINUOUS
 62
     7
 10
-64.999999999999986
 20
346.03364789486602
 30
0.0
 11
230.0
 21
346.03364789486602
 31
0.0
  0
LINE
  5
54
  8
SPEC
  6
CONTINUOUS
 62
     7
 10
-64.999999999999986
 20
338.53364789486591
 30
0.0
 11
230.0
 21
338.53364789486591
 31
0.0
  0
LINE
  5
55
  8
SPEC
  6
CONTINUOUS
 62
     7
 10
-64.999999999999986
 20
331.03364789486602
 30
0.0
 11
230.0
 21
331.03364789486602
 31
0.0
  0
LINE
  5
56
  8
SPEC
  6
CONTINUOUS
 62
     7
 10
-64.999999999999986
 20
323.53364789486602
 30
0.0
 11
230.0
 21
323.53364789486602
 31
0.0
  0
LINE
  5
57
  8
SPEC
  6
CONTINUOUS
 62
     7
 10
-64.999999999999986
 20
316.03364789486602
 30
0.0
 11
230.0
 21
316.03364789486602
 31
0.0
  0
LINE
  5
58
  8
SPEC
  6
CONTINUOUS
 62
     7
 10
-64.999999999999986
 20
308.53364789486602
 30
0.0
 11
230.0
 21
308.53364789486602
 31
0.0
  0
LINE
  5
59
  8
SPEC
  6
CONTINUOUS
 62
     7
 10
-64.999999999999986
 20
301.03364789486591
 30
0.0
 11
230.0
 21
301.03364789486591
 31
0.0
  0
LINE
  5
5A
  8
SPEC
  6
CONTINUOUS
 62
     7
 10
-64.999999999999986
 20
293.53364789486602
 30
0.0
 11
230.0
 21
293.53364789486602
 31
0.0
  0
LINE
  5
5B
  8
SPEC
  6
CONTINUOUS
 62
     7
 10
-64.999999999999986
 20
286.03364789486602
 30
0.0
 11
230.0
 21
286.03364789486602
 31
0.0
  0
TEXT
  5
5C
  8
SPEC
 62
     7
 10
-63.392685208711463
 20
280.42703680272041
 30
0.0
 40
3.8006293402777769
  1
寸法
 41
0.7
 11
-63.392685208711463
 21
284.22766614299809
 31
0.0
 73
     3
  0
TEXT
  5
5D
  8
SPEC
 62
     7
 10
31.25224517051328
 20
280.3471327449742
 30
0.0
 40
3.8006293402777769
  1
\U+03A619\U+00D758mm(突起部含まず）
 41
0.7
 11
31.25224517051328
 21
284.14776208525211
 31
0.0
 73
     3
  0
TEXT
  5
5E
  8
SPEC
 62
     7
 10
31.727744569725211
 20
287.92622030982989
 30
0.0
 40
3.8006293402777769
  1
約60g
 41
0.7
 11
31.727744569725211
 21
291.72684965010779
 31
0.0
 73
     3
  0
TEXT
  5
5F
  8
SPEC
 62
     7
 10
-63.322938563112281
 20
287.9985281856018
 30
0.0
 40
3.8006293402777769
  1
重量
 41
0.7
 11
-63.322938563112281
 21
291.79915752587948
 31
0.0
 73
     3
  0
LINE
  5
60
  8
SPEC
  6
CONTINUOUS
 62
     7
 10
30.000000000000011
 20
383.53364789486602
 30
0.0
 11
30.000000000000011
 21
263.53364789486591
 31
0.0
  0
LINE
  5
61
  8
SPEC
  6
CONTINUOUS
 62
     7
 10
-64.999999999999986
 20
278.53364789486591
 30
0.0
 11
230.0
 21
278.53364789486591
 31
0.0
  0
LINE
  5
62
  8
SPEC
  6
CONTINUOUS
 62
     7
 10
-64.999999999999986
 20
271.03364789486591
 30
0.0
 11
230.0
 21
271.03364789486591
 31
0.0
  0
LINE
  5
63
  8
SPEC
  6
CONTINUOUS
 62
     7
 10
-64.999999999999986
 20
263.53364789486591
 30
0.0
 11
230.0
 21
263.53364789486591
 31
0.0
  0
TEXT
  5
64
  8
SPEC
 62
     7
 10
-63.363472328254247
 20
377.95735279774419
 30
0.0
 40
3.8006293402777769
  1
指向性
 41
0.7
 11
-63.363472328254247
 21
381.75798213802199
 31
0.0
 73
     3
  0
TEXT
  5
65
  8
SPEC
 62
     7
 10
31.66699365086777
 20
377.85289820850733
 30
0.0
 40
3.8006293402777769
  1
無指向性
 41
0.7
 11
31.66699365086777
 21
381.65352754878512
 31
0.0
 73
     3
  0
TEXT
  5
66
  8
SPEC
 62
     7
 10
-63.596101091168222
 20
370.59730627938882
 30
0.0
 40
3.8006293402777769
  1
カートリッジ
 41
0.7
 11
-63.596101091168222
 21
374.39793561966661
 31
0.0
 73
     3
  0
TEXT
  5
67
  8
SPEC
 62
     7
 10
31.192688541182729
 20
370.4945501857747
 30
0.0
 40
3.8006293402777769
  1
プリポラライズド・コンデンサー,ツインダイヤフラム、\U+03A619mm
 41
0.7
 11
31.192688541182729
 21
374.29517952605249
 31
0.0
 73
     3
  0
TEXT
  5
68
  8
SPEC
 62
     7
 10
-63.266392201393558
 20
347.91601726104591
 30
0.0
 40
3.8006293402777769
  1
等価雑音レベル(Aウェイト、代表値)
 41
0.7
 11
-63.266392201393558
 21
351.71664660132382
 31
0.0
 73
     3
  0
TEXT
  5
69
  8
SPEC
 62
     7
 10
31.539211906992559
 20
347.91336739108073
 30
0.0
 40
3.8006293402777769
  1
16dB SPL
 41
0.7
 11
31.539211906992559
 21
351.71399673135852
 31
0.0
 73
     3
  0
TEXT
  5
6A
  8
SPEC
 62
     7
 10
-63.249383836304652
 20
355.35557332786141
 30
0.0
 40
3.8006293402777769
  1
感度(\U+00B12dB@1kHz、公称値）
 41
0.7
 11
-63.249383836304652
 21
359.15620266813931
 31
0.0
 73
     3
  0
TEXT
  5
6B
  8
SPEC
 62
     7
 10
31.91723932085246
 20
355.43651940603968
 30
0.0
 40
3.8006293402777769
  1
-28dB re、1V/Pa
 41
0.7
 11
31.91723932085246
 21
359.23714874631759
 31
0.0
 73
     3
  0
TEXT
  5
6C
  8
SPEC
 62
     7
 10
-63.21067083230627
 20
362.87279813867508
 30
0.0
 40
3.8006293402777769
  1
周波数レンジ(\U+00B12dB)
 41
0.7
 11
-63.21067083230627
 21
366.67342747895287
 31
0.0
 73
     3
  0
TEXT
  5
6D
  8
SPEC
 62
     7
 10
31.856015232544308
 20
362.78704743914432
 30
0.0
 40
3.8006293402777769
  1
50Hz～20kHz
 41
0.7
 11
31.856015232544308
 21
366.58767677942211
 31
0.0
 73
     3
  0
TEXT
  5
6E
  8
SPEC
 62
     7
 10
-63.245788732556854
 20
340.44550550250722
 30
0.0
 40
3.8006293402777769
  1
全高調波歪み(THD)
 41
0.7
 11
-63.245788732556854
 21
344.24613484278501
 31
0.0
 73
     3
  0
TEXT
  5
6F
  8
SPEC
 62
     7
 10
31.54772018868282
 20
340.34938205055028
 30
0.0
 40
3.8006293402777769
  1
1%%%以下(130dB SPL)
 41
0.7
 11
31.54772018868282
 21
344.15001139082813
 31
0.0
 73
     3
  0
TEXT
  5
70
  8
SPEC
 62
     7
 10
-63.772483195015212
 20
303.03263310498272
 30
0.0
 40
3.8006293402777769
  1
コネクター
 41
0.7
 11
-63.772483195015212
 21
306.83326244526052
 31
0.0
 73
     3
  0
TEXT
  5
71
  8
SPEC
 62
     7
 10
31.873543777245072
 20
302.77181821518718
 30
0.0
 40
3.8006293402777769
  1
XLR3ピン(オス)
 41
0.7
 11
31.873543777245072
 21
306.57244755546498
 31
0.0
 73
     3
  0
TEXT
  5
72
  8
SPEC
 62
     7
 10
-63.434404271181279
 20
317.89915328746218
 30
0.0
 40
3.8006293402777769
  1
ケーブル引き伸ばし可能距離
 41
0.7
 11
-63.434404271181279
 21
321.69978262773998
 31
0.0
 73
     3
  0
TEXT
  5
73
  8
SPEC
 62
     7
 10
31.797662488534769
 20
317.8742495149146
 30
0.0
 40
3.8006293402777769
  1
最大100m
 41
0.7
 11
31.797662488534769
 21
321.67487885519239
 31
0.0
 73
     3
  0
TEXT
  5
74
  8
SPEC
 62
     7
 10
-63.47391815173274
 20
325.22994248495138
 30
0.0
 40
3.8006293402777769
  1
インピーダンス
 41
0.7
 11
-63.47391815173274
 21
329.03057182522917
 31
0.0
 73
     3
  0
TEXT
  5
75
  8
SPEC
 62
     7
 10
31.780563774862699
 20
325.33442312054422
 30
0.0
 40
3.8006293402777769
  1
200\U+03A9以下
 41
0.7
 11
31.780563774862699
 21
329.1350524608219
 31
0.0
 73
     3
  0
TEXT
  5
76
  8
SPEC
 62
     7
 10
-63.590400676655712
 20
332.80748681109952
 30
0.0
 40
3.8006293402777769
  1
ダイナミックレンジ(代表値)
 41
0.7
 11
-63.590400676655712
 21
336.6081161513772
 31
0.0
 73
     3
  0
TEXT
  5
77
  8
SPEC
 62
     7
 10
31.516173020330928
 20
332.71782103189241
 30
0.0
 40
3.8006293402777769
  1
114dB
 41
0.7
 11
31.516173020330928
 21
336.51845037217021
 31
0.0
 73
     3
  0
TEXT
  5
78
  8
SPEC
 62
     7
 10
-63.37717861381833
 20
310.31079295537148
 30
0.0
 40
3.8006293402777769
  1
電源
 41
0.7
 11
-63.37717861381833
 21
314.11142229564928
 31
0.0
 73
     3
  0
TEXT
  5
79
  8
SPEC
 62
     7
 10
31.175574367135269
 20
310.47488564943779
 30
0.0
 40
3.8006293402777769
  1
ファンタムDC48V/2.8mA
 41
0.7
 11
31.175574367135269
 21
314.27551498971559
 31
0.0
 73
     3
  0
TEXT
  5
7A
  8
SPEC
 62
     7
 10
-63.211911521901172
 20
295.53886999160937
 30
0.0
 40
3.8006293402777769
  1
色
 41
0.7
 11
-63.211911521901172
 21
299.33949933188723
 31
0.0
 73
     3
  0
TEXT
  5
7B
  8
SPEC
 62
     7
 10
31.61343861661171
 20
295.51473250231351
 30
0.0
 40
3.8006293402777769
  1
マットブラック
 41
0.7
 11
31.61343861661171
 21
299.3153618425913
 31
0.0
 73
     3
  0
TEXT
  5
7C
  8
SPEC
 62
     7
 10
-63.146710811090891
 20
265.61741078312878
 30
0.0
 40
3.8006293402777769
  1
使用湿度範囲
 41
0.7
 11
-63.146710811090891
 21
269.41804012340663
 31
0.0
 73
     3
  0
TEXT
  5
7D
  8
SPEC
 62
     7
 10
31.78595237139281
 20
265.44503750187829
 30
0.0
 40
3.8006293402777769
  1
90%%%以下
 41
0.7
 11
31.78595237139281
 21
269.2456668421562
 31
0.0
 73
     3
  0
TEXT
  5
7E
  8
SPEC
 62
     7
 10
-63.147822386735768
 20
272.98398494248448
 30
0.0
 40
3.8006293402777769
  1
使用温度範囲
 41
0.7
 11
-63.147822386735768
 21
276.78461428276228
 31
0.0
 73
     3
  0
TEXT
  5
7F
  8
SPEC
 62
     7
 10
32.017876729291359
 20
272.7880881742434
 30
0.0
 40
3.8006293402777769
  1
-40℃～45℃
 41
0.7
 11
32.017876729291359
 21
276.58871751452119
 31
0.0
 73
     3
  0
TEXT
  5
80
  8
DIMNSIONS
 62
     7
 10
60.0
 20
-91.927372105134054
 30
0.0
 40
4.8865234375000002
  1
(単位：mm)
 41
0.7
 11
60.0
 21
-87.040848667634066
 31
0.0
 73
     3
  0
LINE
  5
81
  8
DIMNSIONS
  6
CONTINUOUS
 62
     7
 10
56.343233155456147
 20
-5.3178292675401613
 30
0.0
 11
65.625
 21
5.4027777781000159
 31
0.0
  0
LINE
  5
82
  8
DIMNSIONS
  6
CONTINUOUS
 62
     7
 10
56.343233155456147
 20
-5.3178292675401613
 30
0.0
 11
58.612974265720901
 21
-0.6641703497738547
 31
0.0
  0
LINE
  5
83
  8
DIMNSIONS
  6
CONTINUOUS
 62
     7
 10
56.343233155456147
 20
-5.3178292675401613
 30
0.0
 11
60.635716075842467
 21
-2.4225129793389319
 31
0.0
  0
LINE
  5
84
  8
DIMNSIONS
  6
CONTINUOUS
 62
     7
 10
65.625
 20
5.4027777781000159
 30
0.0
 11
83.7361111111111
 21
5.4027777781000159
 31
0.0
  0
TEXT
  5
85
  8
DIMNSIONS
 62
     7
 10
69.625
 20
7.3905555558777971
 30
0.0
 40
5.4294704861111107
  1
\U+03C619
 41
0.7
 11
69.625
 21
12.82002604198891
 31
0.0
 73
     3
  0
LINE
  5
86
  8
DIMNSIONS
  6
CONTINUOUS
 62
     7
 10
56.944362899541453
 20
170.3640977953896
 30
0.0
 11
87.500000000000014
 21
200.0
 31
0.0
  0
LINE
  5
87
  8
DIMNSIONS
  6
CONTINUOUS
 62
     7
 10
56.944362899541453
 20
170.3640977953896
 30
0.0
 11
59.611060059100247
 21
174.80222716368581
 31
0.0
  0
LINE
  5
88
  8
DIMNSIONS
  6
CONTINUOUS
 62
     7
 10
56.944362899541453
 20
170.3640977953896
 30
0.0
 11
61.472855068067247
 21
172.87428199383649
 31
0.0
  0
LINE
  5
89
  8
DIMNSIONS
  6
CONTINUOUS
 62
     7
 10
87.500000000000014
 20
200.0
 30
0.0
 11
105.6111111111111
 21
200.0
 31
0.0
  0
TEXT
  5
8A
  8
DIMNSIONS
 62
     7
 10
91.5
 20
201.98777777777781
 30
0.0
 40
5.4294704861111107
  1
\U+03C619
 41
0.7
 11
91.5
 21
207.41724826388889
 31
0.0
 73
     3
  0
LINE
  5
8B
  8
DIMNSIONS
  6
CONTINUOUS
 62
     7
 10
36.625000000275961
 20
18.75000000000934
 30
0.0
 11
11.625
 21
18.75000000000934
 31
0.0
  0
LINE
  5
8C
  8
DIMNSIONS
  6
CONTINUOUS
 62
     7
 10
36.625
 20
76.750000000000028
 30
0.0
 11
11.625
 21
76.750000000000028
 31
0.0
  0
LINE
  5
8D
  8
DIMNSIONS
  6
CONTINUOUS
 62
     7
 10
15.625
 20
18.75000000000934
 30
0.0
 11
15.625
 21
76.750000000000028
 31
0.0
  0
LINE
  5
8E
  8
DIMNSIONS
  6
CONTINUOUS
 62
     7
 10
15.625
 20
18.75000000000934
 30
0.0
 11
14.284920409699501
 21
23.751245117196831
 31
0.0
  0
LINE
  5
8F
  8
DIMNSIONS
  6
CONTINUOUS
 62
     7
 10
15.625
 20
18.75000000000934
 30
0.0
 11
16.965079590300491
 21
23.751245117196831
 31
0.0
  0
LINE
  5
90
  8
DIMNSIONS
  6
CONTINUOUS
 62
     7
 10
15.625
 20
76.750000000000028
 30
0.0
 11
16.965079590300491
 21
71.748754882812534
 31
0.0
  0
LINE
  5
91
  8
DIMNSIONS
  6
CONTINUOUS
 62
     7
 10
15.625
 20
76.750000000000028
 30
0.0
 11
14.284920409699501
 21
71.748754882812534
 31
0.0
  0
TEXT
  5
92
  8
DIMNSIONS
 62
     7
 10
13.637222222222229
 20
44.222222222226918
 30
0.0
 40
5.4294704861111107
  1
58
 50
90.0
 41
0.7
 11
8.2077517361111205
 21
44.222222222226918
 31
0.0
 73
     3
  0
TEXT
  5
93
  8
DATA
 62
     7
 10
206.1350416231441
 20
-94.321723490100567
 30
0.0
 40
4.8865234375000002
  1
2006C
 41
0.7
 11
206.1350416231441
 21
-89.435200052600578
 31
0.0
 73
     3
  0
TEXT
  5
94
  8
DATA
 62
     7
 10
206.1350416231441
 20
-79.322915337438658
 30
0.0
 40
4.8865234375000002
  1
DPA
 41
0.7
 11
206.1350416231441
 21
-74.436391899938656
 31
0.0
 73
     3
  0
TEXT
  5
95
  8
DATA
 62
     7
 10
-60.0
 20
-107.99035210513409
 30
0.0
 40
3.2576822916666659
  1
仕様および外観は予告なく変更されることがありますので、ご了承ください。
 41
0.7
 11
-60.0
 21
-104.7326698134674
 31
0.0
 73
     3
  0
LINE
  5
96
  8
DATA
  6
CONTINUOUS
 62
     7
 10
40.625000000220453
 20
59.749999999687113
 30
0.0
 11
59.625000000220453
 21
59.749999999687113
 31
0.0
  0
LINE
  5
97
  8
DATA
  6
CONTINUOUS
 62
     7
 10
40.625000000275961
 20
59.750000000009337
 30
0.0
 11
40.625000000275961
 21
18.75000000000934
 31
0.0
  0
LINE
  5
98
  8
DATA
  6
CONTINUOUS
 62
     7
 10
59.625000000275961
 20
59.750000000009337
 30
0.0
 11
59.625000000275961
 21
18.75000000000934
 31
0.0
  0
TEXT
  5
99
  8
DATA
 62
     7
 10
45.147747989901113
 20
23.2410958732148
 30
0.0
 40
3.2576822916666659
  1
MMP-C
 41
0.7
 11
45.147747989901113
 21
26.498778164881472
 31
0.0
 73
     3
  0
CIRCLE
  5
9A
  8
DATA
  6
CONTINUOUS
 62
     7
 10
50.125000000275961
 20
-12.49999999983401
 30
0.0
 40
9.5
  0
ARC
  5
9B
  8
DATA
  6
CONTINUOUS
 62
     7
 10
50.12500000027589
 20
-12.49999999983401
 30
0.0
 40
8.0000000000000675
 50
52.793688021979897
 51
38.897425550919777
  0
CIRCLE
  5
9C
  8
DATA
  6
CONTINUOUS
 62
     7
 10
50.125000000275961
 20
-16.49999999983401
 30
0.0
 40
1.150000000000005
  0
CIRCLE
  5
9D
  8
DATA
  6
CONTINUOUS
 62
     7
 10
46.125000000275968
 20
-12.49999999983401
 30
0.0
 40
1.150000000000005
  0
CIRCLE
  5
9E
  8
DATA
  6
CONTINUOUS
 62
     7
 10
54.125000000275968
 20
-12.49999999983401
 30
0.0
 40
1.150000000000005
  0
ARC
  5
9F
  8
DATA
  6
CONTINUOUS
 62
     7
 10
55.224086104067318
 20
-7.2481462230358034
 30
0.0
 40
1.150000000000031
 50
348.54291116051797
 51
103.14820241238171
  0
LINE
  5
A0
  8
DATA
  6
CONTINUOUS
 62
     7
 10
40.625000000275961
 20
18.75000000000934
 30
0.0
 11
59.625000000275961
 21
18.75000000000934
 31
0.0
  0
TEXT
  5
A1
  8
DATA
 62
     7
 10
202.12756217940839
 20
-86.260384026798761
 30
0.0
 40
3.2576822916666659
  1
無指向性マイクロホン
 41
0.7
 11
202.12756217940839
 21
-83.002701735132106
 31
0.0
 73
     3
  0
LINE
  5
A2
  8
DATA
  6
CONTINUOUS
 62
     7
 10
40.625000000275961
 20
59.750000000009337
 30
0.0
 11
59.625000000275961
 21
59.750000000009337
 31
0.0
  0
LINE
  5
A3
  8
DATA
  6
CONTINUOUS
 62
     7
 10
40.73179267932106
 20
59.75
 30
0.0
 11
59.73179267932106
 21
59.75
 31
0.0
  0
LINE
  5
A4
  8
DATA
  6
CONTINUOUS
 62
     7
 10
40.73179267932106
 20
59.75
 30
0.0
 11
59.73179267932106
 21
59.75
 31
0.0
  0
LINE
  5
A5
  8
DATA
  6
CONTINUOUS
 62
     7
 10
40.624999999999993
 20
59.750000000000021
 30
0.0
 11
59.624999999999993
 21
59.750000000000021
 31
0.0
  0
CIRCLE
  5
A6
  8
DATA
  6
STYLE_01
 62
     7
 10
50.124999999999993
 20
163.75
 30
0.0
 40
31.0
  0
ARC
  5
A7
  8
DATA
  6
STYLE_01
 62
     7
 10
50.124999999999993
 20
94.750000000000043
 30
0.0
 40
31.0
 50
0.0
 51
180.0
  0
ARC
  5
A8
  8
DATA
  6
STYLE_01
 62
     7
 10
50.124999999999993
 20
62.651820453965676
 30
0.0
 40
31.0
 50
180.0
 51
252.1544822531749
  0
ARC
  5
A9
  8
DATA
  6
STYLE_01
 62
     7
 10
50.124999999999993
 20
62.651820453965676
 30
0.0
 40
31.000000000000011
 50
287.84551774682518
 51
0.0
  0
LINE
  5
AA
  8
DATA
  6
STYLE_01
 62
     7
 10
40.624999999999993
 20
33.143347094606682
 30
0.0
 11
59.624999999999993
 21
33.143347094606682
 31
0.0
  0
LINE
  5
AB
  8
DATA
  6
STYLE_01
 62
     7
 10
19.124999999999979
 20
62.651820453965676
 30
0.0
 11
19.124999999999979
 21
94.750000000000043
 31
0.0
  0
LINE
  5
AC
  8
DATA
  6
STYLE_01
 62
     7
 10
81.124999999999986
 20
62.651820453965676
 30
0.0
 11
81.124999999999986
 21
94.750000000000043
 31
0.0
  0
TEXT
  5
AD
  8
DATA
 62
     7
 10
108.6775473870853
 20
128.68478791086221
 30
0.0
 40
5.4294704861111107
  1
ウインドスクリーン
 41
0.7
 11
108.6775473870853
 21
134.1142583969733
 31
0.0
 73
     3
  0
LINE
  5
AE
  8
DATA
  6
CONTINUOUS
 62
     7
 10
103.1249999997795
 20
126.25000000031289
 30
0.0
 11
174.9999999997795
 21
126.25000000031289
 31
0.0
  0
LINE
  5
AF
  8
DATA
  6
CONTINUOUS
 62
     7
 10
103.1249999997795
 20
126.25000000031289
 30
0.0
 11
75.899005800627492
 21
146.5250000003129
 31
0.0
  0
LINE
  5
B0
  8
DATA
  6
CONTINUOUS
 62
     7
 10
75.899005800627492
 20
146.5250000003129
 30
0.0
 11
82.036367021242697
 21
144.1690877576977
 31
0.0
  0
LINE
  5
B1
  8
DATA
  6
CONTINUOUS
 62
     7
 10
75.899005800627492
 20
146.5250000003129
 30
0.0
 11
80.036160408574091
 21
141.41603953881369
 31
0.0
  0
LINE
  5
B2
  8
DATA
  6
CONTINUOUS
 62
     7
 10
103.1249999997795
 20
126.25000000031289
 30
0.0
 11
75.899005800627492
 21
111.9749999996871
 31
0.0
  0
LINE
  5
B3
  8
DATA
  6
CONTINUOUS
 62
     7
 10
75.899005800627492
 20
111.9749999996871
 30
0.0
 11
80.784442666842111
 21
116.37386711218861
 31
0.0
  0
LINE
  5
B4
  8
DATA
  6
CONTINUOUS
 62
     7
 10
75.899005800627492
 20
111.9749999996871
 30
0.0
 11
82.329351791605092
 21
113.3418122338779
 31
0.0
  0
LINE
  5
B5
  8
DATA
  6
CONTINUOUS
 62
     7
 10
40.624999999999993
 20
76.550000000000026
 30
0.0
 11
41.374999999999993
 21
76.550000000000026
 31
0.0
  0
LINE
  5
B6
  8
DATA
  6
CONTINUOUS
 62
     7
 10
42.075000000000031
 20
76.550000000000026
 30
0.0
 11
42.77500000000002
 21
76.550000000000026
 31
0.0
  0
LINE
  5
B7
  8
DATA
  6
CONTINUOUS
 62
     7
 10
43.475000000000009
 20
76.550000000000026
 30
0.0
 11
44.17500000000004
 21
76.550000000000026
 31
0.0
  0
LINE
  5
B8
  8
DATA
  6
CONTINUOUS
 62
     7
 10
44.874999999999993
 20
76.550000000000026
 30
0.0
 11
45.575000000000031
 21
76.550000000000026
 31
0.0
  0
LINE
  5
B9
  8
DATA
  6
CONTINUOUS
 62
     7
 10
46.27500000000002
 20
76.550000000000026
 30
0.0
 11
46.975000000000001
 21
76.550000000000026
 31
0.0
  0
LINE
  5
BA
  8
DATA
  6
CONTINUOUS
 62
     7
 10
47.67500000000004
 20
76.550000000000026
 30
0.0
 11
48.374999999999993
 21
76.550000000000026
 31
0.0
  0
LINE
  5
BB
  8
DATA
  6
CONTINUOUS
 62
     7
 10
49.075000000000031
 20
76.550000000000026
 30
0.0
 11
49.77500000000002
 21
76.550000000000026
 31
0.0
  0
LINE
  5
BC
  8
DATA
  6
CONTINUOUS
 62
     7
 10
50.475000000000009
 20
76.550000000000026
 30
0.0
 11
51.175000000000047
 21
76.550000000000026
 31
0.0
  0
LINE
  5
BD
  8
DATA
  6
CONTINUOUS
 62
     7
 10
51.875
 20
76.550000000000026
 30
0.0
 11
52.575000000000031
 21
76.550000000000026
 31
0.0
  0
LINE
  5
BE
  8
DATA
  6
CONTINUOUS
 62
     7
 10
53.27500000000002
 20
76.550000000000026
 30
0.0
 11
53.975000000000001
 21
76.550000000000026
 31
0.0
  0
LINE
  5
BF
  8
DATA
  6
CONTINUOUS
 62
     7
 10
54.67500000000004
 20
76.550000000000026
 30
0.0
 11
55.374999999999993
 21
76.550000000000026
 31
0.0
  0
LINE
  5
C0
  8
DATA
  6
CONTINUOUS
 62
     7
 10
56.075000000000031
 20
76.550000000000026
 30
0.0
 11
56.775000000000013
 21
76.550000000000026
 31
0.0
  0
LINE
  5
C1
  8
DATA
  6
CONTINUOUS
 62
     7
 10
57.475000000000009
 20
76.550000000000026
 30
0.0
 11
58.175000000000047
 21
76.550000000000026
 31
0.0
  0
LINE
  5
C2
  8
DATA
  6
CONTINUOUS
 62
     7
 10
58.874999999999993
 20
76.550000000000026
 30
0.0
 11
59.624999999999993
 21
76.550000000000026
 31
0.0
  0
LINE
  5
C3
  8
DATA
  6
CONTINUOUS
 62
     7
 10
40.624999999999993
 20
59.750000000000021
 30
0.0
 11
40.624999999999993
 21
76.750000000000028
 31
0.0
  0
LINE
  5
C4
  8
DATA
  6
CONTINUOUS
 62
     7
 10
59.624999999999993
 20
59.750000000000021
 30
0.0
 11
59.624999999999993
 21
76.750000000000028
 31
0.0
  0
TEXT
  5
C5
  8
DATA
 62
     7
 10
47.402777777777807
 20
64.698944687582326
 30
0.0
 40
1.900314670138888
  1
2006
 41
0.7
 11
47.402777777777807
 21
66.599259357721209
 31
0.0
 73
     3
  0
LINE
  5
C6
  8
DATA
  6
CONTINUOUS
 62
     7
 10
49.77500000000002
 20
73.050000000000026
 30
0.0
 11
49.77500000000002
 21
76.750000000000028
 31
0.0
  0
LINE
  5
C7
  8
DATA
  6
CONTINUOUS
 62
     7
 10
50.475000000000009
 20
76.750000000000028
 30
0.0
 11
50.475000000000009
 21
73.050000000000026
 31
0.0
  0
LINE
  5
C8
  8
DATA
  6
CONTINUOUS
 62
     7
 10
49.77500000000002
 20
76.750000000000028
 30
0.0
 11
50.475000000000009
 21
76.750000000000028
 31
0.0
  0
LINE
  5
C9
  8
DATA
  6
CONTINUOUS
 62
     7
 10
48.374999999999993
 20
73.050000000000026
 30
0.0
 11
48.374999999999993
 21
76.750000000000028
 31
0.0
  0
LINE
  5
CA
  8
DATA
  6
CONTINUOUS
 62
     7
 10
49.075000000000031
 20
76.750000000000028
 30
0.0
 11
49.075000000000031
 21
73.050000000000026
 31
0.0
  0
LINE
  5
CB
  8
DATA
  6
CONTINUOUS
 62
     7
 10
48.374999999999993
 20
76.750000000000028
 30
0.0
 11
49.075000000000031
 21
76.750000000000028
 31
0.0
  0
LINE
  5
CC
  8
DATA
  6
CONTINUOUS
 62
     7
 10
46.975000000000001
 20
73.050000000000026
 30
0.0
 11
46.975000000000001
 21
76.750000000000028
 31
0.0
  0
LINE
  5
CD
  8
DATA
  6
CONTINUOUS
 62
     7
 10
47.67500000000004
 20
76.750000000000028
 30
0.0
 11
47.67500000000004
 21
73.050000000000026
 31
0.0
  0
LINE
  5
CE
  8
DATA
  6
CONTINUOUS
 62
     7
 10
46.975000000000001
 20
76.750000000000028
 30
0.0
 11
47.67500000000004
 21
76.750000000000028
 31
0.0
  0
LINE
  5
CF
  8
DATA
  6
CONTINUOUS
 62
     7
 10
45.575000000000031
 20
73.050000000000026
 30
0.0
 11
45.575000000000031
 21
76.750000000000028
 31
0.0
  0
LINE
  5
D0
  8
DATA
  6
CONTINUOUS
 62
     7
 10
46.27500000000002
 20
76.750000000000028
 30
0.0
 11
46.27500000000002
 21
73.050000000000026
 31
0.0
  0
LINE
  5
D1
  8
DATA
  6
CONTINUOUS
 62
     7
 10
45.575000000000031
 20
76.750000000000028
 30
0.0
 11
46.27500000000002
 21
76.750000000000028
 31
0.0
  0
LINE
  5
D2
  8
DATA
  6
CONTINUOUS
 62
     7
 10
44.17500000000004
 20
73.050000000000026
 30
0.0
 11
44.17500000000004
 21
76.750000000000028
 31
0.0
  0
LINE
  5
D3
  8
DATA
  6
CONTINUOUS
 62
     7
 10
44.874999999999993
 20
76.750000000000028
 30
0.0
 11
44.874999999999993
 21
73.050000000000026
 31
0.0
  0
LINE
  5
D4
  8
DATA
  6
CONTINUOUS
 62
     7
 10
44.17500000000004
 20
76.750000000000028
 30
0.0
 11
44.874999999999993
 21
76.750000000000028
 31
0.0
  0
LINE
  5
D5
  8
DATA
  6
CONTINUOUS
 62
     7
 10
42.77500000000002
 20
73.050000000000026
 30
0.0
 11
42.77500000000002
 21
76.750000000000028
 31
0.0
  0
LINE
  5
D6
  8
DATA
  6
CONTINUOUS
 62
     7
 10
43.475000000000009
 20
76.750000000000028
 30
0.0
 11
43.475000000000009
 21
73.050000000000026
 31
0.0
  0
LINE
  5
D7
  8
DATA
  6
CONTINUOUS
 62
     7
 10
42.77500000000002
 20
76.750000000000028
 30
0.0
 11
43.475000000000009
 21
76.750000000000028
 31
0.0
  0
LINE
  5
D8
  8
DATA
  6
CONTINUOUS
 62
     7
 10
41.374999999999993
 20
73.050000000000026
 30
0.0
 11
41.374999999999993
 21
76.750000000000028
 31
0.0
  0
LINE
  5
D9
  8
DATA
  6
CONTINUOUS
 62
     7
 10
42.075000000000031
 20
76.750000000000028
 30
0.0
 11
42.075000000000031
 21
73.050000000000026
 31
0.0
  0
LINE
  5
DA
  8
DATA
  6
CONTINUOUS
 62
     7
 10
41.374999999999993
 20
76.750000000000028
 30
0.0
 11
42.075000000000031
 21
76.750000000000028
 31
0.0
  0
LINE
  5
DB
  8
DATA
  6
CONTINUOUS
 62
     7
 10
51.175000000000047
 20
73.050000000000026
 30
0.0
 11
51.175000000000047
 21
76.750000000000028
 31
0.0
  0
LINE
  5
DC
  8
DATA
  6
CONTINUOUS
 62
     7
 10
51.875
 20
76.750000000000028
 30
0.0
 11
51.875
 21
73.050000000000026
 31
0.0
  0
LINE
  5
DD
  8
DATA
  6
CONTINUOUS
 62
     7
 10
51.175000000000047
 20
76.750000000000028
 30
0.0
 11
51.875
 21
76.750000000000028
 31
0.0
  0
LINE
  5
DE
  8
DATA
  6
CONTINUOUS
 62
     7
 10
52.575000000000031
 20
73.050000000000026
 30
0.0
 11
52.575000000000031
 21
76.750000000000028
 31
0.0
  0
LINE
  5
DF
  8
DATA
  6
CONTINUOUS
 62
     7
 10
53.27500000000002
 20
76.750000000000028
 30
0.0
 11
53.27500000000002
 21
73.050000000000026
 31
0.0
  0
LINE
  5
E0
  8
DATA
  6
CONTINUOUS
 62
     7
 10
52.575000000000031
 20
76.750000000000028
 30
0.0
 11
53.27500000000002
 21
76.750000000000028
 31
0.0
  0
LINE
  5
E1
  8
DATA
  6
CONTINUOUS
 62
     7
 10
53.975000000000001
 20
73.050000000000026
 30
0.0
 11
53.975000000000001
 21
76.750000000000028
 31
0.0
  0
LINE
  5
E2
  8
DATA
  6
CONTINUOUS
 62
     7
 10
54.67500000000004
 20
76.750000000000028
 30
0.0
 11
54.67500000000004
 21
73.050000000000026
 31
0.0
  0
LINE
  5
E3
  8
DATA
  6
CONTINUOUS
 62
     7
 10
53.975000000000001
 20
76.750000000000028
 30
0.0
 11
54.67500000000004
 21
76.750000000000028
 31
0.0
  0
LINE
  5
E4
  8
DATA
  6
CONTINUOUS
 62
     7
 10
55.374999999999993
 20
73.050000000000026
 30
0.0
 11
55.374999999999993
 21
76.750000000000028
 31
0.0
  0
LINE
  5
E5
  8
DATA
  6
CONTINUOUS
 62
     7
 10
56.075000000000031
 20
76.750000000000028
 30
0.0
 11
56.075000000000031
 21
73.050000000000026
 31
0.0
  0
LINE
  5
E6
  8
DATA
  6
CONTINUOUS
 62
     7
 10
55.374999999999993
 20
76.750000000000028
 30
0.0
 11
56.075000000000031
 21
76.750000000000028
 31
0.0
  0
LINE
  5
E7
  8
DATA
  6
CONTINUOUS
 62
     7
 10
56.775000000000013
 20
73.050000000000026
 30
0.0
 11
56.775000000000013
 21
76.750000000000028
 31
0.0
  0
LINE
  5
E8
  8
DATA
  6
CONTINUOUS
 62
     7
 10
57.475000000000009
 20
76.750000000000028
 30
0.0
 11
57.475000000000009
 21
73.050000000000026
 31
0.0
  0
LINE
  5
E9
  8
DATA
  6
CONTINUOUS
 62
     7
 10
56.775000000000013
 20
76.750000000000028
 30
0.0
 11
57.475000000000009
 21
76.750000000000028
 31
0.0
  0
LINE
  5
EA
  8
DATA
  6
CONTINUOUS
 62
     7
 10
58.175000000000047
 20
73.050000000000026
 30
0.0
 11
58.175000000000047
 21
76.750000000000028
 31
0.0
  0
LINE
  5
EB
  8
DATA
  6
CONTINUOUS
 62
     7
 10
58.874999999999993
 20
76.750000000000028
 30
0.0
 11
58.874999999999993
 21
73.050000000000026
 31
0.0
  0
LINE
  5
EC
  8
DATA
  6
CONTINUOUS
 62
     7
 10
58.175000000000047
 20
76.750000000000028
 30
0.0
 11
58.874999999999993
 21
76.750000000000028
 31
0.0
  0
LINE
  5
ED
  8
DATA
  6
CONTINUOUS
 62
     7
 10
42.075000000000031
 20
73.050000000000026
 30
0.0
 11
42.77500000000002
 21
73.050000000000026
 31
0.0
  0
LINE
  5
EE
  8
DATA
  6
CONTINUOUS
 62
     7
 10
43.475000000000009
 20
73.050000000000026
 30
0.0
 11
44.17500000000004
 21
73.050000000000026
 31
0.0
  0
LINE
  5
EF
  8
DATA
  6
CONTINUOUS
 62
     7
 10
44.874999999999993
 20
73.050000000000026
 30
0.0
 11
45.575000000000031
 21
73.050000000000026
 31
0.0
  0
LINE
  5
F0
  8
DATA
  6
CONTINUOUS
 62
     7
 10
46.27500000000002
 20
73.050000000000026
 30
0.0
 11
46.975000000000001
 21
73.050000000000026
 31
0.0
  0
LINE
  5
F1
  8
DATA
  6
CONTINUOUS
 62
     7
 10
47.67500000000004
 20
73.050000000000026
 30
0.0
 11
48.374999999999993
 21
73.050000000000026
 31
0.0
  0
LINE
  5
F2
  8
DATA
  6
CONTINUOUS
 62
     7
 10
49.075000000000031
 20
73.050000000000026
 30
0.0
 11
49.77500000000002
 21
73.050000000000026
 31
0.0
  0
LINE
  5
F3
  8
DATA
  6
CONTINUOUS
 62
     7
 10
50.475000000000009
 20
73.050000000000026
 30
0.0
 11
51.175000000000047
 21
73.050000000000026
 31
0.0
  0
LINE
  5
F4
  8
DATA
  6
CONTINUOUS
 62
     7
 10
51.875
 20
73.050000000000026
 30
0.0
 11
52.575000000000031
 21
73.050000000000026
 31
0.0
  0
LINE
  5
F5
  8
DATA
  6
CONTINUOUS
 62
     7
 10
53.27500000000002
 20
73.050000000000026
 30
0.0
 11
53.975000000000001
 21
73.050000000000026
 31
0.0
  0
LINE
  5
F6
  8
DATA
  6
CONTINUOUS
 62
     7
 10
54.67500000000004
 20
73.050000000000026
 30
0.0
 11
55.374999999999993
 21
73.050000000000026
 31
0.0
  0
LINE
  5
F7
  8
DATA
  6
CONTINUOUS
 62
     7
 10
56.075000000000031
 20
73.050000000000026
 30
0.0
 11
56.775000000000013
 21
73.050000000000026
 31
0.0
  0
LINE
  5
F8
  8
DATA
  6
CONTINUOUS
 62
     7
 10
57.475000000000009
 20
73.050000000000026
 30
0.0
 11
58.175000000000047
 21
73.050000000000026
 31
0.0
  0
LINE
  5
F9
  8
DATA
  6
CONTINUOUS
 62
     7
 10
58.874999999999993
 20
73.050000000000026
 30
0.0
 11
59.624999999999993
 21
73.050000000000026
 31
0.0
  0
LINE
  5
FA
  8
DATA
  6
CONTINUOUS
 62
     7
 10
40.624999999999993
 20
59.750000000000021
 30
0.0
 11
59.624999999999993
 21
59.750000000000021
 31
0.0
  0
LINE
  5
FB
  8
DATA
  6
CONTINUOUS
 62
     7
 10
40.624999999999993
 20
60.050000000000011
 30
0.0
 11
59.624999999999993
 21
60.050000000000011
 31
0.0
  0
LINE
  5
FC
  8
DATA
  6
CONTINUOUS
 62
     7
 10
41.374999999999993
 20
73.050000000000026
 30
0.0
 11
40.624999999999993
 21
73.050000000000026
 31
0.0
  0
CIRCLE
  5
FD
  8
DATA
  6
CONTINUOUS
 62
     7
 10
50.125000000192003
 20
163.75
 30
0.0
 40
3.8000000000000682
  0
ARC
  5
FE
  8
DATA
  6
CONTINUOUS
 62
     7
 10
50.125000000192003
 20
163.75
 30
0.0
 40
9.499999999999984
 50
90.00000000000756
 51
109.9999999999998
  0
ARC
  5
FF
  8
DATA
  6
CONTINUOUS
 62
     7
 10
50.125000000192003
 20
163.75
 30
0.0
 40
9.4999999999999716
 50
129.99999999999969
 51
149.99999999999969
  0
ARC
  5
100
  8
DATA
  6
CONTINUOUS
 62
     7
 10
50.125000000192003
 20
163.75
 30
0.0
 40
9.4999999999999805
 50
169.9999999999998
 51
189.99999999999949
  0
ARC
  5
101
  8
DATA
  6
CONTINUOUS
 62
     7
 10
50.125000000192003
 20
163.75
 30
0.0
 40
9.4999999999999591
 50
209.99999999999969
 51
229.9999999999996
  0
ARC
  5
102
  8
DATA
  6
CONTINUOUS
 62
     7
 10
50.125000000192003
 20
163.75
 30
0.0
 40
9.4999999999999964
 50
249.9999999999998
 51
270.0000000000079
  0
ARC
  5
103
  8
DATA
  6
CONTINUOUS
 62
     7
 10
50.125000000192003
 20
163.75
 30
0.0
 40
9.5000000000000338
 50
289.99999999999972
 51
309.99999999999977
  0
ARC
  5
104
  8
DATA
  6
CONTINUOUS
 62
     7
 10
50.125000000192003
 20
163.75
 30
0.0
 40
9.5000000000000195
 50
329.99999999999972
 51
349.99999999999977
  0
ARC
  5
105
  8
DATA
  6
CONTINUOUS
 62
     7
 10
50.125000000192003
 20
163.75
 30
0.0
 40
9.5000000000000249
 50
9.9999999999998117
 51
29.99999999999978
  0
ARC
  5
106
  8
DATA
  6
CONTINUOUS
 62
     7
 10
50.125000000192003
 20
163.75
 30
0.0
 40
9.5000000000000195
 50
49.99999999999968
 51
69.999999999999801
  0
CIRCLE
  5
107
  8
DATA
  6
CONTINUOUS
 62
     7
 10
50.125000000192003
 20
163.75
 30
0.0
 40
1.0
  0
ARC
  5
108
  8
DATA
  6
CONTINUOUS
 62
     7
 10
50.12500000019206
 20
163.75
 30
0.0
 40
9.2499999999999591
 50
70.007125127732166
 51
90.007125127722773
  0
ARC
  5
109
  8
DATA
  6
CONTINUOUS
 62
     7
 10
50.12500000019206
 20
163.75
 30
0.0
 40
9.2499999999999805
 50
110.0071251277321
 51
130.007125127732
  0
ARC
  5
10A
  8
DATA
  6
CONTINUOUS
 62
     7
 10
50.12500000019206
 20
163.75
 30
0.0
 40
9.2500000000000036
 50
150.00712512773191
 51
170.0071251277318
  0
ARC
  5
10B
  8
DATA
  6
CONTINUOUS
 62
     7
 10
50.12500000019206
 20
163.75
 30
0.0
 40
9.2499999999999822
 50
190.00712512773151
 51
210.00712512773151
  0
ARC
  5
10C
  8
DATA
  6
CONTINUOUS
 62
     7
 10
50.12500000019206
 20
163.75
 30
0.0
 40
9.2499999999999822
 50
230.00712512773131
 51
250.0071251277314
  0
ARC
  5
10D
  8
DATA
  6
CONTINUOUS
 62
     7
 10
50.12500000019206
 20
163.75
 30
0.0
 40
9.249999999999968
 50
270.00712512772282
 51
290.0071251277314
  0
ARC
  5
10E
  8
DATA
  6
CONTINUOUS
 62
     7
 10
50.12500000019206
 20
163.75
 30
0.0
 40
9.2499999999999716
 50
310.00712512773151
 51
330.0071251277314
  0
ARC
  5
10F
  8
DATA
  6
CONTINUOUS
 62
     7
 10
50.12500000019206
 20
163.75
 30
0.0
 40
9.2499999999999822
 50
350.00712512773168
 51
10.007125981505
  0
ARC
  5
110
  8
DATA
  6
CONTINUOUS
 62
     7
 10
50.12500000019206
 20
163.75
 30
0.0
 40
9.2499999999999876
 50
30.007125127731719
 51
50.007125127732067
  0
LINE
  5
111
  8
DATA
  6
CONTINUOUS
 62
     7
 10
50.098772712966692
 20
167.54990948963319
 30
0.0
 11
50.125000000192003
 21
173.25
 31
0.0
  0
LINE
  5
112
  8
DATA
  6
CONTINUOUS
 62
     7
 10
51.400000000192037
 20
167.32971716759849
 30
0.0
 11
53.374191361785883
 21
172.67707989746609
 31
0.0
  0
LINE
  5
113
  8
DATA
  6
CONTINUOUS
 62
     7
 10
52.547443470421499
 20
166.67775812415269
 30
0.0
 11
56.231482292214132
 21
171.0274222096302
 31
0.0
  0
LINE
  5
114
  8
DATA
  6
CONTINUOUS
 62
     7
 10
53.402704506683321
 20
165.6726682418261
 30
0.0
 11
58.352241336144147
 21
168.5
 31
0.0
  0
LINE
  5
115
  8
DATA
  6
CONTINUOUS
 62
     7
 10
53.862626005695667
 20
164.4356761939741
 30
0.0
 11
59.480673653807962
 21
165.3996576878358
 31
0.0
  0
LINE
  5
116
  8
DATA
  6
CONTINUOUS
 62
     7
 10
53.871734646959332
 20
163.11598147762589
 30
0.0
 11
59.480673653807962
 21
162.10034231216409
 31
0.0
  0
LINE
  5
117
  8
DATA
  6
CONTINUOUS
 62
     7
 10
53.428931793908689
 20
161.87275875219291
 30
0.0
 11
58.352241336144097
 21
159.0
 31
0.0
  0
LINE
  5
118
  8
DATA
  6
CONTINUOUS
 62
     7
 10
52.587626005695697
 20
160.8559590263755
 30
0.0
 11
56.231482292214061
 21
156.47257779036971
 31
0.0
  0
LINE
  5
119
  8
DATA
  6
CONTINUOUS
 62
     7
 10
51.449291176729879
 20
160.18822335347309
 30
0.0
 11
53.374191361785833
 21
154.82292010253391
 31
0.0
  0
LINE
  5
11A
  8
DATA
  6
CONTINUOUS
 62
     7
 10
50.151227287417441
 20
159.95009051036669
 30
0.0
 11
50.125000000192003
 21
154.25
 31
0.0
  0
LINE
  5
11B
  8
DATA
  6
CONTINUOUS
 62
     7
 10
48.850000000192033
 20
160.1702828324014
 30
0.0
 11
46.875808638598109
 21
154.82292010253391
 31
0.0
  0
LINE
  5
11C
  8
DATA
  6
CONTINUOUS
 62
     7
 10
47.70255652996255
 20
160.8222418758472
 30
0.0
 11
44.018517708169831
 21
156.4725777903698
 31
0.0
  0
LINE
  5
11D
  8
DATA
  6
CONTINUOUS
 62
     7
 10
46.847295493700798
 20
161.82733175817381
 30
0.0
 11
41.897758664239852
 21
159.0
 31
0.0
  0
LINE
  5
11E
  8
DATA
  6
CONTINUOUS
 62
     7
 10
46.387373994688389
 20
163.0643238060259
 30
0.0
 11
40.769326346576001
 21
162.1003423121642
 31
0.0
  0
LINE
  5
11F
  8
DATA
  6
CONTINUOUS
 62
     7
 10
46.37826535342473
 20
164.38401852237399
 30
0.0
 11
40.769326346576037
 21
165.39965768783591
 31
0.0
  0
LINE
  5
120
  8
DATA
  6
CONTINUOUS
 62
     7
 10
46.821068206475381
 20
165.62724124780709
 30
0.0
 11
41.897758664239852
 21
168.5
 31
0.0
  0
LINE
  5
121
  8
DATA
  6
CONTINUOUS
 62
     7
 10
47.662373994688423
 20
166.64404097362441
 30
0.0
 11
44.018517708169931
 21
171.02742220963029
 31
0.0
  0
LINE
  5
122
  8
DATA
  6
CONTINUOUS
 62
     7
 10
48.800708823654183
 20
167.31177664652679
 30
0.0
 11
46.875808638598173
 21
172.67707989746609
 31
0.0
  0
ENDSEC
  0
EOF
