  0
SECTION
  2
HEADER
  9
$ACADVER
  1
AC1009
  9
$INSBASE
 10
0.0
 20
0.0
 30
0.0
  9
$EXTMIN
 10
-80.010985489947416
 20
-131.67677505465531
 30
-0.0015258207003583
  9
$EXTMAX
 10
280.01098716632811
 20
403.54994963264153
 30
0.0000000349246037
  9
$LIMMIN
 10
0.0
 20
0.0
  9
$LIMMAX
 10
0.0
 20
0.0
  9
$ORTHOMODE
 70
     0
  9
$REGENMODE
 70
     1
  9
$FILLMODE
 70
     1
  9
$QTEXTMODE
 70
     0
  9
$MIRRTEXT
 70
     1
  9
$DRAGMODE
 70
     2
  9
$LTSCALE
 40
10.16
  9
$OSMODE
 70
   231
  9
$ATTMODE
 70
     1
  9
$TEXTSIZE
 40
0.0
  9
$TRACEWID
 40
1.0
  9
$TEXTSTYLE
  7
STANDARD
  9
$CLAYER
  8
DATA
  9
$CELTYPE
  6
BYLAYER
  9
$CECOLOR
 62
   256
  9
$DIMSCALE
 40
1.0
  9
$DIMASZ
 40
0.18
  9
$DIMEXO
 40
0.0625
  9
$DIMDLI
 40
0.38
  9
$DIMRND
 40
0.0
  9
$DIMDLE
 40
0.0
  9
$DIMEXE
 40
0.18
  9
$DIMTP
 40
0.0
  9
$DIMTM
 40
0.0
  9
$DIMTXT
 40
0.18
  9
$DIMCEN
 40
0.09
  9
$DIMTSZ
 40
0.0
  9
$DIMTOL
 70
     0
  9
$DIMLIM
 70
     0
  9
$DIMTIH
 70
     1
  9
$DIMTOH
 70
     1
  9
$DIMSE1
 70
     0
  9
$DIMSE2
 70
     0
  9
$DIMTAD
 70
     0
  9
$DIMZIN
 70
     0
  9
$DIMBLK
  1

  9
$DIMASO
 70
     1
  9
$DIMSHO
 70
     1
  9
$DIMPOST
  1

  9
$DIMAPOST
  1

  9
$DIMALT
 70
     0
  9
$DIMALTD
 70
     2
  9
$DIMALTF
 40
25.399999999999999
  9
$DIMLFAC
 40
1.0
  9
$DIMTOFL
 70
     0
  9
$DIMTVP
 40
0.0
  9
$DIMTIX
 70
     0
  9
$DIMSOXD
 70
     0
  9
$DIMSAH
 70
     0
  9
$DIMBLK1
  1

  9
$DIMBLK2
  1

  9
$DIMSTYLE
  2
STANDARD
  9
$DIMCLRD
 70
     0
  9
$DIMCLRE
 70
     0
  9
$DIMCLRT
 70
     0
  9
$DIMTFAC
 40
1.0
  9
$DIMGAP
 40
0.09
  9
$LUNITS
 70
     2
  9
$LUPREC
 70
     4
  9
$SKETCHINC
 40
0.1
  9
$FILLETRAD
 40
0.0
  9
$AUNITS
 70
     0
  9
$AUPREC
 70
     0
  9
$MENU
  1
acad
  9
$ELEVATION
 40
0.0
  9
$PELEVATION
 40
0.0
  9
$THICKNESS
 40
0.0
  9
$LIMCHECK
 70
     0
  9
$BLIPMODE
 70
     0
  9
$CHAMFERA
 40
0.0
  9
$CHAMFERB
 40
0.0
  9
$SKPOLY
 70
     0
  9
$TDCREATE
 40
2455715.4064583331
  9
$TDUPDATE
 40
2455715.4096088079
  9
$TDINDWG
 40
0.0003123148
  9
$TDUSRTIMER
 40
0.0003123148
  9
$USRTIMER
 70
     1
  9
$ANGBASE
 50
0.0
  9
$ANGDIR
 70
     0
  9
$PDMODE
 70
     1
  9
$PDSIZE
 40
-2.0
  9
$PLINEWID
 40
0.0
  9
$COORDS
 70
     1
  9
$SPLFRAME
 70
     0
  9
$SPLINETYPE
 70
     6
  9
$SPLINESEGS
 70
     8
  9
$ATTDIA
 70
     0
  9
$ATTREQ
 70
     1
  9
$HANDLING
 70
     1
  9
$HANDSEED
  5
24F
  9
$SURFTAB1
 70
     6
  9
$SURFTAB2
 70
     6
  9
$SURFTYPE
 70
     6
  9
$SURFU
 70
     6
  9
$SURFV
 70
     6
  9
$UCSNAME
  2

  9
$UCSORG
 10
0.0
 20
0.0
 30
0.0
  9
$UCSXDIR
 10
1.0
 20
0.0
 30
0.0
  9
$UCSYDIR
 10
0.0
 20
1.0
 30
0.0
  9
$PUCSNAME
  2

  9
$PUCSORG
 10
0.0
 20
0.0
 30
0.0
  9
$PUCSXDIR
 10
1.0
 20
0.0
 30
0.0
  9
$PUCSYDIR
 10
0.0
 20
1.0
 30
0.0
  9
$USERI1
 70
     0
  9
$USERI2
 70
     0
  9
$USERI3
 70
     0
  9
$USERI4
 70
     0
  9
$USERI5
 70
     0
  9
$USERR1
 40
0.0
  9
$USERR2
 40
0.0
  9
$USERR3
 40
0.0
  9
$USERR4
 40
0.0
  9
$USERR5
 40
0.0
  9
$WORLDVIEW
 70
     1
  9
$SHADEDGE
 70
     3
  9
$SHADEDIF
 70
    70
  9
$TILEMODE
 70
     1
  9
$MAXACTVP
 70
    64
  9
$PLIMCHECK
 70
     0
  9
$PEXTMIN
 10
1.0000000000000000E+020
 20
1.0000000000000000E+020
 30
1.0000000000000000E+020
  9
$PEXTMAX
 10
-1.0000000000000000E+020
 20
-1.0000000000000000E+020
 30
-1.0000000000000000E+020
  9
$PLIMMIN
 10
0.0
 20
0.0
  9
$PLIMMAX
 10
12.0
 20
9.0
  9
$UNITMODE
 70
     0
  9
$VISRETAIN
 70
     0
  9
$PLINEGEN
 70
     1
  9
$PSLTSCALE
 70
     0
  0
ENDSEC
  0
SECTION
  2
TABLES
  0
TABLE
  2
VPORT
 70
     1
  0
VPORT
  2
*ACTIVE
 70
     0
 10
0.0
 20
0.0
 11
1.0
 21
1.0
 12
100.0000008381904
 22
135.93658728899311
 13
0.0
 23
0.0
 14
1.0
 24
1.0
 15
0.0
 25
0.0
 16
0.0
 26
0.0
 36
1.0
 17
0.0
 27
0.0
 37
0.0
 40
539.16704413284754
 41
1.9619164619164611
 42
50.0
 43
0.0
 44
0.0
 50
0.0
 51
0.0
 71
     0
 72
  2000
 73
     1
 74
     1
 75
     0
 76
     0
 77
     0
 78
     0
  0
ENDTAB
  0
TABLE
  2
LTYPE
 70
    11
  0
LTYPE
  2
CONTINUOUS
 70
     0
  3
Solid line
 72
    65
 73
     0
 40
0.0
  0
LTYPE
  2
STYLE_01
 70
     0
  3

 72
    65
 73
     2
 40
0.4166412353515625
 49
0.208282470703125
 49
-0.2083587646484375
  0
ENDTAB
  0
TABLE
  2
LAYER
 70
     6
  0
LAYER
  2
0
 70
     0
 62
     7
  6
CONTINUOUS
  0
LAYER
  2
DATA
 70
     0
 62
     7
  6
CONTINUOUS
  0
LAYER
  2
HIBINO-BASE
 70
     0
 62
     7
  6
CONTINUOUS
  0
LAYER
  2
SPEC
 70
     0
 62
     7
  6
CONTINUOUS
  0
LAYER
  2
DIMNSIONS
 70
     0
 62
     7
  6
CONTINUOUS
  0
ENDTAB
  0
TABLE
  2
STYLE
 70
     3
  0
STYLE
  2
STANDARD
 70
     0
 40
0.0
 41
1.0
 50
0.0
 71
     0
 42
0.0
  3
txt
  4
BIGFONT.SHX
  0
ENDTAB
  0
TABLE
  2
VIEW
 70
     0
  0
ENDTAB
  0
TABLE
  2
UCS
 70
     0
  0
ENDTAB
  0
TABLE
  2
APPID
 70
     4
  0
APPID
  2
ACAD
 70
     0
  0
APPID
  2
ACADANNOTATIVE
 70
     0
  0
APPID
  2
ACAD_NAV_VCDISPLAY
 70
     0
  0
APPID
  2
ACAD_MLEADERVER
 70
     0
  0
ENDTAB
  0
TABLE
  2
DIMSTYLE
 70
     2
  0
DIMSTYLE
  2
STANDARD
 70
     0
  3

  4

  5

  6

  7

 40
1.0
 41
0.18
 42
0.0625
 43
0.38
 44
0.18
 45
0.0
 46
0.0
 47
0.0
 48
0.0
140
0.18
141
0.09
142
0.0
143
25.399999999999999
144
1.0
145
0.0
146
1.0
147
0.09
 71
     0
 72
     0
 73
     1
 74
     1
 75
     0
 76
     0
 77
     0
 78
     0
170
     0
171
     2
172
     0
173
     0
174
     0
175
     0
176
     0
177
     0
178
     0
  0
ENDTAB
  0
ENDSEC
  0
SECTION
  2
BLOCKS
  0
BLOCK
  8
0
  2
$MODEL_SPACE
 70
     0
 10
0.0
 20
0.0
 30
0.0
  3
$MODEL_SPACE
  1

  0
ENDBLK
  5
1E3
  8
0
  0
BLOCK
 67
     1
  8
0
  2
$PAPER_SPACE
 70
     0
 10
0.0
 20
0.0
 30
0.0
  3
$PAPER_SPACE
  1

  0
ENDBLK
  5
1DF
 67
     1
  8
0
  0
ENDSEC
  0
SECTION
  2
ENTITIES
  0
LINE
  5
2D
  8
HIBINO-BASE
  6
CONTINUOUS
 62
     7
 10
-79.999999999999986
 20
403.53364789486591
 30
0.0
 11
279.99999999999989
 21
403.53364789486591
 31
0.0
  0
LINE
  5
2E
  8
HIBINO-BASE
  6
CONTINUOUS
 62
     7
 10
279.99999999999989
 20
-116.46635210513411
 30
0.0
 11
-79.999999999999986
 21
-116.46635210513411
 31
0.0
  0
LINE
  5
2F
  8
HIBINO-BASE
  6
CONTINUOUS
 62
     7
 10
-79.999999999999986
 20
-116.46635210513411
 30
0.0
 11
-79.999999999999986
 21
403.53364789486591
 31
0.0
  0
LINE
  5
30
  8
HIBINO-BASE
  6
CONTINUOUS
 62
     7
 10
279.99999999999989
 20
403.53364789486591
 30
0.0
 11
279.99999999999989
 21
-116.46635210513411
 31
0.0
  0
LINE
  5
31
  8
HIBINO-BASE
  6
CONTINUOUS
 62
     7
 10
100.0
 20
-71.466352105134064
 30
0.0
 11
279.99999999999989
 21
-71.466352105134064
 31
0.0
  0
LINE
  5
32
  8
HIBINO-BASE
  6
CONTINUOUS
 62
     7
 10
100.0
 20
-116.46635210513411
 30
0.0
 11
100.0
 21
-71.466352105134064
 31
0.0
  0
TEXT
  5
33
  8
HIBINO-BASE
 62
     7
 10
101.8
 20
-76.483738771800731
 30
0.0
 40
3.2576822916666659
  1
NOTE
 41
0.7
 11
101.8
 21
-73.226056480134062
 31
0.0
 73
     3
  0
LINE
  5
34
  8
HIBINO-BASE
  6
CONTINUOUS
 62
     7
 10
170.0
 20
-116.46635210513411
 30
0.0
 11
170.0
 21
-71.466352105134064
 31
0.0
  0
TEXT
  5
35
  8
HIBINO-BASE
 62
     7
 10
171.7999999999999
 20
-76.483738771800731
 30
0.0
 40
3.2576822916666659
  1
TITLE
 41
0.7
 11
171.7999999999999
 21
-73.226056480134062
 31
0.0
 73
     3
  0
LINE
  5
36
  8
HIBINO-BASE
  6
CONTINUOUS
 62
     7
 10
100.0
 20
-96.466352105134064
 30
0.0
 11
279.99999999999989
 21
-96.466352105134064
 31
0.0
  0
TEXT
  5
37
  8
HIBINO-BASE
 62
     7
 10
196.80000000000001
 20
-101.3710987718007
 30
0.0
 40
3.2576822916666659
  1
DRAWN
 41
0.7
 11
196.80000000000001
 21
-98.113416480134106
 31
0.0
 73
     3
  0
TEXT
  5
38
  8
HIBINO-BASE
 62
     7
 10
146.7999999999999
 20
-101.3710987718007
 30
0.0
 40
3.2576822916666659
  1
DATE
 41
0.7
 11
146.7999999999999
 21
-98.113416480134106
 31
0.0
 73
     3
  0
TEXT
  5
39
  8
HIBINO-BASE
 62
     7
 10
126.8
 20
-101.3710987718007
 30
0.0
 40
3.2576822916666659
  1
SCALE
 41
0.7
 11
126.8
 21
-98.113416480134106
 31
0.0
 73
     3
  0
TEXT
  5
3A
  8
HIBINO-BASE
 62
     7
 10
171.7999999999999
 20
-101.3710987718007
 30
0.0
 40
3.2576822916666659
  1
DESIGN
 41
0.7
 11
171.7999999999999
 21
-98.113416480134106
 31
0.0
 73
     3
  0
TEXT
  5
3B
  8
HIBINO-BASE
 62
     7
 10
246.7999999999999
 20
-101.3710987718007
 30
0.0
 40
3.2576822916666659
  1
DRAWING NO.
 41
0.7
 11
246.7999999999999
 21
-98.113416480134106
 31
0.0
 73
     3
  0
TEXT
  5
3C
  8
HIBINO-BASE
 62
     7
 10
221.7999999999999
 20
-101.3710987718007
 30
0.0
 40
3.2576822916666659
  1
CHECK
 41
0.7
 11
221.7999999999999
 21
-98.113416480134106
 31
0.0
 73
     3
  0
LINE
  5
3D
  8
HIBINO-BASE
  6
CONTINUOUS
 62
     7
 10
128.74999999999989
 20
-113.96635210513411
 30
0.0
 11
136.25
 21
-106.46635210513401
 31
0.0
  0
TEXT
  5
3E
  8
HIBINO-BASE
 62
     7
 10
127.5
 20
-108.68423877180069
 30
0.0
 40
3.2576822916666659
  1
1
 41
0.7
 11
127.5
 21
-105.4265564801341
 31
0.0
 73
     3
  0
LINE
  5
3F
  8
HIBINO-BASE
  6
CONTINUOUS
 62
     7
 10
125.0
 20
-116.46635210513411
 30
0.0
 11
125.0
 21
-96.466352105134064
 31
0.0
  0
LINE
  5
40
  8
HIBINO-BASE
  6
CONTINUOUS
 62
     7
 10
145.0
 20
-116.46635210513411
 30
0.0
 11
145.0
 21
-96.466352105134064
 31
0.0
  0
LINE
  5
41
  8
HIBINO-BASE
  6
CONTINUOUS
 62
     7
 10
195.0
 20
-96.466352105134064
 30
0.0
 11
195.0
 21
-116.46635210513411
 31
0.0
  0
LINE
  5
42
  8
HIBINO-BASE
  6
CONTINUOUS
 62
     7
 10
245.0
 20
-96.466352105134064
 30
0.0
 11
245.0
 21
-116.46635210513411
 31
0.0
  0
LINE
  5
43
  8
HIBINO-BASE
  6
CONTINUOUS
 62
     7
 10
220.0
 20
-116.46635210513411
 30
0.0
 11
220.0
 21
-96.466352105134064
 31
0.0
  0
TEXT
  5
44
  8
HIBINO-BASE
 62
     7
 10
146.71307999999999
 20
-110.7390587718007
 30
0.0
 40
3.2576822916666659
  1
'11.05.
 41
0.7
 11
146.71307999999999
 21
-107.4813764801341
 31
0.0
 73
     3
  0
TEXT
  5
45
  8
HIBINO-BASE
 62
     7
 10
135.0
 20
-112.43423877180069
 30
0.0
 40
3.2576822916666659
  1
2
 41
0.7
 11
135.0
 21
-109.1765564801341
 31
0.0
 73
     3
  0
TEXT
  5
46
  8
HIBINO-BASE
 62
     7
 10
198.0116200220692
 20
-110.7390587718007
 30
0.0
 40
3.2576822916666659
  1
T.Ootake
 41
0.7
 11
198.0116200220692
 21
-107.4813764801341
 31
0.0
 73
     3
  0
TEXT
  5
47
  8
HIBINO-BASE
 62
     7
 10
107.76666666666659
 20
-112.51435210513399
 30
0.0
 40
6.5153645833333318
  1
A4
 41
0.7
 11
107.76666666666659
 21
-105.9989875218007
 31
0.0
 73
     3
  0
TEXT
  5
48
  8
HIBINO-BASE
 62
     7
 10
101.9166666666666
 20
-101.7052621051341
 30
0.0
 40
3.2576822916666659
  1
PAPER SIZE
 41
0.7
 11
101.9166666666666
 21
-98.447579813467414
 31
0.0
 73
     3
  0
TEXT
  5
49
  8
HIBINO-BASE
 62
     7
 10
-74.48072948621963
 20
-129.31683257348661
 30
0.0
 40
7.0583116319444441
  1
Hibino-Intersound Corporation
 41
0.7
 11
-74.48072948621963
 21
-122.2585209415421
 31
0.0
 73
     3
  0
TEXT
  5
4A
  8
HIBINO-BASE
 62
     7
 10
140.36121936042781
 20
-128.61465606690771
 30
0.0
 40
7.0583116319444441
  1
ヒビノインターサウンド株式会社
 41
0.7
 11
140.36121936042781
 21
-121.55634443496329
 31
0.0
 73
     3
  0
LINE
  5
4B
  8
SPEC
  6
CONTINUOUS
 62
     7
 10
-64.999999999999986
 20
383.53364789486602
 30
0.0
 11
230.0
 21
383.53364789486602
 31
0.0
  0
LINE
  5
4C
  8
SPEC
  6
CONTINUOUS
 62
     7
 10
-64.999999999999986
 20
376.03364789486591
 30
0.0
 11
230.0
 21
376.03364789486591
 31
0.0
  0
LINE
  5
4D
  8
SPEC
  6
CONTINUOUS
 62
     7
 10
-64.999999999999986
 20
361.03364789486602
 30
0.0
 11
230.0
 21
361.03364789486602
 31
0.0
  0
LINE
  5
4E
  8
SPEC
  6
CONTINUOUS
 62
     7
 10
-64.999999999999986
 20
368.53364789486602
 30
0.0
 11
230.0
 21
368.53364789486602
 31
0.0
  0
LINE
  5
4F
  8
SPEC
  6
CONTINUOUS
 62
     7
 10
-64.999999999999986
 20
383.53364789486602
 30
0.0
 11
-64.999999999999986
 21
256.03364789486591
 31
0.0
  0
TEXT
  5
50
  8
SPEC
 62
     7
 10
-62.5
 20
386.32018789486591
 30
0.0
 40
4.8865234375000002
  1
仕様
 41
0.7
 11
-62.5
 21
391.2067113323659
 31
0.0
 73
     3
  0
LINE
  5
51
  8
SPEC
  6
CONTINUOUS
 62
     7
 10
30.0
 20
383.53364789486602
 30
0.0
 11
29.999999999999972
 21
256.03364789486591
 31
0.0
  0
LINE
  5
52
  8
SPEC
  6
CONTINUOUS
 62
     7
 10
230.0
 20
383.53364789486602
 30
0.0
 11
230.0
 21
256.03364789486591
 31
0.0
  0
LINE
  5
53
  8
SPEC
  6
CONTINUOUS
 62
     7
 10
-64.999999999999986
 20
353.53364789486602
 30
0.0
 11
230.0
 21
353.53364789486602
 31
0.0
  0
LINE
  5
54
  8
SPEC
  6
CONTINUOUS
 62
     7
 10
-64.999999999999986
 20
346.03364789486602
 30
0.0
 11
230.0
 21
346.03364789486602
 31
0.0
  0
LINE
  5
55
  8
SPEC
  6
CONTINUOUS
 62
     7
 10
-64.999999999999986
 20
338.53364789486591
 30
0.0
 11
230.0
 21
338.53364789486591
 31
0.0
  0
LINE
  5
56
  8
SPEC
  6
CONTINUOUS
 62
     7
 10
-64.999999999999986
 20
331.03364789486602
 30
0.0
 11
230.0
 21
331.03364789486602
 31
0.0
  0
LINE
  5
57
  8
SPEC
  6
CONTINUOUS
 62
     7
 10
-64.999999999999986
 20
323.53364789486602
 30
0.0
 11
230.0
 21
323.53364789486602
 31
0.0
  0
LINE
  5
58
  8
SPEC
  6
CONTINUOUS
 62
     7
 10
-64.999999999999986
 20
316.03364789486602
 30
0.0
 11
230.0
 21
316.03364789486602
 31
0.0
  0
LINE
  5
59
  8
SPEC
  6
CONTINUOUS
 62
     7
 10
-64.999999999999986
 20
308.53364789486602
 30
0.0
 11
230.0
 21
308.53364789486602
 31
0.0
  0
LINE
  5
5A
  8
SPEC
  6
CONTINUOUS
 62
     7
 10
-64.999999999999986
 20
301.03364789486591
 30
0.0
 11
230.0
 21
301.03364789486591
 31
0.0
  0
LINE
  5
5B
  8
SPEC
  6
CONTINUOUS
 62
     7
 10
-64.999999999999986
 20
293.53364789486602
 30
0.0
 11
230.0
 21
293.53364789486602
 31
0.0
  0
LINE
  5
5C
  8
SPEC
  6
CONTINUOUS
 62
     7
 10
-64.999999999999986
 20
286.03364789486602
 30
0.0
 11
230.0
 21
286.03364789486602
 31
0.0
  0
LINE
  5
5D
  8
SPEC
  6
CONTINUOUS
 62
     7
 10
-64.999999999999986
 20
278.53364789486591
 30
0.0
 11
230.0
 21
278.53364789486591
 31
0.0
  0
LINE
  5
5E
  8
SPEC
  6
CONTINUOUS
 62
     7
 10
-64.999999999999986
 20
271.03364789486591
 30
0.0
 11
230.0
 21
271.03364789486591
 31
0.0
  0
LINE
  5
5F
  8
SPEC
  6
CONTINUOUS
 62
     7
 10
-64.999999999999986
 20
263.53364789486591
 30
0.0
 11
230.0
 21
263.53364789486591
 31
0.0
  0
LINE
  5
60
  8
SPEC
  6
CONTINUOUS
 62
     7
 10
-64.999999999999986
 20
256.03364789486591
 30
0.0
 11
230.0
 21
256.03364789486591
 31
0.0
  0
LINE
  5
61
  8
SPEC
  6
CONTINUOUS
 62
     7
 10
-64.999999999999986
 20
256.03364789486591
 30
0.0
 11
230.0
 21
256.03364789486591
 31
0.0
  0
TEXT
  5
62
  8
SPEC
 62
     7
 10
-63.275396162892783
 20
377.88253273001698
 30
0.0
 40
3.8006293402777769
  1
指向性
 41
0.7
 11
-63.275396162892783
 21
381.68316207029483
 31
0.0
 73
     3
  0
TEXT
  5
63
  8
SPEC
 62
     7
 10
31.83901173842138
 20
377.83247490759288
 30
0.0
 40
3.8006293402777769
  1
単一指向性
 41
0.7
 11
31.83901173842138
 21
381.63310424787079
 31
0.0
 73
     3
  0
TEXT
  5
64
  8
SPEC
 62
     7
 10
-63.211629745196362
 20
273.121695116137
 30
0.0
 40
3.8006293402777769
  1
寸法
 41
0.7
 11
-63.211629745196362
 21
276.9223244564148
 31
0.0
 73
     3
  0
TEXT
  5
65
  8
SPEC
 62
     7
 10
31.25069582540743
 20
272.79345481830308
 30
0.0
 40
3.8006293402777769
  1
\U+03A619\U+00D7197mm(突起部含まず）
 41
0.7
 11
31.25069582540743
 21
276.59408415858093
 31
0.0
 73
     3
  0
TEXT
  5
66
  8
SPEC
 62
     7
 10
31.856746809418748
 20
280.311469197176
 30
0.0
 40
3.8006293402777769
  1
約164g
 41
0.7
 11
31.856746809418748
 21
284.11209853745379
 31
0.0
 73
     3
  0
TEXT
  5
67
  8
SPEC
 62
     7
 10
-63.225259317042607
 20
280.4536053100266
 30
0.0
 40
3.8006293402777769
  1
重量
 41
0.7
 11
-63.225259317042607
 21
284.2542346503044
 31
0.0
 73
     3
  0
TEXT
  5
68
  8
SPEC
 62
     7
 10
-63.582694078599282
 20
370.6396811374122
 30
0.0
 40
3.8006293402777769
  1
カートリッジ
 41
0.7
 11
-63.582694078599282
 21
374.44031047768999
 31
0.0
 73
     3
  0
TEXT
  5
69
  8
SPEC
 62
     7
 10
-63.284733915122722
 20
347.80121475540471
 30
0.0
 40
3.8006293402777769
  1
等価雑音レベル(Aウェイト、代表値)
 41
0.7
 11
-63.284733915122722
 21
351.60184409568251
 31
0.0
 73
     3
  0
TEXT
  5
6A
  8
SPEC
 62
     7
 10
31.70591545115721
 20
347.71165386468613
 30
0.0
 40
3.8006293402777769
  1
20dB SPL
 41
0.7
 11
31.70591545115721
 21
351.51228320496392
 31
0.0
 73
     3
  0
TEXT
  5
6B
  8
SPEC
 62
     7
 10
-63.270339542210351
 20
355.39937350161728
 30
0.0
 40
3.8006293402777769
  1
感度(\U+00B12dB@1kHz、公称値）
 41
0.7
 11
-63.270339542210351
 21
359.20000284189513
 31
0.0
 73
     3
  0
TEXT
  5
6C
  8
SPEC
 62
     7
 10
32.017844080601698
 20
355.3512093810163
 30
0.0
 40
3.8006293402777769
  1
-40dB re、1V/Pa
 41
0.7
 11
32.017844080601698
 21
359.1518387212941
 31
0.0
 73
     3
  0
TEXT
  5
6D
  8
SPEC
 62
     7
 10
-63.245882527000717
 20
362.98375764529271
 30
0.0
 40
3.8006293402777769
  1
周波数レンジ(\U+00B12dB)
 41
0.7
 11
-63.245882527000717
 21
366.78438698557051
 31
0.0
 73
     3
  0
TEXT
  5
6E
  8
SPEC
 62
     7
 10
31.573315000942909
 20
362.92807363266502
 30
0.0
 40
3.8006293402777769
  1
50Hz～17kHz
 41
0.7
 11
31.573315000942909
 21
366.72870297294281
 31
0.0
 73
     3
  0
TEXT
  5
6F
  8
SPEC
 62
     7
 10
-63.257137044346948
 20
340.52880956516742
 30
0.0
 40
3.8006293402777769
  1
全高調波歪み(THD)
 41
0.7
 11
-63.257137044346948
 21
344.32943890544522
 31
0.0
 73
     3
  0
TEXT
  5
70
  8
SPEC
 62
     7
 10
31.70591545115721
 20
340.37788744665647
 30
0.0
 40
3.8006293402777769
  1
1%%%以下(137dB SPL)
 41
0.7
 11
31.70591545115721
 21
344.17851678693432
 31
0.0
 73
     3
  0
TEXT
  5
71
  8
SPEC
 62
     7
 10
-63.673971970186223
 20
295.3858988916723
 30
0.0
 40
3.8006293402777769
  1
コネクター
 41
0.7
 11
-63.673971970186223
 21
299.18652823195009
 31
0.0
 73
     3
  0
TEXT
  5
72
  8
SPEC
 62
     7
 10
31.88246526492917
 20
295.27024044671339
 30
0.0
 40
3.8006293402777769
  1
XLR3ピン(オス)
 41
0.7
 11
31.88246526492917
 21
299.0708697869913
 31
0.0
 73
     3
  0
TEXT
  5
73
  8
SPEC
 62
     7
 10
-63.43330512829943
 20
310.28187274438989
 30
0.0
 40
3.8006293402777769
  1
ケーブル引き伸ばし可能距離
 41
0.7
 11
-63.43330512829943
 21
314.08250208466768
 31
0.0
 73
     3
  0
TEXT
  5
74
  8
SPEC
 62
     7
 10
31.850771999796478
 20
310.5475244069454
 30
0.0
 40
3.8006293402777769
  1
最大100m
 41
0.7
 11
31.850771999796478
 21
314.34815374722319
 31
0.0
 73
     3
  0
TEXT
  5
75
  8
SPEC
 62
     7
 10
-63.441014503210468
 20
318.01896405089548
 30
0.0
 40
3.8006293402777769
  1
インピーダンス
 41
0.7
 11
-63.441014503210468
 21
321.81959339117333
 31
0.0
 73
     3
  0
TEXT
  5
76
  8
SPEC
 62
     7
 10
31.76330365888716
 20
318.04295584379088
 30
0.0
 40
3.8006293402777769
  1
200\U+03A9以下
 41
0.7
 11
31.76330365888716
 21
321.84358518406867
 31
0.0
 73
     3
  0
TEXT
  5
77
  8
SPEC
 62
     7
 10
-63.469388162739577
 20
325.3643743217317
 30
0.0
 40
3.8006293402777769
  1
アッテネータースイッチ
 41
0.7
 11
-63.469388162739577
 21
329.1650036620095
 31
0.0
 73
     3
  0
TEXT
  5
78
  8
SPEC
 62
     7
 10
31.894010631167649
 20
325.48921741324961
 30
0.0
 40
3.8006293402777769
  1
0dB、-20dB
 41
0.7
 11
31.894010631167649
 21
329.2898467535274
 31
0.0
 73
     3
  0
TEXT
  5
79
  8
SPEC
 62
     7
 10
-63.570942998029032
 20
332.8409180163469
 30
0.0
 40
3.8006293402777769
  1
ダイナミックレンジ(代表値)
 41
0.7
 11
-63.570942998029032
 21
336.6415473566247
 31
0.0
 73
     3
  0
TEXT
  5
7A
  8
SPEC
 62
     7
 10
31.594966588836161
 20
332.7763977566724
 30
0.0
 40
3.8006293402777769
  1
117dB
 41
0.7
 11
31.594966588836161
 21
336.57702709695019
 31
0.0
 73
     3
  0
TEXT
  5
7B
  8
SPEC
 62
     7
 10
-63.363017810082397
 20
302.86748120898898
 30
0.0
 40
3.8006293402777769
  1
電源
 41
0.7
 11
-63.363017810082397
 21
306.66811054926683
 31
0.0
 73
     3
  0
TEXT
  5
7C
  8
SPEC
 62
     7
 10
31.249692135609148
 20
302.98583709544118
 30
0.0
 40
3.8006293402777769
  1
ファンタムDC48V/2.8mA
 41
0.7
 11
31.249692135609148
 21
306.78646643571898
 31
0.0
 73
     3
  0
TEXT
  5
7D
  8
SPEC
 62
     7
 10
-63.24235132942708
 20
287.96985852045589
 30
0.0
 40
3.8006293402777769
  1
色
 41
0.7
 11
-63.24235132942708
 21
291.77048786073379
 31
0.0
 73
     3
  0
TEXT
  5
7E
  8
SPEC
 62
     7
 10
31.68755638508561
 20
287.89406978973523
 30
0.0
 40
3.8006293402777769
  1
マットブラック
 41
0.7
 11
31.68755638508561
 21
291.69469913001302
 31
0.0
 73
     3
  0
TEXT
  5
7F
  8
SPEC
 62
     7
 10
-63.049076758132713
 20
258.04325953693609
 30
0.0
 40
3.8006293402777769
  1
使用湿度範囲
 41
0.7
 11
-63.049076758132713
 21
261.84388887721389
 31
0.0
 73
     3
  0
TEXT
  5
80
  8
SPEC
 62
     7
 10
31.76990124612847
 20
258.12305237163082
 30
0.0
 40
3.8006293402777769
  1
90%%%以下
 41
0.7
 11
31.76990124612847
 21
261.92368171190861
 31
0.0
 73
     3
  0
TEXT
  5
81
  8
SPEC
 62
     7
 10
-63.222822386735707
 20
265.57030734553041
 30
0.0
 40
3.8006293402777769
  1
使用温度範囲
 41
0.7
 11
-63.222822386735707
 21
269.3709366858082
 31
0.0
 73
     3
  0
TEXT
  5
82
  8
SPEC
 62
     7
 10
31.93486087539468
 20
265.37089418270239
 30
0.0
 40
3.8006293402777769
  1
-40℃～45℃
 41
0.7
 11
31.93486087539468
 21
269.17152352298029
 31
0.0
 73
     3
  0
TEXT
  5
83
  8
SPEC
 62
     7
 10
31.17159122034904
 20
370.61154685353807
 30
0.0
 40
3.8006293402777769
  1
プリポラライズド・コンデンサー,ツインダイヤフラム、\U+03A619mm
 41
0.7
 11
31.17159122034904
 21
374.41217619381592
 31
0.0
 73
     3
  0
LINE
  5
84
  8
SPEC
  6
CONTINUOUS
 62
     7
 10
30.0
 20
383.53364789486602
 30
0.0
 11
29.999999999999972
 21
256.03364789486591
 31
0.0
  0
TEXT
  5
85
  8
DIMNSIONS
 62
     7
 10
60.0
 20
-91.927372105134054
 30
0.0
 40
4.8865234375000002
  1
(単位：mm)
 41
0.7
 11
60.0
 21
-87.040848667634066
 31
0.0
 73
     3
  0
LINE
  5
86
  8
DIMNSIONS
  6
CONTINUOUS
 62
     7
 10
57.403043795198762
 20
-62.644258561282733
 30
0.0
 11
68.75
 21
-53.125
 31
0.0
  0
LINE
  5
87
  8
DIMNSIONS
  6
CONTINUOUS
 62
     7
 10
57.403043795198762
 20
-62.644258561282733
 30
0.0
 11
60.446401828471608
 21
-58.455435586765283
 31
0.0
  0
LINE
  5
88
  8
DIMNSIONS
  6
CONTINUOUS
 62
     7
 10
57.403043795198762
 20
-62.644258561282733
 30
0.0
 11
62.133080652083208
 21
-60.538310470031121
 31
0.0
  0
LINE
  5
89
  8
DIMNSIONS
  6
CONTINUOUS
 62
     7
 10
68.75
 20
-53.125
 30
0.0
 11
86.861111111111086
 21
-53.125
 31
0.0
  0
TEXT
  5
8A
  8
DIMNSIONS
 62
     7
 10
72.75
 20
-51.137222222222249
 30
0.0
 40
5.4294704861111107
  1
\U+03C619
 41
0.7
 11
72.75
 21
-45.707751736111142
 31
0.0
 73
     3
  0
LINE
  5
8B
  8
DIMNSIONS
  6
CONTINUOUS
 62
     7
 10
36.62500000022046
 20
-46.875000000312468
 30
0.0
 11
11.625
 21
-46.875000000312468
 31
0.0
  0
LINE
  5
8C
  8
DIMNSIONS
  6
CONTINUOUS
 62
     7
 10
36.62500000022046
 20
150.1249999996875
 30
0.0
 11
11.625
 21
150.1249999996875
 31
0.0
  0
LINE
  5
8D
  8
DIMNSIONS
  6
CONTINUOUS
 62
     7
 10
15.625
 20
-46.875000000312468
 30
0.0
 11
15.625
 21
150.1249999996875
 31
0.0
  0
LINE
  5
8E
  8
DIMNSIONS
  6
CONTINUOUS
 62
     7
 10
15.625
 20
-46.875000000312468
 30
0.0
 11
14.284920409699501
 21
-41.873754883124967
 31
0.0
  0
LINE
  5
8F
  8
DIMNSIONS
  6
CONTINUOUS
 62
     7
 10
15.625
 20
-46.875000000312468
 30
0.0
 11
16.965079590300491
 21
-41.873754883124967
 31
0.0
  0
LINE
  5
90
  8
DIMNSIONS
  6
CONTINUOUS
 62
     7
 10
15.625
 20
150.1249999996875
 30
0.0
 11
16.965079590300491
 21
145.12375488250001
 31
0.0
  0
LINE
  5
91
  8
DIMNSIONS
  6
CONTINUOUS
 62
     7
 10
15.625
 20
150.1249999996875
 30
0.0
 11
14.284920409699501
 21
145.12375488250001
 31
0.0
  0
TEXT
  5
92
  8
DIMNSIONS
 62
     7
 10
13.637222222222221
 20
46.333333333020889
 30
0.0
 40
5.4294704861111107
  1
197
 50
90.0
 41
0.7
 11
8.2077517361111063
 21
46.333333333020889
 31
0.0
 73
     3
  0
LINE
  5
93
  8
DIMNSIONS
  6
CONTINUOUS
 62
     7
 10
55.130926854456902
 20
211.19907557104241
 30
0.0
 11
65.625
 21
228.125
 31
0.0
  0
LINE
  5
94
  8
DIMNSIONS
  6
CONTINUOUS
 62
     7
 10
55.130926854456902
 20
211.19907557104241
 30
0.0
 11
56.644731041954401
 21
216.15050596159091
 31
0.0
  0
LINE
  5
95
  8
DIMNSIONS
  6
CONTINUOUS
 62
     7
 10
55.130926854456902
 20
211.19907557104241
 30
0.0
 11
58.917634932459222
 21
214.73023798057889
 31
0.0
  0
LINE
  5
96
  8
DIMNSIONS
  6
CONTINUOUS
 62
     7
 10
65.625
 20
228.125
 30
0.0
 11
83.7361111111111
 21
228.125
 31
0.0
  0
TEXT
  5
97
  8
DIMNSIONS
 62
     7
 10
69.625
 20
230.11277777777781
 30
0.0
 40
5.4294704861111107
  1
\U+03C619
 41
0.7
 11
69.625
 21
235.54224826388889
 31
0.0
 73
     3
  0
TEXT
  5
98
  8
DATA
 62
     7
 10
202.89542165461219
 20
-93.678803709234302
 30
0.0
 40
4.8865234375000002
  1
2011A
 41
0.7
 11
202.89542165461219
 21
-88.792280271734299
 31
0.0
 73
     3
  0
TEXT
  5
99
  8
DATA
 62
     7
 10
203.1003369643245
 20
-78.475080246860045
 30
0.0
 40
4.8865234375000002
  1
DPA
 41
0.7
 11
203.1003369643245
 21
-73.588556809360043
 31
0.0
 73
     3
  0
TEXT
  5
9A
  8
DATA
 62
     7
 10
-60.0
 20
-107.99035210513409
 30
0.0
 40
3.2576822916666659
  1
仕様および外観は予告なく変更されることがありますので、ご了承ください。
 41
0.7
 11
-60.0
 21
-104.7326698134674
 31
0.0
 73
     3
  0
LINE
  5
9B
  8
DATA
  6
CONTINUOUS
 62
     7
 10
40.625000000220453
 20
99.124999999687105
 30
0.0
 11
59.625000000220453
 21
99.124999999687105
 31
0.0
  0
LINE
  5
9C
  8
DATA
  6
CONTINUOUS
 62
     7
 10
40.625000000220453
 20
-46.875000000312468
 30
0.0
 11
59.625000000220453
 21
-46.875000000312468
 31
0.0
  0
LINE
  5
9D
  8
DATA
  6
CONTINUOUS
 62
     7
 10
40.625000000220453
 20
99.124999999687105
 30
0.0
 11
40.625000000220453
 21
-46.875000000312468
 31
0.0
  0
LINE
  5
9E
  8
DATA
  6
CONTINUOUS
 62
     7
 10
59.625000000220453
 20
99.124999999687105
 30
0.0
 11
59.625000000220453
 21
-46.875000000312468
 31
0.0
  0
TEXT
  5
9F
  8
DATA
 62
     7
 10
45.020649461207277
 20
-43.481133746408197
 30
0.0
 40
3.2576822916666659
  1
MMP-A
 41
0.7
 11
45.020649461207277
 21
-40.223451454741529
 31
0.0
 73
     3
  0
TEXT
  5
A0
  8
DATA
 62
     7
 10
100.9425269218643
 20
167.78645798812289
 30
0.0
 40
5.4294704861111107
  1
ウインドスクリーン
 41
0.7
 11
100.9425269218643
 21
173.215928474234
 31
0.0
 73
     3
  0
LINE
  5
A1
  8
DATA
  6
CONTINUOUS
 62
     7
 10
96.875
 20
165.625
 30
0.0
 11
168.75
 21
165.625
 31
0.0
  0
TEXT
  5
A2
  8
DATA
 62
     7
 10
198.82414621275899
 20
-85.819495206116756
 30
0.0
 40
3.2576822916666659
  1
単一指向性マイクロホン
 41
0.7
 11
198.82414621275899
 21
-82.561812914450087
 31
0.0
 73
     3
  0
LINE
  5
A3
  8
DATA
  6
CONTINUOUS
 62
     7
 10
40.625000000220453
 20
99.12499999968712
 30
0.0
 11
40.62500000022046
 21
150.1249999996875
 31
0.0
  0
LINE
  5
A4
  8
DATA
  6
CONTINUOUS
 62
     7
 10
59.625000000220453
 20
99.12499999968712
 30
0.0
 11
59.625000000220453
 21
150.1249999996875
 31
0.0
  0
TEXT
  5
A5
  8
DATA
 62
     7
 10
47.612494206632881
 20
101.68840689096029
 30
0.0
 40
1.900314670138888
  1
2011
 41
0.7
 11
47.612494206632881
 21
103.58872156109921
 31
0.0
 73
     3
  0
LINE
  5
A6
  8
DATA
  6
CONTINUOUS
 62
     7
 10
40.625000000220453
 20
99.12499999968712
 30
0.0
 11
59.625000000220453
 21
99.12499999968712
 31
0.0
  0
LINE
  5
A7
  8
DATA
  6
CONTINUOUS
 62
     7
 10
40.625000000220453
 20
99.424999999687117
 30
0.0
 11
59.625000000220453
 21
99.424999999687117
 31
0.0
  0
CIRCLE
  5
A8
  8
DATA
  6
CONTINUOUS
 62
     7
 10
50.125000000412463
 20
203.12499999968711
 30
0.0
 40
3.8000000000000109
  0
ARC
  5
A9
  8
DATA
  6
CONTINUOUS
 62
     7
 10
50.125000000412463
 20
203.12499999968711
 30
0.0
 40
9.4999999999999911
 50
90.000000000007745
 51
109.9999999999999
  0
ARC
  5
AA
  8
DATA
  6
CONTINUOUS
 62
     7
 10
50.125000000412463
 20
203.12499999968711
 30
0.0
 40
9.5000000000000036
 50
129.9999999999998
 51
149.99999999999969
  0
ARC
  5
AB
  8
DATA
  6
CONTINUOUS
 62
     7
 10
50.125000000412463
 20
203.12499999968711
 30
0.0
 40
9.5000000000000089
 50
169.99999999999969
 51
189.99999999999949
  0
ARC
  5
AC
  8
DATA
  6
CONTINUOUS
 62
     7
 10
50.125000000412463
 20
203.12499999968711
 30
0.0
 40
9.5000000000000124
 50
209.9999999999996
 51
229.9999999999994
  0
ARC
  5
AD
  8
DATA
  6
CONTINUOUS
 62
     7
 10
50.125000000412463
 20
203.12499999968711
 30
0.0
 40
9.5000000000000124
 50
249.9999999999996
 51
270.00000000000767
  0
ARC
  5
AE
  8
DATA
  6
CONTINUOUS
 62
     7
 10
50.125000000412463
 20
203.12499999968711
 30
0.0
 40
9.5000000000000195
 50
289.99999999999972
 51
309.9999999999996
  0
ARC
  5
AF
  8
DATA
  6
CONTINUOUS
 62
     7
 10
50.125000000412463
 20
203.12499999968711
 30
0.0
 40
9.5000000000000089
 50
329.9999999999996
 51
349.99999999999977
  0
ARC
  5
B0
  8
DATA
  6
CONTINUOUS
 62
     7
 10
50.125000000412463
 20
203.12499999968711
 30
0.0
 40
9.5
 50
9.9999999999998863
 51
29.99999999999995
  0
ARC
  5
B1
  8
DATA
  6
CONTINUOUS
 62
     7
 10
50.125000000412463
 20
203.12499999968711
 30
0.0
 40
9.4999999999999911
 50
49.999999999999972
 51
69.999999999999986
  0
CIRCLE
  5
B2
  8
DATA
  6
CONTINUOUS
 62
     7
 10
50.125000000412463
 20
203.12499999968711
 30
0.0
 40
1.0
  0
ARC
  5
B3
  8
DATA
  6
CONTINUOUS
 62
     7
 10
50.125000000412498
 20
203.12499999968719
 30
0.0
 40
9.2499999999999751
 50
70.00712512773201
 51
90.007125127722915
  0
ARC
  5
B4
  8
DATA
  6
CONTINUOUS
 62
     7
 10
50.125000000412498
 20
203.12499999968719
 30
0.0
 40
9.2499999999999822
 50
110.007125127732
 51
130.007125127732
  0
ARC
  5
B5
  8
DATA
  6
CONTINUOUS
 62
     7
 10
50.125000000412498
 20
203.12499999968719
 30
0.0
 40
9.2499999999999822
 50
150.0071251277318
 51
170.00712512773171
  0
ARC
  5
B6
  8
DATA
  6
CONTINUOUS
 62
     7
 10
50.125000000412498
 20
203.12499999968719
 30
0.0
 40
9.2499999999999822
 50
190.00712512773151
 51
210.00712512773151
  0
ARC
  5
B7
  8
DATA
  6
CONTINUOUS
 62
     7
 10
50.125000000412498
 20
203.12499999968719
 30
0.0
 40
9.2499999999999716
 50
230.0071251277314
 51
250.00712512773131
  0
ARC
  5
B8
  8
DATA
  6
CONTINUOUS
 62
     7
 10
50.125000000412498
 20
203.12499999968719
 30
0.0
 40
9.249999999999968
 50
270.00712512772259
 51
290.0071251277314
  0
ARC
  5
B9
  8
DATA
  6
CONTINUOUS
 62
     7
 10
50.125000000412498
 20
203.12499999968719
 30
0.0
 40
9.2499999999999645
 50
310.00712512773129
 51
330.0071251277314
  0
ARC
  5
BA
  8
DATA
  6
CONTINUOUS
 62
     7
 10
50.125000000412498
 20
203.12499999968719
 30
0.0
 40
9.2499999999999662
 50
350.00712512773168
 51
10.007125981505061
  0
ARC
  5
BB
  8
DATA
  6
CONTINUOUS
 62
     7
 10
50.125000000412498
 20
203.12499999968719
 30
0.0
 40
9.2499999999999751
 50
30.007125127731811
 51
50.007125127731982
  0
LINE
  5
BC
  8
DATA
  6
CONTINUOUS
 62
     7
 10
50.098772713187103
 20
206.92490948932041
 30
0.0
 11
50.125000000412463
 21
212.62499999968711
 31
0.0
  0
LINE
  5
BD
  8
DATA
  6
CONTINUOUS
 62
     7
 10
51.400000000412469
 20
206.70471716728571
 30
0.0
 11
53.374191362006329
 21
212.05207989715319
 31
0.0
  0
LINE
  5
BE
  8
DATA
  6
CONTINUOUS
 62
     7
 10
52.54744347064193
 20
206.05275812383991
 30
0.0
 11
56.231482292434578
 21
210.40242220931731
 31
0.0
  0
LINE
  5
BF
  8
DATA
  6
CONTINUOUS
 62
     7
 10
53.402704506903717
 20
205.04766824151329
 30
0.0
 11
58.352241336364621
 21
207.87499999968711
 31
0.0
  0
LINE
  5
C0
  8
DATA
  6
CONTINUOUS
 62
     7
 10
53.862626005916113
 20
203.81067619366121
 30
0.0
 11
59.480673654028408
 21
204.7746576875229
 31
0.0
  0
LINE
  5
C1
  8
DATA
  6
CONTINUOUS
 62
     7
 10
53.871734647179778
 20
202.490981477313
 30
0.0
 11
59.480673654028386
 21
201.47534231185119
 31
0.0
  0
LINE
  5
C2
  8
DATA
  6
CONTINUOUS
 62
     7
 10
53.428931794129113
 20
201.24775875188001
 30
0.0
 11
58.352241336364557
 21
198.37499999968699
 31
0.0
  0
LINE
  5
C3
  8
DATA
  6
CONTINUOUS
 62
     7
 10
52.5876260059161
 20
200.23095902606261
 30
0.0
 11
56.231482292434499
 21
195.84757779005679
 31
0.0
  0
LINE
  5
C4
  8
DATA
  6
CONTINUOUS
 62
     7
 10
51.449291176950332
 20
199.56322335316031
 30
0.0
 11
53.374191362006243
 21
194.19792010222091
 31
0.0
  0
LINE
  5
C5
  8
DATA
  6
CONTINUOUS
 62
     7
 10
50.151227287637859
 20
199.3250905100538
 30
0.0
 11
50.125000000412463
 21
193.62499999968711
 31
0.0
  0
LINE
  5
C6
  8
DATA
  6
CONTINUOUS
 62
     7
 10
48.850000000412457
 20
199.5452828320885
 30
0.0
 11
46.87580863881854
 21
194.19792010222099
 31
0.0
  0
LINE
  5
C7
  8
DATA
  6
CONTINUOUS
 62
     7
 10
47.702556530183017
 20
200.19724187553439
 30
0.0
 11
44.018517708390291
 21
195.84757779005679
 31
0.0
  0
LINE
  5
C8
  8
DATA
  6
CONTINUOUS
 62
     7
 10
46.847295493921223
 20
201.202331757861
 30
0.0
 11
41.897758664460262
 21
198.37499999968719
 31
0.0
  0
LINE
  5
C9
  8
DATA
  6
CONTINUOUS
 62
     7
 10
46.38737399490882
 20
202.439323805713
 30
0.0
 11
40.769326346796461
 21
201.47534231185131
 31
0.0
  0
LINE
  5
CA
  8
DATA
  6
CONTINUOUS
 62
     7
 10
46.378265353645183
 20
203.7590185220611
 30
0.0
 11
40.76932634679649
 21
204.7746576875229
 31
0.0
  0
LINE
  5
CB
  8
DATA
  6
CONTINUOUS
 62
     7
 10
46.821068206695827
 20
205.0022412474942
 30
0.0
 11
41.897758664460312
 21
207.87499999968719
 31
0.0
  0
LINE
  5
CC
  8
DATA
  6
CONTINUOUS
 62
     7
 10
47.662373994908847
 20
206.0190409733116
 30
0.0
 11
44.018517708390341
 21
210.40242220931739
 31
0.0
  0
LINE
  5
CD
  8
DATA
  6
CONTINUOUS
 62
     7
 10
48.800708823874643
 20
206.68677664621401
 30
0.0
 11
46.875808638818633
 21
212.05207989715319
 31
0.0
  0
LINE
  5
CE
  8
DATA
  6
CONTINUOUS
 62
     7
 10
40.625000000220453
 20
150.1249999996875
 30
0.0
 11
41.217871585742323
 21
150.1249999996875
 31
0.0
  0
LINE
  5
CF
  8
DATA
  6
CONTINUOUS
 62
     7
 10
42.617871585742307
 20
150.1249999996875
 30
0.0
 11
43.967871585742323
 21
150.1249999996875
 31
0.0
  0
LINE
  5
D0
  8
DATA
  6
CONTINUOUS
 62
     7
 10
45.317871585742317
 20
150.1249999996875
 30
0.0
 11
46.667871585742319
 21
150.1249999996875
 31
0.0
  0
LINE
  5
D1
  8
DATA
  6
CONTINUOUS
 62
     7
 10
48.017871585742313
 20
150.1249999996875
 30
0.0
 11
49.367871585742321
 21
150.1249999996875
 31
0.0
  0
LINE
  5
D2
  8
DATA
  6
CONTINUOUS
 62
     7
 10
50.717871585742323
 20
150.1249999996875
 30
0.0
 11
52.067871585742331
 21
150.1249999996875
 31
0.0
  0
LINE
  5
D3
  8
DATA
  6
CONTINUOUS
 62
     7
 10
53.417871585742319
 20
150.1249999996875
 30
0.0
 11
54.76787158574232
 21
150.1249999996875
 31
0.0
  0
LINE
  5
D4
  8
DATA
  6
CONTINUOUS
 62
     7
 10
56.117871585742321
 20
150.1249999996875
 30
0.0
 11
57.467871585742323
 21
150.1249999996875
 31
0.0
  0
LINE
  5
D5
  8
DATA
  6
CONTINUOUS
 62
     7
 10
58.817871585742317
 20
150.1249999996875
 30
0.0
 11
59.625000000220453
 21
150.1249999996875
 31
0.0
  0
LINE
  5
D6
  8
DATA
  6
CONTINUOUS
 62
     7
 10
41.217871585742323
 20
109.12499999968711
 30
0.0
 11
42.617871585742307
 21
109.12499999968711
 31
0.0
  0
LINE
  5
D7
  8
DATA
  6
CONTINUOUS
 62
     7
 10
43.967871585742323
 20
109.12499999968711
 30
0.0
 11
45.317871585742317
 21
109.12499999968711
 31
0.0
  0
LINE
  5
D8
  8
DATA
  6
CONTINUOUS
 62
     7
 10
46.667871585742319
 20
109.12499999968711
 30
0.0
 11
48.017871585742313
 21
109.12499999968711
 31
0.0
  0
LINE
  5
D9
  8
DATA
  6
CONTINUOUS
 62
     7
 10
49.367871585742321
 20
109.12499999968711
 30
0.0
 11
50.717871585742323
 21
109.12499999968711
 31
0.0
  0
LINE
  5
DA
  8
DATA
  6
CONTINUOUS
 62
     7
 10
52.067871585742331
 20
109.12499999968711
 30
0.0
 11
53.417871585742319
 21
109.12499999968711
 31
0.0
  0
LINE
  5
DB
  8
DATA
  6
CONTINUOUS
 62
     7
 10
54.76787158574232
 20
109.12499999968711
 30
0.0
 11
56.117871585742321
 21
109.12499999968711
 31
0.0
  0
LINE
  5
DC
  8
DATA
  6
CONTINUOUS
 62
     7
 10
57.467871585742323
 20
109.12499999968711
 30
0.0
 11
58.817871585742317
 21
109.12499999968711
 31
0.0
  0
LINE
  5
DD
  8
DATA
  6
CONTINUOUS
 62
     7
 10
41.217871585742323
 20
118.62499999968711
 30
0.0
 11
42.617871585742307
 21
118.62499999968711
 31
0.0
  0
LINE
  5
DE
  8
DATA
  6
CONTINUOUS
 62
     7
 10
43.967871585742323
 20
118.62499999968711
 30
0.0
 11
45.317871585742317
 21
118.62499999968711
 31
0.0
  0
LINE
  5
DF
  8
DATA
  6
CONTINUOUS
 62
     7
 10
46.667871585742319
 20
118.62499999968711
 30
0.0
 11
48.017871585742313
 21
118.62499999968711
 31
0.0
  0
LINE
  5
E0
  8
DATA
  6
CONTINUOUS
 62
     7
 10
49.367871585742321
 20
118.62499999968711
 30
0.0
 11
50.717871585742323
 21
118.62499999968711
 31
0.0
  0
LINE
  5
E1
  8
DATA
  6
CONTINUOUS
 62
     7
 10
52.067871585742331
 20
118.62499999968711
 30
0.0
 11
53.417871585742319
 21
118.62499999968711
 31
0.0
  0
LINE
  5
E2
  8
DATA
  6
CONTINUOUS
 62
     7
 10
54.76787158574232
 20
118.62499999968711
 30
0.0
 11
56.117871585742321
 21
118.62499999968711
 31
0.0
  0
LINE
  5
E3
  8
DATA
  6
CONTINUOUS
 62
     7
 10
57.467871585742323
 20
118.62499999968711
 30
0.0
 11
58.817871585742317
 21
118.62499999968711
 31
0.0
  0
LINE
  5
E4
  8
DATA
  6
CONTINUOUS
 62
     7
 10
41.217871585742323
 20
121.87499999968711
 30
0.0
 11
42.617871585742307
 21
121.87499999968711
 31
0.0
  0
LINE
  5
E5
  8
DATA
  6
CONTINUOUS
 62
     7
 10
43.967871585742323
 20
121.87499999968711
 30
0.0
 11
45.317871585742317
 21
121.87499999968711
 31
0.0
  0
LINE
  5
E6
  8
DATA
  6
CONTINUOUS
 62
     7
 10
46.667871585742319
 20
121.87499999968711
 30
0.0
 11
48.017871585742313
 21
121.87499999968711
 31
0.0
  0
LINE
  5
E7
  8
DATA
  6
CONTINUOUS
 62
     7
 10
49.367871585742321
 20
121.87499999968711
 30
0.0
 11
50.717871585742323
 21
121.87499999968711
 31
0.0
  0
LINE
  5
E8
  8
DATA
  6
CONTINUOUS
 62
     7
 10
52.067871585742331
 20
121.87499999968711
 30
0.0
 11
53.417871585742319
 21
121.87499999968711
 31
0.0
  0
LINE
  5
E9
  8
DATA
  6
CONTINUOUS
 62
     7
 10
54.76787158574232
 20
121.87499999968711
 30
0.0
 11
56.117871585742321
 21
121.87499999968711
 31
0.0
  0
LINE
  5
EA
  8
DATA
  6
CONTINUOUS
 62
     7
 10
57.467871585742323
 20
121.87499999968711
 30
0.0
 11
58.817871585742317
 21
121.87499999968711
 31
0.0
  0
LINE
  5
EB
  8
DATA
  6
CONTINUOUS
 62
     7
 10
41.217871585742323
 20
131.37499999968711
 30
0.0
 11
42.617871585742307
 21
131.37499999968711
 31
0.0
  0
LINE
  5
EC
  8
DATA
  6
CONTINUOUS
 62
     7
 10
43.967871585742323
 20
131.37499999968711
 30
0.0
 11
45.317871585742317
 21
131.37499999968711
 31
0.0
  0
LINE
  5
ED
  8
DATA
  6
CONTINUOUS
 62
     7
 10
46.667871585742319
 20
131.37499999968711
 30
0.0
 11
48.017871585742313
 21
131.37499999968711
 31
0.0
  0
LINE
  5
EE
  8
DATA
  6
CONTINUOUS
 62
     7
 10
49.367871585742321
 20
131.37499999968711
 30
0.0
 11
50.717871585742323
 21
131.37499999968711
 31
0.0
  0
LINE
  5
EF
  8
DATA
  6
CONTINUOUS
 62
     7
 10
52.067871585742331
 20
131.37499999968711
 30
0.0
 11
53.417871585742319
 21
131.37499999968711
 31
0.0
  0
LINE
  5
F0
  8
DATA
  6
CONTINUOUS
 62
     7
 10
54.76787158574232
 20
131.37499999968711
 30
0.0
 11
56.117871585742321
 21
131.37499999968711
 31
0.0
  0
LINE
  5
F1
  8
DATA
  6
CONTINUOUS
 62
     7
 10
57.467871585742323
 20
131.37499999968711
 30
0.0
 11
58.817871585742317
 21
131.37499999968711
 31
0.0
  0
LINE
  5
F2
  8
DATA
  6
CONTINUOUS
 62
     7
 10
41.217871585742323
 20
134.62499999968711
 30
0.0
 11
42.617871585742307
 21
134.62499999968711
 31
0.0
  0
LINE
  5
F3
  8
DATA
  6
CONTINUOUS
 62
     7
 10
43.967871585742323
 20
134.62499999968711
 30
0.0
 11
45.317871585742317
 21
134.62499999968711
 31
0.0
  0
LINE
  5
F4
  8
DATA
  6
CONTINUOUS
 62
     7
 10
46.667871585742319
 20
134.62499999968711
 30
0.0
 11
48.017871585742313
 21
134.62499999968711
 31
0.0
  0
LINE
  5
F5
  8
DATA
  6
CONTINUOUS
 62
     7
 10
49.367871585742321
 20
134.62499999968711
 30
0.0
 11
50.717871585742323
 21
134.62499999968711
 31
0.0
  0
LINE
  5
F6
  8
DATA
  6
CONTINUOUS
 62
     7
 10
52.067871585742331
 20
134.62499999968711
 30
0.0
 11
53.417871585742319
 21
134.62499999968711
 31
0.0
  0
LINE
  5
F7
  8
DATA
  6
CONTINUOUS
 62
     7
 10
54.76787158574232
 20
134.62499999968711
 30
0.0
 11
56.117871585742321
 21
134.62499999968711
 31
0.0
  0
LINE
  5
F8
  8
DATA
  6
CONTINUOUS
 62
     7
 10
57.467871585742323
 20
134.62499999968711
 30
0.0
 11
58.817871585742317
 21
134.62499999968711
 31
0.0
  0
LINE
  5
F9
  8
DATA
  6
CONTINUOUS
 62
     7
 10
41.217871585742323
 20
144.12499999968711
 30
0.0
 11
42.617871585742307
 21
144.12499999968711
 31
0.0
  0
LINE
  5
FA
  8
DATA
  6
CONTINUOUS
 62
     7
 10
43.967871585742323
 20
144.12499999968711
 30
0.0
 11
45.317871585742317
 21
144.12499999968711
 31
0.0
  0
LINE
  5
FB
  8
DATA
  6
CONTINUOUS
 62
     7
 10
46.667871585742319
 20
144.12499999968711
 30
0.0
 11
48.017871585742313
 21
144.12499999968711
 31
0.0
  0
LINE
  5
FC
  8
DATA
  6
CONTINUOUS
 62
     7
 10
49.367871585742321
 20
144.12499999968711
 30
0.0
 11
50.717871585742323
 21
144.12499999968711
 31
0.0
  0
LINE
  5
FD
  8
DATA
  6
CONTINUOUS
 62
     7
 10
52.067871585742331
 20
144.12499999968711
 30
0.0
 11
53.417871585742319
 21
144.12499999968711
 31
0.0
  0
LINE
  5
FE
  8
DATA
  6
CONTINUOUS
 62
     7
 10
54.76787158574232
 20
144.12499999968711
 30
0.0
 11
56.117871585742321
 21
144.12499999968711
 31
0.0
  0
LINE
  5
FF
  8
DATA
  6
CONTINUOUS
 62
     7
 10
57.467871585742323
 20
144.12499999968711
 30
0.0
 11
58.817871585742317
 21
144.12499999968711
 31
0.0
  0
LINE
  5
100
  8
DATA
  6
CONTINUOUS
 62
     7
 10
50.717871585742323
 20
144.12499999968711
 30
0.0
 11
50.717871585742323
 21
134.62499999968711
 31
0.0
  0
LINE
  5
101
  8
DATA
  6
CONTINUOUS
 62
     7
 10
50.717871585742323
 20
131.37499999968711
 30
0.0
 11
50.717871585742323
 21
121.87499999968711
 31
0.0
  0
LINE
  5
102
  8
DATA
  6
CONTINUOUS
 62
     7
 10
50.717871585742323
 20
118.62499999968711
 30
0.0
 11
50.717871585742323
 21
109.12499999968711
 31
0.0
  0
LINE
  5
103
  8
DATA
  6
CONTINUOUS
 62
     7
 10
52.067871585742331
 20
144.12499999968711
 30
0.0
 11
52.067871585742331
 21
134.62499999968711
 31
0.0
  0
LINE
  5
104
  8
DATA
  6
CONTINUOUS
 62
     7
 10
52.067871585742331
 20
131.37499999968711
 30
0.0
 11
52.067871585742331
 21
121.87499999968711
 31
0.0
  0
LINE
  5
105
  8
DATA
  6
CONTINUOUS
 62
     7
 10
52.067871585742331
 20
118.62499999968711
 30
0.0
 11
52.067871585742331
 21
109.12499999968711
 31
0.0
  0
LINE
  5
106
  8
DATA
  6
CONTINUOUS
 62
     7
 10
53.417871585742319
 20
144.12499999968711
 30
0.0
 11
53.417871585742319
 21
134.62499999968711
 31
0.0
  0
LINE
  5
107
  8
DATA
  6
CONTINUOUS
 62
     7
 10
53.417871585742319
 20
131.37499999968711
 30
0.0
 11
53.417871585742319
 21
121.87499999968711
 31
0.0
  0
LINE
  5
108
  8
DATA
  6
CONTINUOUS
 62
     7
 10
53.417871585742319
 20
118.62499999968711
 30
0.0
 11
53.417871585742319
 21
109.12499999968711
 31
0.0
  0
LINE
  5
109
  8
DATA
  6
CONTINUOUS
 62
     7
 10
54.76787158574232
 20
144.12499999968711
 30
0.0
 11
54.76787158574232
 21
134.62499999968711
 31
0.0
  0
LINE
  5
10A
  8
DATA
  6
CONTINUOUS
 62
     7
 10
54.76787158574232
 20
131.37499999968711
 30
0.0
 11
54.76787158574232
 21
121.87499999968711
 31
0.0
  0
LINE
  5
10B
  8
DATA
  6
CONTINUOUS
 62
     7
 10
54.76787158574232
 20
118.62499999968711
 30
0.0
 11
54.76787158574232
 21
109.12499999968711
 31
0.0
  0
LINE
  5
10C
  8
DATA
  6
CONTINUOUS
 62
     7
 10
56.117871585742321
 20
144.12499999968711
 30
0.0
 11
56.117871585742321
 21
134.62499999968711
 31
0.0
  0
LINE
  5
10D
  8
DATA
  6
CONTINUOUS
 62
     7
 10
56.117871585742321
 20
131.37499999968711
 30
0.0
 11
56.117871585742321
 21
121.87499999968711
 31
0.0
  0
LINE
  5
10E
  8
DATA
  6
CONTINUOUS
 62
     7
 10
56.117871585742321
 20
118.62499999968711
 30
0.0
 11
56.117871585742321
 21
109.12499999968711
 31
0.0
  0
LINE
  5
10F
  8
DATA
  6
CONTINUOUS
 62
     7
 10
57.467871585742323
 20
144.12499999968711
 30
0.0
 11
57.467871585742323
 21
134.62499999968711
 31
0.0
  0
LINE
  5
110
  8
DATA
  6
CONTINUOUS
 62
     7
 10
57.467871585742323
 20
131.37499999968711
 30
0.0
 11
57.467871585742323
 21
121.87499999968711
 31
0.0
  0
LINE
  5
111
  8
DATA
  6
CONTINUOUS
 62
     7
 10
57.467871585742323
 20
118.62499999968711
 30
0.0
 11
57.467871585742323
 21
109.12499999968711
 31
0.0
  0
LINE
  5
112
  8
DATA
  6
CONTINUOUS
 62
     7
 10
58.817871585742317
 20
144.12499999968711
 30
0.0
 11
58.817871585742317
 21
134.62499999968711
 31
0.0
  0
LINE
  5
113
  8
DATA
  6
CONTINUOUS
 62
     7
 10
58.817871585742317
 20
131.37499999968711
 30
0.0
 11
58.817871585742317
 21
121.87499999968711
 31
0.0
  0
LINE
  5
114
  8
DATA
  6
CONTINUOUS
 62
     7
 10
58.817871585742317
 20
118.62499999968711
 30
0.0
 11
58.817871585742317
 21
109.12499999968711
 31
0.0
  0
LINE
  5
115
  8
DATA
  6
CONTINUOUS
 62
     7
 10
49.367871585742321
 20
144.12499999968711
 30
0.0
 11
49.367871585742321
 21
134.62499999968711
 31
0.0
  0
LINE
  5
116
  8
DATA
  6
CONTINUOUS
 62
     7
 10
49.367871585742321
 20
131.37499999968711
 30
0.0
 11
49.367871585742321
 21
121.87499999968711
 31
0.0
  0
LINE
  5
117
  8
DATA
  6
CONTINUOUS
 62
     7
 10
49.367871585742321
 20
118.62499999968711
 30
0.0
 11
49.367871585742321
 21
109.12499999968711
 31
0.0
  0
LINE
  5
118
  8
DATA
  6
CONTINUOUS
 62
     7
 10
48.017871585742313
 20
144.12499999968711
 30
0.0
 11
48.017871585742313
 21
134.62499999968711
 31
0.0
  0
LINE
  5
119
  8
DATA
  6
CONTINUOUS
 62
     7
 10
48.017871585742313
 20
131.37499999968711
 30
0.0
 11
48.017871585742313
 21
121.87499999968711
 31
0.0
  0
LINE
  5
11A
  8
DATA
  6
CONTINUOUS
 62
     7
 10
48.017871585742313
 20
118.62499999968711
 30
0.0
 11
48.017871585742313
 21
109.12499999968711
 31
0.0
  0
LINE
  5
11B
  8
DATA
  6
CONTINUOUS
 62
     7
 10
46.667871585742319
 20
144.12499999968711
 30
0.0
 11
46.667871585742319
 21
134.62499999968711
 31
0.0
  0
LINE
  5
11C
  8
DATA
  6
CONTINUOUS
 62
     7
 10
46.667871585742319
 20
131.37499999968711
 30
0.0
 11
46.667871585742319
 21
121.87499999968711
 31
0.0
  0
LINE
  5
11D
  8
DATA
  6
CONTINUOUS
 62
     7
 10
46.667871585742319
 20
118.62499999968711
 30
0.0
 11
46.667871585742319
 21
109.12499999968711
 31
0.0
  0
LINE
  5
11E
  8
DATA
  6
CONTINUOUS
 62
     7
 10
45.317871585742317
 20
144.12499999968711
 30
0.0
 11
45.317871585742317
 21
134.62499999968711
 31
0.0
  0
LINE
  5
11F
  8
DATA
  6
CONTINUOUS
 62
     7
 10
45.317871585742317
 20
131.37499999968711
 30
0.0
 11
45.317871585742317
 21
121.87499999968711
 31
0.0
  0
LINE
  5
120
  8
DATA
  6
CONTINUOUS
 62
     7
 10
45.317871585742317
 20
118.62499999968711
 30
0.0
 11
45.317871585742317
 21
109.12499999968711
 31
0.0
  0
LINE
  5
121
  8
DATA
  6
CONTINUOUS
 62
     7
 10
43.967871585742323
 20
144.12499999968711
 30
0.0
 11
43.967871585742323
 21
134.62499999968711
 31
0.0
  0
LINE
  5
122
  8
DATA
  6
CONTINUOUS
 62
     7
 10
43.967871585742323
 20
131.37499999968711
 30
0.0
 11
43.967871585742323
 21
121.87499999968711
 31
0.0
  0
LINE
  5
123
  8
DATA
  6
CONTINUOUS
 62
     7
 10
43.967871585742323
 20
118.62499999968711
 30
0.0
 11
43.967871585742323
 21
109.12499999968711
 31
0.0
  0
LINE
  5
124
  8
DATA
  6
CONTINUOUS
 62
     7
 10
42.617871585742307
 20
144.12499999968711
 30
0.0
 11
42.617871585742307
 21
134.62499999968711
 31
0.0
  0
LINE
  5
125
  8
DATA
  6
CONTINUOUS
 62
     7
 10
42.617871585742307
 20
131.37499999968711
 30
0.0
 11
42.617871585742307
 21
121.87499999968711
 31
0.0
  0
LINE
  5
126
  8
DATA
  6
CONTINUOUS
 62
     7
 10
42.617871585742307
 20
118.62499999968711
 30
0.0
 11
42.617871585742307
 21
109.12499999968711
 31
0.0
  0
LINE
  5
127
  8
DATA
  6
CONTINUOUS
 62
     7
 10
41.217871585742323
 20
134.62499999968711
 30
0.0
 11
41.217871585742323
 21
144.13499999999999
 31
0.0
  0
LINE
  5
128
  8
DATA
  6
CONTINUOUS
 62
     7
 10
41.217871585742323
 20
109.12499999968711
 30
0.0
 11
41.217871585742323
 21
118.625
 31
0.0
  0
LINE
  5
129
  8
DATA
  6
CONTINUOUS
 62
     7
 10
41.217871585742323
 20
121.87499999968711
 30
0.0
 11
41.217871585742323
 21
131.37499999968711
 31
0.0
  0
LINE
  5
12A
  8
DATA
  6
CONTINUOUS
 62
     7
 10
41.217871585742323
 20
147.12499999968711
 30
0.0
 11
42.617871585742307
 21
147.12499999968711
 31
0.0
  0
LINE
  5
12B
  8
DATA
  6
CONTINUOUS
 62
     7
 10
43.967871585742323
 20
147.12499999968711
 30
0.0
 11
45.317871585742317
 21
147.12499999968711
 31
0.0
  0
LINE
  5
12C
  8
DATA
  6
CONTINUOUS
 62
     7
 10
46.667871585742319
 20
147.12499999968711
 30
0.0
 11
48.017871585742313
 21
147.12499999968711
 31
0.0
  0
LINE
  5
12D
  8
DATA
  6
CONTINUOUS
 62
     7
 10
49.367871585742321
 20
147.12499999968711
 30
0.0
 11
50.717871585742323
 21
147.12499999968711
 31
0.0
  0
LINE
  5
12E
  8
DATA
  6
CONTINUOUS
 62
     7
 10
52.067871585742331
 20
147.12499999968711
 30
0.0
 11
53.417871585742319
 21
147.12499999968711
 31
0.0
  0
LINE
  5
12F
  8
DATA
  6
CONTINUOUS
 62
     7
 10
54.76787158574232
 20
147.12499999968711
 30
0.0
 11
56.117871585742321
 21
147.12499999968711
 31
0.0
  0
LINE
  5
130
  8
DATA
  6
CONTINUOUS
 62
     7
 10
57.467871585742323
 20
147.12499999968711
 30
0.0
 11
58.817871585742317
 21
147.12499999968711
 31
0.0
  0
LINE
  5
131
  8
DATA
  6
CONTINUOUS
 62
     7
 10
41.217871585742323
 20
147.12499999968711
 30
0.0
 11
41.217871585742323
 21
150.1249999996875
 31
0.0
  0
LINE
  5
132
  8
DATA
  6
CONTINUOUS
 62
     7
 10
42.617871585742307
 20
147.12499999968711
 30
0.0
 11
42.617871585742307
 21
150.1249999996875
 31
0.0
  0
LINE
  5
133
  8
DATA
  6
CONTINUOUS
 62
     7
 10
43.967871585742323
 20
147.12499999968711
 30
0.0
 11
43.967871585742323
 21
150.1249999996875
 31
0.0
  0
LINE
  5
134
  8
DATA
  6
CONTINUOUS
 62
     7
 10
45.317871585742317
 20
147.12499999968711
 30
0.0
 11
45.317871585742317
 21
150.1249999996875
 31
0.0
  0
LINE
  5
135
  8
DATA
  6
CONTINUOUS
 62
     7
 10
46.667871585742319
 20
147.12499999968711
 30
0.0
 11
46.667871585742319
 21
150.1249999996875
 31
0.0
  0
LINE
  5
136
  8
DATA
  6
CONTINUOUS
 62
     7
 10
48.017871585742313
 20
147.12499999968711
 30
0.0
 11
48.017871585742313
 21
150.1249999996875
 31
0.0
  0
LINE
  5
137
  8
DATA
  6
CONTINUOUS
 62
     7
 10
49.367871585742321
 20
147.12499999968711
 30
0.0
 11
49.367871585742321
 21
150.1249999996875
 31
0.0
  0
LINE
  5
138
  8
DATA
  6
CONTINUOUS
 62
     7
 10
50.717871585742323
 20
147.12499999968711
 30
0.0
 11
50.717871585742323
 21
150.1249999996875
 31
0.0
  0
LINE
  5
139
  8
DATA
  6
CONTINUOUS
 62
     7
 10
52.067871585742331
 20
147.12499999968711
 30
0.0
 11
52.067871585742331
 21
150.1249999996875
 31
0.0
  0
LINE
  5
13A
  8
DATA
  6
CONTINUOUS
 62
     7
 10
53.417871585742319
 20
147.12499999968711
 30
0.0
 11
53.417871585742319
 21
150.1249999996875
 31
0.0
  0
LINE
  5
13B
  8
DATA
  6
CONTINUOUS
 62
     7
 10
54.76787158574232
 20
147.12499999968711
 30
0.0
 11
54.76787158574232
 21
150.1249999996875
 31
0.0
  0
LINE
  5
13C
  8
DATA
  6
CONTINUOUS
 62
     7
 10
56.117871585742321
 20
147.12499999968711
 30
0.0
 11
56.117871585742321
 21
150.1249999996875
 31
0.0
  0
LINE
  5
13D
  8
DATA
  6
CONTINUOUS
 62
     7
 10
57.467871585742323
 20
147.12499999968711
 30
0.0
 11
57.467871585742323
 21
150.1249999996875
 31
0.0
  0
LINE
  5
13E
  8
DATA
  6
CONTINUOUS
 62
     7
 10
58.817871585742317
 20
147.12499999968711
 30
0.0
 11
58.817871585742317
 21
150.1249999996875
 31
0.0
  0
LINE
  5
13F
  8
DATA
  6
CONTINUOUS
 62
     7
 10
41.217871585742323
 20
149.32499999968749
 30
0.0
 11
42.617871585742307
 21
149.32499999968749
 31
0.0
  0
LINE
  5
140
  8
DATA
  6
CONTINUOUS
 62
     7
 10
43.967871585742323
 20
149.32499999968749
 30
0.0
 11
45.317871585742317
 21
149.32499999968749
 31
0.0
  0
LINE
  5
141
  8
DATA
  6
CONTINUOUS
 62
     7
 10
46.667871585742319
 20
149.32499999968749
 30
0.0
 11
48.017871585742313
 21
149.32499999968749
 31
0.0
  0
LINE
  5
142
  8
DATA
  6
CONTINUOUS
 62
     7
 10
49.367871585742321
 20
149.32499999968749
 30
0.0
 11
50.717871585742323
 21
149.32499999968749
 31
0.0
  0
LINE
  5
143
  8
DATA
  6
CONTINUOUS
 62
     7
 10
52.067871585742331
 20
149.32499999968749
 30
0.0
 11
53.417871585742319
 21
149.32499999968749
 31
0.0
  0
LINE
  5
144
  8
DATA
  6
CONTINUOUS
 62
     7
 10
54.76787158574232
 20
149.32499999968749
 30
0.0
 11
56.117871585742321
 21
149.32499999968749
 31
0.0
  0
LINE
  5
145
  8
DATA
  6
CONTINUOUS
 62
     7
 10
57.467871585742323
 20
149.32499999968749
 30
0.0
 11
58.817871585742317
 21
149.32499999968749
 31
0.0
  0
LINE
  5
146
  8
DATA
  6
STYLE_01
 62
     7
 10
39.900000000000013
 20
120.0077400979071
 30
0.0
 11
60.350000000440957
 21
120.0077400979071
 31
0.0
  0
LINE
  5
147
  8
DATA
  6
STYLE_01
 62
     7
 10
46.62500000022046
 20
175.00774009790709
 30
0.0
 11
53.625000000220467
 21
175.00774009790709
 31
0.0
  0
LINE
  5
148
  8
DATA
  6
STYLE_01
 62
     7
 10
31.625000000220471
 20
132.7889388837697
 30
0.0
 11
31.625000000220471
 21
160.00774009790709
 31
0.0
  0
LINE
  5
149
  8
DATA
  6
STYLE_01
 62
     7
 10
68.625000000220467
 20
160.00774009790709
 30
0.0
 11
68.625000000220467
 21
132.7889388837697
 31
0.0
  0
CIRCLE
  5
14A
  8
DATA
  6
STYLE_01
 62
     7
 10
50.125000000412463
 20
203.12499999968711
 30
0.0
 40
18.5
  0
ARC
  5
14B
  8
DATA
  6
STYLE_01
 62
     7
 10
46.336729343977701
 20
133.2444694418848
 30
0.0
 40
14.71878012517832
 50
178.2264734862791
 51
244.0673678814903
  0
ARC
  5
14C
  8
DATA
  6
STYLE_01
 62
     7
 10
53.91327065646324
 20
133.2444694418848
 30
0.0
 40
14.718780125178309
 50
295.93263211850967
 51
1.77352651372081
  0
ARC
  5
14D
  8
DATA
  6
STYLE_01
 62
     7
 10
46.62500000022046
 20
160.00774009790709
 30
0.0
 40
15.0
 50
90.0
 51
180.0
  0
ARC
  5
14E
  8
DATA
  6
STYLE_01
 62
     7
 10
53.625000000220467
 20
160.00774009790709
 30
0.0
 40
15.0
 50
0.0
 51
90.0
  0
LINE
  5
14F
  8
DATA
  6
CONTINUOUS
 62
     7
 10
96.875
 20
165.625
 30
0.0
 11
64.01022146093122
 21
190.90000000000001
 31
0.0
  0
LINE
  5
150
  8
DATA
  6
CONTINUOUS
 62
     7
 10
64.01022146093122
 20
190.90000000000001
 30
0.0
 11
70.105531593716861
 21
188.43733485175579
 31
0.0
  0
LINE
  5
151
  8
DATA
  6
CONTINUOUS
 62
     7
 10
64.01022146093122
 20
190.90000000000001
 30
0.0
 11
68.057582305746209
 21
185.71961435421321
 31
0.0
  0
LINE
  5
152
  8
DATA
  6
CONTINUOUS
 62
     7
 10
96.875
 20
165.625
 30
0.0
 11
68.625000000220467
 21
155.0
 31
0.0
  0
LINE
  5
153
  8
DATA
  6
CONTINUOUS
 62
     7
 10
68.625000000220467
 20
155.0
 30
0.0
 11
74.010108607595484
 21
158.77069364096201
 31
0.0
  0
LINE
  5
154
  8
DATA
  6
CONTINUOUS
 62
     7
 10
68.625000000220467
 20
155.0
 30
0.0
 11
75.173987676826442
 21
155.57296217927399
 31
0.0
  0
CIRCLE
  5
155
  8
DATA
  6
CONTINUOUS
 62
     7
 10
50.125000000220453
 20
-68.750000000156234
 30
0.0
 40
9.5
  0
ARC
  5
156
  8
DATA
  6
CONTINUOUS
 62
     7
 10
50.125000000220531
 20
-68.750000000156206
 30
0.0
 40
8.0000000000000728
 50
232.79368802197979
 51
218.89742555091959
  0
CIRCLE
  5
157
  8
DATA
  6
CONTINUOUS
 62
     7
 10
50.125000000220453
 20
-64.750000000156234
 30
0.0
 40
1.150000000000005
  0
CIRCLE
  5
158
  8
DATA
  6
CONTINUOUS
 62
     7
 10
54.12500000022046
 20
-68.750000000156234
 30
0.0
 40
1.150000000000005
  0
CIRCLE
  5
159
  8
DATA
  6
CONTINUOUS
 62
     7
 10
46.125000000220453
 20
-68.750000000156234
 30
0.0
 40
1.150000000000005
  0
ARC
  5
15A
  8
DATA
  6
CONTINUOUS
 62
     7
 10
45.025913896429067
 20
-74.00185377695442
 30
0.0
 40
1.150000000000003
 50
168.54291116051769
 51
283.14820241238237
  0
CIRCLE
  5
15B
  8
DATA
  6
CONTINUOUS
 62
     7
 10
50.125000000220453
 20
-72.881020619000211
 30
0.0
 40
2.25
  0
TEXT
  5
15C
  8
DATA
 62
     7
 10
44.220705262724991
 20
-67.036919532567623
 30
0.0
 40
1.7374305555555549
  1
-20
 41
0.7
 11
44.220705262724991
 21
-65.299488977012061
 31
0.0
 73
     3
  0
TEXT
  5
15D
  8
DATA
 62
     7
 10
53.638824562125002
 20
-67.036919532567623
 30
0.0
 40
1.7374305555555549
  1
0
 41
0.7
 11
53.638824562125002
 21
-65.299488977012061
 31
0.0
 73
     3
  0
LINE
  5
15E
  8
DATA
  6
CONTINUOUS
 62
     7
 10
51.5
 20
-63.75
 30
0.0
 11
55.5
 21
-63.75
 31
0.0
  0
LINE
  5
15F
  8
DATA
  6
CONTINUOUS
 62
     7
 10
44.327851293385038
 20
-63.75
 30
0.0
 11
45.57570258677007
 21
-63.75
 31
0.0
  0
LINE
  5
160
  8
DATA
  6
CONTINUOUS
 62
     7
 10
47.079999999999998
 20
-63.75
 30
0.0
 11
48.327851293385031
 21
-63.75
 31
0.0
  0
LINE
  5
161
  8
DATA
  6
CONTINUOUS
 62
     7
 10
45.57570258677007
 20
-64.823642463355384
 30
0.0
 11
47.079999999999998
 21
-64.823642463355384
 31
0.0
  0
LINE
  5
162
  8
DATA
  6
CONTINUOUS
 62
     7
 10
47.079999999999998
 20
-63.75
 30
0.0
 11
47.079999999999998
 21
-64.823642463355384
 31
0.0
  0
LINE
  5
163
  8
DATA
  6
CONTINUOUS
 62
     7
 10
45.57570258677007
 20
-63.75
 30
0.0
 11
45.57570258677007
 21
-64.823642463355384
 31
0.0
  0
CIRCLE
  5
164
  8
DATA
  6
CONTINUOUS
 62
     7
 10
146.67177843615039
 20
-23.33603415920831
 30
0.0
 40
23.750000000000021
  0
ARC
  5
165
  8
DATA
  6
CONTINUOUS
 62
     7
 10
146.6717784361505
 20
-23.33603415920825
 30
0.0
 40
20.000000000000188
 50
232.7936880219797
 51
218.89742555091959
  0
CIRCLE
  5
166
  8
DATA
  6
CONTINUOUS
 62
     7
 10
146.67177843615039
 20
-13.33603415920831
 30
0.0
 40
2.8750000000000142
  0
CIRCLE
  5
167
  8
DATA
  6
CONTINUOUS
 62
     7
 10
156.67177843615039
 20
-23.33603415920831
 30
0.0
 40
2.875
  0
CIRCLE
  5
168
  8
DATA
  6
CONTINUOUS
 62
     7
 10
136.6717784361503
 20
-23.33603415920831
 30
0.0
 40
2.8750000000000142
  0
ARC
  5
169
  8
DATA
  6
CONTINUOUS
 62
     7
 10
133.92406317667181
 20
-36.46566860120376
 30
0.0
 40
2.875000000000012
 50
168.54291116051769
 51
283.14820241238237
  0
CIRCLE
  5
16A
  8
DATA
  6
CONTINUOUS
 62
     7
 10
146.67177843615039
 20
-33.663585706318287
 30
0.0
 40
5.625
  0
TEXT
  5
16B
  8
DATA
 62
     7
 10
131.91104159241169
 20
-19.053332990236751
 30
0.0
 40
4.3435763888888896
  1
-20
 41
0.7
 11
131.91104159241169
 21
-14.709756601347859
 31
0.0
 73
     3
  0
TEXT
  5
16C
  8
DATA
 62
     7
 10
155.45633984091171
 20
-19.053332990236751
 30
0.0
 40
4.3435763888888896
  1
0
 41
0.7
 11
155.45633984091171
 21
-14.709756601347859
 31
0.0
 73
     3
  0
LINE
  5
16D
  8
DATA
  6
CONTINUOUS
 62
     7
 10
150.10927843559921
 20
-10.836034158817739
 30
0.0
 11
160.10927843559921
 21
-10.836034158817739
 31
0.0
  0
LINE
  5
16E
  8
DATA
  6
CONTINUOUS
 62
     7
 10
132.1789066690618
 20
-10.836034158817739
 30
0.0
 11
135.29853490252441
 21
-10.836034158817739
 31
0.0
  0
LINE
  5
16F
  8
DATA
  6
CONTINUOUS
 62
     7
 10
139.0592784355992
 20
-10.836034158817739
 30
0.0
 11
142.1789066690618
 21
-10.836034158817739
 31
0.0
  0
LINE
  5
170
  8
DATA
  6
CONTINUOUS
 62
     7
 10
135.29853490252441
 20
-13.52014031720617
 30
0.0
 11
139.0592784355992
 21
-13.52014031720617
 31
0.0
  0
LINE
  5
171
  8
DATA
  6
CONTINUOUS
 62
     7
 10
139.0592784355992
 20
-10.836034158817739
 30
0.0
 11
139.0592784355992
 21
-13.52014031720617
 31
0.0
  0
LINE
  5
172
  8
DATA
  6
CONTINUOUS
 62
     7
 10
135.29853490252441
 20
-10.836034158817739
 30
0.0
 11
135.29853490252441
 21
-13.52014031720617
 31
0.0
  0
TEXT
  5
173
  8
DATA
 62
     7
 10
118.8569703368568
 20
-59.212186600482511
 30
0.0
 40
5.4294704861111107
  1
コネクター拡大図
 41
0.7
 11
118.8569703368568
 21
-53.782716114371389
 31
0.0
 73
     3
  0
LINE
  5
174
  8
DATA
  6
CONTINUOUS
 62
     7
 10
115.5910608903928
 20
-61.183395291935568
 30
0.0
 11
178.0910608903927
 21
-61.183395291935568
 31
0.0
  0
ENDSEC
  0
EOF
