  0
SECTION
  2
HEADER
  9
$ACADVER
  1
AC1009
  9
$INSBASE
 10
0.0
 20
0.0
 30
0.0
  9
$EXTMIN
 10
-80.010985489947416
 20
-131.67677505465531
 30
-0.0015258207003583
  9
$EXTMAX
 10
280.01098716632811
 20
403.54994963264153
 30
0.0000000349246037
  9
$LIMMIN
 10
0.0
 20
0.0
  9
$LIMMAX
 10
0.0
 20
0.0
  9
$ORTHOMODE
 70
     0
  9
$REGENMODE
 70
     1
  9
$FILLMODE
 70
     1
  9
$QTEXTMODE
 70
     0
  9
$MIRRTEXT
 70
     1
  9
$DRAGMODE
 70
     2
  9
$LTSCALE
 40
10.16
  9
$OSMODE
 70
   231
  9
$ATTMODE
 70
     1
  9
$TEXTSIZE
 40
0.0
  9
$TRACEWID
 40
1.0
  9
$TEXTSTYLE
  7
STANDARD
  9
$CLAYER
  8
DATA
  9
$CELTYPE
  6
BYLAYER
  9
$CECOLOR
 62
   256
  9
$DIMSCALE
 40
1.0
  9
$DIMASZ
 40
0.18
  9
$DIMEXO
 40
0.0625
  9
$DIMDLI
 40
0.38
  9
$DIMRND
 40
0.0
  9
$DIMDLE
 40
0.0
  9
$DIMEXE
 40
0.18
  9
$DIMTP
 40
0.0
  9
$DIMTM
 40
0.0
  9
$DIMTXT
 40
0.18
  9
$DIMCEN
 40
0.09
  9
$DIMTSZ
 40
0.0
  9
$DIMTOL
 70
     0
  9
$DIMLIM
 70
     0
  9
$DIMTIH
 70
     1
  9
$DIMTOH
 70
     1
  9
$DIMSE1
 70
     0
  9
$DIMSE2
 70
     0
  9
$DIMTAD
 70
     0
  9
$DIMZIN
 70
     0
  9
$DIMBLK
  1

  9
$DIMASO
 70
     1
  9
$DIMSHO
 70
     1
  9
$DIMPOST
  1

  9
$DIMAPOST
  1

  9
$DIMALT
 70
     0
  9
$DIMALTD
 70
     2
  9
$DIMALTF
 40
25.399999999999999
  9
$DIMLFAC
 40
1.0
  9
$DIMTOFL
 70
     0
  9
$DIMTVP
 40
0.0
  9
$DIMTIX
 70
     0
  9
$DIMSOXD
 70
     0
  9
$DIMSAH
 70
     0
  9
$DIMBLK1
  1

  9
$DIMBLK2
  1

  9
$DIMSTYLE
  2
STANDARD
  9
$DIMCLRD
 70
     0
  9
$DIMCLRE
 70
     0
  9
$DIMCLRT
 70
     0
  9
$DIMTFAC
 40
1.0
  9
$DIMGAP
 40
0.09
  9
$LUNITS
 70
     2
  9
$LUPREC
 70
     4
  9
$SKETCHINC
 40
0.1
  9
$FILLETRAD
 40
0.0
  9
$AUNITS
 70
     0
  9
$AUPREC
 70
     0
  9
$MENU
  1
acad
  9
$ELEVATION
 40
0.0
  9
$PELEVATION
 40
0.0
  9
$THICKNESS
 40
0.0
  9
$LIMCHECK
 70
     0
  9
$BLIPMODE
 70
     0
  9
$CHAMFERA
 40
0.0
  9
$CHAMFERB
 40
0.0
  9
$SKPOLY
 70
     0
  9
$TDCREATE
 40
2455618.5949189821
  9
$TDUPDATE
 40
2455618.6045453819
  9
$TDINDWG
 40
0.0002379977
  9
$TDUSRTIMER
 40
0.0002378125
  9
$USRTIMER
 70
     1
  9
$ANGBASE
 50
0.0
  9
$ANGDIR
 70
     0
  9
$PDMODE
 70
     1
  9
$PDSIZE
 40
-2.0
  9
$PLINEWID
 40
0.0
  9
$COORDS
 70
     1
  9
$SPLFRAME
 70
     0
  9
$SPLINETYPE
 70
     6
  9
$SPLINESEGS
 70
     8
  9
$ATTDIA
 70
     0
  9
$ATTREQ
 70
     1
  9
$HANDLING
 70
     1
  9
$HANDSEED
  5
200
  9
$SURFTAB1
 70
     6
  9
$SURFTAB2
 70
     6
  9
$SURFTYPE
 70
     6
  9
$SURFU
 70
     6
  9
$SURFV
 70
     6
  9
$UCSNAME
  2

  9
$UCSORG
 10
0.0
 20
0.0
 30
0.0
  9
$UCSXDIR
 10
1.0
 20
0.0
 30
0.0
  9
$UCSYDIR
 10
0.0
 20
1.0
 30
0.0
  9
$PUCSNAME
  2

  9
$PUCSORG
 10
0.0
 20
0.0
 30
0.0
  9
$PUCSXDIR
 10
1.0
 20
0.0
 30
0.0
  9
$PUCSYDIR
 10
0.0
 20
1.0
 30
0.0
  9
$USERI1
 70
     0
  9
$USERI2
 70
     0
  9
$USERI3
 70
     0
  9
$USERI4
 70
     0
  9
$USERI5
 70
     0
  9
$USERR1
 40
0.0
  9
$USERR2
 40
0.0
  9
$USERR3
 40
0.0
  9
$USERR4
 40
0.0
  9
$USERR5
 40
0.0
  9
$WORLDVIEW
 70
     1
  9
$SHADEDGE
 70
     3
  9
$SHADEDIF
 70
    70
  9
$TILEMODE
 70
     1
  9
$MAXACTVP
 70
    64
  9
$PLIMCHECK
 70
     0
  9
$PEXTMIN
 10
1.0000000000000000E+020
 20
1.0000000000000000E+020
 30
1.0000000000000000E+020
  9
$PEXTMAX
 10
-1.0000000000000000E+020
 20
-1.0000000000000000E+020
 30
-1.0000000000000000E+020
  9
$PLIMMIN
 10
0.0
 20
0.0
  9
$PLIMMAX
 10
12.0
 20
9.0
  9
$UNITMODE
 70
     0
  9
$VISRETAIN
 70
     0
  9
$PLINEGEN
 70
     1
  9
$PSLTSCALE
 70
     0
  0
ENDSEC
  0
SECTION
  2
TABLES
  0
TABLE
  2
VPORT
 70
     1
  0
VPORT
  2
*ACTIVE
 70
     0
 10
0.0
 20
0.0
 11
1.0
 21
1.0
 12
100.0000008381904
 22
135.93658728899311
 13
0.0
 23
0.0
 14
1.0
 24
1.0
 15
0.0
 25
0.0
 16
0.0
 26
0.0
 36
1.0
 17
0.0
 27
0.0
 37
0.0
 40
539.16704413284754
 41
1.9619164619164611
 42
50.0
 43
0.0
 44
0.0
 50
0.0
 51
0.0
 71
     0
 72
  2000
 73
     1
 74
     1
 75
     0
 76
     0
 77
     0
 78
     0
  0
ENDTAB
  0
TABLE
  2
LTYPE
 70
    11
  0
LTYPE
  2
CONTINUOUS
 70
     0
  3
Solid line
 72
    65
 73
     0
 40
0.0
  0
LTYPE
  2
STYLE_01
 70
     0
  3

 72
    65
 73
     2
 40
0.4166412353515625
 49
0.208282470703125
 49
-0.2083587646484375
  0
ENDTAB
  0
TABLE
  2
LAYER
 70
     5
  0
LAYER
  2
0
 70
     0
 62
     7
  6
CONTINUOUS
  0
LAYER
  2
DATA
 70
     0
 62
     7
  6
CONTINUOUS
  0
LAYER
  2
HIBINO-BASE
 70
     0
 62
     7
  6
CONTINUOUS
  0
LAYER
  2
SPEC
 70
     0
 62
     7
  6
CONTINUOUS
  0
LAYER
  2
DIMNSIONS
 70
     0
 62
     7
  6
CONTINUOUS
  0
ENDTAB
  0
TABLE
  2
STYLE
 70
     3
  0
STYLE
  2
STANDARD
 70
     0
 40
0.0
 41
1.0
 50
0.0
 71
     0
 42
0.0
  3
txt
  4
BIGFONT.SHX
  0
ENDTAB
  0
TABLE
  2
VIEW
 70
     0
  0
ENDTAB
  0
TABLE
  2
UCS
 70
     0
  0
ENDTAB
  0
TABLE
  2
APPID
 70
     3
  0
APPID
  2
ACAD
 70
     0
  0
APPID
  2
ACADANNOTATIVE
 70
     0
  0
APPID
  2
ACAD_MLEADERVER
 70
     0
  0
ENDTAB
  0
TABLE
  2
DIMSTYLE
 70
     2
  0
DIMSTYLE
  2
STANDARD
 70
     0
  3

  4

  5

  6

  7

 40
1.0
 41
0.18
 42
0.0625
 43
0.38
 44
0.18
 45
0.0
 46
0.0
 47
0.0
 48
0.0
140
0.18
141
0.09
142
0.0
143
25.399999999999999
144
1.0
145
0.0
146
1.0
147
0.09
 71
     0
 72
     0
 73
     1
 74
     1
 75
     0
 76
     0
 77
     0
 78
     0
170
     0
171
     2
172
     0
173
     0
174
     0
175
     0
176
     0
177
     0
178
     0
  0
ENDTAB
  0
ENDSEC
  0
SECTION
  2
BLOCKS
  0
BLOCK
  8
0
  2
$MODEL_SPACE
 70
     0
 10
0.0
 20
0.0
 30
0.0
  3
$MODEL_SPACE
  1

  0
ENDBLK
  5
197
  8
0
  0
BLOCK
 67
     1
  8
0
  2
$PAPER_SPACE
 70
     0
 10
0.0
 20
0.0
 30
0.0
  3
$PAPER_SPACE
  1

  0
ENDBLK
  5
193
 67
     1
  8
0
  0
ENDSEC
  0
SECTION
  2
ENTITIES
  0
LINE
  5
2C
  8
HIBINO-BASE
  6
CONTINUOUS
 62
     7
 10
-79.999999999999986
 20
403.53364789486591
 30
0.0
 11
279.99999999999989
 21
403.53364789486591
 31
0.0
  0
LINE
  5
2D
  8
HIBINO-BASE
  6
CONTINUOUS
 62
     7
 10
279.99999999999989
 20
-116.46635210513411
 30
0.0
 11
-79.999999999999986
 21
-116.46635210513411
 31
0.0
  0
LINE
  5
2E
  8
HIBINO-BASE
  6
CONTINUOUS
 62
     7
 10
-79.999999999999986
 20
-116.46635210513411
 30
0.0
 11
-79.999999999999986
 21
403.53364789486591
 31
0.0
  0
LINE
  5
2F
  8
HIBINO-BASE
  6
CONTINUOUS
 62
     7
 10
279.99999999999989
 20
403.53364789486591
 30
0.0
 11
279.99999999999989
 21
-116.46635210513411
 31
0.0
  0
LINE
  5
30
  8
HIBINO-BASE
  6
CONTINUOUS
 62
     7
 10
100.0
 20
-71.466352105134064
 30
0.0
 11
279.99999999999989
 21
-71.466352105134064
 31
0.0
  0
LINE
  5
31
  8
HIBINO-BASE
  6
CONTINUOUS
 62
     7
 10
100.0
 20
-116.46635210513411
 30
0.0
 11
100.0
 21
-71.466352105134064
 31
0.0
  0
TEXT
  5
32
  8
HIBINO-BASE
 62
     7
 10
101.8
 20
-76.483738771800731
 30
0.0
 40
3.2576822916666659
  1
NOTE
 41
0.7
 11
101.8
 21
-73.226056480134062
 31
0.0
 73
     3
  0
LINE
  5
33
  8
HIBINO-BASE
  6
CONTINUOUS
 62
     7
 10
170.0
 20
-116.46635210513411
 30
0.0
 11
170.0
 21
-71.466352105134064
 31
0.0
  0
TEXT
  5
34
  8
HIBINO-BASE
 62
     7
 10
171.7999999999999
 20
-76.483738771800731
 30
0.0
 40
3.2576822916666659
  1
TITLE
 41
0.7
 11
171.7999999999999
 21
-73.226056480134062
 31
0.0
 73
     3
  0
LINE
  5
35
  8
HIBINO-BASE
  6
CONTINUOUS
 62
     7
 10
100.0
 20
-96.466352105134064
 30
0.0
 11
279.99999999999989
 21
-96.466352105134064
 31
0.0
  0
TEXT
  5
36
  8
HIBINO-BASE
 62
     7
 10
196.80000000000001
 20
-101.3710987718007
 30
0.0
 40
3.2576822916666659
  1
DRAWN
 41
0.7
 11
196.80000000000001
 21
-98.113416480134106
 31
0.0
 73
     3
  0
TEXT
  5
37
  8
HIBINO-BASE
 62
     7
 10
146.7999999999999
 20
-101.3710987718007
 30
0.0
 40
3.2576822916666659
  1
DATE
 41
0.7
 11
146.7999999999999
 21
-98.113416480134106
 31
0.0
 73
     3
  0
TEXT
  5
38
  8
HIBINO-BASE
 62
     7
 10
126.8
 20
-101.3710987718007
 30
0.0
 40
3.2576822916666659
  1
SCALE
 41
0.7
 11
126.8
 21
-98.113416480134106
 31
0.0
 73
     3
  0
TEXT
  5
39
  8
HIBINO-BASE
 62
     7
 10
171.7999999999999
 20
-101.3710987718007
 30
0.0
 40
3.2576822916666659
  1
DESIGN
 41
0.7
 11
171.7999999999999
 21
-98.113416480134106
 31
0.0
 73
     3
  0
TEXT
  5
3A
  8
HIBINO-BASE
 62
     7
 10
246.7999999999999
 20
-101.3710987718007
 30
0.0
 40
3.2576822916666659
  1
DRAWING NO.
 41
0.7
 11
246.7999999999999
 21
-98.113416480134106
 31
0.0
 73
     3
  0
TEXT
  5
3B
  8
HIBINO-BASE
 62
     7
 10
221.7999999999999
 20
-101.3710987718007
 30
0.0
 40
3.2576822916666659
  1
CHECK
 41
0.7
 11
221.7999999999999
 21
-98.113416480134106
 31
0.0
 73
     3
  0
LINE
  5
3C
  8
HIBINO-BASE
  6
CONTINUOUS
 62
     7
 10
128.74999999999989
 20
-113.96635210513411
 30
0.0
 11
136.25
 21
-106.46635210513401
 31
0.0
  0
TEXT
  5
3D
  8
HIBINO-BASE
 62
     7
 10
127.5
 20
-108.68423877180069
 30
0.0
 40
3.2576822916666659
  1
1
 41
0.7
 11
127.5
 21
-105.4265564801341
 31
0.0
 73
     3
  0
LINE
  5
3E
  8
HIBINO-BASE
  6
CONTINUOUS
 62
     7
 10
125.0
 20
-116.46635210513411
 30
0.0
 11
125.0
 21
-96.466352105134064
 31
0.0
  0
LINE
  5
3F
  8
HIBINO-BASE
  6
CONTINUOUS
 62
     7
 10
145.0
 20
-116.46635210513411
 30
0.0
 11
145.0
 21
-96.466352105134064
 31
0.0
  0
LINE
  5
40
  8
HIBINO-BASE
  6
CONTINUOUS
 62
     7
 10
195.0
 20
-96.466352105134064
 30
0.0
 11
195.0
 21
-116.46635210513411
 31
0.0
  0
LINE
  5
41
  8
HIBINO-BASE
  6
CONTINUOUS
 62
     7
 10
245.0
 20
-96.466352105134064
 30
0.0
 11
245.0
 21
-116.46635210513411
 31
0.0
  0
LINE
  5
42
  8
HIBINO-BASE
  6
CONTINUOUS
 62
     7
 10
220.0
 20
-116.46635210513411
 30
0.0
 11
220.0
 21
-96.466352105134064
 31
0.0
  0
TEXT
  5
43
  8
HIBINO-BASE
 62
     7
 10
146.71307999999999
 20
-110.7390587718007
 30
0.0
 40
3.2576822916666659
  1
'11.02.
 41
0.7
 11
146.71307999999999
 21
-107.4813764801341
 31
0.0
 73
     3
  0
TEXT
  5
44
  8
HIBINO-BASE
 62
     7
 10
135.0
 20
-112.43423877180069
 30
0.0
 40
3.2576822916666659
  1
2
 41
0.7
 11
135.0
 21
-109.1765564801341
 31
0.0
 73
     3
  0
TEXT
  5
45
  8
HIBINO-BASE
 62
     7
 10
198.0116200220692
 20
-110.7390587718007
 30
0.0
 40
3.2576822916666659
  1
T.Ootake
 41
0.7
 11
198.0116200220692
 21
-107.4813764801341
 31
0.0
 73
     3
  0
TEXT
  5
46
  8
HIBINO-BASE
 62
     7
 10
107.76666666666659
 20
-112.51435210513399
 30
0.0
 40
6.5153645833333318
  1
A4
 41
0.7
 11
107.76666666666659
 21
-105.9989875218007
 31
0.0
 73
     3
  0
TEXT
  5
47
  8
HIBINO-BASE
 62
     7
 10
101.9166666666666
 20
-101.7052621051341
 30
0.0
 40
3.2576822916666659
  1
PAPER SIZE
 41
0.7
 11
101.9166666666666
 21
-98.447579813467414
 31
0.0
 73
     3
  0
TEXT
  5
48
  8
HIBINO-BASE
 62
     7
 10
-74.48072948621963
 20
-129.31683257348661
 30
0.0
 40
7.0583116319444441
  1
Hibino-Intersound Corporation
 41
0.7
 11
-74.48072948621963
 21
-122.2585209415421
 31
0.0
 73
     3
  0
TEXT
  5
49
  8
HIBINO-BASE
 62
     7
 10
140.36121936042781
 20
-128.61465606690771
 30
0.0
 40
7.0583116319444441
  1
ヒビノインターサウンド株式会社
 41
0.7
 11
140.36121936042781
 21
-121.55634443496329
 31
0.0
 73
     3
  0
LINE
  5
4A
  8
SPEC
  6
CONTINUOUS
 62
     7
 10
-64.999999999999986
 20
383.53364789486602
 30
0.0
 11
230.0
 21
383.53364789486602
 31
0.0
  0
LINE
  5
4B
  8
SPEC
  6
CONTINUOUS
 62
     7
 10
-64.999999999999986
 20
376.03364789486591
 30
0.0
 11
230.0
 21
376.03364789486591
 31
0.0
  0
LINE
  5
4C
  8
SPEC
  6
CONTINUOUS
 62
     7
 10
-64.999999999999986
 20
361.03364789486602
 30
0.0
 11
230.0
 21
361.03364789486602
 31
0.0
  0
LINE
  5
4D
  8
SPEC
  6
CONTINUOUS
 62
     7
 10
-64.999999999999986
 20
368.53364789486602
 30
0.0
 11
230.0
 21
368.53364789486602
 31
0.0
  0
LINE
  5
4E
  8
SPEC
  6
CONTINUOUS
 62
     7
 10
-64.999999999999986
 20
383.53364789486602
 30
0.0
 11
-64.999999999999986
 21
248.53364789486591
 31
0.0
  0
TEXT
  5
4F
  8
SPEC
 62
     7
 10
-62.5
 20
386.32018789486591
 30
0.0
 40
4.8865234375000002
  1
仕様
 41
0.7
 11
-62.5
 21
391.2067113323659
 31
0.0
 73
     3
  0
LINE
  5
50
  8
SPEC
  6
CONTINUOUS
 62
     7
 10
30.0
 20
383.53364789486602
 30
0.0
 11
29.999999999999972
 21
248.53364789486591
 31
0.0
  0
LINE
  5
51
  8
SPEC
  6
CONTINUOUS
 62
     7
 10
230.0
 20
383.53364789486602
 30
0.0
 11
230.0
 21
248.53364789486591
 31
0.0
  0
LINE
  5
52
  8
SPEC
  6
CONTINUOUS
 62
     7
 10
-64.999999999999986
 20
353.53364789486602
 30
0.0
 11
230.0
 21
353.53364789486602
 31
0.0
  0
LINE
  5
53
  8
SPEC
  6
CONTINUOUS
 62
     7
 10
-64.999999999999986
 20
346.03364789486602
 30
0.0
 11
230.0
 21
346.03364789486602
 31
0.0
  0
LINE
  5
54
  8
SPEC
  6
CONTINUOUS
 62
     7
 10
-64.999999999999986
 20
338.53364789486591
 30
0.0
 11
230.0
 21
338.53364789486591
 31
0.0
  0
LINE
  5
55
  8
SPEC
  6
CONTINUOUS
 62
     7
 10
-64.999999999999986
 20
331.03364789486602
 30
0.0
 11
230.0
 21
331.03364789486602
 31
0.0
  0
LINE
  5
56
  8
SPEC
  6
CONTINUOUS
 62
     7
 10
-64.999999999999986
 20
323.53364789486602
 30
0.0
 11
230.0
 21
323.53364789486602
 31
0.0
  0
LINE
  5
57
  8
SPEC
  6
CONTINUOUS
 62
     7
 10
-64.999999999999986
 20
316.03364789486602
 30
0.0
 11
230.0
 21
316.03364789486602
 31
0.0
  0
LINE
  5
58
  8
SPEC
  6
CONTINUOUS
 62
     7
 10
-64.999999999999986
 20
308.53364789486602
 30
0.0
 11
230.0
 21
308.53364789486602
 31
0.0
  0
LINE
  5
59
  8
SPEC
  6
CONTINUOUS
 62
     7
 10
-64.999999999999986
 20
301.03364789486591
 30
0.0
 11
230.0
 21
301.03364789486591
 31
0.0
  0
LINE
  5
5A
  8
SPEC
  6
CONTINUOUS
 62
     7
 10
-64.999999999999986
 20
293.53364789486602
 30
0.0
 11
230.0
 21
293.53364789486602
 31
0.0
  0
LINE
  5
5B
  8
SPEC
  6
CONTINUOUS
 62
     7
 10
-64.999999999999986
 20
286.03364789486602
 30
0.0
 11
230.0
 21
286.03364789486602
 31
0.0
  0
LINE
  5
5C
  8
SPEC
  6
CONTINUOUS
 62
     7
 10
-64.999999999999986
 20
278.53364789486591
 30
0.0
 11
230.0
 21
278.53364789486591
 31
0.0
  0
LINE
  5
5D
  8
SPEC
  6
CONTINUOUS
 62
     7
 10
-64.999999999999986
 20
271.03364789486591
 30
0.0
 11
230.0
 21
271.03364789486591
 31
0.0
  0
LINE
  5
5E
  8
SPEC
  6
CONTINUOUS
 62
     7
 10
-64.999999999999986
 20
263.53364789486591
 30
0.0
 11
230.0
 21
263.53364789486591
 31
0.0
  0
LINE
  5
5F
  8
SPEC
  6
CONTINUOUS
 62
     7
 10
-64.999999999999986
 20
256.03364789486591
 30
0.0
 11
230.0
 21
256.03364789486591
 31
0.0
  0
LINE
  5
60
  8
SPEC
  6
CONTINUOUS
 62
     7
 10
-64.999999999999986
 20
248.53364789486591
 30
0.0
 11
230.0
 21
248.53364789486591
 31
0.0
  0
LINE
  5
61
  8
SPEC
  6
CONTINUOUS
 62
     7
 10
-64.999999999999986
 20
256.03364789486591
 30
0.0
 11
230.0
 21
256.03364789486591
 31
0.0
  0
LINE
  5
62
  8
SPEC
  6
CONTINUOUS
 62
     7
 10
-64.999999999999986
 20
248.53364789486591
 30
0.0
 11
230.0
 21
248.53364789486591
 31
0.0
  0
TEXT
  5
63
  8
SPEC
 62
     7
 10
-63.242468843554967
 20
377.81702648956542
 30
0.0
 40
3.8006293402777769
  1
指向性
 41
0.7
 11
-63.242468843554967
 21
381.6176558298431
 31
0.0
 73
     3
  0
TEXT
  5
64
  8
SPEC
 62
     7
 10
31.83901173842138
 20
377.83247490759288
 30
0.0
 40
3.8006293402777769
  1
無指向性
 41
0.7
 11
31.83901173842138
 21
381.63310424787079
 31
0.0
 73
     3
  0
TEXT
  5
65
  8
SPEC
 62
     7
 10
-63.211629745196362
 20
265.621695116137
 30
0.0
 40
3.8006293402777769
  1
寸法
 41
0.7
 11
-63.211629745196362
 21
269.4223244564148
 31
0.0
 73
     3
  0
TEXT
  5
66
  8
SPEC
 62
     7
 10
31.25069582540743
 20
265.29345481830308
 30
0.0
 40
3.8006293402777769
  1
\U+03A619\U+00D7169mm(突起部含まず）
 41
0.7
 11
31.25069582540743
 21
269.09408415858093
 31
0.0
 73
     3
  0
TEXT
  5
67
  8
SPEC
 62
     7
 10
31.856746809418748
 20
272.811469197176
 30
0.0
 40
3.8006293402777769
  1
約165g
 41
0.7
 11
31.856746809418748
 21
276.61209853745379
 31
0.0
 73
     3
  0
TEXT
  5
68
  8
SPEC
 62
     7
 10
-63.225259317042607
 20
272.9536053100266
 30
0.0
 40
3.8006293402777769
  1
重量
 41
0.7
 11
-63.225259317042607
 21
276.7542346503044
 31
0.0
 73
     3
  0
TEXT
  5
69
  8
SPEC
 62
     7
 10
-63.565747826942371
 20
370.37032243286473
 30
0.0
 40
3.8006293402777769
  1
カートリッチ
 41
0.7
 11
-63.565747826942371
 21
374.17095177314252
 31
0.0
 73
     3
  0
TEXT
  5
6A
  8
SPEC
 62
     7
 10
31.210001466389869
 20
370.37899383609169
 30
0.0
 40
3.8006293402777769
  1
プリポラライズド・コンデンサー
 41
0.7
 11
31.210001466389869
 21
374.17962317636949
 31
0.0
 73
     3
  0
TEXT
  5
6B
  8
SPEC
 62
     7
 10
-63.198491194344548
 20
347.80121475540471
 30
0.0
 40
3.8006293402777769
  1
等価雑音レベル(Aウェイト、代表値)
 41
0.7
 11
-63.198491194344548
 21
351.60184409568251
 31
0.0
 73
     3
  0
TEXT
  5
6C
  8
SPEC
 62
     7
 10
31.70591545115721
 20
347.71165386468613
 30
0.0
 40
3.8006293402777769
  1
15dB SPL
 41
0.7
 11
31.70591545115721
 21
351.51228320496392
 31
0.0
 73
     3
  0
TEXT
  5
6D
  8
SPEC
 62
     7
 10
-63.270339542210351
 20
355.37772734128868
 30
0.0
 40
3.8006293402777769
  1
感度(\U+00B12dB@250Hz、公称値）
 41
0.7
 11
-63.270339542210351
 21
359.17835668156653
 31
0.0
 73
     3
  0
TEXT
  5
6E
  8
SPEC
 62
     7
 10
32.017844080601698
 20
355.3512093810163
 30
0.0
 40
3.8006293402777769
  1
-28dB re、1V/Pa
 41
0.7
 11
32.017844080601698
 21
359.1518387212941
 31
0.0
 73
     3
  0
TEXT
  5
6F
  8
SPEC
 62
     7
 10
-63.245882527000717
 20
363.0054896246524
 30
0.0
 40
3.8006293402777769
  1
周波数レンジ(\U+00B12dB)
 41
0.7
 11
-63.245882527000717
 21
366.80611896493019
 31
0.0
 73
     3
  0
TEXT
  5
70
  8
SPEC
 62
     7
 10
31.573315000942909
 20
362.92807363266502
 30
0.0
 40
3.8006293402777769
  1
10Hz～20kHz
 41
0.7
 11
31.573315000942909
 21
366.72870297294281
 31
0.0
 73
     3
  0
TEXT
  5
71
  8
SPEC
 62
     7
 10
-63.214185969108023
 20
340.48585848992838
 30
0.0
 40
3.8006293402777769
  1
全高調波歪み(THD)
 41
0.7
 11
-63.214185969108023
 21
344.28648783020623
 31
0.0
 73
     3
  0
TEXT
  5
72
  8
SPEC
 62
     7
 10
31.70591545115721
 20
340.37788744665647
 30
0.0
 40
3.8006293402777769
  1
1%%%以下(139dB SPL)
 41
0.7
 11
31.70591545115721
 21
344.17851678693432
 31
0.0
 73
     3
  0
TEXT
  5
73
  8
SPEC
 62
     7
 10
-63.673971970186223
 20
287.8858988916723
 30
0.0
 40
3.8006293402777769
  1
コネクター
 41
0.7
 11
-63.673971970186223
 21
291.68652823195009
 31
0.0
 73
     3
  0
TEXT
  5
74
  8
SPEC
 62
     7
 10
31.88246526492917
 20
287.7702404467135
 30
0.0
 40
3.8006293402777769
  1
XLR3ピン(オス)
 41
0.7
 11
31.88246526492917
 21
291.5708697869913
 31
0.0
 73
     3
  0
TEXT
  5
75
  8
SPEC
 62
     7
 10
-63.43330512829943
 20
302.78187274439
 30
0.0
 40
3.8006293402777769
  1
ケーブル引き伸ばし可能距離
 41
0.7
 11
-63.43330512829943
 21
306.58250208466768
 31
0.0
 73
     3
  0
TEXT
  5
76
  8
SPEC
 62
     7
 10
31.850771999796478
 20
303.0475244069454
 30
0.0
 40
3.8006293402777769
  1
最大100m
 41
0.7
 11
31.850771999796478
 21
306.84815374722319
 31
0.0
 73
     3
  0
TEXT
  5
77
  8
SPEC
 62
     7
 10
-63.441014503210468
 20
310.51896405089548
 30
0.0
 40
3.8006293402777769
  1
インピーダンス
 41
0.7
 11
-63.441014503210468
 21
314.31959339117333
 31
0.0
 73
     3
  0
TEXT
  5
78
  8
SPEC
 62
     7
 10
31.76330365888716
 20
310.54295584379088
 30
0.0
 40
3.8006293402777769
  1
200\U+03A9以下
 41
0.7
 11
31.76330365888716
 21
314.34358518406867
 31
0.0
 73
     3
  0
TEXT
  5
79
  8
SPEC
 62
     7
 10
-63.469388162739577
 20
317.8643743217317
 30
0.0
 40
3.8006293402777769
  1
アッテネータースイッチ
 41
0.7
 11
-63.469388162739577
 21
321.6650036620095
 31
0.0
 73
     3
  0
TEXT
  5
7A
  8
SPEC
 62
     7
 10
31.894010631167649
 20
317.98921741324961
 30
0.0
 40
3.8006293402777769
  1
0dB、-20dB
 41
0.7
 11
31.894010631167649
 21
321.7898467535274
 31
0.0
 73
     3
  0
TEXT
  5
7B
  8
SPEC
 62
     7
 10
-63.549552266758802
 20
332.8409180163469
 30
0.0
 40
3.8006293402777769
  1
ダイナミックレンジ(代表値)
 41
0.7
 11
-63.549552266758802
 21
336.6415473566247
 31
0.0
 73
     3
  0
TEXT
  5
7C
  8
SPEC
 62
     7
 10
31.594966588836161
 20
332.7763977566724
 30
0.0
 40
3.8006293402777769
  1
121dB
 41
0.7
 11
31.594966588836161
 21
336.57702709695019
 31
0.0
 73
     3
  0
TEXT
  5
7D
  8
SPEC
 62
     7
 10
-63.207502705823082
 20
325.44118480556
 30
0.0
 40
3.8006293402777769
  1
最大音圧レベル
 41
0.7
 11
-63.207502705823082
 21
329.24181414583768
 31
0.0
 73
     3
  0
TEXT
  5
7E
  8
SPEC
 62
     7
 10
31.696140784613661
 20
325.22890531615462
 30
0.0
 40
3.8006293402777769
  1
147dB SPL
 41
0.7
 11
31.696140784613661
 21
329.02953465643242
 31
0.0
 73
     3
  0
TEXT
  5
7F
  8
SPEC
 62
     7
 10
-63.363017810082397
 20
295.36748120898898
 30
0.0
 40
3.8006293402777769
  1
電源
 41
0.7
 11
-63.363017810082397
 21
299.16811054926683
 31
0.0
 73
     3
  0
TEXT
  5
80
  8
SPEC
 62
     7
 10
31.249692135609148
 20
295.48583709544118
 30
0.0
 40
3.8006293402777769
  1
ファンタムDC48V/2.8mA
 41
0.7
 11
31.249692135609148
 21
299.28646643571898
 31
0.0
 73
     3
  0
TEXT
  5
81
  8
SPEC
 62
     7
 10
-63.24235132942708
 20
280.469858520456
 30
0.0
 40
3.8006293402777769
  1
色
 41
0.7
 11
-63.24235132942708
 21
284.27048786073368
 31
0.0
 73
     3
  0
TEXT
  5
82
  8
SPEC
 62
     7
 10
31.68755638508561
 20
280.39406978973523
 30
0.0
 40
3.8006293402777769
  1
マットブラック
 41
0.7
 11
31.68755638508561
 21
284.19469913001302
 31
0.0
 73
     3
  0
TEXT
  5
83
  8
SPEC
 62
     7
 10
-63.049076758132713
 20
250.54325953693609
 30
0.0
 40
3.8006293402777769
  1
使用湿度範囲
 41
0.7
 11
-63.049076758132713
 21
254.34388887721391
 31
0.0
 73
     3
  0
TEXT
  5
84
  8
SPEC
 62
     7
 10
31.76990124612847
 20
250.62305237163079
 30
0.0
 40
3.8006293402777769
  1
90%%%以下
 41
0.7
 11
31.76990124612847
 21
254.4236817119085
 31
0.0
 73
     3
  0
TEXT
  5
85
  8
SPEC
 62
     7
 10
-63.222822386735707
 20
258.07030734553041
 30
0.0
 40
3.8006293402777769
  1
使用温度範囲
 41
0.7
 11
-63.222822386735707
 21
261.8709366858082
 31
0.0
 73
     3
  0
TEXT
  5
86
  8
SPEC
 62
     7
 10
31.93486087539468
 20
257.8708941827025
 30
0.0
 40
3.8006293402777769
  1
-40℃～45℃
 41
0.7
 11
31.93486087539468
 21
261.67152352298018
 31
0.0
 73
     3
  0
TEXT
  5
87
  8
DIMNSIONS
 62
     7
 10
60.0
 20
-91.927372105134054
 30
0.0
 40
4.8865234375000002
  1
(単位：mm)
 41
0.7
 11
60.0
 21
-87.040848667634066
 31
0.0
 73
     3
  0
LINE
  5
88
  8
DIMNSIONS
  6
CONTINUOUS
 62
     7
 10
36.62500000022046
 20
-46.875000000312468
 30
0.0
 11
11.625
 21
-46.875000000312468
 31
0.0
  0
LINE
  5
89
  8
DIMNSIONS
  6
CONTINUOUS
 62
     7
 10
36.62500000022046
 20
122.12499999968711
 30
0.0
 11
11.625
 21
122.12499999968711
 31
0.0
  0
LINE
  5
8A
  8
DIMNSIONS
  6
CONTINUOUS
 62
     7
 10
15.625
 20
-46.875000000312468
 30
0.0
 11
15.625
 21
122.12499999968711
 31
0.0
  0
LINE
  5
8B
  8
DIMNSIONS
  6
CONTINUOUS
 62
     7
 10
15.625
 20
-46.875000000312468
 30
0.0
 11
14.284920409699501
 21
-41.873754883124967
 31
0.0
  0
LINE
  5
8C
  8
DIMNSIONS
  6
CONTINUOUS
 62
     7
 10
15.625
 20
-46.875000000312468
 30
0.0
 11
16.965079590300491
 21
-41.873754883124967
 31
0.0
  0
LINE
  5
8D
  8
DIMNSIONS
  6
CONTINUOUS
 62
     7
 10
15.625
 20
122.12499999968711
 30
0.0
 11
16.965079590300491
 21
117.1237548824996
 31
0.0
  0
LINE
  5
8E
  8
DIMNSIONS
  6
CONTINUOUS
 62
     7
 10
15.625
 20
122.12499999968711
 30
0.0
 11
14.284920409699501
 21
117.1237548824996
 31
0.0
  0
TEXT
  5
8F
  8
DIMNSIONS
 62
     7
 10
13.637222222222221
 20
32.333333333020683
 30
0.0
 40
5.4294704861111107
  1
169
 50
90.0
 41
0.7
 11
8.2077517361111063
 21
32.333333333020683
 31
0.0
 73
     3
  0
LINE
  5
90
  8
DIMNSIONS
  6
CONTINUOUS
 62
     7
 10
57.403376414817018
 20
206.44542719621501
 30
0.0
 11
84.375
 21
218.75
 31
0.0
  0
LINE
  5
91
  8
DIMNSIONS
  6
CONTINUOUS
 62
     7
 10
57.403376414817018
 20
206.44542719621501
 30
0.0
 11
61.427181700167672
 21
209.70384046897769
 31
0.0
  0
LINE
  5
92
  8
DIMNSIONS
  6
CONTINUOUS
 62
     7
 10
57.403376414817018
 20
206.44542719621501
 30
0.0
 11
62.517300648194102
 21
207.25539322378049
 31
0.0
  0
LINE
  5
93
  8
DIMNSIONS
  6
CONTINUOUS
 62
     7
 10
84.375
 20
218.75
 30
0.0
 11
102.4861111111111
 21
218.75
 31
0.0
  0
TEXT
  5
94
  8
DIMNSIONS
 62
     7
 10
88.375
 20
220.73777777777781
 30
0.0
 40
5.4294704861111107
  1
\U+03C616
 41
0.7
 11
88.375
 21
226.16724826388889
 31
0.0
 73
     3
  0
LINE
  5
95
  8
DIMNSIONS
  6
CONTINUOUS
 62
     7
 10
58.253778749158933
 20
-63.833399950243212
 30
0.0
 11
65.625
 21
-59.375
 31
0.0
  0
LINE
  5
96
  8
DIMNSIONS
  6
CONTINUOUS
 62
     7
 10
58.253778749158933
 20
-63.833399950243212
 30
0.0
 11
61.850490513993542
 21
-60.108895887789792
 31
0.0
  0
LINE
  5
97
  8
DIMNSIONS
  6
CONTINUOUS
 62
     7
 10
58.253778749158933
 20
-63.833399950243212
 30
0.0
 11
63.230874538822768
 21
-62.406240698077511
 31
0.0
  0
LINE
  5
98
  8
DIMNSIONS
  6
CONTINUOUS
 62
     7
 10
65.625
 20
-59.375
 30
0.0
 11
83.7361111111111
 21
-59.375
 31
0.0
  0
TEXT
  5
99
  8
DIMNSIONS
 62
     7
 10
69.625
 20
-57.387222222222249
 30
0.0
 40
5.4294704861111107
  1
\U+03C619
 41
0.7
 11
69.625
 21
-51.957751736111142
 31
0.0
 73
     3
  0
LINE
  5
9A
  8
DIMNSIONS
  6
CONTINUOUS
 62
     7
 10
36.62500000022046
 20
99.124999999687105
 30
0.0
 11
27.25
 21
99.124999999687105
 31
0.0
  0
LINE
  5
9B
  8
DIMNSIONS
  6
CONTINUOUS
 62
     7
 10
38.12500000022046
 20
122.12499999968711
 30
0.0
 11
27.25
 21
122.12499999968711
 31
0.0
  0
LINE
  5
9C
  8
DIMNSIONS
  6
CONTINUOUS
 62
     7
 10
31.25
 20
99.124999999687105
 30
0.0
 11
31.25
 21
122.12499999968711
 31
0.0
  0
LINE
  5
9D
  8
DIMNSIONS
  6
CONTINUOUS
 62
     7
 10
31.25
 20
99.124999999687105
 30
0.0
 11
29.909920409699509
 21
104.1262451168746
 31
0.0
  0
LINE
  5
9E
  8
DIMNSIONS
  6
CONTINUOUS
 62
     7
 10
31.25
 20
99.124999999687105
 30
0.0
 11
32.590079590300491
 21
104.1262451168746
 31
0.0
  0
LINE
  5
9F
  8
DIMNSIONS
  6
CONTINUOUS
 62
     7
 10
31.25
 20
122.12499999968711
 30
0.0
 11
32.590079590300491
 21
117.1237548824996
 31
0.0
  0
LINE
  5
A0
  8
DIMNSIONS
  6
CONTINUOUS
 62
     7
 10
31.25
 20
122.12499999968711
 30
0.0
 11
29.909920409699509
 21
117.1237548824996
 31
0.0
  0
TEXT
  5
A1
  8
DIMNSIONS
 62
     7
 10
29.262222222222231
 20
107.09722222190931
 30
0.0
 40
5.4294704861111107
  1
23
 50
90.0
 41
0.7
 11
23.832751736111121
 21
107.09722222190931
 31
0.0
 73
     3
  0
TEXT
  5
A2
  8
DATA
 62
     7
 10
202.89542165461219
 20
-93.678803709234302
 30
0.0
 40
4.8865234375000002
  1
4006A
 41
0.7
 11
202.89542165461219
 21
-88.792280271734299
 31
0.0
 73
     3
  0
TEXT
  5
A3
  8
DATA
 62
     7
 10
203.1003369643245
 20
-78.475080246860045
 30
0.0
 40
4.8865234375000002
  1
DPA
 41
0.7
 11
203.1003369643245
 21
-73.588556809360043
 31
0.0
 73
     3
  0
TEXT
  5
A4
  8
DATA
 62
     7
 10
-60.0
 20
-107.99035210513409
 30
0.0
 40
3.2576822916666659
  1
仕様および外観は予告なく変更されることがありますので、ご了承ください。
 41
0.7
 11
-60.0
 21
-104.7326698134674
 31
0.0
 73
     3
  0
CIRCLE
  5
A5
  8
DATA
  6
CONTINUOUS
 62
     7
 10
50.125000000220453
 20
203.12499999968711
 30
0.0
 40
3.8000000000000109
  0
LINE
  5
A6
  8
DATA
  6
CONTINUOUS
 62
     7
 10
40.625000000220453
 20
99.124999999687105
 30
0.0
 11
59.625000000220453
 21
99.124999999687105
 31
0.0
  0
LINE
  5
A7
  8
DATA
  6
CONTINUOUS
 62
     7
 10
42.125000000220453
 20
121.9249999996871
 30
0.0
 11
42.775000000220452
 21
121.9249999996871
 31
0.0
  0
LINE
  5
A8
  8
DATA
  6
CONTINUOUS
 62
     7
 10
43.475000000220469
 20
121.9249999996871
 30
0.0
 11
44.175000000220471
 21
121.9249999996871
 31
0.0
  0
LINE
  5
A9
  8
DATA
  6
CONTINUOUS
 62
     7
 10
44.875000000220453
 20
121.9249999996871
 30
0.0
 11
45.57500000022047
 21
121.9249999996871
 31
0.0
  0
LINE
  5
AA
  8
DATA
  6
CONTINUOUS
 62
     7
 10
46.275000000220452
 20
121.9249999996871
 30
0.0
 11
46.975000000220462
 21
121.9249999996871
 31
0.0
  0
LINE
  5
AB
  8
DATA
  6
CONTINUOUS
 62
     7
 10
47.675000000220457
 20
121.9249999996871
 30
0.0
 11
48.375000000220453
 21
121.9249999996871
 31
0.0
  0
LINE
  5
AC
  8
DATA
  6
CONTINUOUS
 62
     7
 10
49.07500000022047
 20
121.9249999996871
 30
0.0
 11
49.775000000220459
 21
121.9249999996871
 31
0.0
  0
LINE
  5
AD
  8
DATA
  6
CONTINUOUS
 62
     7
 10
50.475000000220462
 20
121.9249999996871
 30
0.0
 11
51.175000000220457
 21
121.9249999996871
 31
0.0
  0
LINE
  5
AE
  8
DATA
  6
CONTINUOUS
 62
     7
 10
51.875000000220453
 20
121.9249999996871
 30
0.0
 11
52.575000000220463
 21
121.9249999996871
 31
0.0
  0
LINE
  5
AF
  8
DATA
  6
CONTINUOUS
 62
     7
 10
53.275000000220459
 20
121.9249999996871
 30
0.0
 11
53.975000000220462
 21
121.9249999996871
 31
0.0
  0
LINE
  5
B0
  8
DATA
  6
CONTINUOUS
 62
     7
 10
54.675000000220457
 20
121.9249999996871
 30
0.0
 11
55.37500000022046
 21
121.9249999996871
 31
0.0
  0
LINE
  5
B1
  8
DATA
  6
CONTINUOUS
 62
     7
 10
56.075000000220463
 20
121.9249999996871
 30
0.0
 11
56.775000000220459
 21
121.9249999996871
 31
0.0
  0
LINE
  5
B2
  8
DATA
  6
CONTINUOUS
 62
     7
 10
57.475000000220462
 20
121.9249999996871
 30
0.0
 11
58.125000000220453
 21
121.9249999996871
 31
0.0
  0
LINE
  5
B3
  8
DATA
  6
CONTINUOUS
 62
     7
 10
40.625000000220453
 20
99.124999999687105
 30
0.0
 11
40.625000000220453
 21
103.12499999968711
 31
0.0
  0
LINE
  5
B4
  8
DATA
  6
CONTINUOUS
 62
     7
 10
59.625000000220453
 20
99.124999999687105
 30
0.0
 11
59.625000000220453
 21
103.12499999968711
 31
0.0
  0
CIRCLE
  5
B5
  8
DATA
  6
CONTINUOUS
 62
     7
 10
50.125000000220453
 20
203.12499999968711
 30
0.0
 40
1.0
  0
LINE
  5
B6
  8
DATA
  6
CONTINUOUS
 62
     7
 10
40.625000000220453
 20
99.424999999687117
 30
0.0
 11
59.625000000220453
 21
99.424999999687117
 31
0.0
  0
TEXT
  5
B7
  8
DATA
 62
     7
 10
47.547273025013212
 20
100.1513387233567
 30
0.0
 40
1.900314670138888
  1
4006
 41
0.7
 11
47.547273025013212
 21
102.0516533934956
 31
0.0
 73
     3
  0
LINE
  5
B8
  8
DATA
  6
CONTINUOUS
 62
     7
 10
49.775000000220459
 20
120.12499999968711
 30
0.0
 11
49.775000000220459
 21
122.12499999968711
 31
0.0
  0
LINE
  5
B9
  8
DATA
  6
CONTINUOUS
 62
     7
 10
50.475000000220462
 20
122.12499999968711
 30
0.0
 11
50.475000000220462
 21
120.12499999968711
 31
0.0
  0
LINE
  5
BA
  8
DATA
  6
CONTINUOUS
 62
     7
 10
49.775000000220459
 20
122.12499999968711
 30
0.0
 11
50.475000000220462
 21
122.12499999968711
 31
0.0
  0
LINE
  5
BB
  8
DATA
  6
CONTINUOUS
 62
     7
 10
48.375000000220453
 20
120.12499999968711
 30
0.0
 11
48.375000000220453
 21
122.12499999968711
 31
0.0
  0
LINE
  5
BC
  8
DATA
  6
CONTINUOUS
 62
     7
 10
49.07500000022047
 20
122.12499999968711
 30
0.0
 11
49.07500000022047
 21
120.12499999968711
 31
0.0
  0
LINE
  5
BD
  8
DATA
  6
CONTINUOUS
 62
     7
 10
48.375000000220453
 20
122.12499999968711
 30
0.0
 11
49.07500000022047
 21
122.12499999968711
 31
0.0
  0
LINE
  5
BE
  8
DATA
  6
CONTINUOUS
 62
     7
 10
46.975000000220462
 20
120.12499999968711
 30
0.0
 11
46.975000000220462
 21
122.12499999968711
 31
0.0
  0
LINE
  5
BF
  8
DATA
  6
CONTINUOUS
 62
     7
 10
47.675000000220457
 20
122.12499999968711
 30
0.0
 11
47.675000000220457
 21
120.12499999968711
 31
0.0
  0
LINE
  5
C0
  8
DATA
  6
CONTINUOUS
 62
     7
 10
46.975000000220462
 20
122.12499999968711
 30
0.0
 11
47.675000000220457
 21
122.12499999968711
 31
0.0
  0
LINE
  5
C1
  8
DATA
  6
CONTINUOUS
 62
     7
 10
45.57500000022047
 20
120.12499999968711
 30
0.0
 11
45.57500000022047
 21
122.12499999968711
 31
0.0
  0
LINE
  5
C2
  8
DATA
  6
CONTINUOUS
 62
     7
 10
46.275000000220452
 20
122.12499999968711
 30
0.0
 11
46.275000000220452
 21
120.12499999968711
 31
0.0
  0
LINE
  5
C3
  8
DATA
  6
CONTINUOUS
 62
     7
 10
45.57500000022047
 20
122.12499999968711
 30
0.0
 11
46.275000000220452
 21
122.12499999968711
 31
0.0
  0
LINE
  5
C4
  8
DATA
  6
CONTINUOUS
 62
     7
 10
44.175000000220471
 20
120.12499999968711
 30
0.0
 11
44.175000000220471
 21
122.12499999968711
 31
0.0
  0
LINE
  5
C5
  8
DATA
  6
CONTINUOUS
 62
     7
 10
44.875000000220453
 20
122.12499999968711
 30
0.0
 11
44.875000000220453
 21
120.12499999968711
 31
0.0
  0
LINE
  5
C6
  8
DATA
  6
CONTINUOUS
 62
     7
 10
44.175000000220471
 20
122.12499999968711
 30
0.0
 11
44.875000000220453
 21
122.12499999968711
 31
0.0
  0
LINE
  5
C7
  8
DATA
  6
CONTINUOUS
 62
     7
 10
42.775000000220452
 20
120.12499999968711
 30
0.0
 11
42.775000000220452
 21
122.12499999968711
 31
0.0
  0
LINE
  5
C8
  8
DATA
  6
CONTINUOUS
 62
     7
 10
43.475000000220469
 20
122.12499999968711
 30
0.0
 11
43.475000000220469
 21
120.12499999968711
 31
0.0
  0
LINE
  5
C9
  8
DATA
  6
CONTINUOUS
 62
     7
 10
42.775000000220452
 20
122.12499999968711
 30
0.0
 11
43.475000000220469
 21
122.12499999968711
 31
0.0
  0
LINE
  5
CA
  8
DATA
  6
CONTINUOUS
 62
     7
 10
51.175000000220457
 20
120.12499999968711
 30
0.0
 11
51.175000000220457
 21
122.12499999968711
 31
0.0
  0
LINE
  5
CB
  8
DATA
  6
CONTINUOUS
 62
     7
 10
51.875000000220453
 20
122.12499999968711
 30
0.0
 11
51.875000000220453
 21
120.12499999968711
 31
0.0
  0
LINE
  5
CC
  8
DATA
  6
CONTINUOUS
 62
     7
 10
51.175000000220457
 20
122.12499999968711
 30
0.0
 11
51.875000000220453
 21
122.12499999968711
 31
0.0
  0
LINE
  5
CD
  8
DATA
  6
CONTINUOUS
 62
     7
 10
52.575000000220463
 20
120.12499999968711
 30
0.0
 11
52.575000000220463
 21
122.12499999968711
 31
0.0
  0
LINE
  5
CE
  8
DATA
  6
CONTINUOUS
 62
     7
 10
53.275000000220459
 20
122.12499999968711
 30
0.0
 11
53.275000000220459
 21
120.12499999968711
 31
0.0
  0
LINE
  5
CF
  8
DATA
  6
CONTINUOUS
 62
     7
 10
52.575000000220463
 20
122.12499999968711
 30
0.0
 11
53.275000000220459
 21
122.12499999968711
 31
0.0
  0
LINE
  5
D0
  8
DATA
  6
CONTINUOUS
 62
     7
 10
53.975000000220462
 20
120.12499999968711
 30
0.0
 11
53.975000000220462
 21
122.12499999968711
 31
0.0
  0
LINE
  5
D1
  8
DATA
  6
CONTINUOUS
 62
     7
 10
54.675000000220457
 20
122.12499999968711
 30
0.0
 11
54.675000000220457
 21
120.12499999968711
 31
0.0
  0
LINE
  5
D2
  8
DATA
  6
CONTINUOUS
 62
     7
 10
53.975000000220462
 20
122.12499999968711
 30
0.0
 11
54.675000000220457
 21
122.12499999968711
 31
0.0
  0
LINE
  5
D3
  8
DATA
  6
CONTINUOUS
 62
     7
 10
55.37500000022046
 20
120.12499999968711
 30
0.0
 11
55.37500000022046
 21
122.12499999968711
 31
0.0
  0
LINE
  5
D4
  8
DATA
  6
CONTINUOUS
 62
     7
 10
56.075000000220463
 20
122.12499999968711
 30
0.0
 11
56.075000000220463
 21
120.12499999968711
 31
0.0
  0
LINE
  5
D5
  8
DATA
  6
CONTINUOUS
 62
     7
 10
55.37500000022046
 20
122.12499999968711
 30
0.0
 11
56.075000000220463
 21
122.12499999968711
 31
0.0
  0
LINE
  5
D6
  8
DATA
  6
CONTINUOUS
 62
     7
 10
56.775000000220459
 20
120.12499999968711
 30
0.0
 11
56.775000000220459
 21
122.12499999968711
 31
0.0
  0
LINE
  5
D7
  8
DATA
  6
CONTINUOUS
 62
     7
 10
57.475000000220462
 20
122.12499999968711
 30
0.0
 11
57.475000000220462
 21
120.12499999968711
 31
0.0
  0
LINE
  5
D8
  8
DATA
  6
CONTINUOUS
 62
     7
 10
56.775000000220459
 20
122.12499999968711
 30
0.0
 11
57.475000000220462
 21
122.12499999968711
 31
0.0
  0
LINE
  5
D9
  8
DATA
  6
CONTINUOUS
 62
     7
 10
42.125000000220453
 20
120.12499999968711
 30
0.0
 11
42.775000000220452
 21
120.12499999968711
 31
0.0
  0
LINE
  5
DA
  8
DATA
  6
CONTINUOUS
 62
     7
 10
43.475000000220469
 20
120.12499999968711
 30
0.0
 11
44.175000000220471
 21
120.12499999968711
 31
0.0
  0
LINE
  5
DB
  8
DATA
  6
CONTINUOUS
 62
     7
 10
44.875000000220453
 20
120.12499999968711
 30
0.0
 11
45.57500000022047
 21
120.12499999968711
 31
0.0
  0
LINE
  5
DC
  8
DATA
  6
CONTINUOUS
 62
     7
 10
46.275000000220452
 20
120.12499999968711
 30
0.0
 11
46.975000000220462
 21
120.12499999968711
 31
0.0
  0
LINE
  5
DD
  8
DATA
  6
CONTINUOUS
 62
     7
 10
47.675000000220457
 20
120.12499999968711
 30
0.0
 11
48.375000000220453
 21
120.12499999968711
 31
0.0
  0
LINE
  5
DE
  8
DATA
  6
CONTINUOUS
 62
     7
 10
49.07500000022047
 20
120.12499999968711
 30
0.0
 11
49.775000000220459
 21
120.12499999968711
 31
0.0
  0
LINE
  5
DF
  8
DATA
  6
CONTINUOUS
 62
     7
 10
50.475000000220462
 20
120.12499999968711
 30
0.0
 11
51.175000000220457
 21
120.12499999968711
 31
0.0
  0
LINE
  5
E0
  8
DATA
  6
CONTINUOUS
 62
     7
 10
51.875000000220453
 20
120.12499999968711
 30
0.0
 11
52.575000000220463
 21
120.12499999968711
 31
0.0
  0
LINE
  5
E1
  8
DATA
  6
CONTINUOUS
 62
     7
 10
53.275000000220459
 20
120.12499999968711
 30
0.0
 11
53.975000000220462
 21
120.12499999968711
 31
0.0
  0
LINE
  5
E2
  8
DATA
  6
CONTINUOUS
 62
     7
 10
54.675000000220457
 20
120.12499999968711
 30
0.0
 11
55.37500000022046
 21
120.12499999968711
 31
0.0
  0
LINE
  5
E3
  8
DATA
  6
CONTINUOUS
 62
     7
 10
56.075000000220463
 20
120.12499999968711
 30
0.0
 11
56.775000000220459
 21
120.12499999968711
 31
0.0
  0
LINE
  5
E4
  8
DATA
  6
CONTINUOUS
 62
     7
 10
57.475000000220462
 20
120.12499999968711
 30
0.0
 11
58.125000000220453
 21
120.12499999968711
 31
0.0
  0
LINE
  5
E5
  8
DATA
  6
CONTINUOUS
 62
     7
 10
50.098772712995093
 20
206.92490948932041
 30
0.0
 11
50.118098178423331
 21
211.1249970221761
 31
0.0
  0
LINE
  5
E6
  8
DATA
  6
CONTINUOUS
 62
     7
 10
51.400000000220459
 20
206.70471716728571
 30
0.0
 11
52.854674537553322
 21
210.6448987304048
 31
0.0
  0
LINE
  5
E7
  8
DATA
  6
CONTINUOUS
 62
     7
 10
52.547443470449927
 20
206.05275812383991
 30
0.0
 11
55.262011861773452
 21
209.2577896695083
 31
0.0
  0
LINE
  5
E8
  8
DATA
  6
CONTINUOUS
 62
     7
 10
53.402704506711707
 20
205.04766824151329
 30
0.0
 11
57.049749741269899
 21
207.1309756640961
 31
0.0
  0
LINE
  5
E9
  8
DATA
  6
CONTINUOUS
 62
     7
 10
53.862626005724103
 20
203.81067619366121
 30
0.0
 11
58.002260603573987
 21
204.520981871652
 31
0.0
  0
LINE
  5
EA
  8
DATA
  6
CONTINUOUS
 62
     7
 10
53.871734646987782
 20
202.490981477313
 30
0.0
 11
58.004657581128853
 21
201.7426120629508
 31
0.0
  0
LINE
  5
EB
  8
DATA
  6
CONTINUOUS
 62
     7
 10
53.428931793937103
 20
201.24775875188001
 30
0.0
 11
57.056651563065437
 21
199.1309786412931
 31
0.0
  0
LINE
  5
EC
  8
DATA
  6
CONTINUOUS
 62
     7
 10
52.587626005724097
 20
200.23095902606261
 30
0.0
 11
55.272586066241182
 21
197.00108314093521
 31
0.0
  0
LINE
  5
ED
  8
DATA
  6
CONTINUOUS
 62
     7
 10
51.449291176758308
 20
199.56322335316031
 30
0.0
 11
52.867645719575862
 21
195.60982239312941
 31
0.0
  0
LINE
  5
EE
  8
DATA
  6
CONTINUOUS
 62
     7
 10
50.151227287445849
 20
199.3250905100538
 30
0.0
 11
50.131901822017539
 21
195.1250029771891
 31
0.0
  0
LINE
  5
EF
  8
DATA
  6
CONTINUOUS
 62
     7
 10
48.850000000220462
 20
199.5452828320885
 30
0.0
 11
47.39532546288789
 21
195.6051012689704
 31
0.0
  0
LINE
  5
F0
  8
DATA
  6
CONTINUOUS
 62
     7
 10
47.702556529990993
 20
200.19724187553439
 30
0.0
 11
44.987988138667518
 21
196.99221032986611
 31
0.0
  0
LINE
  5
F1
  8
DATA
  6
CONTINUOUS
 62
     7
 10
46.847295493729213
 20
201.202331757861
 30
0.0
 11
43.200250259171092
 21
199.1190243352782
 31
0.0
  0
LINE
  5
F2
  8
DATA
  6
CONTINUOUS
 62
     7
 10
46.387373994716818
 20
202.439323805713
 30
0.0
 11
42.247739396866933
 21
201.7290181277223
 31
0.0
  0
LINE
  5
F3
  8
DATA
  6
CONTINUOUS
 62
     7
 10
46.378265353453159
 20
203.7590185220611
 30
0.0
 11
42.245342419312131
 21
204.50738793642341
 31
0.0
  0
LINE
  5
F4
  8
DATA
  6
CONTINUOUS
 62
     7
 10
46.82106820650381
 20
205.0022412474942
 30
0.0
 11
43.193348437375448
 21
207.11902135808111
 31
0.0
  0
LINE
  5
F5
  8
DATA
  6
CONTINUOUS
 62
     7
 10
47.662373994716823
 20
206.0190409733116
 30
0.0
 11
44.977413934199468
 21
209.2489168584392
 31
0.0
  0
LINE
  5
F6
  8
DATA
  6
CONTINUOUS
 62
     7
 10
48.800708823682612
 20
206.68677664621401
 30
0.0
 11
47.382354280865023
 21
210.64017760624469
 31
0.0
  0
LINE
  5
F7
  8
DATA
  6
CONTINUOUS
 62
     7
 10
40.625000000220453
 20
-46.875000000312468
 30
0.0
 11
59.625000000220453
 21
-46.875000000312468
 31
0.0
  0
LINE
  5
F8
  8
DATA
  6
CONTINUOUS
 62
     7
 10
40.625000000220453
 20
99.124999999687105
 30
0.0
 11
40.625000000220453
 21
-46.875000000312468
 31
0.0
  0
LINE
  5
F9
  8
DATA
  6
CONTINUOUS
 62
     7
 10
59.625000000220453
 20
99.124999999687105
 30
0.0
 11
59.625000000220453
 21
-46.875000000312468
 31
0.0
  0
TEXT
  5
FA
  8
DATA
 62
     7
 10
45.020649461207277
 20
-43.481133746408197
 30
0.0
 40
3.2576822916666659
  1
MMP-A
 41
0.7
 11
45.020649461207277
 21
-40.223451454741529
 31
0.0
 73
     3
  0
CIRCLE
  5
FB
  8
DATA
  6
CONTINUOUS
 62
     7
 10
50.125000000220453
 20
-68.750000000156234
 30
0.0
 40
9.5
  0
ARC
  5
FC
  8
DATA
  6
CONTINUOUS
 62
     7
 10
50.125000000220382
 20
-68.750000000156263
 30
0.0
 40
8.0000000000000728
 50
52.793688021979818
 51
38.897425550919721
  0
CIRCLE
  5
FD
  8
DATA
  6
CONTINUOUS
 62
     7
 10
50.125000000220453
 20
-72.75000000015622
 30
0.0
 40
1.150000000000005
  0
CIRCLE
  5
FE
  8
DATA
  6
CONTINUOUS
 62
     7
 10
46.125000000220453
 20
-68.750000000156234
 30
0.0
 40
1.150000000000005
  0
CIRCLE
  5
FF
  8
DATA
  6
CONTINUOUS
 62
     7
 10
54.12500000022046
 20
-68.750000000156234
 30
0.0
 40
1.150000000000005
  0
ARC
  5
100
  8
DATA
  6
CONTINUOUS
 62
     7
 10
55.224086104011832
 20
-63.498146223358049
 30
0.0
 40
1.150000000000003
 50
348.54291116051758
 51
103.1482024123824
  0
CIRCLE
  5
101
  8
DATA
  6
STYLE_01
 62
     7
 10
50.125000000220453
 20
203.12499999968711
 30
0.0
 40
31.0
  0
ARC
  5
102
  8
DATA
  6
STYLE_01
 62
     7
 10
50.125000000220453
 20
134.12499999968711
 30
0.0
 40
31.0
 50
0.0
 51
180.0
  0
ARC
  5
103
  8
DATA
  6
STYLE_01
 62
     7
 10
50.125000000220453
 20
102.0268204536528
 30
0.0
 40
31.0
 50
180.0
 51
252.15448225317479
  0
ARC
  5
104
  8
DATA
  6
STYLE_01
 62
     7
 10
50.125000000220453
 20
102.0268204536528
 30
0.0
 40
31.0
 50
287.84551774682518
 51
0.0
  0
LINE
  5
105
  8
DATA
  6
STYLE_01
 62
     7
 10
40.625000000220453
 20
72.518347094293773
 30
0.0
 11
59.625000000220403
 21
72.518347094293773
 31
0.0
  0
LINE
  5
106
  8
DATA
  6
STYLE_01
 62
     7
 10
19.125000000220449
 20
102.0268204536528
 30
0.0
 11
19.125000000220449
 21
134.12499999968711
 31
0.0
  0
LINE
  5
107
  8
DATA
  6
STYLE_01
 62
     7
 10
81.125000000220453
 20
102.0268204536527
 30
0.0
 11
81.125000000220453
 21
134.12499999968711
 31
0.0
  0
TEXT
  5
108
  8
DATA
 62
     7
 10
108.67754738730569
 20
168.05978791054929
 30
0.0
 40
5.4294704861111107
  1
ウインドスクリーン
 41
0.7
 11
108.67754738730569
 21
173.4892583966604
 31
0.0
 73
     3
  0
LINE
  5
109
  8
DATA
  6
CONTINUOUS
 62
     7
 10
58.125000000220453
 20
122.12499999968711
 30
0.0
 11
58.125000000220453
 21
115.12499999968711
 31
0.0
  0
LINE
  5
10A
  8
DATA
  6
CONTINUOUS
 62
     7
 10
42.125000000220453
 20
115.12499999968711
 30
0.0
 11
58.125000000220453
 21
115.12499999968711
 31
0.0
  0
LINE
  5
10B
  8
DATA
  6
CONTINUOUS
 62
     7
 10
42.125000000220453
 20
115.12499999968711
 30
0.0
 11
42.125000000220453
 21
122.12499999968711
 31
0.0
  0
LINE
  5
10C
  8
DATA
  6
CONTINUOUS
 62
     7
 10
40.625000000220453
 20
103.12499999968711
 30
0.0
 11
42.125000000220453
 21
115.12499999968711
 31
0.0
  0
LINE
  5
10D
  8
DATA
  6
CONTINUOUS
 62
     7
 10
58.125000000220453
 20
115.12499999968711
 30
0.0
 11
59.625000000220453
 21
103.12499999968711
 31
0.0
  0
ARC
  5
10E
  8
DATA
  6
CONTINUOUS
 62
     7
 10
50.125000000220467
 20
203.12499999968719
 30
0.0
 40
8.0
 50
130.04943066361241
 51
150.0494306636123
  0
ARC
  5
10F
  8
DATA
  6
CONTINUOUS
 62
     7
 10
50.125000000220467
 20
203.12499999968719
 30
0.0
 40
7.9999999999999956
 50
170.0494306636123
 51
190.0494306636121
  0
ARC
  5
110
  8
DATA
  6
CONTINUOUS
 62
     7
 10
50.125000000220467
 20
203.12499999968719
 30
0.0
 40
7.9999999999999902
 50
210.04943066361199
 51
230.04943066361199
  0
ARC
  5
111
  8
DATA
  6
CONTINUOUS
 62
     7
 10
50.125000000220467
 20
203.12499999968719
 30
0.0
 40
7.9999999999999822
 50
250.0494306636119
 51
270.04943066362432
  0
ARC
  5
112
  8
DATA
  6
CONTINUOUS
 62
     7
 10
50.125000000220467
 20
203.12499999968719
 30
0.0
 40
7.9999999999999956
 50
330.04943066361199
 51
350.04943066361238
  0
ARC
  5
113
  8
DATA
  6
CONTINUOUS
 62
     7
 10
50.125000000220467
 20
203.12499999968719
 30
0.0
 40
7.9999999999999982
 50
10.04943066361214
 51
30.04943066361237
  0
ARC
  5
114
  8
DATA
  6
CONTINUOUS
 62
     7
 10
50.125000000220467
 20
203.12499999968719
 30
0.0
 40
8.0
 50
50.049430663612398
 51
70.049430663612384
  0
ARC
  5
115
  8
DATA
  6
CONTINUOUS
 62
     7
 10
50.125000000220467
 20
203.12499999968719
 30
0.0
 40
7.9999999999999929
 50
90.049430663523594
 51
110.0494306636125
  0
ARC
  5
116
  8
DATA
  6
CONTINUOUS
 62
     7
 10
50.125000000220417
 20
203.12499999968699
 30
0.0
 40
7.7500000000000009
 50
150.0595294288037
 51
170.05952942880381
  0
ARC
  5
117
  8
DATA
  6
CONTINUOUS
 62
     7
 10
50.125000000220417
 20
203.12499999968699
 30
0.0
 40
7.7499999999999947
 50
190.05952942880359
 51
210.05952942880381
  0
ARC
  5
118
  8
DATA
  6
CONTINUOUS
 62
     7
 10
50.125000000220417
 20
203.12499999968699
 30
0.0
 40
7.7499999999999947
 50
230.0595294288037
 51
250.05952942880401
  0
ARC
  5
119
  8
DATA
  6
CONTINUOUS
 62
     7
 10
50.125000000220417
 20
203.12499999968699
 30
0.0
 40
7.7499999999999947
 50
270.05952942881061
 51
290.05952942880441
  0
ARC
  5
11A
  8
DATA
  6
CONTINUOUS
 62
     7
 10
50.125000000220417
 20
203.12499999968699
 30
0.0
 40
7.7499999999999902
 50
310.0595294288043
 51
330.05952942880452
  0
ARC
  5
11B
  8
DATA
  6
CONTINUOUS
 62
     7
 10
50.125000000220417
 20
203.12499999968699
 30
0.0
 40
7.7499999999999867
 50
350.05952942880458
 51
10.05952942880441
  0
ARC
  5
11C
  8
DATA
  6
CONTINUOUS
 62
     7
 10
50.125000000220417
 20
203.12499999968699
 30
0.0
 40
7.7499999999999867
 50
30.059529428804471
 51
50.059529428803629
  0
ARC
  5
11D
  8
DATA
  6
CONTINUOUS
 62
     7
 10
50.125000000220417
 20
203.12499999968699
 30
0.0
 40
7.7500000000000071
 50
70.059529428804325
 51
90.059529428810464
  0
ARC
  5
11E
  8
DATA
  6
CONTINUOUS
 62
     7
 10
50.125000000220417
 20
203.12499999968699
 30
0.0
 40
7.7500000000000062
 50
110.0595294288039
 51
130.0595294288039
  0
ARC
  5
11F
  8
DATA
  6
CONTINUOUS
 62
     7
 10
50.125000000220432
 20
203.12499999968719
 30
0.0
 40
8.0000000000000249
 50
290.0494306636121
 51
310.04943066361199
  0
CIRCLE
  5
120
  8
DATA
  6
CONTINUOUS
 62
     7
 10
50.125000000220432
 20
203.12499999968719
 30
0.0
 40
9.5
  0
LINE
  5
121
  8
DATA
  6
CONTINUOUS
 62
     7
 10
103.125
 20
165.625
 30
0.0
 11
175.0
 21
165.625
 31
0.0
  0
LINE
  5
122
  8
DATA
  6
CONTINUOUS
 62
     7
 10
103.125
 20
165.625
 30
0.0
 11
75.899005800847945
 21
185.90000000000001
 31
0.0
  0
LINE
  5
123
  8
DATA
  6
CONTINUOUS
 62
     7
 10
75.899005800847945
 20
185.90000000000001
 30
0.0
 11
82.036367021463136
 21
183.5440877573848
 31
0.0
  0
LINE
  5
124
  8
DATA
  6
CONTINUOUS
 62
     7
 10
75.899005800847945
 20
185.90000000000001
 30
0.0
 11
80.036160408794572
 21
180.7910395385008
 31
0.0
  0
LINE
  5
125
  8
DATA
  6
CONTINUOUS
 62
     7
 10
103.125
 20
165.625
 30
0.0
 11
75.899005800847945
 21
151.34999999937421
 31
0.0
  0
LINE
  5
126
  8
DATA
  6
CONTINUOUS
 62
     7
 10
75.899005800847945
 20
151.34999999937421
 30
0.0
 11
80.784442667062564
 21
155.74886711187571
 31
0.0
  0
LINE
  5
127
  8
DATA
  6
CONTINUOUS
 62
     7
 10
75.899005800847945
 20
151.34999999937421
 30
0.0
 11
82.329351791825559
 21
152.71681223356509
 31
0.0
  0
TEXT
  5
128
  8
DATA
 62
     7
 10
194.2770439289078
 20
-85.819495206116756
 30
0.0
 40
3.2576822916666659
  1
無指向性マイクロホン
 41
0.7
 11
194.2770439289078
 21
-82.561812914450087
 31
0.0
 73
     3
  0
ENDSEC
  0
EOF
