  0
SECTION
  2
HEADER
  9
$ACADVER
  1
AC1009
  9
$INSBASE
 10
0.0
 20
0.0
 30
0.0
  9
$EXTMIN
 10
-80.010985489947416
 20
-131.67677505465531
 30
-0.0015258207003583
  9
$EXTMAX
 10
280.01098716632811
 20
403.54994963264153
 30
0.0000000349246037
  9
$LIMMIN
 10
0.0
 20
0.0
  9
$LIMMAX
 10
0.0
 20
0.0
  9
$ORTHOMODE
 70
     0
  9
$REGENMODE
 70
     1
  9
$FILLMODE
 70
     1
  9
$QTEXTMODE
 70
     0
  9
$MIRRTEXT
 70
     1
  9
$DRAGMODE
 70
     2
  9
$LTSCALE
 40
10.16
  9
$OSMODE
 70
   231
  9
$ATTMODE
 70
     1
  9
$TEXTSIZE
 40
0.0
  9
$TRACEWID
 40
1.0
  9
$TEXTSTYLE
  7
STANDARD
  9
$CLAYER
  8
DATA
  9
$CELTYPE
  6
BYLAYER
  9
$CECOLOR
 62
   256
  9
$DIMSCALE
 40
1.0
  9
$DIMASZ
 40
0.18
  9
$DIMEXO
 40
0.0625
  9
$DIMDLI
 40
0.38
  9
$DIMRND
 40
0.0
  9
$DIMDLE
 40
0.0
  9
$DIMEXE
 40
0.18
  9
$DIMTP
 40
0.0
  9
$DIMTM
 40
0.0
  9
$DIMTXT
 40
0.18
  9
$DIMCEN
 40
0.09
  9
$DIMTSZ
 40
0.0
  9
$DIMTOL
 70
     0
  9
$DIMLIM
 70
     0
  9
$DIMTIH
 70
     1
  9
$DIMTOH
 70
     1
  9
$DIMSE1
 70
     0
  9
$DIMSE2
 70
     0
  9
$DIMTAD
 70
     0
  9
$DIMZIN
 70
     0
  9
$DIMBLK
  1

  9
$DIMASO
 70
     1
  9
$DIMSHO
 70
     1
  9
$DIMPOST
  1

  9
$DIMAPOST
  1

  9
$DIMALT
 70
     0
  9
$DIMALTD
 70
     2
  9
$DIMALTF
 40
25.399999999999999
  9
$DIMLFAC
 40
1.0
  9
$DIMTOFL
 70
     0
  9
$DIMTVP
 40
0.0
  9
$DIMTIX
 70
     0
  9
$DIMSOXD
 70
     0
  9
$DIMSAH
 70
     0
  9
$DIMBLK1
  1

  9
$DIMBLK2
  1

  9
$DIMSTYLE
  2
STANDARD
  9
$DIMCLRD
 70
     0
  9
$DIMCLRE
 70
     0
  9
$DIMCLRT
 70
     0
  9
$DIMTFAC
 40
1.0
  9
$DIMGAP
 40
0.09
  9
$LUNITS
 70
     2
  9
$LUPREC
 70
     4
  9
$SKETCHINC
 40
0.1
  9
$FILLETRAD
 40
0.0
  9
$AUNITS
 70
     0
  9
$AUPREC
 70
     0
  9
$MENU
  1
acad
  9
$ELEVATION
 40
0.0
  9
$PELEVATION
 40
0.0
  9
$THICKNESS
 40
0.0
  9
$LIMCHECK
 70
     0
  9
$BLIPMODE
 70
     0
  9
$CHAMFERA
 40
0.0
  9
$CHAMFERB
 40
0.0
  9
$SKPOLY
 70
     0
  9
$TDCREATE
 40
2455618.5959143522
  9
$TDUPDATE
 40
2455618.614209468
  9
$TDINDWG
 40
0.000275787
  9
$TDUSRTIMER
 40
0.000275787
  9
$USRTIMER
 70
     1
  9
$ANGBASE
 50
0.0
  9
$ANGDIR
 70
     0
  9
$PDMODE
 70
     1
  9
$PDSIZE
 40
-2.0
  9
$PLINEWID
 40
0.0
  9
$COORDS
 70
     1
  9
$SPLFRAME
 70
     0
  9
$SPLINETYPE
 70
     6
  9
$SPLINESEGS
 70
     8
  9
$ATTDIA
 70
     0
  9
$ATTREQ
 70
     1
  9
$HANDLING
 70
     1
  9
$HANDSEED
  5
28E
  9
$SURFTAB1
 70
     6
  9
$SURFTAB2
 70
     6
  9
$SURFTYPE
 70
     6
  9
$SURFU
 70
     6
  9
$SURFV
 70
     6
  9
$UCSNAME
  2

  9
$UCSORG
 10
0.0
 20
0.0
 30
0.0
  9
$UCSXDIR
 10
1.0
 20
0.0
 30
0.0
  9
$UCSYDIR
 10
0.0
 20
1.0
 30
0.0
  9
$PUCSNAME
  2

  9
$PUCSORG
 10
0.0
 20
0.0
 30
0.0
  9
$PUCSXDIR
 10
1.0
 20
0.0
 30
0.0
  9
$PUCSYDIR
 10
0.0
 20
1.0
 30
0.0
  9
$USERI1
 70
     0
  9
$USERI2
 70
     0
  9
$USERI3
 70
     0
  9
$USERI4
 70
     0
  9
$USERI5
 70
     0
  9
$USERR1
 40
0.0
  9
$USERR2
 40
0.0
  9
$USERR3
 40
0.0
  9
$USERR4
 40
0.0
  9
$USERR5
 40
0.0
  9
$WORLDVIEW
 70
     1
  9
$SHADEDGE
 70
     3
  9
$SHADEDIF
 70
    70
  9
$TILEMODE
 70
     1
  9
$MAXACTVP
 70
    64
  9
$PLIMCHECK
 70
     0
  9
$PEXTMIN
 10
1.0000000000000000E+020
 20
1.0000000000000000E+020
 30
1.0000000000000000E+020
  9
$PEXTMAX
 10
-1.0000000000000000E+020
 20
-1.0000000000000000E+020
 30
-1.0000000000000000E+020
  9
$PLIMMIN
 10
0.0
 20
0.0
  9
$PLIMMAX
 10
12.0
 20
9.0
  9
$UNITMODE
 70
     0
  9
$VISRETAIN
 70
     0
  9
$PLINEGEN
 70
     1
  9
$PSLTSCALE
 70
     0
  0
ENDSEC
  0
SECTION
  2
TABLES
  0
TABLE
  2
VPORT
 70
     1
  0
VPORT
  2
*ACTIVE
 70
     0
 10
0.0
 20
0.0
 11
1.0
 21
1.0
 12
100.0000008381904
 22
135.93658728899311
 13
0.0
 23
0.0
 14
1.0
 24
1.0
 15
0.0
 25
0.0
 16
0.0
 26
0.0
 36
1.0
 17
0.0
 27
0.0
 37
0.0
 40
539.16704413284754
 41
1.9619164619164611
 42
50.0
 43
0.0
 44
0.0
 50
0.0
 51
0.0
 71
     0
 72
  2000
 73
     1
 74
     1
 75
     0
 76
     0
 77
     0
 78
     0
  0
ENDTAB
  0
TABLE
  2
LTYPE
 70
    11
  0
LTYPE
  2
CONTINUOUS
 70
     0
  3
Solid line
 72
    65
 73
     0
 40
0.0
  0
LTYPE
  2
STYLE_01
 70
     0
  3

 72
    65
 73
     2
 40
0.4166412353515625
 49
0.208282470703125
 49
-0.2083587646484375
  0
ENDTAB
  0
TABLE
  2
LAYER
 70
     5
  0
LAYER
  2
0
 70
     0
 62
     7
  6
CONTINUOUS
  0
LAYER
  2
DATA
 70
     0
 62
     7
  6
CONTINUOUS
  0
LAYER
  2
HIBINO-BASE
 70
     0
 62
     7
  6
CONTINUOUS
  0
LAYER
  2
SPEC
 70
     0
 62
     7
  6
CONTINUOUS
  0
LAYER
  2
DIMNSIONS
 70
     0
 62
     7
  6
CONTINUOUS
  0
ENDTAB
  0
TABLE
  2
STYLE
 70
     3
  0
STYLE
  2
STANDARD
 70
     0
 40
0.0
 41
1.0
 50
0.0
 71
     0
 42
0.0
  3
txt
  4
BIGFONT.SHX
  0
ENDTAB
  0
TABLE
  2
VIEW
 70
     0
  0
ENDTAB
  0
TABLE
  2
UCS
 70
     0
  0
ENDTAB
  0
TABLE
  2
APPID
 70
     3
  0
APPID
  2
ACAD
 70
     0
  0
APPID
  2
ACADANNOTATIVE
 70
     0
  0
APPID
  2
ACAD_MLEADERVER
 70
     0
  0
ENDTAB
  0
TABLE
  2
DIMSTYLE
 70
     2
  0
DIMSTYLE
  2
STANDARD
 70
     0
  3

  4

  5

  6

  7

 40
1.0
 41
0.18
 42
0.0625
 43
0.38
 44
0.18
 45
0.0
 46
0.0
 47
0.0
 48
0.0
140
0.18
141
0.09
142
0.0
143
25.399999999999999
144
1.0
145
0.0
146
1.0
147
0.09
 71
     0
 72
     0
 73
     1
 74
     1
 75
     0
 76
     0
 77
     0
 78
     0
170
     0
171
     2
172
     0
173
     0
174
     0
175
     0
176
     0
177
     0
178
     0
  0
ENDTAB
  0
ENDSEC
  0
SECTION
  2
BLOCKS
  0
BLOCK
  8
0
  2
$MODEL_SPACE
 70
     0
 10
0.0
 20
0.0
 30
0.0
  3
$MODEL_SPACE
  1

  0
ENDBLK
  5
1E4
  8
0
  0
BLOCK
 67
     1
  8
0
  2
$PAPER_SPACE
 70
     0
 10
0.0
 20
0.0
 30
0.0
  3
$PAPER_SPACE
  1

  0
ENDBLK
  5
1E0
 67
     1
  8
0
  0
ENDSEC
  0
SECTION
  2
ENTITIES
  0
LINE
  5
2C
  8
HIBINO-BASE
  6
CONTINUOUS
 62
     7
 10
-79.999999999999986
 20
403.53364789486591
 30
0.0
 11
279.99999999999989
 21
403.53364789486591
 31
0.0
  0
LINE
  5
2D
  8
HIBINO-BASE
  6
CONTINUOUS
 62
     7
 10
279.99999999999989
 20
-116.46635210513411
 30
0.0
 11
-79.999999999999986
 21
-116.46635210513411
 31
0.0
  0
LINE
  5
2E
  8
HIBINO-BASE
  6
CONTINUOUS
 62
     7
 10
-79.999999999999986
 20
-116.46635210513411
 30
0.0
 11
-79.999999999999986
 21
403.53364789486591
 31
0.0
  0
LINE
  5
2F
  8
HIBINO-BASE
  6
CONTINUOUS
 62
     7
 10
279.99999999999989
 20
403.53364789486591
 30
0.0
 11
279.99999999999989
 21
-116.46635210513411
 31
0.0
  0
LINE
  5
30
  8
HIBINO-BASE
  6
CONTINUOUS
 62
     7
 10
100.0
 20
-71.466352105134064
 30
0.0
 11
279.99999999999989
 21
-71.466352105134064
 31
0.0
  0
LINE
  5
31
  8
HIBINO-BASE
  6
CONTINUOUS
 62
     7
 10
100.0
 20
-116.46635210513411
 30
0.0
 11
100.0
 21
-71.466352105134064
 31
0.0
  0
TEXT
  5
32
  8
HIBINO-BASE
 62
     7
 10
101.8
 20
-76.483738771800731
 30
0.0
 40
3.2576822916666659
  1
NOTE
 41
0.7
 11
101.8
 21
-73.226056480134062
 31
0.0
 73
     3
  0
LINE
  5
33
  8
HIBINO-BASE
  6
CONTINUOUS
 62
     7
 10
170.0
 20
-116.46635210513411
 30
0.0
 11
170.0
 21
-71.466352105134064
 31
0.0
  0
TEXT
  5
34
  8
HIBINO-BASE
 62
     7
 10
171.7999999999999
 20
-76.483738771800731
 30
0.0
 40
3.2576822916666659
  1
TITLE
 41
0.7
 11
171.7999999999999
 21
-73.226056480134062
 31
0.0
 73
     3
  0
LINE
  5
35
  8
HIBINO-BASE
  6
CONTINUOUS
 62
     7
 10
100.0
 20
-96.466352105134064
 30
0.0
 11
279.99999999999989
 21
-96.466352105134064
 31
0.0
  0
TEXT
  5
36
  8
HIBINO-BASE
 62
     7
 10
196.80000000000001
 20
-101.3710987718007
 30
0.0
 40
3.2576822916666659
  1
DRAWN
 41
0.7
 11
196.80000000000001
 21
-98.113416480134106
 31
0.0
 73
     3
  0
TEXT
  5
37
  8
HIBINO-BASE
 62
     7
 10
146.7999999999999
 20
-101.3710987718007
 30
0.0
 40
3.2576822916666659
  1
DATE
 41
0.7
 11
146.7999999999999
 21
-98.113416480134106
 31
0.0
 73
     3
  0
TEXT
  5
38
  8
HIBINO-BASE
 62
     7
 10
126.8
 20
-101.3710987718007
 30
0.0
 40
3.2576822916666659
  1
SCALE
 41
0.7
 11
126.8
 21
-98.113416480134106
 31
0.0
 73
     3
  0
TEXT
  5
39
  8
HIBINO-BASE
 62
     7
 10
171.7999999999999
 20
-101.3710987718007
 30
0.0
 40
3.2576822916666659
  1
DESIGN
 41
0.7
 11
171.7999999999999
 21
-98.113416480134106
 31
0.0
 73
     3
  0
TEXT
  5
3A
  8
HIBINO-BASE
 62
     7
 10
246.7999999999999
 20
-101.3710987718007
 30
0.0
 40
3.2576822916666659
  1
DRAWING NO.
 41
0.7
 11
246.7999999999999
 21
-98.113416480134106
 31
0.0
 73
     3
  0
TEXT
  5
3B
  8
HIBINO-BASE
 62
     7
 10
221.7999999999999
 20
-101.3710987718007
 30
0.0
 40
3.2576822916666659
  1
CHECK
 41
0.7
 11
221.7999999999999
 21
-98.113416480134106
 31
0.0
 73
     3
  0
LINE
  5
3C
  8
HIBINO-BASE
  6
CONTINUOUS
 62
     7
 10
128.74999999999989
 20
-113.96635210513411
 30
0.0
 11
136.25
 21
-106.46635210513401
 31
0.0
  0
TEXT
  5
3D
  8
HIBINO-BASE
 62
     7
 10
127.5
 20
-108.68423877180069
 30
0.0
 40
3.2576822916666659
  1
1
 41
0.7
 11
127.5
 21
-105.4265564801341
 31
0.0
 73
     3
  0
LINE
  5
3E
  8
HIBINO-BASE
  6
CONTINUOUS
 62
     7
 10
125.0
 20
-116.46635210513411
 30
0.0
 11
125.0
 21
-96.466352105134064
 31
0.0
  0
LINE
  5
3F
  8
HIBINO-BASE
  6
CONTINUOUS
 62
     7
 10
145.0
 20
-116.46635210513411
 30
0.0
 11
145.0
 21
-96.466352105134064
 31
0.0
  0
LINE
  5
40
  8
HIBINO-BASE
  6
CONTINUOUS
 62
     7
 10
195.0
 20
-96.466352105134064
 30
0.0
 11
195.0
 21
-116.46635210513411
 31
0.0
  0
LINE
  5
41
  8
HIBINO-BASE
  6
CONTINUOUS
 62
     7
 10
245.0
 20
-96.466352105134064
 30
0.0
 11
245.0
 21
-116.46635210513411
 31
0.0
  0
LINE
  5
42
  8
HIBINO-BASE
  6
CONTINUOUS
 62
     7
 10
220.0
 20
-116.46635210513411
 30
0.0
 11
220.0
 21
-96.466352105134064
 31
0.0
  0
TEXT
  5
43
  8
HIBINO-BASE
 62
     7
 10
146.71307999999999
 20
-110.7390587718007
 30
0.0
 40
3.2576822916666659
  1
'11.02.
 41
0.7
 11
146.71307999999999
 21
-107.4813764801341
 31
0.0
 73
     3
  0
TEXT
  5
44
  8
HIBINO-BASE
 62
     7
 10
135.0
 20
-112.43423877180069
 30
0.0
 40
3.2576822916666659
  1
2
 41
0.7
 11
135.0
 21
-109.1765564801341
 31
0.0
 73
     3
  0
TEXT
  5
45
  8
HIBINO-BASE
 62
     7
 10
198.0116200220692
 20
-110.7390587718007
 30
0.0
 40
3.2576822916666659
  1
T.Ootake
 41
0.7
 11
198.0116200220692
 21
-107.4813764801341
 31
0.0
 73
     3
  0
TEXT
  5
46
  8
HIBINO-BASE
 62
     7
 10
107.76666666666659
 20
-112.51435210513399
 30
0.0
 40
6.5153645833333318
  1
A4
 41
0.7
 11
107.76666666666659
 21
-105.9989875218007
 31
0.0
 73
     3
  0
TEXT
  5
47
  8
HIBINO-BASE
 62
     7
 10
101.9166666666666
 20
-101.7052621051341
 30
0.0
 40
3.2576822916666659
  1
PAPER SIZE
 41
0.7
 11
101.9166666666666
 21
-98.447579813467414
 31
0.0
 73
     3
  0
TEXT
  5
48
  8
HIBINO-BASE
 62
     7
 10
-74.48072948621963
 20
-129.31683257348661
 30
0.0
 40
7.0583116319444441
  1
Hibino-Intersound Corporation
 41
0.7
 11
-74.48072948621963
 21
-122.2585209415421
 31
0.0
 73
     3
  0
TEXT
  5
49
  8
HIBINO-BASE
 62
     7
 10
140.36121936042781
 20
-128.61465606690771
 30
0.0
 40
7.0583116319444441
  1
ヒビノインターサウンド株式会社
 41
0.7
 11
140.36121936042781
 21
-121.55634443496329
 31
0.0
 73
     3
  0
LINE
  5
4A
  8
SPEC
  6
CONTINUOUS
 62
     7
 10
-64.999999999999986
 20
383.53364789486602
 30
0.0
 11
230.0
 21
383.53364789486602
 31
0.0
  0
LINE
  5
4B
  8
SPEC
  6
CONTINUOUS
 62
     7
 10
-64.999999999999986
 20
376.03364789486591
 30
0.0
 11
230.0
 21
376.03364789486591
 31
0.0
  0
LINE
  5
4C
  8
SPEC
  6
CONTINUOUS
 62
     7
 10
-64.999999999999986
 20
361.03364789486602
 30
0.0
 11
230.0
 21
361.03364789486602
 31
0.0
  0
LINE
  5
4D
  8
SPEC
  6
CONTINUOUS
 62
     7
 10
-64.999999999999986
 20
368.53364789486602
 30
0.0
 11
230.0
 21
368.53364789486602
 31
0.0
  0
LINE
  5
4E
  8
SPEC
  6
CONTINUOUS
 62
     7
 10
-64.999999999999986
 20
383.53364789486602
 30
0.0
 11
-64.999999999999986
 21
256.03364789486591
 31
0.0
  0
TEXT
  5
4F
  8
SPEC
 62
     7
 10
-62.5
 20
386.32018789486591
 30
0.0
 40
4.8865234375000002
  1
仕様
 41
0.7
 11
-62.5
 21
391.2067113323659
 31
0.0
 73
     3
  0
LINE
  5
50
  8
SPEC
  6
CONTINUOUS
 62
     7
 10
230.0
 20
383.53364789486602
 30
0.0
 11
230.0
 21
256.03364789486591
 31
0.0
  0
LINE
  5
51
  8
SPEC
  6
CONTINUOUS
 62
     7
 10
-64.999999999999986
 20
353.53364789486602
 30
0.0
 11
230.0
 21
353.53364789486602
 31
0.0
  0
LINE
  5
52
  8
SPEC
  6
CONTINUOUS
 62
     7
 10
-64.999999999999986
 20
346.03364789486602
 30
0.0
 11
230.0
 21
346.03364789486602
 31
0.0
  0
LINE
  5
53
  8
SPEC
  6
CONTINUOUS
 62
     7
 10
-64.999999999999986
 20
338.53364789486591
 30
0.0
 11
230.0
 21
338.53364789486591
 31
0.0
  0
LINE
  5
54
  8
SPEC
  6
CONTINUOUS
 62
     7
 10
-64.999999999999986
 20
331.03364789486602
 30
0.0
 11
230.0
 21
331.03364789486602
 31
0.0
  0
LINE
  5
55
  8
SPEC
  6
CONTINUOUS
 62
     7
 10
-64.999999999999986
 20
323.53364789486602
 30
0.0
 11
230.0
 21
323.53364789486602
 31
0.0
  0
LINE
  5
56
  8
SPEC
  6
CONTINUOUS
 62
     7
 10
-64.999999999999986
 20
316.03364789486602
 30
0.0
 11
230.0
 21
316.03364789486602
 31
0.0
  0
LINE
  5
57
  8
SPEC
  6
CONTINUOUS
 62
     7
 10
-64.999999999999986
 20
308.53364789486602
 30
0.0
 11
230.0
 21
308.53364789486602
 31
0.0
  0
LINE
  5
58
  8
SPEC
  6
CONTINUOUS
 62
     7
 10
-64.999999999999986
 20
301.03364789486591
 30
0.0
 11
230.0
 21
301.03364789486591
 31
0.0
  0
LINE
  5
59
  8
SPEC
  6
CONTINUOUS
 62
     7
 10
-64.999999999999986
 20
293.53364789486602
 30
0.0
 11
230.0
 21
293.53364789486602
 31
0.0
  0
LINE
  5
5A
  8
SPEC
  6
CONTINUOUS
 62
     7
 10
-64.999999999999986
 20
286.03364789486602
 30
0.0
 11
230.0
 21
286.03364789486602
 31
0.0
  0
TEXT
  5
5B
  8
SPEC
 62
     7
 10
-63.357393369529248
 20
272.87080684637903
 30
0.0
 40
3.8006293402777769
  1
寸法
 41
0.7
 11
-63.357393369529248
 21
276.67143618665682
 31
0.0
 73
     3
  0
TEXT
  5
5C
  8
SPEC
 62
     7
 10
31.312312946006031
 20
272.83503252420797
 30
0.0
 40
3.8006293402777769
  1
\U+03A619\U+00D764mm(突起部含まず）
 41
0.7
 11
31.312312946006031
 21
276.63566186448583
 31
0.0
 73
     3
  0
TEXT
  5
5D
  8
SPEC
 62
     7
 10
31.913939581580731
 20
280.4137969175481
 30
0.0
 40
3.8006293402777769
  1
約60g
 41
0.7
 11
31.913939581580731
 21
284.21442625782578
 31
0.0
 73
     3
  0
TEXT
  5
5E
  8
SPEC
 62
     7
 10
-63.349667860640572
 20
280.38204849501039
 30
0.0
 40
3.8006293402777769
  1
重量
 41
0.7
 11
-63.349667860640572
 21
284.18267783528808
 31
0.0
 73
     3
  0
LINE
  5
5F
  8
SPEC
  6
CONTINUOUS
 62
     7
 10
-64.999999999999986
 20
278.53364789486591
 30
0.0
 11
230.0
 21
278.53364789486591
 31
0.0
  0
LINE
  5
60
  8
SPEC
  6
CONTINUOUS
 62
     7
 10
-64.999999999999986
 20
271.03364789486591
 30
0.0
 11
230.0
 21
271.03364789486591
 31
0.0
  0
LINE
  5
61
  8
SPEC
  6
CONTINUOUS
 62
     7
 10
-64.999999999999986
 20
263.53364789486591
 30
0.0
 11
230.0
 21
263.53364789486591
 31
0.0
  0
LINE
  5
62
  8
SPEC
  6
CONTINUOUS
 62
     7
 10
-64.999999999999986
 20
256.03364789486591
 30
0.0
 11
230.0
 21
256.03364789486591
 31
0.0
  0
TEXT
  5
63
  8
SPEC
 62
     7
 10
-63.222837670501747
 20
377.97647423282541
 30
0.0
 40
3.8006293402777769
  1
指向性
 41
0.7
 11
-63.222837670501747
 21
381.7771035731032
 31
0.0
 73
     3
  0
TEXT
  5
64
  8
SPEC
 62
     7
 10
31.93962676664103
 20
377.77109253915592
 30
0.0
 40
3.8006293402777769
  1
単一指向性
 41
0.7
 11
31.93962676664103
 21
381.57172187943371
 31
0.0
 73
     3
  0
TEXT
  5
65
  8
SPEC
 62
     7
 10
-63.606525048714772
 20
370.57903619465469
 30
0.0
 40
3.8006293402777769
  1
カートリッチ
 41
0.7
 11
-63.606525048714772
 21
374.37966553493249
 31
0.0
 73
     3
  0
TEXT
  5
66
  8
SPEC
 62
     7
 10
31.309299909393591
 20
370.43483945698472
 30
0.0
 40
3.8006293402777769
  1
プリポラライズド・コンデンサー
 41
0.7
 11
31.309299909393591
 21
374.23546879726251
 31
0.0
 73
     3
  0
TEXT
  5
67
  8
SPEC
 62
     7
 10
-63.303980409313397
 20
347.77382903221758
 30
0.0
 40
3.8006293402777769
  1
等価雑音レベル(Aウェイト、代表値)
 41
0.7
 11
-63.303980409313397
 21
351.57445837249543
 31
0.0
 73
     3
  0
TEXT
  5
68
  8
SPEC
 62
     7
 10
31.733009087962429
 20
347.7878424183483
 30
0.0
 40
3.8006293402777769
  1
18dB SPL
 41
0.7
 11
31.733009087962429
 21
351.58847175862621
 31
0.0
 73
     3
  0
TEXT
  5
69
  8
SPEC
 62
     7
 10
-63.134649935469398
 20
355.30438911660929
 30
0.0
 40
3.8006293402777769
  1
感度(\U+00B12dB@250Hz、公称値）
 41
0.7
 11
-63.134649935469398
 21
359.10501845688708
 31
0.0
 73
     3
  0
TEXT
  5
6A
  8
SPEC
 62
     7
 10
31.879166666666681
 20
355.51258849383868
 30
0.0
 40
3.8006293402777769
  1
-40dB re、1V/Pa
 41
0.7
 11
31.879166666666681
 21
359.31321783411647
 31
0.0
 73
     3
  0
TEXT
  5
6B
  8
SPEC
 62
     7
 10
-63.157555211610642
 20
362.90317801401397
 30
0.0
 40
3.8006293402777769
  1
周波数レンジ(\U+00B12dB)
 41
0.7
 11
-63.157555211610642
 21
366.70380735429183
 31
0.0
 73
     3
  0
TEXT
  5
6C
  8
SPEC
 62
     7
 10
31.85800457999369
 20
362.67611750617471
 30
0.0
 40
3.8006293402777769
  1
40Hz～20kHz
 41
0.7
 11
31.85800457999369
 21
366.4767468464525
 31
0.0
 73
     3
  0
TEXT
  5
6D
  8
SPEC
 62
     7
 10
-63.143641624819331
 20
340.36128765821968
 30
0.0
 40
3.8006293402777769
  1
全高調波歪み(THD)
 41
0.7
 11
-63.143641624819331
 21
344.16191699849747
 31
0.0
 73
     3
  0
TEXT
  5
6E
  8
SPEC
 62
     7
 10
31.679425996353061
 20
340.40971521641899
 30
0.0
 40
3.8006293402777769
  1
1%%%以下(139dB SPL)
 41
0.7
 11
31.679425996353061
 21
344.21034455669678
 31
0.0
 73
     3
  0
TEXT
  5
6F
  8
SPEC
 62
     7
 10
-63.676369538081602
 20
295.51471317103511
 30
0.0
 40
3.8006293402777769
  1
コネクター
 41
0.7
 11
-63.676369538081602
 21
299.31534251131291
 31
0.0
 73
     3
  0
TEXT
  5
70
  8
SPEC
 62
     7
 10
31.92996333959066
 20
295.2807684217355
 30
0.0
 40
3.8006293402777769
  1
XLR3ピン(オス)
 41
0.7
 11
31.92996333959066
 21
299.0813977620133
 31
0.0
 73
     3
  0
TEXT
  5
71
  8
SPEC
 62
     7
 10
-63.388140262655909
 20
310.35807623123981
 30
0.0
 40
3.8006293402777769
  1
ケーブル引き伸ばし可能距離
 41
0.7
 11
-63.388140262655909
 21
314.15870557151771
 31
0.0
 73
     3
  0
TEXT
  5
72
  8
SPEC
 62
     7
 10
31.826784906693721
 20
310.43011481173397
 30
0.0
 40
3.8006293402777769
  1
最大100m
 41
0.7
 11
31.826784906693721
 21
314.23074415201182
 31
0.0
 73
     3
  0
TEXT
  5
73
  8
SPEC
 62
     7
 10
-63.465903747770902
 20
318.0443416073191
 30
0.0
 40
3.8006293402777769
  1
インピーダンス
 41
0.7
 11
-63.465903747770902
 21
321.84497094759689
 31
0.0
 73
     3
  0
TEXT
  5
74
  8
SPEC
 62
     7
 10
31.87754552620564
 20
317.83794521227139
 30
0.0
 40
3.8006293402777769
  1
200\U+03A9以下
 41
0.7
 11
31.87754552620564
 21
321.63857455254919
 31
0.0
 73
     3
  0
TEXT
  5
75
  8
SPEC
 62
     7
 10
-63.490879331823571
 20
332.8992948148674
 30
0.0
 40
3.8006293402777769
  1
ダイナミックレンジ(代表値)
 41
0.7
 11
-63.490879331823571
 21
336.6999241551452
 31
0.0
 73
     3
  0
TEXT
  5
76
  8
SPEC
 62
     7
 10
31.62638888888889
 20
332.7314877525489
 30
0.0
 40
3.8006293402777769
  1
118dB
 41
0.7
 11
31.62638888888889
 21
336.5321170928267
 31
0.0
 73
     3
  0
TEXT
  5
77
  8
SPEC
 62
     7
 10
-63.144659272406678
 20
325.39096883018198
 30
0.0
 40
3.8006293402777769
  1
最大音圧レベル
 41
0.7
 11
-63.144659272406678
 21
329.19159817045983
 31
0.0
 73
     3
  0
TEXT
  5
78
  8
SPEC
 62
     7
 10
31.568285420182519
 20
325.2972746218893
 30
0.0
 40
3.8006293402777769
  1
152dB SPL
 41
0.7
 11
31.568285420182519
 21
329.09790396216698
 31
0.0
 73
     3
  0
TEXT
  5
79
  8
SPEC
 62
     7
 10
-63.219044007502177
 20
302.89814506528262
 30
0.0
 40
3.8006293402777769
  1
電源
 41
0.7
 11
-63.219044007502177
 21
306.6987744055603
 31
0.0
 73
     3
  0
TEXT
  5
7A
  8
SPEC
 62
     7
 10
31.302772124633641
 20
303.05768638798878
 30
0.0
 40
3.8006293402777769
  1
ファンタムDC48V/2.8mA
 41
0.7
 11
31.302772124633641
 21
306.85831572826658
 31
0.0
 73
     3
  0
TEXT
  5
7B
  8
SPEC
 62
     7
 10
-63.241991820368071
 20
288.06542992994679
 30
0.0
 40
3.8006293402777769
  1
色
 41
0.7
 11
-63.241991820368071
 21
291.86605927022458
 31
0.0
 73
     3
  0
TEXT
  5
7C
  8
SPEC
 62
     7
 10
31.597704961734561
 20
288.19967068412882
 30
0.0
 40
3.8006293402777769
  1
マットブラック
 41
0.7
 11
31.597704961734561
 21
292.0003000244065
 31
0.0
 73
     3
  0
TEXT
  5
7D
  8
SPEC
 62
     7
 10
-63.147618678324321
 20
258.14519093609238
 30
0.0
 40
3.8006293402777769
  1
使用湿度範囲
 41
0.7
 11
-63.147618678324321
 21
261.94582027637023
 31
0.0
 73
     3
  0
TEXT
  5
7E
  8
SPEC
 62
     7
 10
31.7831138347278
 20
257.96289058239688
 30
0.0
 40
3.8006293402777769
  1
90%%%以下
 41
0.7
 11
31.7831138347278
 21
261.76351992267467
 31
0.0
 73
     3
  0
TEXT
  5
7F
  8
SPEC
 62
     7
 10
-63.176007973009384
 20
265.59171210220978
 30
0.0
 40
3.8006293402777769
  1
使用温度範囲
 41
0.7
 11
-63.176007973009384
 21
269.39234144248758
 31
0.0
 73
     3
  0
TEXT
  5
80
  8
SPEC
 62
     7
 10
31.929271008534151
 20
265.40637216020878
 30
0.0
 40
3.8006293402777769
  1
-40℃～45℃
 41
0.7
 11
31.929271008534151
 21
269.20700150048651
 31
0.0
 73
     3
  0
LINE
  5
81
  8
SPEC
  6
CONTINUOUS
 62
     7
 10
30.000000000000011
 20
383.53364789486602
 30
0.0
 11
30.000000000000011
 21
256.03364789486591
 31
0.0
  0
TEXT
  5
82
  8
DIMNSIONS
 62
     7
 10
60.0
 20
-91.927372105134054
 30
0.0
 40
4.8865234375000002
  1
(単位：mm)
 41
0.7
 11
60.0
 21
-87.040848667634066
 31
0.0
 73
     3
  0
LINE
  5
83
  8
DIMNSIONS
  6
CONTINUOUS
 62
     7
 10
29.891321852987179
 20
171.9677962977126
 30
0.0
 11
46.875
 21
201.25
 31
0.0
  0
LINE
  5
84
  8
DIMNSIONS
  6
CONTINUOUS
 62
     7
 10
29.891321852987179
 20
171.9677962977126
 30
0.0
 11
31.31848110515287
 21
176.94489208737639
 31
0.0
  0
LINE
  5
85
  8
DIMNSIONS
  6
CONTINUOUS
 62
     7
 10
29.891321852987179
 20
171.9677962977126
 30
0.0
 11
33.615825915440603
 21
175.5645080625473
 31
0.0
  0
LINE
  5
86
  8
DIMNSIONS
  6
CONTINUOUS
 62
     7
 10
46.875
 20
201.25
 30
0.0
 11
64.986111111111114
 21
201.25
 31
0.0
  0
TEXT
  5
87
  8
DIMNSIONS
 62
     7
 10
50.875
 20
203.23777777777781
 30
0.0
 40
5.4294704861111107
  1
\U+03C619
 41
0.7
 11
50.875
 21
208.66724826388889
 31
0.0
 73
     3
  0
LINE
  5
88
  8
DIMNSIONS
  6
CONTINUOUS
 62
     7
 10
11.625000000220449
 20
18.749999999687098
 30
0.0
 11
-13.375
 21
18.749999999687098
 31
0.0
  0
LINE
  5
89
  8
DIMNSIONS
  6
CONTINUOUS
 62
     7
 10
11.625000000220449
 20
82.749999999687091
 30
0.0
 11
-13.375
 21
82.749999999687091
 31
0.0
  0
LINE
  5
8A
  8
DIMNSIONS
  6
CONTINUOUS
 62
     7
 10
-9.375
 20
18.749999999687098
 30
0.0
 11
-9.375
 21
82.749999999687091
 31
0.0
  0
LINE
  5
8B
  8
DIMNSIONS
  6
CONTINUOUS
 62
     7
 10
-9.375
 20
18.749999999687098
 30
0.0
 11
-10.715079590300491
 21
23.7512451168746
 31
0.0
  0
LINE
  5
8C
  8
DIMNSIONS
  6
CONTINUOUS
 62
     7
 10
-9.375
 20
18.749999999687098
 30
0.0
 11
-8.0349204096995095
 21
23.7512451168746
 31
0.0
  0
LINE
  5
8D
  8
DIMNSIONS
  6
CONTINUOUS
 62
     7
 10
-9.375
 20
82.749999999687091
 30
0.0
 11
-8.0349204096995095
 21
77.748754882499625
 31
0.0
  0
LINE
  5
8E
  8
DIMNSIONS
  6
CONTINUOUS
 62
     7
 10
-9.375
 20
82.749999999687091
 30
0.0
 11
-10.715079590300491
 21
77.748754882499625
 31
0.0
  0
TEXT
  5
8F
  8
DIMNSIONS
 62
     7
 10
-11.362777777777771
 20
47.222222221909327
 30
0.0
 40
5.4294704861111107
  1
64
 50
90.0
 41
0.7
 11
-16.792248263888879
 21
47.222222221909327
 31
0.0
 73
     3
  0
TEXT
  5
90
  8
DATA
 62
     7
 10
207.5632809823594
 20
-94.703380257795985
 30
0.0
 40
4.8865234375000002
  1
4011C
 41
0.7
 11
207.5632809823594
 21
-89.816856820295968
 31
0.0
 73
     3
  0
TEXT
  5
91
  8
DATA
 62
     7
 10
207.5632809823594
 20
-78.65953445469917
 30
0.0
 40
4.8865234375000002
  1
DPA
 41
0.7
 11
207.5632809823594
 21
-73.773011017199167
 31
0.0
 73
     3
  0
TEXT
  5
92
  8
DATA
 62
     7
 10
-60.0
 20
-107.99035210513409
 30
0.0
 40
3.2576822916666659
  1
仕様および外観は予告なく変更されることがありますので、ご了承ください。
 41
0.7
 11
-60.0
 21
-104.7326698134674
 31
0.0
 73
     3
  0
CIRCLE
  5
93
  8
DATA
  6
CONTINUOUS
 62
     7
 10
25.12500000022046
 20
163.74999999968711
 30
0.0
 40
3.8000000000000109
  0
ARC
  5
94
  8
DATA
  6
CONTINUOUS
 62
     7
 10
25.12500000022046
 20
163.74999999968711
 30
0.0
 40
9.5
 50
90.000000000007745
 51
109.9999999999999
  0
ARC
  5
95
  8
DATA
  6
CONTINUOUS
 62
     7
 10
25.12500000022046
 20
163.74999999968711
 30
0.0
 40
9.5000000000000089
 50
129.9999999999998
 51
149.99999999999969
  0
ARC
  5
96
  8
DATA
  6
CONTINUOUS
 62
     7
 10
25.12500000022046
 20
163.74999999968711
 30
0.0
 40
9.5000000000000124
 50
169.99999999999969
 51
189.99999999999949
  0
ARC
  5
97
  8
DATA
  6
CONTINUOUS
 62
     7
 10
25.12500000022046
 20
163.74999999968711
 30
0.0
 40
9.5000000000000124
 50
209.9999999999996
 51
229.9999999999994
  0
ARC
  5
98
  8
DATA
  6
CONTINUOUS
 62
     7
 10
25.12500000022046
 20
163.74999999968711
 30
0.0
 40
9.5000000000000124
 50
249.9999999999996
 51
270.00000000000767
  0
ARC
  5
99
  8
DATA
  6
CONTINUOUS
 62
     7
 10
25.12500000022046
 20
163.74999999968711
 30
0.0
 40
9.5000000000000195
 50
289.99999999999972
 51
309.9999999999996
  0
ARC
  5
9A
  8
DATA
  6
CONTINUOUS
 62
     7
 10
25.12500000022046
 20
163.74999999968711
 30
0.0
 40
9.5000000000000089
 50
329.9999999999996
 51
349.99999999999977
  0
ARC
  5
9B
  8
DATA
  6
CONTINUOUS
 62
     7
 10
25.12500000022046
 20
163.74999999968711
 30
0.0
 40
9.5
 50
9.9999999999998437
 51
29.999999999999911
  0
ARC
  5
9C
  8
DATA
  6
CONTINUOUS
 62
     7
 10
25.12500000022046
 20
163.74999999968711
 30
0.0
 40
9.4999999999999964
 50
50.0
 51
69.999999999999972
  0
LINE
  5
9D
  8
DATA
  6
CONTINUOUS
 62
     7
 10
15.625000000220449
 20
59.749999999687113
 30
0.0
 11
34.625000000220453
 21
59.749999999687113
 31
0.0
  0
LINE
  5
9E
  8
DATA
  6
CONTINUOUS
 62
     7
 10
15.625000000220449
 20
82.549999999687074
 30
0.0
 11
16.375000000220449
 21
82.549999999687074
 31
0.0
  0
LINE
  5
9F
  8
DATA
  6
CONTINUOUS
 62
     7
 10
17.07500000022047
 20
82.549999999687074
 30
0.0
 11
17.775000000220459
 21
82.549999999687074
 31
0.0
  0
LINE
  5
A0
  8
DATA
  6
CONTINUOUS
 62
     7
 10
18.475000000220462
 20
82.549999999687074
 30
0.0
 11
19.175000000220461
 21
82.549999999687074
 31
0.0
  0
LINE
  5
A1
  8
DATA
  6
CONTINUOUS
 62
     7
 10
19.875000000220449
 20
82.549999999687074
 30
0.0
 11
20.57500000022047
 21
82.549999999687074
 31
0.0
  0
LINE
  5
A2
  8
DATA
  6
CONTINUOUS
 62
     7
 10
21.275000000220452
 20
82.549999999687074
 30
0.0
 11
21.975000000220469
 21
82.549999999687074
 31
0.0
  0
LINE
  5
A3
  8
DATA
  6
CONTINUOUS
 62
     7
 10
22.675000000220461
 20
82.549999999687074
 30
0.0
 11
23.375000000220449
 21
82.549999999687074
 31
0.0
  0
LINE
  5
A4
  8
DATA
  6
CONTINUOUS
 62
     7
 10
24.07500000022047
 20
82.549999999687074
 30
0.0
 11
24.775000000220452
 21
82.549999999687074
 31
0.0
  0
LINE
  5
A5
  8
DATA
  6
CONTINUOUS
 62
     7
 10
25.475000000220469
 20
82.549999999687074
 30
0.0
 11
26.175000000220461
 21
82.549999999687074
 31
0.0
  0
LINE
  5
A6
  8
DATA
  6
CONTINUOUS
 62
     7
 10
26.875000000220449
 20
82.549999999687074
 30
0.0
 11
27.575000000220449
 21
82.549999999687074
 31
0.0
  0
LINE
  5
A7
  8
DATA
  6
CONTINUOUS
 62
     7
 10
28.275000000220452
 20
82.549999999687074
 30
0.0
 11
28.975000000220469
 21
82.549999999687074
 31
0.0
  0
LINE
  5
A8
  8
DATA
  6
CONTINUOUS
 62
     7
 10
29.675000000220471
 20
82.549999999687074
 30
0.0
 11
30.37500000022046
 21
82.549999999687074
 31
0.0
  0
LINE
  5
A9
  8
DATA
  6
CONTINUOUS
 62
     7
 10
31.075000000220449
 20
82.549999999687074
 30
0.0
 11
31.775000000220452
 21
82.549999999687074
 31
0.0
  0
LINE
  5
AA
  8
DATA
  6
CONTINUOUS
 62
     7
 10
32.475000000220469
 20
82.549999999687074
 30
0.0
 11
33.17500000022045
 21
82.549999999687074
 31
0.0
  0
LINE
  5
AB
  8
DATA
  6
CONTINUOUS
 62
     7
 10
33.87500000022046
 20
82.549999999687074
 30
0.0
 11
34.625000000220453
 21
82.549999999687074
 31
0.0
  0
LINE
  5
AC
  8
DATA
  6
CONTINUOUS
 62
     7
 10
15.625000000220449
 20
59.749999999687113
 30
0.0
 11
15.625000000220449
 21
82.749999999687091
 31
0.0
  0
LINE
  5
AD
  8
DATA
  6
CONTINUOUS
 62
     7
 10
34.625000000220453
 20
59.749999999687113
 30
0.0
 11
34.625000000220453
 21
82.749999999687091
 31
0.0
  0
CIRCLE
  5
AE
  8
DATA
  6
CONTINUOUS
 62
     7
 10
25.12500000022046
 20
163.74999999968711
 30
0.0
 40
1.0
  0
LINE
  5
AF
  8
DATA
  6
CONTINUOUS
 62
     7
 10
15.625000000220449
 20
74.749999999687091
 30
0.0
 11
34.625000000220453
 21
74.749999999687091
 31
0.0
  0
LINE
  5
B0
  8
DATA
  6
CONTINUOUS
 62
     7
 10
15.625000000220449
 20
60.049999999687117
 30
0.0
 11
34.625000000220453
 21
60.049999999687117
 31
0.0
  0
TEXT
  5
B1
  8
DATA
 62
     7
 10
22.402777777998239
 20
76.837388888575987
 30
0.0
 40
1.900314670138888
  1
4011
 41
0.7
 11
22.402777777998239
 21
78.73770355871487
 31
0.0
 73
     3
  0
POLYLINE
  5
B2
  8
DATA
  6
CONTINUOUS
 62
     7
 66
     1
 10
0.0
 20
0.0
 30
0.0
 70
     1
  0
VERTEX
  5
210
  8
DATA
  6
CONTINUOUS
 62
     7
 10
24.775000000220452
 20
74.249999999687091
 30
0.0
  0
VERTEX
  5
211
  8
DATA
  6
CONTINUOUS
 62
     7
 10
25.475000000220469
 20
74.249999999687091
 30
0.0
  0
VERTEX
  5
212
  8
DATA
  6
CONTINUOUS
 62
     7
 10
25.475000000220469
 20
67.249999999687105
 30
0.0
  0
VERTEX
  5
213
  8
DATA
  6
CONTINUOUS
 62
     7
 10
24.775000000220452
 20
67.249999999687105
 30
0.0
  0
SEQEND
  5
214
  8
DATA
  6
CONTINUOUS
 62
     7
  0
POLYLINE
  5
B9
  8
DATA
  6
CONTINUOUS
 62
     7
 66
     1
 10
0.0
 20
0.0
 30
0.0
 70
     1
  0
VERTEX
  5
215
  8
DATA
  6
CONTINUOUS
 62
     7
 10
26.175000000220461
 20
74.249999999687091
 30
0.0
  0
VERTEX
  5
216
  8
DATA
  6
CONTINUOUS
 62
     7
 10
26.875000000220449
 20
74.249999999687091
 30
0.0
  0
VERTEX
  5
217
  8
DATA
  6
CONTINUOUS
 62
     7
 10
26.875000000220449
 20
67.249999999687105
 30
0.0
  0
VERTEX
  5
218
  8
DATA
  6
CONTINUOUS
 62
     7
 10
26.175000000220461
 20
67.249999999687105
 30
0.0
  0
SEQEND
  5
219
  8
DATA
  6
CONTINUOUS
 62
     7
  0
POLYLINE
  5
C0
  8
DATA
  6
CONTINUOUS
 62
     7
 66
     1
 10
0.0
 20
0.0
 30
0.0
 70
     1
  0
VERTEX
  5
21A
  8
DATA
  6
CONTINUOUS
 62
     7
 10
27.575000000220449
 20
74.249999999687091
 30
0.0
  0
VERTEX
  5
21B
  8
DATA
  6
CONTINUOUS
 62
     7
 10
28.275000000220452
 20
74.249999999687091
 30
0.0
  0
VERTEX
  5
21C
  8
DATA
  6
CONTINUOUS
 62
     7
 10
28.275000000220452
 20
67.249999999687105
 30
0.0
  0
VERTEX
  5
21D
  8
DATA
  6
CONTINUOUS
 62
     7
 10
27.575000000220449
 20
67.249999999687105
 30
0.0
  0
SEQEND
  5
21E
  8
DATA
  6
CONTINUOUS
 62
     7
  0
POLYLINE
  5
C7
  8
DATA
  6
CONTINUOUS
 62
     7
 66
     1
 10
0.0
 20
0.0
 30
0.0
 70
     1
  0
VERTEX
  5
21F
  8
DATA
  6
CONTINUOUS
 62
     7
 10
28.975000000220469
 20
74.249999999687091
 30
0.0
  0
VERTEX
  5
220
  8
DATA
  6
CONTINUOUS
 62
     7
 10
29.675000000220471
 20
74.249999999687091
 30
0.0
  0
VERTEX
  5
221
  8
DATA
  6
CONTINUOUS
 62
     7
 10
29.675000000220471
 20
67.249999999687105
 30
0.0
  0
VERTEX
  5
222
  8
DATA
  6
CONTINUOUS
 62
     7
 10
28.975000000220469
 20
67.249999999687105
 30
0.0
  0
SEQEND
  5
223
  8
DATA
  6
CONTINUOUS
 62
     7
  0
POLYLINE
  5
CE
  8
DATA
  6
CONTINUOUS
 62
     7
 66
     1
 10
0.0
 20
0.0
 30
0.0
 70
     1
  0
VERTEX
  5
224
  8
DATA
  6
CONTINUOUS
 62
     7
 10
30.37500000022046
 20
74.249999999687091
 30
0.0
  0
VERTEX
  5
225
  8
DATA
  6
CONTINUOUS
 62
     7
 10
31.075000000220449
 20
74.249999999687091
 30
0.0
  0
VERTEX
  5
226
  8
DATA
  6
CONTINUOUS
 62
     7
 10
31.075000000220449
 20
67.249999999687105
 30
0.0
  0
VERTEX
  5
227
  8
DATA
  6
CONTINUOUS
 62
     7
 10
30.37500000022046
 20
67.249999999687105
 30
0.0
  0
SEQEND
  5
228
  8
DATA
  6
CONTINUOUS
 62
     7
  0
POLYLINE
  5
D5
  8
DATA
  6
CONTINUOUS
 62
     7
 66
     1
 10
0.0
 20
0.0
 30
0.0
 70
     1
  0
VERTEX
  5
229
  8
DATA
  6
CONTINUOUS
 62
     7
 10
31.775000000220452
 20
74.249999999687091
 30
0.0
  0
VERTEX
  5
22A
  8
DATA
  6
CONTINUOUS
 62
     7
 10
32.475000000220469
 20
74.249999999687091
 30
0.0
  0
VERTEX
  5
22B
  8
DATA
  6
CONTINUOUS
 62
     7
 10
32.475000000220469
 20
67.249999999687105
 30
0.0
  0
VERTEX
  5
22C
  8
DATA
  6
CONTINUOUS
 62
     7
 10
31.775000000220452
 20
67.249999999687105
 30
0.0
  0
SEQEND
  5
22D
  8
DATA
  6
CONTINUOUS
 62
     7
  0
POLYLINE
  5
DC
  8
DATA
  6
CONTINUOUS
 62
     7
 66
     1
 10
0.0
 20
0.0
 30
0.0
 70
     1
  0
VERTEX
  5
22E
  8
DATA
  6
CONTINUOUS
 62
     7
 10
33.17500000022045
 20
74.249999999687091
 30
0.0
  0
VERTEX
  5
22F
  8
DATA
  6
CONTINUOUS
 62
     7
 10
33.87500000022046
 20
74.249999999687091
 30
0.0
  0
VERTEX
  5
230
  8
DATA
  6
CONTINUOUS
 62
     7
 10
33.87500000022046
 20
67.249999999687105
 30
0.0
  0
VERTEX
  5
231
  8
DATA
  6
CONTINUOUS
 62
     7
 10
33.17500000022045
 20
67.249999999687105
 30
0.0
  0
SEQEND
  5
232
  8
DATA
  6
CONTINUOUS
 62
     7
  0
POLYLINE
  5
E3
  8
DATA
  6
CONTINUOUS
 62
     7
 66
     1
 10
0.0
 20
0.0
 30
0.0
 70
     1
  0
VERTEX
  5
233
  8
DATA
  6
CONTINUOUS
 62
     7
 10
23.375000000220449
 20
74.249999999687091
 30
0.0
  0
VERTEX
  5
234
  8
DATA
  6
CONTINUOUS
 62
     7
 10
24.07500000022047
 20
74.249999999687091
 30
0.0
  0
VERTEX
  5
235
  8
DATA
  6
CONTINUOUS
 62
     7
 10
24.07500000022047
 20
67.249999999687105
 30
0.0
  0
VERTEX
  5
236
  8
DATA
  6
CONTINUOUS
 62
     7
 10
23.375000000220449
 20
67.249999999687105
 30
0.0
  0
SEQEND
  5
237
  8
DATA
  6
CONTINUOUS
 62
     7
  0
POLYLINE
  5
EA
  8
DATA
  6
CONTINUOUS
 62
     7
 66
     1
 10
0.0
 20
0.0
 30
0.0
 70
     1
  0
VERTEX
  5
238
  8
DATA
  6
CONTINUOUS
 62
     7
 10
21.975000000220469
 20
74.249999999687091
 30
0.0
  0
VERTEX
  5
239
  8
DATA
  6
CONTINUOUS
 62
     7
 10
22.675000000220461
 20
74.249999999687091
 30
0.0
  0
VERTEX
  5
23A
  8
DATA
  6
CONTINUOUS
 62
     7
 10
22.675000000220461
 20
67.249999999687105
 30
0.0
  0
VERTEX
  5
23B
  8
DATA
  6
CONTINUOUS
 62
     7
 10
21.975000000220469
 20
67.249999999687105
 30
0.0
  0
SEQEND
  5
23C
  8
DATA
  6
CONTINUOUS
 62
     7
  0
POLYLINE
  5
F1
  8
DATA
  6
CONTINUOUS
 62
     7
 66
     1
 10
0.0
 20
0.0
 30
0.0
 70
     1
  0
VERTEX
  5
23D
  8
DATA
  6
CONTINUOUS
 62
     7
 10
20.57500000022047
 20
74.249999999687091
 30
0.0
  0
VERTEX
  5
23E
  8
DATA
  6
CONTINUOUS
 62
     7
 10
21.275000000220452
 20
74.249999999687091
 30
0.0
  0
VERTEX
  5
23F
  8
DATA
  6
CONTINUOUS
 62
     7
 10
21.275000000220452
 20
67.249999999687105
 30
0.0
  0
VERTEX
  5
240
  8
DATA
  6
CONTINUOUS
 62
     7
 10
20.57500000022047
 20
67.249999999687105
 30
0.0
  0
SEQEND
  5
241
  8
DATA
  6
CONTINUOUS
 62
     7
  0
POLYLINE
  5
F8
  8
DATA
  6
CONTINUOUS
 62
     7
 66
     1
 10
0.0
 20
0.0
 30
0.0
 70
     1
  0
VERTEX
  5
242
  8
DATA
  6
CONTINUOUS
 62
     7
 10
19.175000000220461
 20
74.249999999687091
 30
0.0
  0
VERTEX
  5
243
  8
DATA
  6
CONTINUOUS
 62
     7
 10
19.875000000220449
 20
74.249999999687091
 30
0.0
  0
VERTEX
  5
244
  8
DATA
  6
CONTINUOUS
 62
     7
 10
19.875000000220449
 20
67.249999999687105
 30
0.0
  0
VERTEX
  5
245
  8
DATA
  6
CONTINUOUS
 62
     7
 10
19.175000000220461
 20
67.249999999687105
 30
0.0
  0
SEQEND
  5
246
  8
DATA
  6
CONTINUOUS
 62
     7
  0
POLYLINE
  5
FF
  8
DATA
  6
CONTINUOUS
 62
     7
 66
     1
 10
0.0
 20
0.0
 30
0.0
 70
     1
  0
VERTEX
  5
247
  8
DATA
  6
CONTINUOUS
 62
     7
 10
17.775000000220459
 20
74.249999999687091
 30
0.0
  0
VERTEX
  5
248
  8
DATA
  6
CONTINUOUS
 62
     7
 10
18.475000000220462
 20
74.249999999687091
 30
0.0
  0
VERTEX
  5
249
  8
DATA
  6
CONTINUOUS
 62
     7
 10
18.475000000220462
 20
67.249999999687105
 30
0.0
  0
VERTEX
  5
24A
  8
DATA
  6
CONTINUOUS
 62
     7
 10
17.775000000220459
 20
67.249999999687105
 30
0.0
  0
SEQEND
  5
24B
  8
DATA
  6
CONTINUOUS
 62
     7
  0
POLYLINE
  5
106
  8
DATA
  6
CONTINUOUS
 62
     7
 66
     1
 10
0.0
 20
0.0
 30
0.0
 70
     1
  0
VERTEX
  5
24C
  8
DATA
  6
CONTINUOUS
 62
     7
 10
16.375000000220449
 20
74.249999999687091
 30
0.0
  0
VERTEX
  5
24D
  8
DATA
  6
CONTINUOUS
 62
     7
 10
17.07500000022047
 20
74.249999999687091
 30
0.0
  0
VERTEX
  5
24E
  8
DATA
  6
CONTINUOUS
 62
     7
 10
17.07500000022047
 20
67.249999999687105
 30
0.0
  0
VERTEX
  5
24F
  8
DATA
  6
CONTINUOUS
 62
     7
 10
16.375000000220449
 20
67.249999999687105
 30
0.0
  0
SEQEND
  5
250
  8
DATA
  6
CONTINUOUS
 62
     7
  0
LINE
  5
10D
  8
DATA
  6
CONTINUOUS
 62
     7
 10
24.775000000220452
 20
80.749999999687077
 30
0.0
 11
24.775000000220452
 21
82.749999999687091
 31
0.0
  0
LINE
  5
10E
  8
DATA
  6
CONTINUOUS
 62
     7
 10
25.475000000220469
 20
82.749999999687091
 30
0.0
 11
25.475000000220469
 21
80.749999999687077
 31
0.0
  0
LINE
  5
10F
  8
DATA
  6
CONTINUOUS
 62
     7
 10
24.775000000220452
 20
82.749999999687091
 30
0.0
 11
25.475000000220469
 21
82.749999999687091
 31
0.0
  0
LINE
  5
110
  8
DATA
  6
CONTINUOUS
 62
     7
 10
23.375000000220449
 20
80.749999999687077
 30
0.0
 11
23.375000000220449
 21
82.749999999687091
 31
0.0
  0
LINE
  5
111
  8
DATA
  6
CONTINUOUS
 62
     7
 10
24.07500000022047
 20
82.749999999687091
 30
0.0
 11
24.07500000022047
 21
80.749999999687077
 31
0.0
  0
LINE
  5
112
  8
DATA
  6
CONTINUOUS
 62
     7
 10
23.375000000220449
 20
82.749999999687091
 30
0.0
 11
24.07500000022047
 21
82.749999999687091
 31
0.0
  0
LINE
  5
113
  8
DATA
  6
CONTINUOUS
 62
     7
 10
21.975000000220469
 20
80.749999999687077
 30
0.0
 11
21.975000000220469
 21
82.749999999687091
 31
0.0
  0
LINE
  5
114
  8
DATA
  6
CONTINUOUS
 62
     7
 10
22.675000000220461
 20
82.749999999687091
 30
0.0
 11
22.675000000220461
 21
80.749999999687077
 31
0.0
  0
LINE
  5
115
  8
DATA
  6
CONTINUOUS
 62
     7
 10
21.975000000220469
 20
82.749999999687091
 30
0.0
 11
22.675000000220461
 21
82.749999999687091
 31
0.0
  0
LINE
  5
116
  8
DATA
  6
CONTINUOUS
 62
     7
 10
20.57500000022047
 20
80.749999999687077
 30
0.0
 11
20.57500000022047
 21
82.749999999687091
 31
0.0
  0
LINE
  5
117
  8
DATA
  6
CONTINUOUS
 62
     7
 10
21.275000000220452
 20
82.749999999687091
 30
0.0
 11
21.275000000220452
 21
80.749999999687077
 31
0.0
  0
LINE
  5
118
  8
DATA
  6
CONTINUOUS
 62
     7
 10
20.57500000022047
 20
82.749999999687091
 30
0.0
 11
21.275000000220452
 21
82.749999999687091
 31
0.0
  0
LINE
  5
119
  8
DATA
  6
CONTINUOUS
 62
     7
 10
19.175000000220461
 20
80.749999999687077
 30
0.0
 11
19.175000000220461
 21
82.749999999687091
 31
0.0
  0
LINE
  5
11A
  8
DATA
  6
CONTINUOUS
 62
     7
 10
19.875000000220449
 20
82.749999999687091
 30
0.0
 11
19.875000000220449
 21
80.749999999687077
 31
0.0
  0
LINE
  5
11B
  8
DATA
  6
CONTINUOUS
 62
     7
 10
19.175000000220461
 20
82.749999999687091
 30
0.0
 11
19.875000000220449
 21
82.749999999687091
 31
0.0
  0
LINE
  5
11C
  8
DATA
  6
CONTINUOUS
 62
     7
 10
17.775000000220459
 20
80.749999999687077
 30
0.0
 11
17.775000000220459
 21
82.749999999687091
 31
0.0
  0
LINE
  5
11D
  8
DATA
  6
CONTINUOUS
 62
     7
 10
18.475000000220462
 20
82.749999999687091
 30
0.0
 11
18.475000000220462
 21
80.749999999687077
 31
0.0
  0
LINE
  5
11E
  8
DATA
  6
CONTINUOUS
 62
     7
 10
17.775000000220459
 20
82.749999999687091
 30
0.0
 11
18.475000000220462
 21
82.749999999687091
 31
0.0
  0
LINE
  5
11F
  8
DATA
  6
CONTINUOUS
 62
     7
 10
16.375000000220449
 20
80.749999999687077
 30
0.0
 11
16.375000000220449
 21
82.749999999687091
 31
0.0
  0
LINE
  5
120
  8
DATA
  6
CONTINUOUS
 62
     7
 10
17.07500000022047
 20
82.749999999687091
 30
0.0
 11
17.07500000022047
 21
80.749999999687077
 31
0.0
  0
LINE
  5
121
  8
DATA
  6
CONTINUOUS
 62
     7
 10
16.375000000220449
 20
82.749999999687091
 30
0.0
 11
17.07500000022047
 21
82.749999999687091
 31
0.0
  0
LINE
  5
122
  8
DATA
  6
CONTINUOUS
 62
     7
 10
26.175000000220461
 20
80.749999999687077
 30
0.0
 11
26.175000000220461
 21
82.749999999687091
 31
0.0
  0
LINE
  5
123
  8
DATA
  6
CONTINUOUS
 62
     7
 10
26.875000000220449
 20
82.749999999687091
 30
0.0
 11
26.875000000220449
 21
80.749999999687077
 31
0.0
  0
LINE
  5
124
  8
DATA
  6
CONTINUOUS
 62
     7
 10
26.175000000220461
 20
82.749999999687091
 30
0.0
 11
26.875000000220449
 21
82.749999999687091
 31
0.0
  0
LINE
  5
125
  8
DATA
  6
CONTINUOUS
 62
     7
 10
27.575000000220449
 20
80.749999999687077
 30
0.0
 11
27.575000000220449
 21
82.749999999687091
 31
0.0
  0
LINE
  5
126
  8
DATA
  6
CONTINUOUS
 62
     7
 10
28.275000000220452
 20
82.749999999687091
 30
0.0
 11
28.275000000220452
 21
80.749999999687077
 31
0.0
  0
LINE
  5
127
  8
DATA
  6
CONTINUOUS
 62
     7
 10
27.575000000220449
 20
82.749999999687091
 30
0.0
 11
28.275000000220452
 21
82.749999999687091
 31
0.0
  0
LINE
  5
128
  8
DATA
  6
CONTINUOUS
 62
     7
 10
28.975000000220469
 20
80.749999999687077
 30
0.0
 11
28.975000000220469
 21
82.749999999687091
 31
0.0
  0
LINE
  5
129
  8
DATA
  6
CONTINUOUS
 62
     7
 10
29.675000000220471
 20
82.749999999687091
 30
0.0
 11
29.675000000220471
 21
80.749999999687077
 31
0.0
  0
LINE
  5
12A
  8
DATA
  6
CONTINUOUS
 62
     7
 10
28.975000000220469
 20
82.749999999687091
 30
0.0
 11
29.675000000220471
 21
82.749999999687091
 31
0.0
  0
LINE
  5
12B
  8
DATA
  6
CONTINUOUS
 62
     7
 10
30.37500000022046
 20
80.749999999687077
 30
0.0
 11
30.37500000022046
 21
82.749999999687091
 31
0.0
  0
LINE
  5
12C
  8
DATA
  6
CONTINUOUS
 62
     7
 10
31.075000000220449
 20
82.749999999687091
 30
0.0
 11
31.075000000220449
 21
80.749999999687077
 31
0.0
  0
LINE
  5
12D
  8
DATA
  6
CONTINUOUS
 62
     7
 10
30.37500000022046
 20
82.749999999687091
 30
0.0
 11
31.075000000220449
 21
82.749999999687091
 31
0.0
  0
LINE
  5
12E
  8
DATA
  6
CONTINUOUS
 62
     7
 10
31.775000000220452
 20
80.749999999687077
 30
0.0
 11
31.775000000220452
 21
82.749999999687091
 31
0.0
  0
LINE
  5
12F
  8
DATA
  6
CONTINUOUS
 62
     7
 10
32.475000000220469
 20
82.749999999687091
 30
0.0
 11
32.475000000220469
 21
80.749999999687077
 31
0.0
  0
LINE
  5
130
  8
DATA
  6
CONTINUOUS
 62
     7
 10
31.775000000220452
 20
82.749999999687091
 30
0.0
 11
32.475000000220469
 21
82.749999999687091
 31
0.0
  0
LINE
  5
131
  8
DATA
  6
CONTINUOUS
 62
     7
 10
33.17500000022045
 20
80.749999999687077
 30
0.0
 11
33.17500000022045
 21
82.749999999687091
 31
0.0
  0
LINE
  5
132
  8
DATA
  6
CONTINUOUS
 62
     7
 10
33.87500000022046
 20
82.749999999687091
 30
0.0
 11
33.87500000022046
 21
80.749999999687077
 31
0.0
  0
LINE
  5
133
  8
DATA
  6
CONTINUOUS
 62
     7
 10
33.17500000022045
 20
82.749999999687091
 30
0.0
 11
33.87500000022046
 21
82.749999999687091
 31
0.0
  0
LINE
  5
134
  8
DATA
  6
CONTINUOUS
 62
     7
 10
17.07500000022047
 20
80.749999999687077
 30
0.0
 11
17.775000000220459
 21
80.749999999687077
 31
0.0
  0
LINE
  5
135
  8
DATA
  6
CONTINUOUS
 62
     7
 10
18.475000000220462
 20
80.749999999687077
 30
0.0
 11
19.175000000220461
 21
80.749999999687077
 31
0.0
  0
LINE
  5
136
  8
DATA
  6
CONTINUOUS
 62
     7
 10
19.875000000220449
 20
80.749999999687077
 30
0.0
 11
20.57500000022047
 21
80.749999999687077
 31
0.0
  0
LINE
  5
137
  8
DATA
  6
CONTINUOUS
 62
     7
 10
21.275000000220452
 20
80.749999999687077
 30
0.0
 11
21.975000000220469
 21
80.749999999687077
 31
0.0
  0
LINE
  5
138
  8
DATA
  6
CONTINUOUS
 62
     7
 10
22.675000000220461
 20
80.749999999687077
 30
0.0
 11
23.375000000220449
 21
80.749999999687077
 31
0.0
  0
LINE
  5
139
  8
DATA
  6
CONTINUOUS
 62
     7
 10
24.07500000022047
 20
80.749999999687077
 30
0.0
 11
24.775000000220452
 21
80.749999999687077
 31
0.0
  0
LINE
  5
13A
  8
DATA
  6
CONTINUOUS
 62
     7
 10
25.475000000220469
 20
80.749999999687077
 30
0.0
 11
26.175000000220461
 21
80.749999999687077
 31
0.0
  0
LINE
  5
13B
  8
DATA
  6
CONTINUOUS
 62
     7
 10
26.875000000220449
 20
80.749999999687077
 30
0.0
 11
27.575000000220449
 21
80.749999999687077
 31
0.0
  0
LINE
  5
13C
  8
DATA
  6
CONTINUOUS
 62
     7
 10
28.275000000220452
 20
80.749999999687077
 30
0.0
 11
28.975000000220469
 21
80.749999999687077
 31
0.0
  0
LINE
  5
13D
  8
DATA
  6
CONTINUOUS
 62
     7
 10
29.675000000220471
 20
80.749999999687077
 30
0.0
 11
30.37500000022046
 21
80.749999999687077
 31
0.0
  0
LINE
  5
13E
  8
DATA
  6
CONTINUOUS
 62
     7
 10
31.075000000220449
 20
80.749999999687077
 30
0.0
 11
31.775000000220452
 21
80.749999999687077
 31
0.0
  0
LINE
  5
13F
  8
DATA
  6
CONTINUOUS
 62
     7
 10
32.475000000220469
 20
80.749999999687077
 30
0.0
 11
33.17500000022045
 21
80.749999999687077
 31
0.0
  0
LINE
  5
140
  8
DATA
  6
CONTINUOUS
 62
     7
 10
33.87500000022046
 20
80.749999999687077
 30
0.0
 11
34.625000000220453
 21
80.749999999687077
 31
0.0
  0
ARC
  5
141
  8
DATA
  6
CONTINUOUS
 62
     7
 10
25.125000000220481
 20
163.74999999968711
 30
0.0
 40
9.249999999999984
 50
70.007125127732024
 51
90.007125127722915
  0
ARC
  5
142
  8
DATA
  6
CONTINUOUS
 62
     7
 10
25.125000000220481
 20
163.74999999968711
 30
0.0
 40
9.2499999999999751
 50
110.007125127732
 51
130.007125127732
  0
ARC
  5
143
  8
DATA
  6
CONTINUOUS
 62
     7
 10
25.125000000220481
 20
163.74999999968711
 30
0.0
 40
9.2499999999999751
 50
150.0071251277318
 51
170.00712512773171
  0
ARC
  5
144
  8
DATA
  6
CONTINUOUS
 62
     7
 10
25.125000000220481
 20
163.74999999968711
 30
0.0
 40
9.2499999999999822
 50
190.00712512773151
 51
210.00712512773151
  0
ARC
  5
145
  8
DATA
  6
CONTINUOUS
 62
     7
 10
25.125000000220481
 20
163.74999999968711
 30
0.0
 40
9.2499999999999716
 50
230.0071251277314
 51
250.00712512773131
  0
ARC
  5
146
  8
DATA
  6
CONTINUOUS
 62
     7
 10
25.125000000220481
 20
163.74999999968711
 30
0.0
 40
9.249999999999968
 50
270.00712512772259
 51
290.0071251277314
  0
ARC
  5
147
  8
DATA
  6
CONTINUOUS
 62
     7
 10
25.125000000220481
 20
163.74999999968711
 30
0.0
 40
9.2499999999999645
 50
310.00712512773129
 51
330.0071251277314
  0
ARC
  5
148
  8
DATA
  6
CONTINUOUS
 62
     7
 10
25.125000000220481
 20
163.74999999968711
 30
0.0
 40
9.2499999999999662
 50
350.00712512773168
 51
10.00712598150511
  0
ARC
  5
149
  8
DATA
  6
CONTINUOUS
 62
     7
 10
25.125000000220481
 20
163.74999999968711
 30
0.0
 40
9.2499999999999822
 50
30.00712512773184
 51
50.00712512773201
  0
LINE
  5
14A
  8
DATA
  6
CONTINUOUS
 62
     7
 10
25.098772712995078
 20
167.5499094893203
 30
0.0
 11
25.12500000022046
 21
173.24999999968711
 31
0.0
  0
LINE
  5
14B
  8
DATA
  6
CONTINUOUS
 62
     7
 10
26.400000000220452
 20
167.32971716728571
 30
0.0
 11
28.374191361814312
 21
172.67707989715319
 31
0.0
  0
LINE
  5
14C
  8
DATA
  6
CONTINUOUS
 62
     7
 10
27.54744347044992
 20
166.67775812383991
 30
0.0
 11
31.231482292242561
 21
171.02742220931731
 31
0.0
  0
LINE
  5
14D
  8
DATA
  6
CONTINUOUS
 62
     7
 10
28.402704506711721
 20
165.67266824151329
 30
0.0
 11
33.352241336172597
 21
168.49999999968711
 31
0.0
  0
LINE
  5
14E
  8
DATA
  6
CONTINUOUS
 62
     7
 10
28.862626005724088
 20
164.4356761936611
 30
0.0
 11
34.480673653836391
 21
165.3996576875229
 31
0.0
  0
LINE
  5
14F
  8
DATA
  6
CONTINUOUS
 62
     7
 10
28.871734646987768
 20
163.115981477313
 30
0.0
 11
34.480673653836377
 21
162.10034231185119
 31
0.0
  0
LINE
  5
150
  8
DATA
  6
CONTINUOUS
 62
     7
 10
28.428931793937089
 20
161.87275875188001
 30
0.0
 11
33.35224133617254
 21
158.99999999968711
 31
0.0
  0
LINE
  5
151
  8
DATA
  6
CONTINUOUS
 62
     7
 10
27.58762600572409
 20
160.85595902606261
 30
0.0
 11
31.23148229224249
 21
156.47257779005679
 31
0.0
  0
LINE
  5
152
  8
DATA
  6
CONTINUOUS
 62
     7
 10
26.449291176758312
 20
160.1882233531602
 30
0.0
 11
28.37419136181423
 21
154.82292010222099
 31
0.0
  0
LINE
  5
153
  8
DATA
  6
CONTINUOUS
 62
     7
 10
25.151227287445849
 20
159.95009051005391
 30
0.0
 11
25.12500000022046
 21
154.24999999968711
 31
0.0
  0
LINE
  5
154
  8
DATA
  6
CONTINUOUS
 62
     7
 10
23.850000000220451
 20
160.1702828320885
 30
0.0
 11
21.87580863862653
 21
154.82292010222099
 31
0.0
  0
LINE
  5
155
  8
DATA
  6
CONTINUOUS
 62
     7
 10
22.702556529991
 20
160.8222418755343
 30
0.0
 11
19.018517708198271
 21
156.47257779005679
 31
0.0
  0
LINE
  5
156
  8
DATA
  6
CONTINUOUS
 62
     7
 10
21.847295493729209
 20
161.82733175786089
 30
0.0
 11
16.897758664268238
 21
158.99999999968711
 31
0.0
  0
LINE
  5
157
  8
DATA
  6
CONTINUOUS
 62
     7
 10
21.38737399471681
 20
163.064323805713
 30
0.0
 11
15.769326346604441
 21
162.10034231185131
 31
0.0
  0
LINE
  5
158
  8
DATA
  6
CONTINUOUS
 62
     7
 10
21.378265353453159
 20
164.3840185220611
 30
0.0
 11
15.769326346604471
 21
165.39965768752299
 31
0.0
  0
LINE
  5
159
  8
DATA
  6
CONTINUOUS
 62
     7
 10
21.821068206503821
 20
165.62724124749411
 30
0.0
 11
16.897758664268292
 21
168.49999999968711
 31
0.0
  0
LINE
  5
15A
  8
DATA
  6
CONTINUOUS
 62
     7
 10
22.66237399471683
 20
166.64404097331149
 30
0.0
 11
19.018517708198331
 21
171.02742220931739
 31
0.0
  0
LINE
  5
15B
  8
DATA
  6
CONTINUOUS
 62
     7
 10
23.800708823682609
 20
167.3117766462139
 30
0.0
 11
21.875808638626609
 21
172.67707989715319
 31
0.0
  0
LINE
  5
15C
  8
DATA
  6
CONTINUOUS
 62
     7
 10
15.625000000220449
 20
59.749999999687113
 30
0.0
 11
15.625000000220449
 21
18.749999999687098
 31
0.0
  0
LINE
  5
15D
  8
DATA
  6
CONTINUOUS
 62
     7
 10
34.625000000220453
 20
59.749999999687113
 30
0.0
 11
34.625000000220453
 21
18.749999999687098
 31
0.0
  0
TEXT
  5
15E
  8
DATA
 62
     7
 10
20.147747989845591
 20
23.241095872892579
 30
0.0
 40
3.2576822916666659
  1
MMP-C
 41
0.7
 11
20.147747989845591
 21
26.498778164559241
 31
0.0
 73
     3
  0
CIRCLE
  5
15F
  8
DATA
  6
CONTINUOUS
 62
     7
 10
25.12500000022046
 20
-14.375000000156231
 30
0.0
 40
9.5
  0
ARC
  5
160
  8
DATA
  6
CONTINUOUS
 62
     7
 10
25.125000000220378
 20
-14.375000000156261
 30
0.0
 40
8.0000000000000728
 50
52.793688021979818
 51
38.897425550919721
  0
CIRCLE
  5
161
  8
DATA
  6
CONTINUOUS
 62
     7
 10
25.12500000022046
 20
-18.375000000156231
 30
0.0
 40
1.150000000000005
  0
CIRCLE
  5
162
  8
DATA
  6
CONTINUOUS
 62
     7
 10
21.125000000220449
 20
-14.375000000156231
 30
0.0
 40
1.150000000000005
  0
CIRCLE
  5
163
  8
DATA
  6
CONTINUOUS
 62
     7
 10
29.12500000022046
 20
-14.375000000156231
 30
0.0
 40
1.150000000000005
  0
ARC
  5
164
  8
DATA
  6
CONTINUOUS
 62
     7
 10
30.224086104011828
 20
-9.1231462233580487
 30
0.0
 40
1.150000000000003
 50
348.54291116051758
 51
103.1482024123824
  0
CIRCLE
  5
165
  8
DATA
  6
STYLE_01
 62
     7
 10
25.12500000022046
 20
163.74999999968711
 30
0.0
 40
31.0
  0
ARC
  5
166
  8
DATA
  6
STYLE_01
 62
     7
 10
25.12500000022046
 20
94.74999999968712
 30
0.0
 40
31.0
 50
0.0
 51
180.0
  0
ARC
  5
167
  8
DATA
  6
STYLE_01
 62
     7
 10
25.12500000022046
 20
62.651820453652782
 30
0.0
 40
31.0
 50
180.0
 51
252.15448225317479
  0
ARC
  5
168
  8
DATA
  6
STYLE_01
 62
     7
 10
25.12500000022046
 20
62.651820453652782
 30
0.0
 40
31.0
 50
287.84551774682518
 51
360.0
  0
LINE
  5
169
  8
DATA
  6
STYLE_01
 62
     7
 10
15.625000000220449
 20
33.14334709429378
 30
0.0
 11
34.62500000022041
 21
33.14334709429378
 31
0.0
  0
LINE
  5
16A
  8
DATA
  6
STYLE_01
 62
     7
 10
-5.874999999779547
 20
62.651820453652782
 30
0.0
 11
-5.874999999779547
 21
94.74999999968712
 31
0.0
  0
LINE
  5
16B
  8
DATA
  6
STYLE_01
 62
     7
 10
56.125000000220453
 20
62.651820453652782
 30
0.0
 11
56.125000000220453
 21
94.74999999968712
 31
0.0
  0
TEXT
  5
16C
  8
DATA
 62
     7
 10
77.874116032734847
 20
125.3733373680568
 30
0.0
 40
5.4294704861111107
  1
ウインドスクリーン
 41
0.7
 11
77.874116032734847
 21
130.8028078541679
 31
0.0
 73
     3
  0
LINE
  5
16D
  8
DATA
  6
CONTINUOUS
 62
     7
 10
75.0
 20
123.125
 30
0.0
 11
146.875
 21
123.125
 31
0.0
  0
LINE
  5
16E
  8
DATA
  6
CONTINUOUS
 62
     7
 10
75.0
 20
123.125
 30
0.0
 11
48.91542612108757
 21
143.875
 31
0.0
  0
LINE
  5
16F
  8
DATA
  6
CONTINUOUS
 62
     7
 10
48.91542612108757
 20
143.875
 30
0.0
 11
54.966828475530598
 21
141.30633209778739
 31
0.0
  0
LINE
  5
170
  8
DATA
  6
CONTINUOUS
 62
     7
 10
48.91542612108757
 20
143.875
 30
0.0
 11
52.871760337449913
 21
138.62476716557671
 31
0.0
  0
LINE
  5
171
  8
DATA
  6
CONTINUOUS
 62
     7
 10
75.0
 20
123.125
 30
0.0
 11
52.668590452285649
 21
108.97499999999999
 31
0.0
  0
LINE
  5
172
  8
DATA
  6
CONTINUOUS
 62
     7
 10
52.668590452285649
 20
108.97499999999999
 30
0.0
 11
57.152050225832333
 21
113.7829219738058
 31
0.0
  0
LINE
  5
173
  8
DATA
  6
CONTINUOUS
 62
     7
 10
52.668590452285649
 20
108.97499999999999
 30
0.0
 11
58.955341499925602
 21
110.8970526819559
 31
0.0
  0
LINE
  5
174
  8
DATA
  6
CONTINUOUS
 62
     7
 10
15.625000000220449
 20
18.749999999687098
 30
0.0
 11
34.625000000220453
 21
18.749999999687098
 31
0.0
  0
TEXT
  5
175
  8
DATA
 62
     7
 10
194.56612051610841
 20
-85.729916108088887
 30
0.0
 40
3.257687421875
  1
単一指向性マイクロホン
 41
0.7
 11
194.56612051610841
 21
-82.472228686213896
 31
0.0
 73
     3
  0
ENDSEC
  0
EOF
