  0
SECTION
  2
HEADER
  9
$ACADVER
  1
AC1009
  9
$INSBASE
 10
0.0
 20
0.0
 30
0.0
  9
$EXTMIN
 10
-80.010985489947416
 20
-131.67677505465531
 30
-0.0015258207003583
  9
$EXTMAX
 10
280.01098716632811
 20
403.54994963264153
 30
0.0000000349246037
  9
$LIMMIN
 10
0.0
 20
0.0
  9
$LIMMAX
 10
0.0
 20
0.0
  9
$ORTHOMODE
 70
     0
  9
$REGENMODE
 70
     1
  9
$FILLMODE
 70
     1
  9
$QTEXTMODE
 70
     0
  9
$MIRRTEXT
 70
     1
  9
$DRAGMODE
 70
     2
  9
$LTSCALE
 40
10.16
  9
$OSMODE
 70
   231
  9
$ATTMODE
 70
     1
  9
$TEXTSIZE
 40
0.0
  9
$TRACEWID
 40
1.0
  9
$TEXTSTYLE
  7
STANDARD
  9
$CLAYER
  8
DATA
  9
$CELTYPE
  6
BYLAYER
  9
$CECOLOR
 62
   256
  9
$DIMSCALE
 40
1.0
  9
$DIMASZ
 40
0.18
  9
$DIMEXO
 40
0.0625
  9
$DIMDLI
 40
0.38
  9
$DIMRND
 40
0.0
  9
$DIMDLE
 40
0.0
  9
$DIMEXE
 40
0.18
  9
$DIMTP
 40
0.0
  9
$DIMTM
 40
0.0
  9
$DIMTXT
 40
0.18
  9
$DIMCEN
 40
0.09
  9
$DIMTSZ
 40
0.0
  9
$DIMTOL
 70
     0
  9
$DIMLIM
 70
     0
  9
$DIMTIH
 70
     1
  9
$DIMTOH
 70
     1
  9
$DIMSE1
 70
     0
  9
$DIMSE2
 70
     0
  9
$DIMTAD
 70
     0
  9
$DIMZIN
 70
     0
  9
$DIMBLK
  1

  9
$DIMASO
 70
     1
  9
$DIMSHO
 70
     1
  9
$DIMPOST
  1

  9
$DIMAPOST
  1

  9
$DIMALT
 70
     0
  9
$DIMALTD
 70
     2
  9
$DIMALTF
 40
25.399999999999999
  9
$DIMLFAC
 40
1.0
  9
$DIMTOFL
 70
     0
  9
$DIMTVP
 40
0.0
  9
$DIMTIX
 70
     0
  9
$DIMSOXD
 70
     0
  9
$DIMSAH
 70
     0
  9
$DIMBLK1
  1

  9
$DIMBLK2
  1

  9
$DIMSTYLE
  2
STANDARD
  9
$DIMCLRD
 70
     0
  9
$DIMCLRE
 70
     0
  9
$DIMCLRT
 70
     0
  9
$DIMTFAC
 40
1.0
  9
$DIMGAP
 40
0.09
  9
$LUNITS
 70
     2
  9
$LUPREC
 70
     4
  9
$SKETCHINC
 40
0.1
  9
$FILLETRAD
 40
0.0
  9
$AUNITS
 70
     0
  9
$AUPREC
 70
     0
  9
$MENU
  1
acad
  9
$ELEVATION
 40
0.0
  9
$PELEVATION
 40
0.0
  9
$THICKNESS
 40
0.0
  9
$LIMCHECK
 70
     0
  9
$BLIPMODE
 70
     0
  9
$CHAMFERA
 40
0.0
  9
$CHAMFERB
 40
0.0
  9
$SKPOLY
 70
     0
  9
$TDCREATE
 40
2455618.5962268519
  9
$TDUPDATE
 40
2455618.6145004402
  9
$TDINDWG
 40
0.0002275
  9
$TDUSRTIMER
 40
0.0002275
  9
$USRTIMER
 70
     1
  9
$ANGBASE
 50
0.0
  9
$ANGDIR
 70
     0
  9
$PDMODE
 70
     1
  9
$PDSIZE
 40
-2.0
  9
$PLINEWID
 40
0.0
  9
$COORDS
 70
     1
  9
$SPLFRAME
 70
     0
  9
$SPLINETYPE
 70
     6
  9
$SPLINESEGS
 70
     8
  9
$ATTDIA
 70
     0
  9
$ATTREQ
 70
     1
  9
$HANDLING
 70
     1
  9
$HANDSEED
  5
2AB
  9
$SURFTAB1
 70
     6
  9
$SURFTAB2
 70
     6
  9
$SURFTYPE
 70
     6
  9
$SURFU
 70
     6
  9
$SURFV
 70
     6
  9
$UCSNAME
  2

  9
$UCSORG
 10
0.0
 20
0.0
 30
0.0
  9
$UCSXDIR
 10
1.0
 20
0.0
 30
0.0
  9
$UCSYDIR
 10
0.0
 20
1.0
 30
0.0
  9
$PUCSNAME
  2

  9
$PUCSORG
 10
0.0
 20
0.0
 30
0.0
  9
$PUCSXDIR
 10
1.0
 20
0.0
 30
0.0
  9
$PUCSYDIR
 10
0.0
 20
1.0
 30
0.0
  9
$USERI1
 70
     0
  9
$USERI2
 70
     0
  9
$USERI3
 70
     0
  9
$USERI4
 70
     0
  9
$USERI5
 70
     0
  9
$USERR1
 40
0.0
  9
$USERR2
 40
0.0
  9
$USERR3
 40
0.0
  9
$USERR4
 40
0.0
  9
$USERR5
 40
0.0
  9
$WORLDVIEW
 70
     1
  9
$SHADEDGE
 70
     3
  9
$SHADEDIF
 70
    70
  9
$TILEMODE
 70
     1
  9
$MAXACTVP
 70
    64
  9
$PLIMCHECK
 70
     0
  9
$PEXTMIN
 10
1.0000000000000000E+020
 20
1.0000000000000000E+020
 30
1.0000000000000000E+020
  9
$PEXTMAX
 10
-1.0000000000000000E+020
 20
-1.0000000000000000E+020
 30
-1.0000000000000000E+020
  9
$PLIMMIN
 10
0.0
 20
0.0
  9
$PLIMMAX
 10
12.0
 20
9.0
  9
$UNITMODE
 70
     0
  9
$VISRETAIN
 70
     0
  9
$PLINEGEN
 70
     1
  9
$PSLTSCALE
 70
     0
  0
ENDSEC
  0
SECTION
  2
TABLES
  0
TABLE
  2
VPORT
 70
     1
  0
VPORT
  2
*ACTIVE
 70
     0
 10
0.0
 20
0.0
 11
1.0
 21
1.0
 12
100.0000008381904
 22
135.93658728899311
 13
0.0
 23
0.0
 14
1.0
 24
1.0
 15
0.0
 25
0.0
 16
0.0
 26
0.0
 36
1.0
 17
0.0
 27
0.0
 37
0.0
 40
539.16704413284754
 41
1.9619164619164611
 42
50.0
 43
0.0
 44
0.0
 50
0.0
 51
0.0
 71
     0
 72
  2000
 73
     1
 74
     1
 75
     0
 76
     0
 77
     0
 78
     0
  0
ENDTAB
  0
TABLE
  2
LTYPE
 70
    11
  0
LTYPE
  2
CONTINUOUS
 70
     0
  3
Solid line
 72
    65
 73
     0
 40
0.0
  0
LTYPE
  2
STYLE_01
 70
     0
  3

 72
    65
 73
     2
 40
0.4166412353515625
 49
0.208282470703125
 49
-0.2083587646484375
  0
ENDTAB
  0
TABLE
  2
LAYER
 70
     5
  0
LAYER
  2
0
 70
     0
 62
     7
  6
CONTINUOUS
  0
LAYER
  2
DATA
 70
     0
 62
     7
  6
CONTINUOUS
  0
LAYER
  2
HIBINO-BASE
 70
     0
 62
     7
  6
CONTINUOUS
  0
LAYER
  2
SPEC
 70
     0
 62
     7
  6
CONTINUOUS
  0
LAYER
  2
DIMNSIONS
 70
     0
 62
     7
  6
CONTINUOUS
  0
ENDTAB
  0
TABLE
  2
STYLE
 70
     3
  0
STYLE
  2
STANDARD
 70
     0
 40
0.0
 41
1.0
 50
0.0
 71
     0
 42
0.0
  3
txt
  4
BIGFONT.SHX
  0
ENDTAB
  0
TABLE
  2
VIEW
 70
     0
  0
ENDTAB
  0
TABLE
  2
UCS
 70
     0
  0
ENDTAB
  0
TABLE
  2
APPID
 70
     3
  0
APPID
  2
ACAD
 70
     0
  0
APPID
  2
ACADANNOTATIVE
 70
     0
  0
APPID
  2
ACAD_MLEADERVER
 70
     0
  0
ENDTAB
  0
TABLE
  2
DIMSTYLE
 70
     2
  0
DIMSTYLE
  2
STANDARD
 70
     0
  3

  4

  5

  6

  7

 40
1.0
 41
0.18
 42
0.0625
 43
0.38
 44
0.18
 45
0.0
 46
0.0
 47
0.0
 48
0.0
140
0.18
141
0.09
142
0.0
143
25.399999999999999
144
1.0
145
0.0
146
1.0
147
0.09
 71
     0
 72
     0
 73
     1
 74
     1
 75
     0
 76
     0
 77
     0
 78
     0
170
     0
171
     2
172
     0
173
     0
174
     0
175
     0
176
     0
177
     0
178
     0
  0
ENDTAB
  0
ENDSEC
  0
SECTION
  2
BLOCKS
  0
BLOCK
  8
0
  2
$MODEL_SPACE
 70
     0
 10
0.0
 20
0.0
 30
0.0
  3
$MODEL_SPACE
  1

  0
ENDBLK
  5
201
  8
0
  0
BLOCK
 67
     1
  8
0
  2
$PAPER_SPACE
 70
     0
 10
0.0
 20
0.0
 30
0.0
  3
$PAPER_SPACE
  1

  0
ENDBLK
  5
1FD
 67
     1
  8
0
  0
ENDSEC
  0
SECTION
  2
ENTITIES
  0
LINE
  5
2C
  8
HIBINO-BASE
  6
CONTINUOUS
 62
     7
 10
-79.999999999999986
 20
403.53364789486591
 30
0.0
 11
279.99999999999989
 21
403.53364789486591
 31
0.0
  0
LINE
  5
2D
  8
HIBINO-BASE
  6
CONTINUOUS
 62
     7
 10
279.99999999999989
 20
-116.46635210513411
 30
0.0
 11
-79.999999999999986
 21
-116.46635210513411
 31
0.0
  0
LINE
  5
2E
  8
HIBINO-BASE
  6
CONTINUOUS
 62
     7
 10
-79.999999999999986
 20
-116.46635210513411
 30
0.0
 11
-79.999999999999986
 21
403.53364789486591
 31
0.0
  0
LINE
  5
2F
  8
HIBINO-BASE
  6
CONTINUOUS
 62
     7
 10
279.99999999999989
 20
403.53364789486591
 30
0.0
 11
279.99999999999989
 21
-116.46635210513411
 31
0.0
  0
LINE
  5
30
  8
HIBINO-BASE
  6
CONTINUOUS
 62
     7
 10
100.0
 20
-71.466352105134064
 30
0.0
 11
279.99999999999989
 21
-71.466352105134064
 31
0.0
  0
LINE
  5
31
  8
HIBINO-BASE
  6
CONTINUOUS
 62
     7
 10
100.0
 20
-116.46635210513411
 30
0.0
 11
100.0
 21
-71.466352105134064
 31
0.0
  0
TEXT
  5
32
  8
HIBINO-BASE
 62
     7
 10
101.8
 20
-76.483738771800731
 30
0.0
 40
3.2576822916666659
  1
NOTE
 41
0.7
 11
101.8
 21
-73.226056480134062
 31
0.0
 73
     3
  0
LINE
  5
33
  8
HIBINO-BASE
  6
CONTINUOUS
 62
     7
 10
170.0
 20
-116.46635210513411
 30
0.0
 11
170.0
 21
-71.466352105134064
 31
0.0
  0
TEXT
  5
34
  8
HIBINO-BASE
 62
     7
 10
171.7999999999999
 20
-76.483738771800731
 30
0.0
 40
3.2576822916666659
  1
TITLE
 41
0.7
 11
171.7999999999999
 21
-73.226056480134062
 31
0.0
 73
     3
  0
LINE
  5
35
  8
HIBINO-BASE
  6
CONTINUOUS
 62
     7
 10
100.0
 20
-96.466352105134064
 30
0.0
 11
279.99999999999989
 21
-96.466352105134064
 31
0.0
  0
TEXT
  5
36
  8
HIBINO-BASE
 62
     7
 10
196.80000000000001
 20
-101.3710987718007
 30
0.0
 40
3.2576822916666659
  1
DRAWN
 41
0.7
 11
196.80000000000001
 21
-98.113416480134106
 31
0.0
 73
     3
  0
TEXT
  5
37
  8
HIBINO-BASE
 62
     7
 10
146.7999999999999
 20
-101.3710987718007
 30
0.0
 40
3.2576822916666659
  1
DATE
 41
0.7
 11
146.7999999999999
 21
-98.113416480134106
 31
0.0
 73
     3
  0
TEXT
  5
38
  8
HIBINO-BASE
 62
     7
 10
126.8
 20
-101.3710987718007
 30
0.0
 40
3.2576822916666659
  1
SCALE
 41
0.7
 11
126.8
 21
-98.113416480134106
 31
0.0
 73
     3
  0
TEXT
  5
39
  8
HIBINO-BASE
 62
     7
 10
171.7999999999999
 20
-101.3710987718007
 30
0.0
 40
3.2576822916666659
  1
DESIGN
 41
0.7
 11
171.7999999999999
 21
-98.113416480134106
 31
0.0
 73
     3
  0
TEXT
  5
3A
  8
HIBINO-BASE
 62
     7
 10
246.7999999999999
 20
-101.3710987718007
 30
0.0
 40
3.2576822916666659
  1
DRAWING NO.
 41
0.7
 11
246.7999999999999
 21
-98.113416480134106
 31
0.0
 73
     3
  0
TEXT
  5
3B
  8
HIBINO-BASE
 62
     7
 10
221.7999999999999
 20
-101.3710987718007
 30
0.0
 40
3.2576822916666659
  1
CHECK
 41
0.7
 11
221.7999999999999
 21
-98.113416480134106
 31
0.0
 73
     3
  0
LINE
  5
3C
  8
HIBINO-BASE
  6
CONTINUOUS
 62
     7
 10
128.74999999999989
 20
-113.96635210513411
 30
0.0
 11
136.25
 21
-106.46635210513401
 31
0.0
  0
TEXT
  5
3D
  8
HIBINO-BASE
 62
     7
 10
127.5
 20
-108.68423877180069
 30
0.0
 40
3.2576822916666659
  1
1
 41
0.7
 11
127.5
 21
-105.4265564801341
 31
0.0
 73
     3
  0
LINE
  5
3E
  8
HIBINO-BASE
  6
CONTINUOUS
 62
     7
 10
125.0
 20
-116.46635210513411
 30
0.0
 11
125.0
 21
-96.466352105134064
 31
0.0
  0
LINE
  5
3F
  8
HIBINO-BASE
  6
CONTINUOUS
 62
     7
 10
145.0
 20
-116.46635210513411
 30
0.0
 11
145.0
 21
-96.466352105134064
 31
0.0
  0
LINE
  5
40
  8
HIBINO-BASE
  6
CONTINUOUS
 62
     7
 10
195.0
 20
-96.466352105134064
 30
0.0
 11
195.0
 21
-116.46635210513411
 31
0.0
  0
LINE
  5
41
  8
HIBINO-BASE
  6
CONTINUOUS
 62
     7
 10
245.0
 20
-96.466352105134064
 30
0.0
 11
245.0
 21
-116.46635210513411
 31
0.0
  0
LINE
  5
42
  8
HIBINO-BASE
  6
CONTINUOUS
 62
     7
 10
220.0
 20
-116.46635210513411
 30
0.0
 11
220.0
 21
-96.466352105134064
 31
0.0
  0
TEXT
  5
43
  8
HIBINO-BASE
 62
     7
 10
146.71307999999999
 20
-110.7390587718007
 30
0.0
 40
3.2576822916666659
  1
'11.02.
 41
0.7
 11
146.71307999999999
 21
-107.4813764801341
 31
0.0
 73
     3
  0
TEXT
  5
44
  8
HIBINO-BASE
 62
     7
 10
135.0
 20
-112.43423877180069
 30
0.0
 40
3.2576822916666659
  1
2
 41
0.7
 11
135.0
 21
-109.1765564801341
 31
0.0
 73
     3
  0
TEXT
  5
45
  8
HIBINO-BASE
 62
     7
 10
198.0116200220692
 20
-110.7390587718007
 30
0.0
 40
3.2576822916666659
  1
T.Ootake
 41
0.7
 11
198.0116200220692
 21
-107.4813764801341
 31
0.0
 73
     3
  0
TEXT
  5
46
  8
HIBINO-BASE
 62
     7
 10
107.76666666666659
 20
-112.51435210513399
 30
0.0
 40
6.5153645833333318
  1
A4
 41
0.7
 11
107.76666666666659
 21
-105.9989875218007
 31
0.0
 73
     3
  0
TEXT
  5
47
  8
HIBINO-BASE
 62
     7
 10
101.9166666666666
 20
-101.7052621051341
 30
0.0
 40
3.2576822916666659
  1
PAPER SIZE
 41
0.7
 11
101.9166666666666
 21
-98.447579813467414
 31
0.0
 73
     3
  0
TEXT
  5
48
  8
HIBINO-BASE
 62
     7
 10
-74.48072948621963
 20
-129.31683257348661
 30
0.0
 40
7.0583116319444441
  1
Hibino-Intersound Corporation
 41
0.7
 11
-74.48072948621963
 21
-122.2585209415421
 31
0.0
 73
     3
  0
TEXT
  5
49
  8
HIBINO-BASE
 62
     7
 10
140.36121936042781
 20
-128.61465606690771
 30
0.0
 40
7.0583116319444441
  1
ヒビノインターサウンド株式会社
 41
0.7
 11
140.36121936042781
 21
-121.55634443496329
 31
0.0
 73
     3
  0
LINE
  5
4A
  8
SPEC
  6
CONTINUOUS
 62
     7
 10
-64.999999999999986
 20
383.53364789486602
 30
0.0
 11
230.0
 21
383.53364789486602
 31
0.0
  0
LINE
  5
4B
  8
SPEC
  6
CONTINUOUS
 62
     7
 10
-64.999999999999986
 20
376.03364789486591
 30
0.0
 11
230.0
 21
376.03364789486591
 31
0.0
  0
LINE
  5
4C
  8
SPEC
  6
CONTINUOUS
 62
     7
 10
-64.999999999999986
 20
361.03364789486602
 30
0.0
 11
230.0
 21
361.03364789486602
 31
0.0
  0
LINE
  5
4D
  8
SPEC
  6
CONTINUOUS
 62
     7
 10
-64.999999999999986
 20
368.53364789486602
 30
0.0
 11
230.0
 21
368.53364789486602
 31
0.0
  0
LINE
  5
4E
  8
SPEC
  6
CONTINUOUS
 62
     7
 10
-64.999999999999986
 20
383.53364789486602
 30
0.0
 11
-64.999999999999986
 21
248.53364789486591
 31
0.0
  0
TEXT
  5
4F
  8
SPEC
 62
     7
 10
-62.5
 20
386.32018789486591
 30
0.0
 40
4.8865234375000002
  1
仕様
 41
0.7
 11
-62.5
 21
391.2067113323659
 31
0.0
 73
     3
  0
LINE
  5
50
  8
SPEC
  6
CONTINUOUS
 62
     7
 10
230.0
 20
383.53364789486602
 30
0.0
 11
230.0
 21
248.53364789486591
 31
0.0
  0
LINE
  5
51
  8
SPEC
  6
CONTINUOUS
 62
     7
 10
-64.999999999999986
 20
353.53364789486602
 30
0.0
 11
230.0
 21
353.53364789486602
 31
0.0
  0
LINE
  5
52
  8
SPEC
  6
CONTINUOUS
 62
     7
 10
-64.999999999999986
 20
346.03364789486602
 30
0.0
 11
230.0
 21
346.03364789486602
 31
0.0
  0
LINE
  5
53
  8
SPEC
  6
CONTINUOUS
 62
     7
 10
-64.999999999999986
 20
338.53364789486591
 30
0.0
 11
230.0
 21
338.53364789486591
 31
0.0
  0
LINE
  5
54
  8
SPEC
  6
CONTINUOUS
 62
     7
 10
-64.999999999999986
 20
331.03364789486602
 30
0.0
 11
230.0
 21
331.03364789486602
 31
0.0
  0
LINE
  5
55
  8
SPEC
  6
CONTINUOUS
 62
     7
 10
-64.999999999999986
 20
323.53364789486602
 30
0.0
 11
230.0
 21
323.53364789486602
 31
0.0
  0
LINE
  5
56
  8
SPEC
  6
CONTINUOUS
 62
     7
 10
-64.999999999999986
 20
316.03364789486602
 30
0.0
 11
230.0
 21
316.03364789486602
 31
0.0
  0
LINE
  5
57
  8
SPEC
  6
CONTINUOUS
 62
     7
 10
-64.999999999999986
 20
308.53364789486602
 30
0.0
 11
230.0
 21
308.53364789486602
 31
0.0
  0
LINE
  5
58
  8
SPEC
  6
CONTINUOUS
 62
     7
 10
-64.999999999999986
 20
301.03364789486591
 30
0.0
 11
230.0
 21
301.03364789486591
 31
0.0
  0
LINE
  5
59
  8
SPEC
  6
CONTINUOUS
 62
     7
 10
-64.999999999999986
 20
293.53364789486602
 30
0.0
 11
230.0
 21
293.53364789486602
 31
0.0
  0
LINE
  5
5A
  8
SPEC
  6
CONTINUOUS
 62
     7
 10
-64.999999999999986
 20
286.03364789486602
 30
0.0
 11
230.0
 21
286.03364789486602
 31
0.0
  0
TEXT
  5
5B
  8
SPEC
 62
     7
 10
-63.338888888888931
 20
265.41795599770472
 30
0.0
 40
3.8006293402777769
  1
寸法
 41
0.7
 11
-63.338888888888931
 21
269.21858533798252
 31
0.0
 73
     3
  0
TEXT
  5
5C
  8
SPEC
 62
     7
 10
31.171111125077811
 20
265.16901205827043
 30
0.0
 40
3.8006293402777769
  1
\U+03A619\U+00D7169mm(突起部含まず）
 41
0.7
 11
31.171111125077811
 21
268.96964139854822
 31
0.0
 73
     3
  0
TEXT
  5
5D
  8
SPEC
 62
     7
 10
31.7020306449669
 20
272.9508142584113
 30
0.0
 40
3.8006293402777769
  1
約160g
 41
0.7
 11
31.7020306449669
 21
276.75144359868909
 31
0.0
 73
     3
  0
TEXT
  5
5E
  8
SPEC
 62
     7
 10
-63.266209132510518
 20
273.03797420293319
 30
0.0
 40
3.8006293402777769
  1
重量
 41
0.7
 11
-63.266209132510518
 21
276.83860354321098
 31
0.0
 73
     3
  0
LINE
  5
5F
  8
SPEC
  6
CONTINUOUS
 62
     7
 10
30.000000000000011
 20
383.53364789486602
 30
0.0
 11
30.000000000000011
 21
248.53364789486591
 31
0.0
  0
LINE
  5
60
  8
SPEC
  6
CONTINUOUS
 62
     7
 10
-64.999999999999986
 20
278.53364789486591
 30
0.0
 11
230.0
 21
278.53364789486591
 31
0.0
  0
LINE
  5
61
  8
SPEC
  6
CONTINUOUS
 62
     7
 10
-64.999999999999986
 20
271.03364789486591
 30
0.0
 11
230.0
 21
271.03364789486591
 31
0.0
  0
LINE
  5
62
  8
SPEC
  6
CONTINUOUS
 62
     7
 10
-64.999999999999986
 20
263.53364789486591
 30
0.0
 11
230.0
 21
263.53364789486591
 31
0.0
  0
LINE
  5
63
  8
SPEC
  6
CONTINUOUS
 62
     7
 10
-64.999999999999986
 20
256.03364789486591
 30
0.0
 11
230.0
 21
256.03364789486591
 31
0.0
  0
LINE
  5
64
  8
SPEC
  6
CONTINUOUS
 62
     7
 10
-64.999999999999986
 20
248.53364789486591
 30
0.0
 11
230.0
 21
248.53364789486591
 31
0.0
  0
TEXT
  5
65
  8
SPEC
 62
     7
 10
-63.243702139326821
 20
377.74809886090998
 30
0.0
 40
3.8006293402777769
  1
指向性
 41
0.7
 11
-63.243702139326821
 21
381.54872820118783
 31
0.0
 73
     3
  0
TEXT
  5
66
  8
SPEC
 62
     7
 10
31.314298451994901
 20
377.94068282413991
 30
0.0
 40
3.8006293402777769
  1
ワイド単一指向性
 41
0.7
 11
31.314298451994901
 21
381.74131216441771
 31
0.0
 73
     3
  0
TEXT
  5
67
  8
SPEC
 62
     7
 10
-63.553968710756962
 20
370.55758896291269
 30
0.0
 40
3.8006293402777769
  1
カートリッチ
 41
0.7
 11
-63.553968710756962
 21
374.3582183031906
 31
0.0
 73
     3
  0
TEXT
  5
68
  8
SPEC
 62
     7
 10
31.291590690198991
 20
370.4241265541246
 30
0.0
 40
3.8006293402777769
  1
プリポラライズド・コンデンサー
 41
0.7
 11
31.291590690198991
 21
374.22475589440251
 31
0.0
 73
     3
  0
TEXT
  5
69
  8
SPEC
 62
     7
 10
-63.216399427603683
 20
347.76037372300328
 30
0.0
 40
3.8006293402777769
  1
等価雑音レベル(Aウェイト、代表値)
 41
0.7
 11
-63.216399427603683
 21
351.56100306328108
 31
0.0
 73
     3
  0
TEXT
  5
6A
  8
SPEC
 62
     7
 10
31.587131636842319
 20
347.86611319107789
 30
0.0
 40
3.8006293402777769
  1
18dB SPL
 41
0.7
 11
31.587131636842319
 21
351.66674253135568
 31
0.0
 73
     3
  0
TEXT
  5
6B
  8
SPEC
 62
     7
 10
-63.253556161125069
 20
355.42126815176618
 30
0.0
 40
3.8006293402777769
  1
感度(\U+00B12dB@250Hz、公称値）
 41
0.7
 11
-63.253556161125069
 21
359.22189749204392
 31
0.0
 73
     3
  0
TEXT
  5
6C
  8
SPEC
 62
     7
 10
31.967758376815571
 20
355.25501747877212
 30
0.0
 40
3.8006293402777769
  1
-40dB re、1V/Pa
 41
0.7
 11
31.967758376815571
 21
359.05564681904991
 31
0.0
 73
     3
  0
TEXT
  5
6D
  8
SPEC
 62
     7
 10
-63.301404290791403
 20
362.85544814875527
 30
0.0
 40
3.8006293402777769
  1
周波数レンジ(\U+00B12dB)
 41
0.7
 11
-63.301404290791403
 21
366.65607748903312
 31
0.0
 73
     3
  0
TEXT
  5
6E
  8
SPEC
 62
     7
 10
31.978388245025741
 20
362.90759752131157
 30
0.0
 40
3.8006293402777769
  1
40Hz～20kHz
 41
0.7
 11
31.978388245025741
 21
366.70822686158942
 31
0.0
 73
     3
  0
TEXT
  5
6F
  8
SPEC
 62
     7
 10
-63.421711870294281
 20
340.20170116838062
 30
0.0
 40
3.8006293402777769
  1
全高調波歪み(THD)
 41
0.7
 11
-63.421711870294281
 21
344.00233050865842
 31
0.0
 73
     3
  0
TEXT
  5
70
  8
SPEC
 62
     7
 10
31.589346828117769
 20
340.4642390054438
 30
0.0
 40
3.8006293402777769
  1
1%%%以下(139dB SPL)
 41
0.7
 11
31.589346828117769
 21
344.2648683457216
 31
0.0
 73
     3
  0
TEXT
  5
71
  8
SPEC
 62
     7
 10
-63.607694786894022
 20
287.94991937762779
 30
0.0
 40
3.8006293402777769
  1
コネクター
 41
0.7
 11
-63.607694786894022
 21
291.75054871790559
 31
0.0
 73
     3
  0
TEXT
  5
72
  8
SPEC
 62
     7
 10
31.89326289303979
 20
287.82396330222878
 30
0.0
 40
3.8006293402777769
  1
XLR3ピン(オス)
 41
0.7
 11
31.89326289303979
 21
291.62459264250663
 31
0.0
 73
     3
  0
TEXT
  5
73
  8
SPEC
 62
     7
 10
-63.492739278892643
 20
303.03295568289758
 30
0.0
 40
3.8006293402777769
  1
ケーブル引き伸ばし可能距離
 41
0.7
 11
-63.492739278892643
 21
306.83358502317537
 31
0.0
 73
     3
  0
TEXT
  5
74
  8
SPEC
 62
     7
 10
31.76009635874972
 20
302.94533193200022
 30
0.0
 40
3.8006293402777769
  1
最大100m
 41
0.7
 11
31.76009635874972
 21
306.74596127227801
 31
0.0
 73
     3
  0
TEXT
  5
75
  8
SPEC
 62
     7
 10
-63.470248278769603
 20
310.55985502350342
 30
0.0
 40
3.8006293402777769
  1
インピーダンス
 41
0.7
 11
-63.470248278769603
 21
314.36048436378121
 31
0.0
 73
     3
  0
TEXT
  5
76
  8
SPEC
 62
     7
 10
31.774904811891052
 20
310.32748085993808
 30
0.0
 40
3.8006293402777769
  1
200\U+03A9以下
 41
0.7
 11
31.774904811891052
 21
314.12811020021587
 31
0.0
 73
     3
  0
TEXT
  5
77
  8
SPEC
 62
     7
 10
-63.436903512848282
 20
318.07343423729452
 30
0.0
 40
3.8006293402777769
  1
アッテネータースイッチ
 41
0.7
 11
-63.436903512848282
 21
321.87406357757231
 31
0.0
 73
     3
  0
TEXT
  5
78
  8
SPEC
 62
     7
 10
31.882823583902152
 20
317.89177140412988
 30
0.0
 40
3.8006293402777769
  1
0dB、-20dB
 41
0.7
 11
31.882823583902152
 21
321.69240074440768
 31
0.0
 73
     3
  0
TEXT
  5
79
  8
SPEC
 62
     7
 10
-63.531521057097599
 20
332.78256881327701
 30
0.0
 40
3.8006293402777769
  1
ダイナミックレンジ(代表値)
 41
0.7
 11
-63.531521057097599
 21
336.5831981535548
 31
0.0
 73
     3
  0
TEXT
  5
7A
  8
SPEC
 62
     7
 10
31.514318054693359
 20
332.76243878553402
 30
0.0
 40
3.8006293402777769
  1
118dB
 41
0.7
 11
31.514318054693359
 21
336.56306812581181
 31
0.0
 73
     3
  0
TEXT
  5
7B
  8
SPEC
 62
     7
 10
-63.212771774314973
 20
325.46801236087589
 30
0.0
 40
3.8006293402777769
  1
最大音圧レベル
 41
0.7
 11
-63.212771774314973
 21
329.26864170115368
 31
0.0
 73
     3
  0
TEXT
  5
7C
  8
SPEC
 62
     7
 10
31.54594293827002
 20
325.3823745552059
 30
0.0
 40
3.8006293402777769
  1
159dB SPL
 41
0.7
 11
31.54594293827002
 21
329.18300389548369
 31
0.0
 73
     3
  0
TEXT
  5
7D
  8
SPEC
 62
     7
 10
-63.243878714438416
 20
295.58810093666062
 30
0.0
 40
3.8006293402777769
  1
電源
 41
0.7
 11
-63.243878714438416
 21
299.38873027693842
 31
0.0
 73
     3
  0
TEXT
  5
7E
  8
SPEC
 62
     7
 10
31.28440158052188
 20
295.35766646604088
 30
0.0
 40
3.8006293402777769
  1
ファンタムDC48V/2.8mA
 41
0.7
 11
31.28440158052188
 21
299.15829580631868
 31
0.0
 73
     3
  0
TEXT
  5
7F
  8
SPEC
 62
     7
 10
-63.112662763014882
 20
280.46603899178638
 30
0.0
 40
3.8006293402777769
  1
色
 41
0.7
 11
-63.112662763014882
 21
284.26666833206423
 31
0.0
 73
     3
  0
TEXT
  5
80
  8
SPEC
 62
     7
 10
31.553195870833768
 20
280.3834103911783
 30
0.0
 40
3.8006293402777769
  1
マットブラック
 41
0.7
 11
31.553195870833768
 21
284.1840397314561
 31
0.0
 73
     3
  0
TEXT
  5
81
  8
SPEC
 62
     7
 10
-63.201543614183286
 20
250.6187766471698
 30
0.0
 40
3.8006293402777769
  1
使用湿度範囲
 41
0.7
 11
-63.201543614183286
 21
254.41940598744759
 31
0.0
 73
     3
  0
TEXT
  5
82
  8
SPEC
 62
     7
 10
31.76965866341202
 20
250.41153376944419
 30
0.0
 40
3.8006293402777769
  1
90%%%以下
 41
0.7
 11
31.76965866341202
 21
254.21216310972201
 31
0.0
 73
     3
  0
TEXT
  5
83
  8
SPEC
 62
     7
 10
-63.182616361270583
 20
258.03009272430188
 30
0.0
 40
3.8006293402777769
  1
使用温度範囲
 41
0.7
 11
-63.182616361270583
 21
261.83072206457967
 31
0.0
 73
     3
  0
TEXT
  5
84
  8
SPEC
 62
     7
 10
32.024679434439292
 20
257.80563959413701
 30
0.0
 40
3.8006293402777769
  1
-40℃～45℃
 41
0.7
 11
32.024679434439292
 21
261.60626893441491
 31
0.0
 73
     3
  0
TEXT
  5
85
  8
DIMNSIONS
 62
     7
 10
60.0
 20
-91.927372105134054
 30
0.0
 40
4.8865234375000002
  1
(単位：mm)
 41
0.7
 11
60.0
 21
-87.040848667634066
 31
0.0
 73
     3
  0
LINE
  5
86
  8
DIMNSIONS
  6
CONTINUOUS
 62
     7
 10
11.625000000220449
 20
-59.375000000312468
 30
0.0
 11
-13.375
 21
-59.375000000312468
 31
0.0
  0
LINE
  5
87
  8
DIMNSIONS
  6
CONTINUOUS
 62
     7
 10
11.625000000220449
 20
109.62499999968711
 30
0.0
 11
-13.375
 21
109.62499999968711
 31
0.0
  0
LINE
  5
88
  8
DIMNSIONS
  6
CONTINUOUS
 62
     7
 10
-9.375
 20
-59.375000000312468
 30
0.0
 11
-9.375
 21
109.62499999968711
 31
0.0
  0
LINE
  5
89
  8
DIMNSIONS
  6
CONTINUOUS
 62
     7
 10
-9.375
 20
-59.375000000312468
 30
0.0
 11
-10.715079590300491
 21
-54.373754883124981
 31
0.0
  0
LINE
  5
8A
  8
DIMNSIONS
  6
CONTINUOUS
 62
     7
 10
-9.375
 20
-59.375000000312468
 30
0.0
 11
-8.0349204096995095
 21
-54.373754883124981
 31
0.0
  0
LINE
  5
8B
  8
DIMNSIONS
  6
CONTINUOUS
 62
     7
 10
-9.375
 20
109.62499999968711
 30
0.0
 11
-8.0349204096995095
 21
104.6237548824996
 31
0.0
  0
LINE
  5
8C
  8
DIMNSIONS
  6
CONTINUOUS
 62
     7
 10
-9.375
 20
109.62499999968711
 30
0.0
 11
-10.715079590300491
 21
104.6237548824996
 31
0.0
  0
TEXT
  5
8D
  8
DIMNSIONS
 62
     7
 10
-11.362777777777779
 20
19.833333333020679
 30
0.0
 40
5.4294704861111107
  1
169
 50
90.0
 41
0.7
 11
-16.792248263888901
 21
19.833333333020679
 31
0.0
 73
     3
  0
LINE
  5
8E
  8
DIMNSIONS
  6
CONTINUOUS
 62
     7
 10
33.352241336172561
 20
195.37499999968711
 30
0.0
 11
62.5
 21
212.20346631052209
 31
0.0
  0
LINE
  5
8F
  8
DIMNSIONS
  6
CONTINUOUS
 62
     7
 10
33.352241336172561
 20
195.37499999968711
 30
0.0
 11
37.076745398625967
 21
198.9717117645217
 31
0.0
  0
LINE
  5
90
  8
DIMNSIONS
  6
CONTINUOUS
 62
     7
 10
33.352241336172561
 20
195.37499999968711
 30
0.0
 11
38.376112353172857
 21
196.62759172689741
 31
0.0
  0
LINE
  5
91
  8
DIMNSIONS
  6
CONTINUOUS
 62
     7
 10
62.5
 20
212.20346631052209
 30
0.0
 11
80.6111111111111
 21
212.20346631052209
 31
0.0
  0
TEXT
  5
92
  8
DIMNSIONS
 62
     7
 10
66.5
 20
214.19124408829981
 30
0.0
 40
5.4294704861111107
  1
\U+03C619
 41
0.7
 11
66.5
 21
219.6207145744109
 31
0.0
 73
     3
  0
TEXT
  5
93
  8
DATA
 62
     7
 10
202.6805112168465
 20
-94.384654099490689
 30
0.0
 40
4.8865234375000002
  1
4015A
 41
0.7
 11
202.6805112168465
 21
-89.498130661990686
 31
0.0
 73
     3
  0
TEXT
  5
94
  8
DATA
 62
     7
 10
202.6805112168465
 20
-78.748393630218132
 30
0.0
 40
4.8865234375000002
  1
DPA
 41
0.7
 11
202.6805112168465
 21
-73.861870192718129
 31
0.0
 73
     3
  0
TEXT
  5
95
  8
DATA
 62
     7
 10
-60.0
 20
-107.99035210513409
 30
0.0
 40
3.2576822916666659
  1
仕様および外観は予告なく変更されることがありますので、ご了承ください。
 41
0.7
 11
-60.0
 21
-104.7326698134674
 31
0.0
 73
     3
  0
CIRCLE
  5
96
  8
DATA
  6
CONTINUOUS
 62
     7
 10
25.12500000022046
 20
190.62499999968711
 30
0.0
 40
3.8000000000000109
  0
ARC
  5
97
  8
DATA
  6
CONTINUOUS
 62
     7
 10
25.12500000022046
 20
190.62499999968711
 30
0.0
 40
9.5
 50
90.000000000007745
 51
109.9999999999999
  0
ARC
  5
98
  8
DATA
  6
CONTINUOUS
 62
     7
 10
25.12500000022046
 20
190.62499999968711
 30
0.0
 40
9.5000000000000089
 50
129.9999999999998
 51
149.99999999999969
  0
ARC
  5
99
  8
DATA
  6
CONTINUOUS
 62
     7
 10
25.12500000022046
 20
190.62499999968711
 30
0.0
 40
9.5000000000000124
 50
169.99999999999969
 51
189.99999999999949
  0
ARC
  5
9A
  8
DATA
  6
CONTINUOUS
 62
     7
 10
25.12500000022046
 20
190.62499999968711
 30
0.0
 40
9.5000000000000124
 50
209.9999999999996
 51
229.9999999999994
  0
ARC
  5
9B
  8
DATA
  6
CONTINUOUS
 62
     7
 10
25.12500000022046
 20
190.62499999968711
 30
0.0
 40
9.5000000000000124
 50
249.9999999999996
 51
270.00000000000767
  0
ARC
  5
9C
  8
DATA
  6
CONTINUOUS
 62
     7
 10
25.12500000022046
 20
190.62499999968711
 30
0.0
 40
9.5000000000000195
 50
289.99999999999972
 51
309.9999999999996
  0
ARC
  5
9D
  8
DATA
  6
CONTINUOUS
 62
     7
 10
25.12500000022046
 20
190.62499999968711
 30
0.0
 40
9.5000000000000089
 50
329.9999999999996
 51
349.99999999999977
  0
ARC
  5
9E
  8
DATA
  6
CONTINUOUS
 62
     7
 10
25.12500000022046
 20
190.62499999968711
 30
0.0
 40
9.5
 50
9.9999999999998437
 51
29.999999999999911
  0
ARC
  5
9F
  8
DATA
  6
CONTINUOUS
 62
     7
 10
25.12500000022046
 20
190.62499999968711
 30
0.0
 40
9.4999999999999964
 50
50.0
 51
69.999999999999972
  0
LINE
  5
A0
  8
DATA
  6
CONTINUOUS
 62
     7
 10
15.625000000220449
 20
86.624999999687105
 30
0.0
 11
34.625000000220453
 21
86.624999999687105
 31
0.0
  0
LINE
  5
A1
  8
DATA
  6
CONTINUOUS
 62
     7
 10
15.625000000220449
 20
109.4249999996871
 30
0.0
 11
16.375000000220449
 21
109.4249999996871
 31
0.0
  0
LINE
  5
A2
  8
DATA
  6
CONTINUOUS
 62
     7
 10
17.07500000022047
 20
109.4249999996871
 30
0.0
 11
17.775000000220459
 21
109.4249999996871
 31
0.0
  0
LINE
  5
A3
  8
DATA
  6
CONTINUOUS
 62
     7
 10
18.475000000220462
 20
109.4249999996871
 30
0.0
 11
19.175000000220461
 21
109.4249999996871
 31
0.0
  0
LINE
  5
A4
  8
DATA
  6
CONTINUOUS
 62
     7
 10
19.875000000220449
 20
109.4249999996871
 30
0.0
 11
20.57500000022047
 21
109.4249999996871
 31
0.0
  0
LINE
  5
A5
  8
DATA
  6
CONTINUOUS
 62
     7
 10
21.275000000220452
 20
109.4249999996871
 30
0.0
 11
21.975000000220469
 21
109.4249999996871
 31
0.0
  0
LINE
  5
A6
  8
DATA
  6
CONTINUOUS
 62
     7
 10
22.675000000220461
 20
109.4249999996871
 30
0.0
 11
23.375000000220449
 21
109.4249999996871
 31
0.0
  0
LINE
  5
A7
  8
DATA
  6
CONTINUOUS
 62
     7
 10
24.07500000022047
 20
109.4249999996871
 30
0.0
 11
24.775000000220452
 21
109.4249999996871
 31
0.0
  0
LINE
  5
A8
  8
DATA
  6
CONTINUOUS
 62
     7
 10
25.475000000220469
 20
109.4249999996871
 30
0.0
 11
26.175000000220461
 21
109.4249999996871
 31
0.0
  0
LINE
  5
A9
  8
DATA
  6
CONTINUOUS
 62
     7
 10
26.875000000220449
 20
109.4249999996871
 30
0.0
 11
27.575000000220449
 21
109.4249999996871
 31
0.0
  0
LINE
  5
AA
  8
DATA
  6
CONTINUOUS
 62
     7
 10
28.275000000220452
 20
109.4249999996871
 30
0.0
 11
28.975000000220469
 21
109.4249999996871
 31
0.0
  0
LINE
  5
AB
  8
DATA
  6
CONTINUOUS
 62
     7
 10
29.675000000220471
 20
109.4249999996871
 30
0.0
 11
30.37500000022046
 21
109.4249999996871
 31
0.0
  0
LINE
  5
AC
  8
DATA
  6
CONTINUOUS
 62
     7
 10
31.075000000220449
 20
109.4249999996871
 30
0.0
 11
31.775000000220452
 21
109.4249999996871
 31
0.0
  0
LINE
  5
AD
  8
DATA
  6
CONTINUOUS
 62
     7
 10
32.475000000220469
 20
109.4249999996871
 30
0.0
 11
33.17500000022045
 21
109.4249999996871
 31
0.0
  0
LINE
  5
AE
  8
DATA
  6
CONTINUOUS
 62
     7
 10
33.87500000022046
 20
109.4249999996871
 30
0.0
 11
34.625000000220453
 21
109.4249999996871
 31
0.0
  0
LINE
  5
AF
  8
DATA
  6
CONTINUOUS
 62
     7
 10
15.625000000220449
 20
86.624999999687105
 30
0.0
 11
15.625000000220449
 21
109.62499999968711
 31
0.0
  0
LINE
  5
B0
  8
DATA
  6
CONTINUOUS
 62
     7
 10
34.625000000220453
 20
86.624999999687105
 30
0.0
 11
34.625000000220453
 21
109.62499999968711
 31
0.0
  0
CIRCLE
  5
B1
  8
DATA
  6
CONTINUOUS
 62
     7
 10
25.12500000022046
 20
190.62499999968711
 30
0.0
 40
1.0
  0
LINE
  5
B2
  8
DATA
  6
CONTINUOUS
 62
     7
 10
15.625000000220449
 20
101.62499999968711
 30
0.0
 11
34.625000000220453
 21
101.62499999968711
 31
0.0
  0
LINE
  5
B3
  8
DATA
  6
CONTINUOUS
 62
     7
 10
15.625000000220449
 20
86.924999999687103
 30
0.0
 11
34.625000000220453
 21
86.924999999687103
 31
0.0
  0
TEXT
  5
B4
  8
DATA
 62
     7
 10
22.402777777998239
 20
103.712388888576
 30
0.0
 40
1.900314670138888
  1
4015
 41
0.7
 11
22.402777777998239
 21
105.6127035587149
 31
0.0
 73
     3
  0
POLYLINE
  5
B5
  8
DATA
  6
CONTINUOUS
 62
     7
 66
     1
 10
0.0
 20
0.0
 30
0.0
 70
     1
  0
VERTEX
  5
22D
  8
DATA
  6
CONTINUOUS
 62
     7
 10
24.775000000220452
 20
101.12499999968711
 30
0.0
  0
VERTEX
  5
22E
  8
DATA
  6
CONTINUOUS
 62
     7
 10
25.475000000220469
 20
101.12499999968711
 30
0.0
  0
VERTEX
  5
22F
  8
DATA
  6
CONTINUOUS
 62
     7
 10
25.475000000220469
 20
94.124999999687105
 30
0.0
  0
VERTEX
  5
230
  8
DATA
  6
CONTINUOUS
 62
     7
 10
24.775000000220452
 20
94.124999999687105
 30
0.0
  0
SEQEND
  5
231
  8
DATA
  6
CONTINUOUS
 62
     7
  0
POLYLINE
  5
BC
  8
DATA
  6
CONTINUOUS
 62
     7
 66
     1
 10
0.0
 20
0.0
 30
0.0
 70
     1
  0
VERTEX
  5
232
  8
DATA
  6
CONTINUOUS
 62
     7
 10
26.175000000220461
 20
101.12499999968711
 30
0.0
  0
VERTEX
  5
233
  8
DATA
  6
CONTINUOUS
 62
     7
 10
26.875000000220449
 20
101.12499999968711
 30
0.0
  0
VERTEX
  5
234
  8
DATA
  6
CONTINUOUS
 62
     7
 10
26.875000000220449
 20
94.124999999687105
 30
0.0
  0
VERTEX
  5
235
  8
DATA
  6
CONTINUOUS
 62
     7
 10
26.175000000220461
 20
94.124999999687105
 30
0.0
  0
SEQEND
  5
236
  8
DATA
  6
CONTINUOUS
 62
     7
  0
POLYLINE
  5
C3
  8
DATA
  6
CONTINUOUS
 62
     7
 66
     1
 10
0.0
 20
0.0
 30
0.0
 70
     1
  0
VERTEX
  5
237
  8
DATA
  6
CONTINUOUS
 62
     7
 10
27.575000000220449
 20
101.12499999968711
 30
0.0
  0
VERTEX
  5
238
  8
DATA
  6
CONTINUOUS
 62
     7
 10
28.275000000220452
 20
101.12499999968711
 30
0.0
  0
VERTEX
  5
239
  8
DATA
  6
CONTINUOUS
 62
     7
 10
28.275000000220452
 20
94.124999999687105
 30
0.0
  0
VERTEX
  5
23A
  8
DATA
  6
CONTINUOUS
 62
     7
 10
27.575000000220449
 20
94.124999999687105
 30
0.0
  0
SEQEND
  5
23B
  8
DATA
  6
CONTINUOUS
 62
     7
  0
POLYLINE
  5
CA
  8
DATA
  6
CONTINUOUS
 62
     7
 66
     1
 10
0.0
 20
0.0
 30
0.0
 70
     1
  0
VERTEX
  5
23C
  8
DATA
  6
CONTINUOUS
 62
     7
 10
28.975000000220469
 20
101.12499999968711
 30
0.0
  0
VERTEX
  5
23D
  8
DATA
  6
CONTINUOUS
 62
     7
 10
29.675000000220471
 20
101.12499999968711
 30
0.0
  0
VERTEX
  5
23E
  8
DATA
  6
CONTINUOUS
 62
     7
 10
29.675000000220471
 20
94.124999999687105
 30
0.0
  0
VERTEX
  5
23F
  8
DATA
  6
CONTINUOUS
 62
     7
 10
28.975000000220469
 20
94.124999999687105
 30
0.0
  0
SEQEND
  5
240
  8
DATA
  6
CONTINUOUS
 62
     7
  0
POLYLINE
  5
D1
  8
DATA
  6
CONTINUOUS
 62
     7
 66
     1
 10
0.0
 20
0.0
 30
0.0
 70
     1
  0
VERTEX
  5
241
  8
DATA
  6
CONTINUOUS
 62
     7
 10
30.37500000022046
 20
101.12499999968711
 30
0.0
  0
VERTEX
  5
242
  8
DATA
  6
CONTINUOUS
 62
     7
 10
31.075000000220449
 20
101.12499999968711
 30
0.0
  0
VERTEX
  5
243
  8
DATA
  6
CONTINUOUS
 62
     7
 10
31.075000000220449
 20
94.124999999687105
 30
0.0
  0
VERTEX
  5
244
  8
DATA
  6
CONTINUOUS
 62
     7
 10
30.37500000022046
 20
94.124999999687105
 30
0.0
  0
SEQEND
  5
245
  8
DATA
  6
CONTINUOUS
 62
     7
  0
POLYLINE
  5
D8
  8
DATA
  6
CONTINUOUS
 62
     7
 66
     1
 10
0.0
 20
0.0
 30
0.0
 70
     1
  0
VERTEX
  5
246
  8
DATA
  6
CONTINUOUS
 62
     7
 10
31.775000000220452
 20
101.12499999968711
 30
0.0
  0
VERTEX
  5
247
  8
DATA
  6
CONTINUOUS
 62
     7
 10
32.475000000220469
 20
101.12499999968711
 30
0.0
  0
VERTEX
  5
248
  8
DATA
  6
CONTINUOUS
 62
     7
 10
32.475000000220469
 20
94.124999999687105
 30
0.0
  0
VERTEX
  5
249
  8
DATA
  6
CONTINUOUS
 62
     7
 10
31.775000000220452
 20
94.124999999687105
 30
0.0
  0
SEQEND
  5
24A
  8
DATA
  6
CONTINUOUS
 62
     7
  0
POLYLINE
  5
DF
  8
DATA
  6
CONTINUOUS
 62
     7
 66
     1
 10
0.0
 20
0.0
 30
0.0
 70
     1
  0
VERTEX
  5
24B
  8
DATA
  6
CONTINUOUS
 62
     7
 10
33.17500000022045
 20
101.12499999968711
 30
0.0
  0
VERTEX
  5
24C
  8
DATA
  6
CONTINUOUS
 62
     7
 10
33.87500000022046
 20
101.12499999968711
 30
0.0
  0
VERTEX
  5
24D
  8
DATA
  6
CONTINUOUS
 62
     7
 10
33.87500000022046
 20
94.124999999687105
 30
0.0
  0
VERTEX
  5
24E
  8
DATA
  6
CONTINUOUS
 62
     7
 10
33.17500000022045
 20
94.124999999687105
 30
0.0
  0
SEQEND
  5
24F
  8
DATA
  6
CONTINUOUS
 62
     7
  0
POLYLINE
  5
E6
  8
DATA
  6
CONTINUOUS
 62
     7
 66
     1
 10
0.0
 20
0.0
 30
0.0
 70
     1
  0
VERTEX
  5
250
  8
DATA
  6
CONTINUOUS
 62
     7
 10
23.375000000220449
 20
101.12499999968711
 30
0.0
  0
VERTEX
  5
251
  8
DATA
  6
CONTINUOUS
 62
     7
 10
24.07500000022047
 20
101.12499999968711
 30
0.0
  0
VERTEX
  5
252
  8
DATA
  6
CONTINUOUS
 62
     7
 10
24.07500000022047
 20
94.124999999687105
 30
0.0
  0
VERTEX
  5
253
  8
DATA
  6
CONTINUOUS
 62
     7
 10
23.375000000220449
 20
94.124999999687105
 30
0.0
  0
SEQEND
  5
254
  8
DATA
  6
CONTINUOUS
 62
     7
  0
POLYLINE
  5
ED
  8
DATA
  6
CONTINUOUS
 62
     7
 66
     1
 10
0.0
 20
0.0
 30
0.0
 70
     1
  0
VERTEX
  5
255
  8
DATA
  6
CONTINUOUS
 62
     7
 10
21.975000000220469
 20
101.12499999968711
 30
0.0
  0
VERTEX
  5
256
  8
DATA
  6
CONTINUOUS
 62
     7
 10
22.675000000220461
 20
101.12499999968711
 30
0.0
  0
VERTEX
  5
257
  8
DATA
  6
CONTINUOUS
 62
     7
 10
22.675000000220461
 20
94.124999999687105
 30
0.0
  0
VERTEX
  5
258
  8
DATA
  6
CONTINUOUS
 62
     7
 10
21.975000000220469
 20
94.124999999687105
 30
0.0
  0
SEQEND
  5
259
  8
DATA
  6
CONTINUOUS
 62
     7
  0
POLYLINE
  5
F4
  8
DATA
  6
CONTINUOUS
 62
     7
 66
     1
 10
0.0
 20
0.0
 30
0.0
 70
     1
  0
VERTEX
  5
25A
  8
DATA
  6
CONTINUOUS
 62
     7
 10
20.57500000022047
 20
101.12499999968711
 30
0.0
  0
VERTEX
  5
25B
  8
DATA
  6
CONTINUOUS
 62
     7
 10
21.275000000220452
 20
101.12499999968711
 30
0.0
  0
VERTEX
  5
25C
  8
DATA
  6
CONTINUOUS
 62
     7
 10
21.275000000220452
 20
94.124999999687105
 30
0.0
  0
VERTEX
  5
25D
  8
DATA
  6
CONTINUOUS
 62
     7
 10
20.57500000022047
 20
94.124999999687105
 30
0.0
  0
SEQEND
  5
25E
  8
DATA
  6
CONTINUOUS
 62
     7
  0
POLYLINE
  5
FB
  8
DATA
  6
CONTINUOUS
 62
     7
 66
     1
 10
0.0
 20
0.0
 30
0.0
 70
     1
  0
VERTEX
  5
25F
  8
DATA
  6
CONTINUOUS
 62
     7
 10
19.175000000220461
 20
101.12499999968711
 30
0.0
  0
VERTEX
  5
260
  8
DATA
  6
CONTINUOUS
 62
     7
 10
19.875000000220449
 20
101.12499999968711
 30
0.0
  0
VERTEX
  5
261
  8
DATA
  6
CONTINUOUS
 62
     7
 10
19.875000000220449
 20
94.124999999687105
 30
0.0
  0
VERTEX
  5
262
  8
DATA
  6
CONTINUOUS
 62
     7
 10
19.175000000220461
 20
94.124999999687105
 30
0.0
  0
SEQEND
  5
263
  8
DATA
  6
CONTINUOUS
 62
     7
  0
POLYLINE
  5
102
  8
DATA
  6
CONTINUOUS
 62
     7
 66
     1
 10
0.0
 20
0.0
 30
0.0
 70
     1
  0
VERTEX
  5
264
  8
DATA
  6
CONTINUOUS
 62
     7
 10
17.775000000220459
 20
101.12499999968711
 30
0.0
  0
VERTEX
  5
265
  8
DATA
  6
CONTINUOUS
 62
     7
 10
18.475000000220462
 20
101.12499999968711
 30
0.0
  0
VERTEX
  5
266
  8
DATA
  6
CONTINUOUS
 62
     7
 10
18.475000000220462
 20
94.124999999687105
 30
0.0
  0
VERTEX
  5
267
  8
DATA
  6
CONTINUOUS
 62
     7
 10
17.775000000220459
 20
94.124999999687105
 30
0.0
  0
SEQEND
  5
268
  8
DATA
  6
CONTINUOUS
 62
     7
  0
POLYLINE
  5
109
  8
DATA
  6
CONTINUOUS
 62
     7
 66
     1
 10
0.0
 20
0.0
 30
0.0
 70
     1
  0
VERTEX
  5
269
  8
DATA
  6
CONTINUOUS
 62
     7
 10
16.375000000220449
 20
101.12499999968711
 30
0.0
  0
VERTEX
  5
26A
  8
DATA
  6
CONTINUOUS
 62
     7
 10
17.07500000022047
 20
101.12499999968711
 30
0.0
  0
VERTEX
  5
26B
  8
DATA
  6
CONTINUOUS
 62
     7
 10
17.07500000022047
 20
94.124999999687105
 30
0.0
  0
VERTEX
  5
26C
  8
DATA
  6
CONTINUOUS
 62
     7
 10
16.375000000220449
 20
94.124999999687105
 30
0.0
  0
SEQEND
  5
26D
  8
DATA
  6
CONTINUOUS
 62
     7
  0
LINE
  5
110
  8
DATA
  6
CONTINUOUS
 62
     7
 10
24.775000000220452
 20
107.62499999968711
 30
0.0
 11
24.775000000220452
 21
109.62499999968711
 31
0.0
  0
LINE
  5
111
  8
DATA
  6
CONTINUOUS
 62
     7
 10
25.475000000220469
 20
109.62499999968711
 30
0.0
 11
25.475000000220469
 21
107.62499999968711
 31
0.0
  0
LINE
  5
112
  8
DATA
  6
CONTINUOUS
 62
     7
 10
24.775000000220452
 20
109.62499999968711
 30
0.0
 11
25.475000000220469
 21
109.62499999968711
 31
0.0
  0
LINE
  5
113
  8
DATA
  6
CONTINUOUS
 62
     7
 10
23.375000000220449
 20
107.62499999968711
 30
0.0
 11
23.375000000220449
 21
109.62499999968711
 31
0.0
  0
LINE
  5
114
  8
DATA
  6
CONTINUOUS
 62
     7
 10
24.07500000022047
 20
109.62499999968711
 30
0.0
 11
24.07500000022047
 21
107.62499999968711
 31
0.0
  0
LINE
  5
115
  8
DATA
  6
CONTINUOUS
 62
     7
 10
23.375000000220449
 20
109.62499999968711
 30
0.0
 11
24.07500000022047
 21
109.62499999968711
 31
0.0
  0
LINE
  5
116
  8
DATA
  6
CONTINUOUS
 62
     7
 10
21.975000000220469
 20
107.62499999968711
 30
0.0
 11
21.975000000220469
 21
109.62499999968711
 31
0.0
  0
LINE
  5
117
  8
DATA
  6
CONTINUOUS
 62
     7
 10
22.675000000220461
 20
109.62499999968711
 30
0.0
 11
22.675000000220461
 21
107.62499999968711
 31
0.0
  0
LINE
  5
118
  8
DATA
  6
CONTINUOUS
 62
     7
 10
21.975000000220469
 20
109.62499999968711
 30
0.0
 11
22.675000000220461
 21
109.62499999968711
 31
0.0
  0
LINE
  5
119
  8
DATA
  6
CONTINUOUS
 62
     7
 10
20.57500000022047
 20
107.62499999968711
 30
0.0
 11
20.57500000022047
 21
109.62499999968711
 31
0.0
  0
LINE
  5
11A
  8
DATA
  6
CONTINUOUS
 62
     7
 10
21.275000000220452
 20
109.62499999968711
 30
0.0
 11
21.275000000220452
 21
107.62499999968711
 31
0.0
  0
LINE
  5
11B
  8
DATA
  6
CONTINUOUS
 62
     7
 10
20.57500000022047
 20
109.62499999968711
 30
0.0
 11
21.275000000220452
 21
109.62499999968711
 31
0.0
  0
LINE
  5
11C
  8
DATA
  6
CONTINUOUS
 62
     7
 10
19.175000000220461
 20
107.62499999968711
 30
0.0
 11
19.175000000220461
 21
109.62499999968711
 31
0.0
  0
LINE
  5
11D
  8
DATA
  6
CONTINUOUS
 62
     7
 10
19.875000000220449
 20
109.62499999968711
 30
0.0
 11
19.875000000220449
 21
107.62499999968711
 31
0.0
  0
LINE
  5
11E
  8
DATA
  6
CONTINUOUS
 62
     7
 10
19.175000000220461
 20
109.62499999968711
 30
0.0
 11
19.875000000220449
 21
109.62499999968711
 31
0.0
  0
LINE
  5
11F
  8
DATA
  6
CONTINUOUS
 62
     7
 10
17.775000000220459
 20
107.62499999968711
 30
0.0
 11
17.775000000220459
 21
109.62499999968711
 31
0.0
  0
LINE
  5
120
  8
DATA
  6
CONTINUOUS
 62
     7
 10
18.475000000220462
 20
109.62499999968711
 30
0.0
 11
18.475000000220462
 21
107.62499999968711
 31
0.0
  0
LINE
  5
121
  8
DATA
  6
CONTINUOUS
 62
     7
 10
17.775000000220459
 20
109.62499999968711
 30
0.0
 11
18.475000000220462
 21
109.62499999968711
 31
0.0
  0
LINE
  5
122
  8
DATA
  6
CONTINUOUS
 62
     7
 10
16.375000000220449
 20
107.62499999968711
 30
0.0
 11
16.375000000220449
 21
109.62499999968711
 31
0.0
  0
LINE
  5
123
  8
DATA
  6
CONTINUOUS
 62
     7
 10
17.07500000022047
 20
109.62499999968711
 30
0.0
 11
17.07500000022047
 21
107.62499999968711
 31
0.0
  0
LINE
  5
124
  8
DATA
  6
CONTINUOUS
 62
     7
 10
16.375000000220449
 20
109.62499999968711
 30
0.0
 11
17.07500000022047
 21
109.62499999968711
 31
0.0
  0
LINE
  5
125
  8
DATA
  6
CONTINUOUS
 62
     7
 10
26.175000000220461
 20
107.62499999968711
 30
0.0
 11
26.175000000220461
 21
109.62499999968711
 31
0.0
  0
LINE
  5
126
  8
DATA
  6
CONTINUOUS
 62
     7
 10
26.875000000220449
 20
109.62499999968711
 30
0.0
 11
26.875000000220449
 21
107.62499999968711
 31
0.0
  0
LINE
  5
127
  8
DATA
  6
CONTINUOUS
 62
     7
 10
26.175000000220461
 20
109.62499999968711
 30
0.0
 11
26.875000000220449
 21
109.62499999968711
 31
0.0
  0
LINE
  5
128
  8
DATA
  6
CONTINUOUS
 62
     7
 10
27.575000000220449
 20
107.62499999968711
 30
0.0
 11
27.575000000220449
 21
109.62499999968711
 31
0.0
  0
LINE
  5
129
  8
DATA
  6
CONTINUOUS
 62
     7
 10
28.275000000220452
 20
109.62499999968711
 30
0.0
 11
28.275000000220452
 21
107.62499999968711
 31
0.0
  0
LINE
  5
12A
  8
DATA
  6
CONTINUOUS
 62
     7
 10
27.575000000220449
 20
109.62499999968711
 30
0.0
 11
28.275000000220452
 21
109.62499999968711
 31
0.0
  0
LINE
  5
12B
  8
DATA
  6
CONTINUOUS
 62
     7
 10
28.975000000220469
 20
107.62499999968711
 30
0.0
 11
28.975000000220469
 21
109.62499999968711
 31
0.0
  0
LINE
  5
12C
  8
DATA
  6
CONTINUOUS
 62
     7
 10
29.675000000220471
 20
109.62499999968711
 30
0.0
 11
29.675000000220471
 21
107.62499999968711
 31
0.0
  0
LINE
  5
12D
  8
DATA
  6
CONTINUOUS
 62
     7
 10
28.975000000220469
 20
109.62499999968711
 30
0.0
 11
29.675000000220471
 21
109.62499999968711
 31
0.0
  0
LINE
  5
12E
  8
DATA
  6
CONTINUOUS
 62
     7
 10
30.37500000022046
 20
107.62499999968711
 30
0.0
 11
30.37500000022046
 21
109.62499999968711
 31
0.0
  0
LINE
  5
12F
  8
DATA
  6
CONTINUOUS
 62
     7
 10
31.075000000220449
 20
109.62499999968711
 30
0.0
 11
31.075000000220449
 21
107.62499999968711
 31
0.0
  0
LINE
  5
130
  8
DATA
  6
CONTINUOUS
 62
     7
 10
30.37500000022046
 20
109.62499999968711
 30
0.0
 11
31.075000000220449
 21
109.62499999968711
 31
0.0
  0
LINE
  5
131
  8
DATA
  6
CONTINUOUS
 62
     7
 10
31.775000000220452
 20
107.62499999968711
 30
0.0
 11
31.775000000220452
 21
109.62499999968711
 31
0.0
  0
LINE
  5
132
  8
DATA
  6
CONTINUOUS
 62
     7
 10
32.475000000220469
 20
109.62499999968711
 30
0.0
 11
32.475000000220469
 21
107.62499999968711
 31
0.0
  0
LINE
  5
133
  8
DATA
  6
CONTINUOUS
 62
     7
 10
31.775000000220452
 20
109.62499999968711
 30
0.0
 11
32.475000000220469
 21
109.62499999968711
 31
0.0
  0
LINE
  5
134
  8
DATA
  6
CONTINUOUS
 62
     7
 10
33.17500000022045
 20
107.62499999968711
 30
0.0
 11
33.17500000022045
 21
109.62499999968711
 31
0.0
  0
LINE
  5
135
  8
DATA
  6
CONTINUOUS
 62
     7
 10
33.87500000022046
 20
109.62499999968711
 30
0.0
 11
33.87500000022046
 21
107.62499999968711
 31
0.0
  0
LINE
  5
136
  8
DATA
  6
CONTINUOUS
 62
     7
 10
33.17500000022045
 20
109.62499999968711
 30
0.0
 11
33.87500000022046
 21
109.62499999968711
 31
0.0
  0
LINE
  5
137
  8
DATA
  6
CONTINUOUS
 62
     7
 10
17.07500000022047
 20
107.62499999968711
 30
0.0
 11
17.775000000220459
 21
107.62499999968711
 31
0.0
  0
LINE
  5
138
  8
DATA
  6
CONTINUOUS
 62
     7
 10
18.475000000220462
 20
107.62499999968711
 30
0.0
 11
19.175000000220461
 21
107.62499999968711
 31
0.0
  0
LINE
  5
139
  8
DATA
  6
CONTINUOUS
 62
     7
 10
19.875000000220449
 20
107.62499999968711
 30
0.0
 11
20.57500000022047
 21
107.62499999968711
 31
0.0
  0
LINE
  5
13A
  8
DATA
  6
CONTINUOUS
 62
     7
 10
21.275000000220452
 20
107.62499999968711
 30
0.0
 11
21.975000000220469
 21
107.62499999968711
 31
0.0
  0
LINE
  5
13B
  8
DATA
  6
CONTINUOUS
 62
     7
 10
22.675000000220461
 20
107.62499999968711
 30
0.0
 11
23.375000000220449
 21
107.62499999968711
 31
0.0
  0
LINE
  5
13C
  8
DATA
  6
CONTINUOUS
 62
     7
 10
24.07500000022047
 20
107.62499999968711
 30
0.0
 11
24.775000000220452
 21
107.62499999968711
 31
0.0
  0
LINE
  5
13D
  8
DATA
  6
CONTINUOUS
 62
     7
 10
25.475000000220469
 20
107.62499999968711
 30
0.0
 11
26.175000000220461
 21
107.62499999968711
 31
0.0
  0
LINE
  5
13E
  8
DATA
  6
CONTINUOUS
 62
     7
 10
26.875000000220449
 20
107.62499999968711
 30
0.0
 11
27.575000000220449
 21
107.62499999968711
 31
0.0
  0
LINE
  5
13F
  8
DATA
  6
CONTINUOUS
 62
     7
 10
28.275000000220452
 20
107.62499999968711
 30
0.0
 11
28.975000000220469
 21
107.62499999968711
 31
0.0
  0
LINE
  5
140
  8
DATA
  6
CONTINUOUS
 62
     7
 10
29.675000000220471
 20
107.62499999968711
 30
0.0
 11
30.37500000022046
 21
107.62499999968711
 31
0.0
  0
LINE
  5
141
  8
DATA
  6
CONTINUOUS
 62
     7
 10
31.075000000220449
 20
107.62499999968711
 30
0.0
 11
31.775000000220452
 21
107.62499999968711
 31
0.0
  0
LINE
  5
142
  8
DATA
  6
CONTINUOUS
 62
     7
 10
32.475000000220469
 20
107.62499999968711
 30
0.0
 11
33.17500000022045
 21
107.62499999968711
 31
0.0
  0
LINE
  5
143
  8
DATA
  6
CONTINUOUS
 62
     7
 10
33.87500000022046
 20
107.62499999968711
 30
0.0
 11
34.625000000220453
 21
107.62499999968711
 31
0.0
  0
ARC
  5
144
  8
DATA
  6
CONTINUOUS
 62
     7
 10
25.125000000220481
 20
190.62499999968711
 30
0.0
 40
9.249999999999984
 50
70.007125127732024
 51
90.007125127722915
  0
ARC
  5
145
  8
DATA
  6
CONTINUOUS
 62
     7
 10
25.125000000220481
 20
190.62499999968711
 30
0.0
 40
9.2499999999999751
 50
110.007125127732
 51
130.007125127732
  0
ARC
  5
146
  8
DATA
  6
CONTINUOUS
 62
     7
 10
25.125000000220481
 20
190.62499999968711
 30
0.0
 40
9.2499999999999751
 50
150.0071251277318
 51
170.00712512773171
  0
ARC
  5
147
  8
DATA
  6
CONTINUOUS
 62
     7
 10
25.125000000220481
 20
190.62499999968711
 30
0.0
 40
9.2499999999999822
 50
190.00712512773151
 51
210.00712512773151
  0
ARC
  5
148
  8
DATA
  6
CONTINUOUS
 62
     7
 10
25.125000000220481
 20
190.62499999968711
 30
0.0
 40
9.2499999999999716
 50
230.0071251277314
 51
250.00712512773131
  0
ARC
  5
149
  8
DATA
  6
CONTINUOUS
 62
     7
 10
25.125000000220481
 20
190.62499999968711
 30
0.0
 40
9.249999999999968
 50
270.00712512772259
 51
290.0071251277314
  0
ARC
  5
14A
  8
DATA
  6
CONTINUOUS
 62
     7
 10
25.125000000220481
 20
190.62499999968711
 30
0.0
 40
9.2499999999999645
 50
310.00712512773129
 51
330.0071251277314
  0
ARC
  5
14B
  8
DATA
  6
CONTINUOUS
 62
     7
 10
25.125000000220481
 20
190.62499999968711
 30
0.0
 40
9.2499999999999662
 50
350.00712512773168
 51
10.00712598150511
  0
ARC
  5
14C
  8
DATA
  6
CONTINUOUS
 62
     7
 10
25.125000000220481
 20
190.62499999968711
 30
0.0
 40
9.2499999999999822
 50
30.00712512773184
 51
50.00712512773201
  0
LINE
  5
14D
  8
DATA
  6
CONTINUOUS
 62
     7
 10
25.098772712995078
 20
194.4249094893203
 30
0.0
 11
25.12500000022046
 21
200.12499999968711
 31
0.0
  0
LINE
  5
14E
  8
DATA
  6
CONTINUOUS
 62
     7
 10
26.400000000220452
 20
194.20471716728571
 30
0.0
 11
28.374191361814312
 21
199.55207989715319
 31
0.0
  0
LINE
  5
14F
  8
DATA
  6
CONTINUOUS
 62
     7
 10
27.54744347044992
 20
193.55275812383991
 30
0.0
 11
31.231482292242561
 21
197.90242220931731
 31
0.0
  0
LINE
  5
150
  8
DATA
  6
CONTINUOUS
 62
     7
 10
28.402704506711721
 20
192.54766824151321
 30
0.0
 11
33.352241336172597
 21
195.37499999968711
 31
0.0
  0
LINE
  5
151
  8
DATA
  6
CONTINUOUS
 62
     7
 10
28.862626005724088
 20
191.31067619366121
 30
0.0
 11
34.480673653836391
 21
192.27465768752279
 31
0.0
  0
LINE
  5
152
  8
DATA
  6
CONTINUOUS
 62
     7
 10
28.871734646987768
 20
189.990981477313
 30
0.0
 11
34.480673653836377
 21
188.97534231185119
 31
0.0
  0
LINE
  5
153
  8
DATA
  6
CONTINUOUS
 62
     7
 10
28.428931793937089
 20
188.74775875188001
 30
0.0
 11
33.35224133617254
 21
185.87499999968699
 31
0.0
  0
LINE
  5
154
  8
DATA
  6
CONTINUOUS
 62
     7
 10
27.58762600572409
 20
187.73095902606261
 30
0.0
 11
31.23148229224249
 21
183.34757779005679
 31
0.0
  0
LINE
  5
155
  8
DATA
  6
CONTINUOUS
 62
     7
 10
26.449291176758312
 20
187.06322335316031
 30
0.0
 11
28.37419136181423
 21
181.69792010222091
 31
0.0
  0
LINE
  5
156
  8
DATA
  6
CONTINUOUS
 62
     7
 10
25.151227287445849
 20
186.8250905100538
 30
0.0
 11
25.12500000022046
 21
181.12499999968711
 31
0.0
  0
LINE
  5
157
  8
DATA
  6
CONTINUOUS
 62
     7
 10
23.850000000220451
 20
187.0452828320885
 30
0.0
 11
21.87580863862653
 21
181.69792010222099
 31
0.0
  0
LINE
  5
158
  8
DATA
  6
CONTINUOUS
 62
     7
 10
22.702556529991
 20
187.6972418755343
 30
0.0
 11
19.018517708198271
 21
183.34757779005679
 31
0.0
  0
LINE
  5
159
  8
DATA
  6
CONTINUOUS
 62
     7
 10
21.847295493729209
 20
188.70233175786089
 30
0.0
 11
16.897758664268238
 21
185.87499999968719
 31
0.0
  0
LINE
  5
15A
  8
DATA
  6
CONTINUOUS
 62
     7
 10
21.38737399471681
 20
189.939323805713
 30
0.0
 11
15.769326346604441
 21
188.97534231185131
 31
0.0
  0
LINE
  5
15B
  8
DATA
  6
CONTINUOUS
 62
     7
 10
21.378265353453159
 20
191.2590185220611
 30
0.0
 11
15.769326346604471
 21
192.2746576875229
 31
0.0
  0
LINE
  5
15C
  8
DATA
  6
CONTINUOUS
 62
     7
 10
21.821068206503821
 20
192.5022412474942
 30
0.0
 11
16.897758664268292
 21
195.37499999968719
 31
0.0
  0
LINE
  5
15D
  8
DATA
  6
CONTINUOUS
 62
     7
 10
22.66237399471683
 20
193.5190409733116
 30
0.0
 11
19.018517708198331
 21
197.90242220931739
 31
0.0
  0
LINE
  5
15E
  8
DATA
  6
CONTINUOUS
 62
     7
 10
23.800708823682609
 20
194.1867766462139
 30
0.0
 11
21.875808638626609
 21
199.55207989715319
 31
0.0
  0
LINE
  5
15F
  8
DATA
  6
CONTINUOUS
 62
     7
 10
15.625000000220449
 20
-59.375000000312468
 30
0.0
 11
34.625000000220453
 21
-59.375000000312468
 31
0.0
  0
LINE
  5
160
  8
DATA
  6
CONTINUOUS
 62
     7
 10
15.625000000220449
 20
86.624999999687105
 30
0.0
 11
15.625000000220449
 21
-59.375000000312468
 31
0.0
  0
LINE
  5
161
  8
DATA
  6
CONTINUOUS
 62
     7
 10
34.625000000220453
 20
86.624999999687105
 30
0.0
 11
34.625000000220453
 21
-59.375000000312468
 31
0.0
  0
TEXT
  5
162
  8
DATA
 62
     7
 10
20.02064946120727
 20
-55.981133746408211
 30
0.0
 40
3.2576822916666659
  1
MMP-A
 41
0.7
 11
20.02064946120727
 21
-52.723451454741543
 31
0.0
 73
     3
  0
CIRCLE
  5
163
  8
DATA
  6
STYLE_01
 62
     7
 10
25.12500000022046
 20
190.62499999968711
 30
0.0
 40
31.0
  0
ARC
  5
164
  8
DATA
  6
STYLE_01
 62
     7
 10
25.12500000022046
 20
121.62499999968711
 30
0.0
 40
31.0
 50
0.0
 51
180.0
  0
ARC
  5
165
  8
DATA
  6
STYLE_01
 62
     7
 10
25.12500000022046
 20
89.526820453652803
 30
0.0
 40
31.0
 50
180.0
 51
252.15448225317479
  0
ARC
  5
166
  8
DATA
  6
STYLE_01
 62
     7
 10
25.12500000022046
 20
89.526820453652803
 30
0.0
 40
31.0
 50
287.84551774682518
 51
0.0
  0
LINE
  5
167
  8
DATA
  6
STYLE_01
 62
     7
 10
15.625000000220449
 20
60.01834709429378
 30
0.0
 11
34.62500000022041
 21
60.01834709429378
 31
0.0
  0
LINE
  5
168
  8
DATA
  6
STYLE_01
 62
     7
 10
-5.874999999779547
 20
89.526820453652803
 30
0.0
 11
-5.874999999779547
 21
121.62499999968711
 31
0.0
  0
LINE
  5
169
  8
DATA
  6
STYLE_01
 62
     7
 10
56.125000000220453
 20
89.526820453652775
 30
0.0
 11
56.125000000220453
 21
121.62499999968711
 31
0.0
  0
TEXT
  5
16A
  8
DATA
 62
     7
 10
77.874116032734847
 20
152.24833736805681
 30
0.0
 40
5.4294704861111107
  1
ウインドスクリーン
 41
0.7
 11
77.874116032734847
 21
157.6778078541679
 31
0.0
 73
     3
  0
LINE
  5
16B
  8
DATA
  6
CONTINUOUS
 62
     7
 10
75.0
 20
150.0
 30
0.0
 11
146.875
 21
150.0
 31
0.0
  0
LINE
  5
16C
  8
DATA
  6
CONTINUOUS
 62
     7
 10
75.0
 20
150.0
 30
0.0
 11
48.91542612108757
 21
170.75
 31
0.0
  0
LINE
  5
16D
  8
DATA
  6
CONTINUOUS
 62
     7
 10
48.91542612108757
 20
170.75
 30
0.0
 11
54.966828475530598
 21
168.18133209778739
 31
0.0
  0
LINE
  5
16E
  8
DATA
  6
CONTINUOUS
 62
     7
 10
48.91542612108757
 20
170.75
 30
0.0
 11
52.871760337449913
 21
165.49976716557671
 31
0.0
  0
LINE
  5
16F
  8
DATA
  6
CONTINUOUS
 62
     7
 10
75.0
 20
150.0
 30
0.0
 11
52.668590452285649
 21
135.84999999999999
 31
0.0
  0
LINE
  5
170
  8
DATA
  6
CONTINUOUS
 62
     7
 10
52.668590452285649
 20
135.84999999999999
 30
0.0
 11
57.152050225832333
 21
140.6579219738058
 31
0.0
  0
LINE
  5
171
  8
DATA
  6
CONTINUOUS
 62
     7
 10
52.668590452285649
 20
135.84999999999999
 30
0.0
 11
58.955341499925602
 21
137.7720526819559
 31
0.0
  0
TEXT
  5
172
  8
DATA
 62
     7
 10
194.3261424502291
 20
-86.144177419404315
 30
0.0
 40
3.257687421875
  1
ワイド単一指向性マイクロホン
 41
0.7
 11
194.3261424502291
 21
-82.88648999752931
 31
0.0
 73
     3
  0
CIRCLE
  5
173
  8
DATA
  6
CONTINUOUS
 62
     7
 10
124.68885035168471
 20
-0.1888564214856956
 30
0.0
 40
23.750000000000028
  0
ARC
  5
174
  8
DATA
  6
CONTINUOUS
 62
     7
 10
124.68885035168491
 20
-0.1888564214856388
 30
0.0
 40
20.000000000000281
 50
232.7936880219799
 51
218.89742555091971
  0
CIRCLE
  5
175
  8
DATA
  6
CONTINUOUS
 62
     7
 10
124.68885035168471
 20
9.8111435785143044
 30
0.0
 40
2.8750000000000169
  0
CIRCLE
  5
176
  8
DATA
  6
CONTINUOUS
 62
     7
 10
134.68885035168469
 20
-0.1888564214856956
 30
0.0
 40
2.875
  0
CIRCLE
  5
177
  8
DATA
  6
CONTINUOUS
 62
     7
 10
114.68885035168471
 20
-0.1888564214856956
 30
0.0
 40
2.8750000000000142
  0
ARC
  5
178
  8
DATA
  6
CONTINUOUS
 62
     7
 10
111.9411350922062
 20
-13.31849086348117
 30
0.0
 40
2.8750000000000129
 50
168.54291116051709
 51
283.14820241238198
  0
CIRCLE
  5
179
  8
DATA
  6
CONTINUOUS
 62
     7
 10
124.68885035168471
 20
-10.51640796859567
 30
0.0
 40
5.625
  0
TEXT
  5
17A
  8
DATA
 62
     7
 10
109.92811350794599
 20
4.0938447474858606
 30
0.0
 40
4.3435763888888896
  1
-20
 41
0.7
 11
109.92811350794599
 21
8.4374211363747502
 31
0.0
 73
     3
  0
TEXT
  5
17B
  8
DATA
 62
     7
 10
133.4734117564461
 20
4.0938447474858606
 30
0.0
 40
4.3435763888888896
  1
0
 41
0.7
 11
133.4734117564461
 21
8.4374211363747502
 31
0.0
 73
     3
  0
LINE
  5
17C
  8
DATA
  6
CONTINUOUS
 62
     7
 10
128.1263503511336
 20
12.31114357890489
 30
0.0
 11
138.12635035113351
 21
12.31114357890489
 31
0.0
  0
LINE
  5
17D
  8
DATA
  6
CONTINUOUS
 62
     7
 10
110.19597858459611
 20
12.31114357890489
 30
0.0
 11
113.3156068180587
 21
12.31114357890489
 31
0.0
  0
LINE
  5
17E
  8
DATA
  6
CONTINUOUS
 62
     7
 10
117.0763503511335
 20
12.31114357890489
 30
0.0
 11
120.1959785845962
 21
12.31114357890489
 31
0.0
  0
LINE
  5
17F
  8
DATA
  6
CONTINUOUS
 62
     7
 10
113.3156068180587
 20
9.6270374205164444
 30
0.0
 11
117.0763503511335
 21
9.6270374205164444
 31
0.0
  0
LINE
  5
180
  8
DATA
  6
CONTINUOUS
 62
     7
 10
117.0763503511335
 20
12.31114357890489
 30
0.0
 11
117.0763503511335
 21
9.6270374205164444
 31
0.0
  0
LINE
  5
181
  8
DATA
  6
CONTINUOUS
 62
     7
 10
113.3156068180587
 20
12.31114357890489
 30
0.0
 11
113.3156068180587
 21
9.6270374205164444
 31
0.0
  0
TEXT
  5
182
  8
DATA
 62
     7
 10
96.874042252391149
 20
-36.065008862760287
 30
0.0
 40
5.4294704861111107
  1
コネクター拡大図
 41
0.7
 11
96.874042252391149
 21
-30.63553837664918
 31
0.0
 73
     3
  0
LINE
  5
183
  8
DATA
  6
CONTINUOUS
 62
     7
 10
93.608132805927127
 20
-38.036217554213351
 30
0.0
 11
156.10813280592711
 21
-38.036217554213351
 31
0.0
  0
CIRCLE
  5
184
  8
DATA
  6
CONTINUOUS
 62
     7
 10
25.12500000022046
 20
-81.250000000156234
 30
0.0
 40
9.5
  0
ARC
  5
185
  8
DATA
  6
CONTINUOUS
 62
     7
 10
25.125000000220531
 20
-81.250000000156163
 30
0.0
 40
8.0000000000000728
 50
232.79368802197979
 51
218.89742555091959
  0
CIRCLE
  5
186
  8
DATA
  6
CONTINUOUS
 62
     7
 10
25.12500000022046
 20
-77.25000000015622
 30
0.0
 40
1.150000000000005
  0
CIRCLE
  5
187
  8
DATA
  6
CONTINUOUS
 62
     7
 10
29.12500000022046
 20
-81.250000000156234
 30
0.0
 40
1.150000000000005
  0
CIRCLE
  5
188
  8
DATA
  6
CONTINUOUS
 62
     7
 10
21.125000000220449
 20
-81.250000000156234
 30
0.0
 40
1.150000000000005
  0
ARC
  5
189
  8
DATA
  6
CONTINUOUS
 62
     7
 10
20.025913896429071
 20
-86.501853776954405
 30
0.0
 40
1.150000000000003
 50
168.54291116051769
 51
283.14820241238237
  0
CIRCLE
  5
18A
  8
DATA
  6
CONTINUOUS
 62
     7
 10
25.12500000022046
 20
-85.381020619000211
 30
0.0
 40
2.25
  0
TEXT
  5
18B
  8
DATA
 62
     7
 10
19.220705262724991
 20
-79.536919532567623
 30
0.0
 40
1.7374305555555549
  1
-20
 41
0.7
 11
19.220705262724991
 21
-77.799488977012061
 31
0.0
 73
     3
  0
TEXT
  5
18C
  8
DATA
 62
     7
 10
28.638824562125009
 20
-79.536919532567623
 30
0.0
 40
1.7374305555555549
  1
0
 41
0.7
 11
28.638824562125009
 21
-77.799488977012061
 31
0.0
 73
     3
  0
LINE
  5
18D
  8
DATA
  6
CONTINUOUS
 62
     7
 10
26.5
 20
-76.25
 30
0.0
 11
30.5
 21
-76.25
 31
0.0
  0
LINE
  5
18E
  8
DATA
  6
CONTINUOUS
 62
     7
 10
19.327851293385041
 20
-76.25
 30
0.0
 11
20.575702586770081
 21
-76.25
 31
0.0
  0
LINE
  5
18F
  8
DATA
  6
CONTINUOUS
 62
     7
 10
22.079999999999998
 20
-76.25
 30
0.0
 11
23.327851293385041
 21
-76.25
 31
0.0
  0
LINE
  5
190
  8
DATA
  6
CONTINUOUS
 62
     7
 10
20.575702586770081
 20
-77.323642463355384
 30
0.0
 11
22.079999999999998
 21
-77.323642463355384
 31
0.0
  0
LINE
  5
191
  8
DATA
  6
CONTINUOUS
 62
     7
 10
22.079999999999998
 20
-76.25
 30
0.0
 11
22.079999999999998
 21
-77.323642463355384
 31
0.0
  0
LINE
  5
192
  8
DATA
  6
CONTINUOUS
 62
     7
 10
20.575702586770081
 20
-76.25
 30
0.0
 11
20.575702586770081
 21
-77.323642463355384
 31
0.0
  0
ENDSEC
  0
EOF
