  0
SECTION
  2
HEADER
  9
$ACADVER
  1
AC1009
  9
$INSBASE
 10
0.0
 20
0.0
 30
0.0
  9
$EXTMIN
 10
9.9963383446405487
 20
2.381287252508741
 30
-0.0015258207003583
  9
$EXTMAX
 10
190.00579878222879
 20
270.00824037474621
 30
0.0000000349246037
  9
$LIMMIN
 10
0.0
 20
0.0
  9
$LIMMAX
 10
12.0
 20
9.0
  9
$ORTHOMODE
 70
     0
  9
$REGENMODE
 70
     1
  9
$FILLMODE
 70
     1
  9
$QTEXTMODE
 70
     0
  9
$MIRRTEXT
 70
     1
  9
$DRAGMODE
 70
     2
  9
$LTSCALE
 40
5.0800000000000001
  9
$OSMODE
 70
   231
  9
$ATTMODE
 70
     1
  9
$TEXTSIZE
 40
0.2
  9
$TRACEWID
 40
1.0
  9
$TEXTSTYLE
  7
STANDARD
  9
$CLAYER
  8
DATA
  9
$CELTYPE
  6
BYLAYER
  9
$CECOLOR
 62
   256
  9
$DIMSCALE
 40
1.0
  9
$DIMASZ
 40
0.18
  9
$DIMEXO
 40
0.0625
  9
$DIMDLI
 40
0.38
  9
$DIMRND
 40
0.0
  9
$DIMDLE
 40
0.0
  9
$DIMEXE
 40
0.18
  9
$DIMTP
 40
0.0
  9
$DIMTM
 40
0.0
  9
$DIMTXT
 40
0.18
  9
$DIMCEN
 40
0.09
  9
$DIMTSZ
 40
0.0
  9
$DIMTOL
 70
     0
  9
$DIMLIM
 70
     0
  9
$DIMTIH
 70
     1
  9
$DIMTOH
 70
     1
  9
$DIMSE1
 70
     0
  9
$DIMSE2
 70
     0
  9
$DIMTAD
 70
     0
  9
$DIMZIN
 70
     0
  9
$DIMBLK
  1

  9
$DIMASO
 70
     1
  9
$DIMSHO
 70
     1
  9
$DIMPOST
  1

  9
$DIMAPOST
  1

  9
$DIMALT
 70
     0
  9
$DIMALTD
 70
     2
  9
$DIMALTF
 40
25.399999999999999
  9
$DIMLFAC
 40
1.0
  9
$DIMTOFL
 70
     0
  9
$DIMTVP
 40
0.0
  9
$DIMTIX
 70
     0
  9
$DIMSOXD
 70
     0
  9
$DIMSAH
 70
     0
  9
$DIMBLK1
  1

  9
$DIMBLK2
  1

  9
$DIMSTYLE
  2
STANDARD
  9
$DIMCLRD
 70
     0
  9
$DIMCLRE
 70
     0
  9
$DIMCLRT
 70
     0
  9
$DIMTFAC
 40
1.0
  9
$DIMGAP
 40
0.09
  9
$LUNITS
 70
     2
  9
$LUPREC
 70
     4
  9
$SKETCHINC
 40
0.1
  9
$FILLETRAD
 40
0.5
  9
$AUNITS
 70
     0
  9
$AUPREC
 70
     0
  9
$MENU
  1
.
  9
$ELEVATION
 40
0.0
  9
$PELEVATION
 40
0.0
  9
$THICKNESS
 40
0.0
  9
$LIMCHECK
 70
     0
  9
$BLIPMODE
 70
     0
  9
$CHAMFERA
 40
0.5
  9
$CHAMFERB
 40
0.5
  9
$SKPOLY
 70
     0
  9
$TDCREATE
 40
2455779.5465460531
  9
$TDUPDATE
 40
2455779.5477543408
  9
$TDINDWG
 40
0.0004951736
  9
$TDUSRTIMER
 40
0.0004951736
  9
$USRTIMER
 70
     1
  9
$ANGBASE
 50
0.0
  9
$ANGDIR
 70
     0
  9
$PDMODE
 70
     1
  9
$PDSIZE
 40
-2.0
  9
$PLINEWID
 40
0.0
  9
$COORDS
 70
     1
  9
$SPLFRAME
 70
     0
  9
$SPLINETYPE
 70
     6
  9
$SPLINESEGS
 70
     8
  9
$ATTDIA
 70
     0
  9
$ATTREQ
 70
     1
  9
$HANDLING
 70
     1
  9
$HANDSEED
  5
24E
  9
$SURFTAB1
 70
     6
  9
$SURFTAB2
 70
     6
  9
$SURFTYPE
 70
     6
  9
$SURFU
 70
     6
  9
$SURFV
 70
     6
  9
$UCSNAME
  2

  9
$UCSORG
 10
0.0
 20
0.0
 30
0.0
  9
$UCSXDIR
 10
1.0
 20
0.0
 30
0.0
  9
$UCSYDIR
 10
0.0
 20
1.0
 30
0.0
  9
$PUCSNAME
  2

  9
$PUCSORG
 10
0.0
 20
0.0
 30
0.0
  9
$PUCSXDIR
 10
1.0
 20
0.0
 30
0.0
  9
$PUCSYDIR
 10
0.0
 20
1.0
 30
0.0
  9
$USERI1
 70
     0
  9
$USERI2
 70
     0
  9
$USERI3
 70
     0
  9
$USERI4
 70
     0
  9
$USERI5
 70
     0
  9
$USERR1
 40
0.0
  9
$USERR2
 40
0.0
  9
$USERR3
 40
0.0
  9
$USERR4
 40
0.0
  9
$USERR5
 40
0.0
  9
$WORLDVIEW
 70
     1
  9
$SHADEDGE
 70
     3
  9
$SHADEDIF
 70
    70
  9
$TILEMODE
 70
     1
  9
$MAXACTVP
 70
    64
  9
$PLIMCHECK
 70
     0
  9
$PEXTMIN
 10
1.0000000000000000E+020
 20
1.0000000000000000E+020
 30
1.0000000000000000E+020
  9
$PEXTMAX
 10
-1.0000000000000000E+020
 20
-1.0000000000000000E+020
 30
-1.0000000000000000E+020
  9
$PLIMMIN
 10
-20.0
 20
-7.5
  9
$PLIMMAX
 10
277.0
 20
202.5
  9
$UNITMODE
 70
     0
  9
$VISRETAIN
 70
     1
  9
$PLINEGEN
 70
     0
  9
$PSLTSCALE
 70
     1
  0
ENDSEC
  0
SECTION
  2
TABLES
  0
TABLE
  2
VPORT
 70
     1
  0
VPORT
  2
*ACTIVE
 70
     0
 10
0.0
 20
0.0
 11
1.0
 21
1.0
 12
100.0010685634347
 22
136.19476381362739
 13
0.0
 23
0.0
 14
0.5
 24
0.5
 15
0.5
 25
0.5
 16
0.0
 26
0.0
 36
1.0
 17
0.0
 27
0.0
 37
0.0
 40
269.5972128998244
 41
1.961916461916462
 42
2000.0
 43
0.0
 44
0.0
 50
0.0
 51
0.0
 71
     0
 72
   100
 73
     1
 74
     3
 75
     0
 76
     0
 77
     0
 78
     0
  0
ENDTAB
  0
TABLE
  2
LTYPE
 70
    11
  0
LTYPE
  2
CONTINUOUS
 70
     0
  3
Solid line
 72
    65
 73
     0
 40
0.0
  0
ENDTAB
  0
TABLE
  2
LAYER
 70
     5
  0
LAYER
  2
0
 70
     0
 62
     7
  6
CONTINUOUS
  0
LAYER
  2
DATA
 70
     0
 62
     7
  6
CONTINUOUS
  0
LAYER
  2
HIBINO-BASE
 70
     0
 62
     7
  6
CONTINUOUS
  0
LAYER
  2
SPEC
 70
     0
 62
     7
  6
CONTINUOUS
  0
LAYER
  2
DIMNSIONS
 70
     0
 62
     7
  6
CONTINUOUS
  0
ENDTAB
  0
TABLE
  2
STYLE
 70
     3
  0
STYLE
  2
STANDARD
 70
     0
 40
0.0
 41
1.0
 50
0.0
 71
     0
 42
0.2
  3
txt
  4
BIGFONT.SHX
  0
STYLE
  2
STANDARD0
 70
     0
 40
0.0
 41
1.0
 50
0.0
 71
     0
 42
2.5
  3
txt.shx
  4
extfont2.shx
  0
ENDTAB
  0
TABLE
  2
VIEW
 70
     0
  0
ENDTAB
  0
TABLE
  2
UCS
 70
     0
  0
ENDTAB
  0
TABLE
  2
APPID
 70
     4
  0
APPID
  2
ACAD
 70
     0
  0
APPID
  2
ACADANNOTATIVE
 70
     0
  0
APPID
  2
ACAD_NAV_VCDISPLAY
 70
     0
  0
APPID
  2
ACAD_MLEADERVER
 70
     0
  0
ENDTAB
  0
TABLE
  2
DIMSTYLE
 70
     2
  0
DIMSTYLE
  2
STANDARD
 70
     0
  3

  4

  5

  6

  7

 40
1.0
 41
0.18
 42
0.0625
 43
0.38
 44
0.18
 45
0.0
 46
0.0
 47
0.0
 48
0.0
140
0.18
141
0.09
142
0.0
143
25.399999999999999
144
1.0
145
0.0
146
1.0
147
0.09
 71
     0
 72
     0
 73
     1
 74
     1
 75
     0
 76
     0
 77
     0
 78
     0
170
     0
171
     2
172
     0
173
     0
174
     0
175
     0
176
     0
177
     0
178
     0
  0
ENDTAB
  0
ENDSEC
  0
SECTION
  2
BLOCKS
  0
BLOCK
  8
0
  2
$MODEL_SPACE
 70
     0
 10
0.0
 20
0.0
 30
0.0
  3
$MODEL_SPACE
  1

  0
ENDBLK
  5
1C2
  8
0
  0
BLOCK
 67
     1
  8
0
  2
$PAPER_SPACE
 70
     0
 10
0.0
 20
0.0
 30
0.0
  3
$PAPER_SPACE
  1

  0
ENDBLK
  5
1BE
 67
     1
  8
0
  0
ENDSEC
  0
SECTION
  2
ENTITIES
  0
LINE
  5
4F
  8
HIBINO-BASE
  6
CONTINUOUS
 62
     7
 10
10.0
 20
270.0
 30
0.0
 11
190.0
 21
270.0
 31
0.0
  0
LINE
  5
50
  8
HIBINO-BASE
  6
CONTINUOUS
 62
     7
 10
190.0
 20
10.0
 30
0.0
 11
10.0
 21
10.0
 31
0.0
  0
LINE
  5
51
  8
HIBINO-BASE
  6
CONTINUOUS
 62
     7
 10
10.0
 20
10.0
 30
0.0
 11
10.0
 21
270.0
 31
0.0
  0
LINE
  5
52
  8
HIBINO-BASE
  6
CONTINUOUS
 62
     7
 10
190.0
 20
270.0
 30
0.0
 11
190.0
 21
10.0
 31
0.0
  0
LINE
  5
53
  8
HIBINO-BASE
  6
CONTINUOUS
 62
     7
 10
100.0
 20
32.500000000000007
 30
0.0
 11
190.0
 21
32.500000000000007
 31
0.0
  0
LINE
  5
54
  8
HIBINO-BASE
  6
CONTINUOUS
 62
     7
 10
100.0
 20
10.0
 30
0.0
 11
100.0
 21
32.500000000000007
 31
0.0
  0
TEXT
  5
55
  8
HIBINO-BASE
 62
     7
 10
100.90000000000001
 20
29.991306666666681
 30
0.0
 40
1.6288411458333329
  1
NOTE
 41
0.7
 11
100.90000000000001
 21
31.620147812500011
 31
0.0
 73
     3
  0
LINE
  5
56
  8
HIBINO-BASE
  6
CONTINUOUS
 62
     7
 10
135.0
 20
10.0
 30
0.0
 11
135.0
 21
32.500000000000007
 31
0.0
  0
TEXT
  5
57
  8
HIBINO-BASE
 62
     7
 10
135.90000000000001
 20
29.991306666666681
 30
0.0
 40
1.6288411458333329
  1
TITLE
 41
0.7
 11
135.90000000000001
 21
31.620147812500011
 31
0.0
 73
     3
  0
LINE
  5
58
  8
HIBINO-BASE
  6
CONTINUOUS
 62
     7
 10
100.0
 20
20.000000000000011
 30
0.0
 11
190.0
 21
20.000000000000011
 31
0.0
  0
TEXT
  5
59
  8
HIBINO-BASE
 62
     7
 10
148.40000000000001
 20
17.54762666666668
 30
0.0
 40
1.6288411458333329
  1
DRAWN
 41
0.7
 11
148.40000000000001
 21
19.176467812500011
 31
0.0
 73
     3
  0
TEXT
  5
5A
  8
HIBINO-BASE
 62
     7
 10
123.40000000000001
 20
17.54762666666668
 30
0.0
 40
1.6288411458333329
  1
DATE
 41
0.7
 11
123.40000000000001
 21
19.176467812500011
 31
0.0
 73
     3
  0
TEXT
  5
5B
  8
HIBINO-BASE
 62
     7
 10
113.40000000000001
 20
17.54762666666668
 30
0.0
 40
1.6288411458333329
  1
SCALE
 41
0.7
 11
113.40000000000001
 21
19.176467812500011
 31
0.0
 73
     3
  0
TEXT
  5
5C
  8
HIBINO-BASE
 62
     7
 10
135.90000000000001
 20
17.54762666666668
 30
0.0
 40
1.6288411458333329
  1
DESIGN
 41
0.7
 11
135.90000000000001
 21
19.176467812500011
 31
0.0
 73
     3
  0
TEXT
  5
5D
  8
HIBINO-BASE
 62
     7
 10
173.40000000000001
 20
17.54762666666668
 30
0.0
 40
1.6288411458333329
  1
DRAWING NO.
 41
0.7
 11
173.40000000000001
 21
19.176467812500011
 31
0.0
 73
     3
  0
TEXT
  5
5E
  8
HIBINO-BASE
 62
     7
 10
160.90000000000001
 20
17.54762666666668
 30
0.0
 40
1.6288411458333329
  1
CHECK
 41
0.7
 11
160.90000000000001
 21
19.176467812500011
 31
0.0
 73
     3
  0
LINE
  5
5F
  8
HIBINO-BASE
  6
CONTINUOUS
 62
     7
 10
114.375
 20
11.25
 30
0.0
 11
118.125
 21
15.000000000000011
 31
0.0
  0
TEXT
  5
60
  8
HIBINO-BASE
 62
     7
 10
113.75
 20
13.891056666666669
 30
0.0
 40
1.6288411458333329
  1
1
 41
0.7
 11
113.75
 21
15.519897812500011
 31
0.0
 73
     3
  0
LINE
  5
61
  8
HIBINO-BASE
  6
CONTINUOUS
 62
     7
 10
112.5
 20
10.0
 30
0.0
 11
112.5
 21
20.000000000000011
 31
0.0
  0
LINE
  5
62
  8
HIBINO-BASE
  6
CONTINUOUS
 62
     7
 10
122.5
 20
10.0
 30
0.0
 11
122.5
 21
20.000000000000011
 31
0.0
  0
LINE
  5
63
  8
HIBINO-BASE
  6
CONTINUOUS
 62
     7
 10
147.5
 20
20.000000000000011
 30
0.0
 11
147.5
 21
10.0
 31
0.0
  0
LINE
  5
64
  8
HIBINO-BASE
  6
CONTINUOUS
 62
     7
 10
172.5
 20
20.000000000000011
 30
0.0
 11
172.5
 21
10.0
 31
0.0
  0
LINE
  5
65
  8
HIBINO-BASE
  6
CONTINUOUS
 62
     7
 10
160.0
 20
10.0
 30
0.0
 11
160.0
 21
20.000000000000011
 31
0.0
  0
TEXT
  5
66
  8
HIBINO-BASE
 62
     7
 10
123.35654
 20
12.86364666666667
 30
0.0
 40
1.6288411458333329
  1
'11.08.
 41
0.7
 11
123.35654
 21
14.4924878125
 31
0.0
 73
     3
  0
TEXT
  5
67
  8
HIBINO-BASE
 62
     7
 10
117.5
 20
12.016056666666669
 30
0.0
 40
1.6288411458333329
  1
1
 41
0.7
 11
117.5
 21
13.644897812500011
 31
0.0
 73
     3
  0
TEXT
  5
68
  8
HIBINO-BASE
 62
     7
 10
103.8833333333333
 20
11.97600000000001
 30
0.0
 40
3.2576822916666659
  1
A4
 41
0.7
 11
103.8833333333333
 21
15.23368229166668
 31
0.0
 73
     3
  0
TEXT
  5
69
  8
HIBINO-BASE
 62
     7
 10
100.9583333333333
 20
17.380545000000009
 30
0.0
 40
1.6288411458333329
  1
PAPER SIZE
 41
0.7
 11
100.9583333333333
 21
19.00938614583335
 31
0.0
 73
     3
  0
TEXT
  5
6A
  8
HIBINO-BASE
 62
     7
 10
12.75963525689018
 20
3.5747597658237522
 30
0.0
 40
3.5291558159722212
  1
Hibino-Intersound Corporation
 41
0.7
 11
12.75963525689018
 21
7.1039155817959729
 31
0.0
 73
     3
  0
TEXT
  5
6B
  8
HIBINO-BASE
 62
     7
 10
120.18060968021391
 20
3.9258480191131699
 30
0.0
 40
3.5291558159722212
  1
ヒビノインターサウンド株式会社
 41
0.7
 11
120.18060968021391
 21
7.4550038350853924
 31
0.0
 73
     3
  0
TEXT
  5
6C
  8
HIBINO-BASE
 62
     7
 10
149.19999999999999
 20
13.02214790510857
 30
0.0
 40
1.6288411458333329
  1
T.Ootake
 41
0.7
 11
149.19999999999999
 21
14.650989050941901
 31
0.0
 73
     3
  0
LINE
  5
6D
  8
SPEC
  6
CONTINUOUS
 62
     7
 10
17.5
 20
260.0
 30
0.0
 11
177.0
 21
260.0
 31
0.0
  0
LINE
  5
6E
  8
SPEC
  6
CONTINUOUS
 62
     7
 10
17.5
 20
248.75
 30
0.0
 11
177.0
 21
248.75
 31
0.0
  0
LINE
  5
6F
  8
SPEC
  6
CONTINUOUS
 62
     7
 10
17.5
 20
252.5
 30
0.0
 11
177.0
 21
252.5
 31
0.0
  0
LINE
  5
70
  8
SPEC
  6
CONTINUOUS
 62
     7
 10
17.5
 20
260.0
 30
0.0
 11
17.5
 21
185.0
 31
0.0
  0
TEXT
  5
71
  8
SPEC
 62
     7
 10
18.75
 20
261.39326999999997
 30
0.0
 40
2.4432617187500001
  1
仕様
 41
0.7
 11
18.75
 21
263.83653171875
 31
0.0
 73
     3
  0
LINE
  5
72
  8
SPEC
  6
CONTINUOUS
 62
     7
 10
55.0
 20
260.0
 30
0.0
 11
54.999999999999979
 21
185.0
 31
0.0
  0
LINE
  5
73
  8
SPEC
  6
CONTINUOUS
 62
     7
 10
17.5
 20
245.0
 30
0.0
 11
177.0
 21
245.0
 31
0.0
  0
LINE
  5
74
  8
SPEC
  6
CONTINUOUS
 62
     7
 10
17.5
 20
241.25
 30
0.0
 11
177.0
 21
241.25
 31
0.0
  0
LINE
  5
75
  8
SPEC
  6
CONTINUOUS
 62
     7
 10
17.5
 20
237.5
 30
0.0
 11
177.0
 21
237.5
 31
0.0
  0
LINE
  5
76
  8
SPEC
  6
CONTINUOUS
 62
     7
 10
17.5
 20
233.75
 30
0.0
 11
177.0
 21
233.75
 31
0.0
  0
LINE
  5
77
  8
SPEC
  6
CONTINUOUS
 62
     7
 10
17.5
 20
230.0
 30
0.0
 11
177.0
 21
230.0
 31
0.0
  0
LINE
  5
78
  8
SPEC
  6
CONTINUOUS
 62
     7
 10
17.5
 20
226.25
 30
0.0
 11
177.0
 21
226.25
 31
0.0
  0
LINE
  5
79
  8
SPEC
  6
CONTINUOUS
 62
     7
 10
17.5
 20
222.5
 30
0.0
 11
177.0
 21
222.5
 31
0.0
  0
LINE
  5
7A
  8
SPEC
  6
CONTINUOUS
 62
     7
 10
17.5
 20
218.75
 30
0.0
 11
177.0
 21
218.75
 31
0.0
  0
LINE
  5
7B
  8
SPEC
  6
CONTINUOUS
 62
     7
 10
17.5
 20
215.0
 30
0.0
 11
177.0
 21
215.0
 31
0.0
  0
TEXT
  5
7C
  8
SPEC
 62
     7
 10
18.327328959789298
 20
186.0665630808538
 30
0.0
 40
1.9003146701388891
  1
重量
 41
0.7
 11
18.327328959789298
 21
187.96687775099269
 31
0.0
 73
     3
  0
LINE
  5
7D
  8
SPEC
  6
CONTINUOUS
 62
     7
 10
17.5
 20
203.75
 30
0.0
 11
177.0
 21
203.75
 31
0.0
  0
LINE
  5
7E
  8
SPEC
  6
CONTINUOUS
 62
     7
 10
17.5
 20
200.0
 30
0.0
 11
177.0
 21
200.0
 31
0.0
  0
LINE
  5
7F
  8
SPEC
  6
CONTINUOUS
 62
     7
 10
17.5
 20
196.25
 30
0.0
 11
177.0
 21
196.25
 31
0.0
  0
LINE
  5
80
  8
SPEC
  6
CONTINUOUS
 62
     7
 10
17.5
 20
188.75
 30
0.0
 11
177.0
 21
188.75
 31
0.0
  0
LINE
  5
81
  8
SPEC
  6
CONTINUOUS
 62
     7
 10
17.5
 20
185.0
 30
0.0
 11
177.0
 21
185.0
 31
0.0
  0
TEXT
  5
82
  8
SPEC
 62
     7
 10
67.519251031630944
 20
256.97341216001132
 30
0.0
 40
1.9003146701388891
  1
4060
 41
0.7
 11
67.519251031630944
 21
258.87372683015008
 31
0.0
 73
     3
  0
TEXT
  5
83
  8
SPEC
 62
     7
 10
98.260575539386892
 20
257.15891209876872
 30
0.0
 40
1.9003146701388891
  1
4061
 41
0.7
 11
98.260575539386892
 21
259.05922676890759
 31
0.0
 73
     3
  0
TEXT
  5
84
  8
SPEC
 62
     7
 10
128.7955108617974
 20
257.11327638382312
 30
0.0
 40
1.9003146701388891
  1
4062
 41
0.7
 11
128.7955108617974
 21
259.01359105396187
 31
0.0
 73
     3
  0
TEXT
  5
85
  8
SPEC
 62
     7
 10
159.2817611758866
 20
257.15964015779321
 30
0.0
 40
1.9003146701388891
  1
4063
 41
0.7
 11
159.2817611758866
 21
259.05995482793207
 31
0.0
 73
     3
  0
TEXT
  5
86
  8
SPEC
 62
     7
 10
18.355810237603539
 20
249.7518274036583
 30
0.0
 40
1.9003146701388891
  1
指向特性
 41
0.7
 11
18.355810237603539
 21
251.65214207379719
 31
0.0
 73
     3
  0
TEXT
  5
87
  8
SPEC
 62
     7
 10
18.359729316776608
 20
257.09708982744797
 30
0.0
 40
1.9003146701388891
  1
型番
 41
0.7
 11
18.359729316776608
 21
258.9974044975869
 31
0.0
 73
     3
  0
TEXT
  5
88
  8
SPEC
 62
     7
 10
18.257046455360779
 20
246.11085155499561
 30
0.0
 40
1.9003146701388891
  1
カートリッジ
 41
0.7
 11
18.257046455360779
 21
248.0111662251345
 31
0.0
 73
     3
  0
TEXT
  5
89
  8
SPEC
 62
     7
 10
18.40010319319482
 20
242.21663782359289
 30
0.0
 40
1.9003146701388891
  1
周波数レンジ(\U+00B12dB)
 41
0.7
 11
18.40010319319482
 21
244.11695249373179
 31
0.0
 73
     3
  0
TEXT
  5
8A
  8
SPEC
 62
     7
 10
18.384154918654541
 20
238.45284471463839
 30
0.0
 40
1.9003146701388891
  1
感度(\U+00B13dB)
 41
0.7
 11
18.384154918654541
 21
240.35315938477731
 31
0.0
 73
     3
  0
TEXT
  5
8B
  8
SPEC
 62
     7
 10
18.381986723907531
 20
234.69405744319599
 30
0.0
 40
1.9003146701388891
  1
等価雑音レベル(Aウェイト)
 41
0.7
 11
18.381986723907531
 21
236.59437211333491
 31
0.0
 73
     3
  0
TEXT
  5
8C
  8
SPEC
 62
     7
 10
18.399324962142192
 20
230.96751871880701
 30
0.0
 40
1.9003146701388891
  1
全高調波ひずみ(THD)
 41
0.7
 11
18.399324962142192
 21
232.86783338894591
 31
0.0
 73
     3
  0
TEXT
  5
8D
  8
SPEC
 62
     7
 10
18.205253317256901
 20
227.23645819481129
 30
0.0
 40
1.9003146701388891
  1
ダイナミックレンジ(代表値)
 41
0.7
 11
18.205253317256901
 21
229.13677286495019
 31
0.0
 73
     3
  0
TEXT
  5
8E
  8
SPEC
 62
     7
 10
18.418583397197079
 20
223.42789883344199
 30
0.0
 40
1.9003146701388891
  1
最大音圧レベル
 41
0.7
 11
18.418583397197079
 21
225.32821350358091
 31
0.0
 73
     3
  0
TEXT
  5
8F
  8
SPEC
 62
     7
 10
18.24830890906448
 20
219.6932317153146
 30
0.0
 40
1.9003146701388891
  1
出力インピーダンス
 41
0.7
 11
18.24830890906448
 21
221.59354638545349
 31
0.0
 73
     3
  0
TEXT
  5
90
  8
SPEC
 62
     7
 10
18.274403613353741
 20
215.93780826640759
 30
0.0
 40
1.9003146701388891
  1
ケーブル引き伸ばし可能距離
 41
0.7
 11
18.274403613353741
 21
217.83812293654651
 31
0.0
 73
     3
  0
TEXT
  5
91
  8
SPEC
 62
     7
 10
18.316870388054269
 20
212.14821339934099
 30
0.0
 40
1.9003146701388891
  1
電源
 41
0.7
 11
18.316870388054269
 21
214.04852806947989
 31
0.0
 73
     3
  0
TEXT
  5
92
  8
SPEC
 62
     7
 10
18.130750364097111
 20
201.08660079707931
 30
0.0
 40
1.9003146701388891
  1
コネクター
 41
0.7
 11
18.130750364097111
 21
202.98691546721821
 31
0.0
 73
     3
  0
TEXT
  5
93
  8
SPEC
 62
     7
 10
18.27951255835325
 20
197.26934981242539
 30
0.0
 40
1.9003146701388891
  1
ケーブル長
 41
0.7
 11
18.27951255835325
 21
199.16966448256429
 31
0.0
 73
     3
  0
TEXT
  5
94
  8
SPEC
 62
     7
 10
18.40165326097588
 20
193.54232560649609
 30
0.0
 40
1.9003146701388891
  1
色
 41
0.7
 11
18.40165326097588
 21
195.44264027663499
 31
0.0
 73
     3
  0
TEXT
  5
95
  8
SPEC
 62
     7
 10
62.858547320170018
 20
253.39311049369701
 30
0.0
 40
1.9003146701388891
  1
高感度モデル
 41
0.7
 11
62.858547320170018
 21
255.29342516383591
 31
0.0
 73
     3
  0
TEXT
  5
96
  8
SPEC
 62
     7
 10
93.561631582181874
 20
253.39311049369701
 30
0.0
 40
1.9003146701388891
  1
低感度モデル
 41
0.7
 11
93.561631582181874
 21
255.29342516383591
 31
0.0
 73
     3
  0
TEXT
  5
97
  8
SPEC
 62
     7
 10
123.9061736741733
 20
253.39311049369701
 30
0.0
 40
1.9003146701388891
  1
超低感度モデル
 41
0.7
 11
123.9061736741733
 21
255.29342516383591
 31
0.0
 73
     3
  0
TEXT
  5
98
  8
SPEC
 62
     7
 10
149.88278682893269
 20
253.44069911460991
 30
0.0
 40
1.9003146701388891
  1
低感度・低電圧モデル
 41
0.7
 11
149.88278682893269
 21
255.34101378474881
 31
0.0
 73
     3
  0
TEXT
  5
99
  8
SPEC
 62
     7
 10
111.2941328204811
 20
249.70693787963731
 30
0.0
 40
1.9003146701388891
  1
無指向性
 41
0.7
 11
111.2941328204811
 21
251.60725254977621
 31
0.0
 73
     3
  0
TEXT
  5
9A
  8
SPEC
 62
     7
 10
98.071539108761513
 20
245.91879782982431
 30
0.0
 40
1.9003146701388891
  1
プリポラライズド・コンデンサー型
 41
0.7
 11
98.071539108761513
 21
247.81911249996321
 31
0.0
 73
     3
  0
TEXT
  5
9B
  8
SPEC
 62
     7
 10
109.5818194568803
 20
242.2081424089304
 30
0.0
 40
1.9003146701388891
  1
20Hz～20kHz
 41
0.7
 11
109.5818194568803
 21
244.1084570790693
 31
0.0
 73
     3
  0
TEXT
  5
9C
  8
SPEC
 62
     7
 10
61.583110338207412
 20
238.33321598085311
 30
0.0
 40
1.9003146701388891
  1
-34dB re 1V/Pa
 41
0.7
 11
61.583110338207412
 21
240.23353065099201
 31
0.0
 73
     3
  0
TEXT
  5
9D
  8
SPEC
 62
     7
 10
90.774618761375777
 20
238.3335970531632
 30
0.0
 40
1.9003146701388891
  1
-44dB re 1V/Pa
 41
0.7
 11
90.774618761375777
 21
240.2339117233021
 31
0.0
 73
     3
  0
TEXT
  5
9E
  8
SPEC
 62
     7
 10
121.7307723300155
 20
238.33384984774611
 30
0.0
 40
1.9003146701388891
  1
-60dB re 1V/Pa
 41
0.7
 11
121.7307723300155
 21
240.23416451788501
 31
0.0
 73
     3
  0
TEXT
  5
9F
  8
SPEC
 62
     7
 10
152.09376943339009
 20
238.39761230231269
 30
0.0
 40
1.9003146701388891
  1
-44dB re 1V/Pa
 41
0.7
 11
152.09376943339009
 21
240.29792697245159
 31
0.0
 73
     3
  0
TEXT
  5
A0
  8
SPEC
 62
     7
 10
64.936173965471255
 20
234.58513337323311
 30
0.0
 40
1.9003146701388891
  1
23dB SPL
 41
0.7
 11
64.936173965471255
 21
236.485448043372
 31
0.0
 73
     3
  0
TEXT
  5
A1
  8
SPEC
 62
     7
 10
95.69378558771227
 20
234.64789459291759
 30
0.0
 40
1.9003146701388891
  1
26dB SPL
 41
0.7
 11
95.69378558771227
 21
236.54820926305649
 31
0.0
 73
     3
  0
TEXT
  5
A2
  8
SPEC
 62
     7
 10
125.73599144303689
 20
234.71016012769689
 30
0.0
 40
1.9003146701388891
  1
33dB SPL
 41
0.7
 11
125.73599144303689
 21
236.61047479783579
 31
0.0
 73
     3
  0
TEXT
  5
A3
  8
SPEC
 62
     7
 10
156.95617525470729
 20
234.58513337323311
 30
0.0
 40
1.9003146701388891
  1
26dB SPL
 41
0.7
 11
156.95617525470729
 21
236.485448043372
 31
0.0
 73
     3
  0
TEXT
  5
A4
  8
SPEC
 62
     7
 10
84.640024735698304
 20
230.95987113673581
 30
0.0
 40
1.9003146701388891
  1
1%%%以下(123dB　SPL、ピーク)、1%%%以下(120dB　SPL、RMS)
 41
0.7
 11
84.640024735698304
 21
232.86018580687471
 31
0.0
 73
     3
  0
TEXT
  5
A5
  8
SPEC
 62
     7
 10
67.361634756103342
 20
227.11224772157109
 30
0.0
 40
1.9003146701388891
  1
100dB
 41
0.7
 11
67.361634756103342
 21
229.01256239170999
 31
0.0
 73
     3
  0
TEXT
  5
A6
  8
SPEC
 62
     7
 10
98.300280124497846
 20
227.1747214430425
 30
0.0
 40
1.9003146701388891
  1
97dB
 41
0.7
 11
98.300280124497846
 21
229.0750361131814
 31
0.0
 73
     3
  0
TEXT
  5
A7
  8
SPEC
 62
     7
 10
128.80272394328301
 20
227.19757033489881
 30
0.0
 40
1.9003146701388891
  1
90dB
 41
0.7
 11
128.80272394328301
 21
229.09788500503771
 31
0.0
 73
     3
  0
TEXT
  5
A8
  8
SPEC
 62
     7
 10
159.29208838951629
 20
227.20452895757319
 30
0.0
 40
1.9003146701388891
  1
97dB
 41
0.7
 11
159.29208838951629
 21
229.10484362771211
 31
0.0
 73
     3
  0
TEXT
  5
A9
  8
SPEC
 62
     7
 10
65.47309292464071
 20
223.42309366228861
 30
0.0
 40
1.9003146701388891
  1
134dB SPL
 41
0.7
 11
65.47309292464071
 21
225.3234083324275
 31
0.0
 73
     3
  0
TEXT
  5
AA
  8
SPEC
 62
     7
 10
95.325303937717266
 20
223.403853792973
 30
0.0
 40
1.9003146701388891
  1
144dB SPL
 41
0.7
 11
95.325303937717266
 21
225.30416846311189
 31
0.0
 73
     3
  0
TEXT
  5
AB
  8
SPEC
 62
     7
 10
125.9801609013345
 20
223.46296267085941
 30
0.0
 40
1.9003146701388891
  1
154dB SPL
 41
0.7
 11
125.9801609013345
 21
225.36327734099831
 31
0.0
 73
     3
  0
TEXT
  5
AC
  8
SPEC
 62
     7
 10
156.68395131220419
 20
223.50314781121841
 30
0.0
 40
1.9003146701388891
  1
138dB SPL
 41
0.7
 11
156.68395131220419
 21
225.40346248135731
 31
0.0
 73
     3
  0
TEXT
  5
AD
  8
SPEC
 62
     7
 10
96.14518284847756
 20
219.56554584010729
 30
0.0
 40
1.9003146701388891
  1
30～40\U+03A9
 41
0.7
 11
96.14518284847756
 21
221.46586051024619
 31
0.0
 73
     3
  0
TEXT
  5
AE
  8
SPEC
 62
     7
 10
95.755421266162088
 20
215.92833180295179
 30
0.0
 40
1.9003146701388891
  1
最大300m
 41
0.7
 11
95.755421266162088
 21
217.82864647309071
 31
0.0
 73
     3
  0
TEXT
  5
AF
  8
SPEC
 62
     7
 10
75.091904377401875
 20
212.27627777777781
 30
0.0
 40
1.9003146701388891
  1
ワイヤレスシステム：5V～50V(DPAアダプター)
 41
0.7
 11
75.091904377401875
 21
214.1765924479167
 31
0.0
 73
     3
  0
TEXT
  5
B0
  8
SPEC
 62
     7
 10
74.989487465779206
 20
208.51180176783279
 30
0.0
 40
1.9003146701388891
  1
ファンタムDC48V\U+00B14V
 41
0.7
 11
74.989487465779206
 21
210.41211643797169
 31
0.0
 73
     3
  0
TEXT
  5
B1
  8
SPEC
 62
     7
 10
147.4051579042688
 20
212.27627777777781
 30
0.0
 40
1.9003146701388891
  1
ワイヤレスシステム：
 41
0.7
 11
147.4051579042688
 21
214.1765924479167
 31
0.0
 73
     3
  0
TEXT
  5
B2
  8
SPEC
 62
     7
 10
148.667032639084
 20
208.4762777777778
 30
0.0
 40
1.9003146701388891
  1
3V～50V(DPAアダプター)
 41
0.7
 11
148.667032639084
 21
210.37659244791669
 31
0.0
 73
     3
  0
TEXT
  5
B3
  8
SPEC
 62
     7
 10
146.9371933533603
 20
204.78001385713159
 30
0.0
 40
1.9003146701388891
  1
ファンタムDC48V\U+00B14V
 41
0.7
 11
146.9371933533603
 21
206.68032852727049
 31
0.0
 73
     3
  0
TEXT
  5
B4
  8
SPEC
 62
     7
 10
111.523039661781
 20
201.04000430321329
 30
0.0
 40
1.9003146701388891
  1
MicroDot
 41
0.7
 11
111.523039661781
 21
202.94031897335219
 31
0.0
 73
     3
  0
TEXT
  5
B5
  8
SPEC
 62
     7
 10
113.7702242154816
 20
197.41498561859669
 30
0.0
 40
1.9003146701388891
  1
1.8m
 41
0.7
 11
113.7702242154816
 21
199.3153002887355
 31
0.0
 73
     3
  0
TEXT
  5
B6
  8
SPEC
 62
     7
 10
55.502845909474743
 20
193.36803749824031
 30
0.0
 40
1.9003146701388891
  1
黒(-BM)、べージュ(-FM)
 41
0.7
 11
55.502845909474743
 21
195.26835216837921
 31
0.0
 73
     3
  0
LINE
  5
B7
  8
SPEC
  6
CONTINUOUS
 62
     7
 10
177.0
 20
260.0
 30
0.0
 11
177.0
 21
185.0
 31
0.0
  0
LINE
  5
B8
  8
SPEC
  6
CONTINUOUS
 62
     7
 10
85.5
 20
252.5
 30
0.0
 11
85.5
 21
260.0
 31
0.0
  0
LINE
  5
B9
  8
SPEC
  6
CONTINUOUS
 62
     7
 10
116.0
 20
252.5
 30
0.0
 11
116.0
 21
260.0
 31
0.0
  0
LINE
  5
BA
  8
SPEC
  6
CONTINUOUS
 62
     7
 10
85.5
 20
233.75
 30
0.0
 11
85.5
 21
241.25
 31
0.0
  0
LINE
  5
BB
  8
SPEC
  6
CONTINUOUS
 62
     7
 10
85.5
 20
222.5
 30
0.0
 11
85.5
 21
230.0
 31
0.0
  0
LINE
  5
BC
  8
SPEC
  6
CONTINUOUS
 62
     7
 10
85.5
 20
188.75
 30
0.0
 11
85.5
 21
196.25
 31
0.0
  0
LINE
  5
BD
  8
SPEC
  6
CONTINUOUS
 62
     7
 10
116.0
 20
222.5
 30
0.0
 11
116.0
 21
230.0
 31
0.0
  0
LINE
  5
BE
  8
SPEC
  6
CONTINUOUS
 62
     7
 10
116.0
 20
233.75
 30
0.0
 11
116.0
 21
241.25
 31
0.0
  0
LINE
  5
BF
  8
SPEC
  6
CONTINUOUS
 62
     7
 10
146.5
 20
233.75
 30
0.0
 11
146.5
 21
241.25
 31
0.0
  0
LINE
  5
C0
  8
SPEC
  6
CONTINUOUS
 62
     7
 10
146.5
 20
222.5
 30
0.0
 11
146.5
 21
230.0
 31
0.0
  0
LINE
  5
C1
  8
SPEC
  6
CONTINUOUS
 62
     7
 10
116.0
 20
188.75
 30
0.0
 11
116.0
 21
196.25
 31
0.0
  0
LINE
  5
C2
  8
SPEC
  6
CONTINUOUS
 62
     7
 10
146.5
 20
188.75
 30
0.0
 11
146.5
 21
196.25
 31
0.0
  0
LINE
  5
C3
  8
SPEC
  6
CONTINUOUS
 62
     7
 10
146.5
 20
252.5
 30
0.0
 11
146.5
 21
260.0
 31
0.0
  0
TEXT
  5
C4
  8
SPEC
 62
     7
 10
55.445167489843961
 20
189.7921401894576
 30
0.0
 40
1.9003146701388891
  1
白(-WM)、ブラウン(-CM)
 41
0.7
 11
55.445167489843961
 21
191.69245485959649
 31
0.0
 73
     3
  0
TEXT
  5
C5
  8
SPEC
 62
     7
 10
86.173193823856977
 20
193.36803749824031
 30
0.0
 40
1.9003146701388891
  1
黒(-BM)、べージュ(-FM)
 41
0.7
 11
86.173193823856977
 21
195.26835216837921
 31
0.0
 73
     3
  0
TEXT
  5
C6
  8
SPEC
 62
     7
 10
86.200689361417318
 20
189.7921401894576
 30
0.0
 40
1.9003146701388891
  1
白(-WM)、ブラウン(-CM)
 41
0.7
 11
86.200689361417318
 21
191.69245485959649
 31
0.0
 73
     3
  0
TEXT
  5
C7
  8
SPEC
 62
     7
 10
116.3946420904179
 20
191.50194751647561
 30
0.0
 40
1.9003146701388891
  1
黒(-BM)、べージュ(-FM)
 41
0.7
 11
116.3946420904179
 21
193.40226218661451
 31
0.0
 73
     3
  0
TEXT
  5
C8
  8
SPEC
 62
     7
 10
147.17319382385699
 20
193.36803749824031
 30
0.0
 40
1.9003146701388891
  1
黒(-BM)、べージュ(-FM)
 41
0.7
 11
147.17319382385699
 21
195.26835216837921
 31
0.0
 73
     3
  0
TEXT
  5
C9
  8
SPEC
 62
     7
 10
147.20068936141729
 20
189.7921401894576
 30
0.0
 40
1.9003146701388891
  1
白(-WM)、
 41
0.7
 11
147.20068936141729
 21
191.69245485959649
 31
0.0
 73
     3
  0
LINE
  5
CA
  8
SPEC
  6
CONTINUOUS
 62
     7
 10
146.5
 20
203.75
 30
0.0
 11
146.5
 21
215.0
 31
0.0
  0
TEXT
  5
CB
  8
SPEC
 62
     7
 10
113.13213939195791
 20
186.0728843054404
 30
0.0
 40
1.9003146701388891
  1
約10g
 41
0.7
 11
113.13213939195791
 21
187.97319897557929
 31
0.0
 73
     3
  0
TEXT
  5
CC
  8
DIMNSIONS
 62
     7
 10
79.999999999999986
 20
22.269490000000012
 30
0.0
 40
2.4432617187500001
  1
(単位：mm)
 41
0.7
 11
79.999999999999986
 21
24.71275171875001
 31
0.0
 73
     3
  0
LINE
  5
CD
  8
DIMNSIONS
  6
CONTINUOUS
 62
     7
 10
35.974005273301763
 20
117.8621468684141
 30
0.0
 11
40.625
 21
125.0
 31
0.0
  0
POLYLINE
  5
CE
  8
DIMNSIONS
  6
CONTINUOUS
 62
     7
 66
     1
 10
0.0
 20
0.0
 30
0.0
 70
   128
  0
VERTEX
  5
1F7
  8
DIMNSIONS
  6
CONTINUOUS
 62
     7
 10
37.927823827612883
 20
119.56057542577609
 30
0.0
  0
VERTEX
  5
1F8
  8
DIMNSIONS
  6
CONTINUOUS
 62
     7
 10
35.974005273301763
 20
117.8621468684141
 30
0.0
  0
VERTEX
  5
1F9
  8
DIMNSIONS
  6
CONTINUOUS
 62
     7
 10
36.81684749703961
 20
120.30993842275809
 30
0.0
  0
SEQEND
  5
1FA
  8
DIMNSIONS
  6
CONTINUOUS
 62
     7
  0
LINE
  5
D3
  8
DIMNSIONS
  6
CONTINUOUS
 62
     7
 10
40.625
 20
125.0
 30
0.0
 11
51.444444444444429
 21
125.0
 31
0.0
  0
TEXT
  5
D4
  8
DIMNSIONS
 62
     7
 10
42.625
 20
125.9938888888888
 30
0.0
 40
2.7147352430555558
  1
\U+03C65.4
 41
0.7
 11
42.625
 21
128.70862413194439
 31
0.0
 73
     3
  0
LINE
  5
D5
  8
DIMNSIONS
  6
CONTINUOUS
 62
     7
 10
48.490523092575067
 20
74.634885617484684
 30
0.0
 11
50.625
 21
81.25
 31
0.0
  0
POLYLINE
  5
D6
  8
DIMNSIONS
  6
CONTINUOUS
 62
     7
 66
     1
 10
0.0
 20
0.0
 30
0.0
 70
   128
  0
VERTEX
  5
1FB
  8
DIMNSIONS
  6
CONTINUOUS
 62
     7
 10
49.900503673052597
 20
76.806065313021008
 30
0.0
  0
VERTEX
  5
1FC
  8
DIMNSIONS
  6
CONTINUOUS
 62
     7
 10
48.490523092575067
 20
74.634885617484684
 30
0.0
  0
VERTEX
  5
1FD
  8
DIMNSIONS
  6
CONTINUOUS
 62
     7
 10
48.62601224634318
 20
77.220172680238889
 30
0.0
  0
SEQEND
  5
1FE
  8
DIMNSIONS
  6
CONTINUOUS
 62
     7
  0
LINE
  5
DB
  8
DIMNSIONS
  6
CONTINUOUS
 62
     7
 10
50.625
 20
81.25
 30
0.0
 11
61.44444444444445
 21
81.25
 31
0.0
  0
TEXT
  5
DC
  8
DIMNSIONS
 62
     7
 10
52.625000000000007
 20
82.243888888888904
 30
0.0
 40
2.7147352430555558
  1
\U+03C65.8
 41
0.7
 11
52.625000000000007
 21
84.958624131944461
 31
0.0
 73
     3
  0
LINE
  5
DD
  8
DIMNSIONS
  6
CONTINUOUS
 62
     7
 10
59.5
 20
118.59999999999999
 30
0.0
 11
59.5
 21
130.125
 31
0.0
  0
LINE
  5
DE
  8
DIMNSIONS
  6
CONTINUOUS
 62
     7
 10
59.5
 20
128.125
 30
0.0
 11
155.625
 21
128.125
 31
0.0
  0
POLYLINE
  5
DF
  8
DIMNSIONS
  6
CONTINUOUS
 62
     7
 66
     1
 10
0.0
 20
0.0
 30
0.0
 70
   128
  0
VERTEX
  5
1FF
  8
DIMNSIONS
  6
CONTINUOUS
 62
     7
 10
62.000622558593747
 20
127.4549602048498
 30
0.0
  0
VERTEX
  5
200
  8
DIMNSIONS
  6
CONTINUOUS
 62
     7
 10
59.5
 20
128.125
 30
0.0
  0
VERTEX
  5
201
  8
DIMNSIONS
  6
CONTINUOUS
 62
     7
 10
62.000622558593747
 20
128.79503979515019
 30
0.0
  0
SEQEND
  5
202
  8
DIMNSIONS
  6
CONTINUOUS
 62
     7
  0
TEXT
  5
E4
  8
DIMNSIONS
 62
     7
 10
109.0347222222222
 20
129.11888888888879
 30
0.0
 40
2.7147352430555558
  1
1.8m
 41
0.7
 11
109.0347222222222
 21
131.83362413194439
 31
0.0
 73
     3
  0
LINE
  5
E5
  8
DIMNSIONS
  6
CONTINUOUS
 62
     7
 10
83.499999999999986
 20
68.849999999999994
 30
0.0
 11
83.499999999999986
 21
57.375
 31
0.0
  0
LINE
  5
E6
  8
DIMNSIONS
  6
CONTINUOUS
 62
     7
 10
83.499999999999986
 20
59.375
 30
0.0
 11
155.625
 21
59.375
 31
0.0
  0
POLYLINE
  5
E7
  8
DIMNSIONS
  6
CONTINUOUS
 62
     7
 66
     1
 10
0.0
 20
0.0
 30
0.0
 70
   128
  0
VERTEX
  5
203
  8
DIMNSIONS
  6
CONTINUOUS
 62
     7
 10
86.000622558593747
 20
58.704960204849741
 30
0.0
  0
VERTEX
  5
204
  8
DIMNSIONS
  6
CONTINUOUS
 62
     7
 10
83.499999999999986
 20
59.375
 30
0.0
  0
VERTEX
  5
205
  8
DIMNSIONS
  6
CONTINUOUS
 62
     7
 10
86.000622558593747
 20
60.045039795150252
 30
0.0
  0
SEQEND
  5
206
  8
DIMNSIONS
  6
CONTINUOUS
 62
     7
  0
ARC
  5
EC
  8
DIMNSIONS
  6
CONTINUOUS
 62
     7
 10
155.625
 20
69.375
 30
0.0
 40
10.0
 50
270.0
 51
0.0
  0
LINE
  5
ED
  8
DIMNSIONS
  6
CONTINUOUS
 62
     7
 10
84.375
 20
114.84999999999999
 30
0.0
 11
84.375
 21
116.34999999999999
 31
0.0
  0
LINE
  5
EE
  8
DIMNSIONS
  6
CONTINUOUS
 62
     7
 10
84.375
 20
116.34999999999999
 30
0.0
 11
84.375
 21
121.34999999999999
 31
0.0
  0
POLYLINE
  5
EF
  8
DIMNSIONS
  6
CONTINUOUS
 62
     7
 66
     1
 10
0.0
 20
0.0
 30
0.0
 70
   128
  0
VERTEX
  5
207
  8
DIMNSIONS
  6
CONTINUOUS
 62
     7
 10
85.045039795150245
 20
118.8506225585937
 30
0.0
  0
VERTEX
  5
208
  8
DIMNSIONS
  6
CONTINUOUS
 62
     7
 10
84.375
 20
116.34999999999999
 30
0.0
  0
VERTEX
  5
209
  8
DIMNSIONS
  6
CONTINUOUS
 62
     7
 10
83.704960204849755
 20
118.8506225585937
 30
0.0
  0
SEQEND
  5
20A
  8
DIMNSIONS
  6
CONTINUOUS
 62
     7
  0
LINE
  5
F4
  8
DIMNSIONS
  6
CONTINUOUS
 62
     7
 10
84.375
 20
114.84999999999999
 30
0.0
 11
84.375
 21
103.6805555555556
 31
0.0
  0
POLYLINE
  5
F5
  8
DIMNSIONS
  6
CONTINUOUS
 62
     7
 66
     1
 10
0.0
 20
0.0
 30
0.0
 70
   128
  0
VERTEX
  5
20B
  8
DIMNSIONS
  6
CONTINUOUS
 62
     7
 10
83.704960204849755
 20
112.3493774414063
 30
0.0
  0
VERTEX
  5
20C
  8
DIMNSIONS
  6
CONTINUOUS
 62
     7
 10
84.375
 20
114.84999999999999
 30
0.0
  0
VERTEX
  5
20D
  8
DIMNSIONS
  6
CONTINUOUS
 62
     7
 10
85.045039795150245
 20
112.3493774414063
 30
0.0
  0
SEQEND
  5
20E
  8
DIMNSIONS
  6
CONTINUOUS
 62
     7
  0
TEXT
  5
FA
  8
DIMNSIONS
 62
     7
 10
83.381111111111096
 20
103.6805555555556
 30
0.0
 40
2.7147352430555558
  1
\U+03A61.5
 50
90.0
 41
0.7
 11
80.666375868055525
 21
103.6805555555556
 31
0.0
 73
     3
  0
LINE
  5
FB
  8
DIMNSIONS
  6
CONTINUOUS
 62
     7
 10
165.625
 20
118.125
 30
0.0
 11
165.625
 21
69.375
 31
0.0
  0
ARC
  5
FC
  8
DIMNSIONS
  6
CONTINUOUS
 62
     7
 10
155.625
 20
118.125
 30
0.0
 40
10.0
 50
0.0
 51
90.0
  0
TEXT
  5
FD
  8
DATA
 62
     7
 10
146.3323625814977
 20
21.220792485285251
 30
0.0
 40
2.4432617187500001
  1
4060 & 4061 & 4062 & 4063
 41
0.7
 11
146.3323625814977
 21
23.664054204035249
 31
0.0
 73
     3
  0
TEXT
  5
FE
  8
DATA
 62
     7
 10
146.24660732469769
 20
28.380890000000019
 30
0.0
 40
2.4432617187500001
  1
DPA
 41
0.7
 11
146.24660732469769
 21
30.82415171875002
 31
0.0
 73
     3
  0
TEXT
  5
FF
  8
DATA
 62
     7
 10
144.00459769476279
 20
24.888247411869202
 30
0.0
 40
1.6288437109374989
  1
ミニチュアマイクロホン
 41
0.7
 11
144.00459769476279
 21
26.517091122806701
 31
0.0
 73
     3
  0
TEXT
  5
100
  8
DATA
 62
     7
 10
20.0
 20
14.238
 30
0.0
 40
1.6288411458333329
  1
仕様および外観は予告なく変更されることがありますので、ご了承ください。
 41
0.7
 11
20.0
 21
15.86684114583333
 31
0.0
 73
     3
  0
LINE
  5
101
  8
DATA
  6
CONTINUOUS
 62
     7
 10
47.5
 20
113.25
 30
0.0
 11
47.5
 21
117.95
 31
0.0
  0
LINE
  5
102
  8
DATA
  6
CONTINUOUS
 62
     7
 10
59.5
 20
114.59999999999999
 30
0.0
 11
59.5
 21
116.59999999999999
 31
0.0
  0
LINE
  5
103
  8
DATA
  6
CONTINUOUS
 62
     7
 10
49.549999999999997
 20
112.90000000000001
 30
0.0
 11
49.549999999999997
 21
118.3
 31
0.0
  0
LINE
  5
104
  8
DATA
  6
CONTINUOUS
 62
     7
 10
53.549999999999997
 20
118.3
 30
0.0
 11
49.549999999999997
 21
118.3
 31
0.0
  0
LINE
  5
105
  8
DATA
  6
CONTINUOUS
 62
     7
 10
53.549999999999997
 20
112.90000000000001
 30
0.0
 11
49.549999999999997
 21
112.90000000000001
 31
0.0
  0
LINE
  5
106
  8
DATA
  6
CONTINUOUS
 62
     7
 10
53.549999999999997
 20
112.90000000000001
 30
0.0
 11
53.549999999999997
 21
118.3
 31
0.0
  0
LINE
  5
107
  8
DATA
  6
CONTINUOUS
 62
     7
 10
49.549999999999997
 20
117.95
 30
0.0
 11
47.5
 21
117.95
 31
0.0
  0
LINE
  5
108
  8
DATA
  6
CONTINUOUS
 62
     7
 10
49.549999999999997
 20
113.25
 30
0.0
 11
47.5
 21
113.25
 31
0.0
  0
LINE
  5
109
  8
DATA
  6
CONTINUOUS
 62
     7
 10
54.549999999999997
 20
112.95
 30
0.0
 11
54.549999999999997
 21
118.25
 31
0.0
  0
LINE
  5
10A
  8
DATA
  6
CONTINUOUS
 62
     7
 10
54.549999999999997
 20
118.25
 30
0.0
 11
53.549999999999997
 21
118.25
 31
0.0
  0
LINE
  5
10B
  8
DATA
  6
CONTINUOUS
 62
     7
 10
54.549999999999997
 20
112.95
 30
0.0
 11
53.549999999999997
 21
112.95
 31
0.0
  0
LINE
  5
10C
  8
DATA
  6
CONTINUOUS
 62
     7
 10
59.5
 20
116.59999999999999
 30
0.0
 11
54.549999999999997
 21
118.25
 31
0.0
  0
LINE
  5
10D
  8
DATA
  6
CONTINUOUS
 62
     7
 10
59.5
 20
114.59999999999999
 30
0.0
 11
54.549999999999997
 21
112.95
 31
0.0
  0
CIRCLE
  5
10E
  8
DATA
  6
CONTINUOUS
 62
     7
 10
34.5
 20
115.59999999999999
 30
0.0
 40
2.3500000000000001
  0
CIRCLE
  5
10F
  8
DATA
  6
CONTINUOUS
 62
     7
 10
34.5
 20
115.59999999999999
 30
0.0
 40
2.700000000000002
  0
LINE
  5
110
  8
DATA
  6
CONTINUOUS
 62
     7
 10
136.25
 20
114.84999999999999
 30
0.0
 11
59.5
 21
114.84999999999999
 31
0.0
  0
LINE
  5
111
  8
DATA
  6
CONTINUOUS
 62
     7
 10
59.5
 20
116.34999999999999
 30
0.0
 11
137.75
 21
116.34999999999999
 31
0.0
  0
LINE
  5
112
  8
DATA
  6
CONTINUOUS
 62
     7
 10
32.150543606742573
 20
115.5494563932574
 30
0.0
 11
34.449456393257833
 21
113.2505436067422
 31
0.0
  0
LINE
  5
113
  8
DATA
  6
CONTINUOUS
 62
     7
 10
32.292933312689676
 20
116.40706668731031
 30
0.0
 11
35.307066687310318
 21
113.39293331268971
 31
0.0
  0
LINE
  5
114
  8
DATA
  6
CONTINUOUS
 62
     7
 10
32.65037883136749
 20
117.0496211686325
 30
0.0
 11
35.949621168632497
 21
113.7503788313675
 31
0.0
  0
LINE
  5
115
  8
DATA
  6
CONTINUOUS
 62
     7
 10
33.165604087131648
 20
117.53439591286831
 30
0.0
 11
36.434395912868062
 21
114.2656040871319
 31
0.0
  0
LINE
  5
116
  8
DATA
  6
CONTINUOUS
 62
     7
 10
33.84354883363693
 20
117.8564511663631
 30
0.0
 11
36.756451166362908
 21
114.9435488336371
 31
0.0
  0
LINE
  5
117
  8
DATA
  6
CONTINUOUS
 62
     7
 10
34.76498792277566
 20
117.9350120772244
 30
0.0
 11
36.835012077224363
 21
115.8649879227756
 31
0.0
  0
LINE
  5
118
  8
DATA
  6
CONTINUOUS
 62
     7
 10
34.564593095574992
 20
117.9491121156734
 30
0.0
 11
32.150887884326181
 21
115.5354069044246
 31
0.0
  0
LINE
  5
119
  8
DATA
  6
CONTINUOUS
 62
     7
 10
35.390304590323481
 20
117.7748236104219
 30
0.0
 11
32.325176389578388
 21
114.7096954096768
 31
0.0
  0
LINE
  5
11A
  8
DATA
  6
CONTINUOUS
 62
     7
 10
36.013340753239078
 20
117.3978597733375
 30
0.0
 11
32.702140226662493
 21
114.0866592467609
 31
0.0
  0
LINE
  5
11B
  8
DATA
  6
CONTINUOUS
 62
     7
 10
36.4804763716797
 20
116.86499539177819
 30
0.0
 11
33.235004608222447
 21
113.61952362832091
 31
0.0
  0
LINE
  5
11C
  8
DATA
  6
CONTINUOUS
 62
     7
 10
36.780952087675892
 20
116.16547110777429
 30
0.0
 11
33.934528892225671
 21
113.31904791232409
 31
0.0
  0
LINE
  5
11D
  8
DATA
  6
CONTINUOUS
 62
     7
 10
36.81575445746337
 20
115.20027347756179
 30
0.0
 11
34.899726522439181
 21
113.2842455425376
 31
0.0
  0
LINE
  5
11E
  8
DATA
  6
CONTINUOUS
 62
     7
 10
47.5
 20
113.92133752872
 30
0.0
 11
48.171337528720031
 21
113.25
 31
0.0
  0
LINE
  5
11F
  8
DATA
  6
CONTINUOUS
 62
     7
 10
47.5
 20
114.92133752872
 30
0.0
 11
49.171337528720038
 21
113.25
 31
0.0
  0
LINE
  5
120
  8
DATA
  6
CONTINUOUS
 62
     7
 10
47.5
 20
115.92133752872
 30
0.0
 11
49.549999999999997
 21
113.87133752872001
 31
0.0
  0
LINE
  5
121
  8
DATA
  6
CONTINUOUS
 62
     7
 10
47.5
 20
116.92133752872
 30
0.0
 11
49.549999999999997
 21
114.87133752872001
 31
0.0
  0
LINE
  5
122
  8
DATA
  6
CONTINUOUS
 62
     7
 10
47.5
 20
117.92133752872
 30
0.0
 11
49.549999999999997
 21
115.87133752872001
 31
0.0
  0
LINE
  5
123
  8
DATA
  6
CONTINUOUS
 62
     7
 10
48.471337528720042
 20
117.95
 30
0.0
 11
49.549999999999997
 21
116.87133752872001
 31
0.0
  0
LINE
  5
124
  8
DATA
  6
CONTINUOUS
 62
     7
 10
49.471337528720028
 20
117.95
 30
0.0
 11
49.549999999999997
 21
117.87133752872001
 31
0.0
  0
LINE
  5
125
  8
DATA
  6
CONTINUOUS
 62
     7
 10
47.954937069199303
 20
117.95
 30
0.0
 11
47.5
 21
117.4950629308007
 31
0.0
  0
LINE
  5
126
  8
DATA
  6
CONTINUOUS
 62
     7
 10
48.954937069199289
 20
117.95
 30
0.0
 11
47.5
 21
116.4950629308008
 31
0.0
  0
LINE
  5
127
  8
DATA
  6
CONTINUOUS
 62
     7
 10
49.549999999999997
 20
117.5450629308007
 30
0.0
 11
47.5
 21
115.4950629308008
 31
0.0
  0
LINE
  5
128
  8
DATA
  6
CONTINUOUS
 62
     7
 10
49.549999999999997
 20
116.5450629308008
 30
0.0
 11
47.5
 21
114.4950629308008
 31
0.0
  0
LINE
  5
129
  8
DATA
  6
CONTINUOUS
 62
     7
 10
49.549999999999997
 20
115.5450629308008
 30
0.0
 11
47.499999999999993
 21
113.4950629308009
 31
0.0
  0
LINE
  5
12A
  8
DATA
  6
CONTINUOUS
 62
     7
 10
49.549999999999997
 20
114.5450629308008
 30
0.0
 11
48.254937069199137
 21
113.25
 31
0.0
  0
LINE
  5
12B
  8
DATA
  6
CONTINUOUS
 62
     7
 10
49.549999999999997
 20
113.5450629308009
 30
0.0
 11
49.254937069199137
 21
113.25
 31
0.0
  0
LINE
  5
12C
  8
DATA
  6
CONTINUOUS
 62
     7
 10
57.5
 20
69.025000000000006
 30
0.0
 11
57.5
 21
74.724999999999994
 31
0.0
  0
LINE
  5
12D
  8
DATA
  6
CONTINUOUS
 62
     7
 10
62.5
 20
69.025000000000006
 30
0.0
 11
57.5
 21
69.025000000000006
 31
0.0
  0
LINE
  5
12E
  8
DATA
  6
CONTINUOUS
 62
     7
 10
62.5
 20
74.724999999999994
 30
0.0
 11
62.5
 21
69.025000000000006
 31
0.0
  0
LINE
  5
12F
  8
DATA
  6
CONTINUOUS
 62
     7
 10
57.5
 20
74.724999999999994
 30
0.0
 11
62.5
 21
74.724999999999994
 31
0.0
  0
LINE
  5
130
  8
DATA
  6
CONTINUOUS
 62
     7
 10
56.0
 20
71.632242990654206
 30
0.0
 11
56.0
 21
72.117757009345794
 31
0.0
  0
LINE
  5
131
  8
DATA
  6
CONTINUOUS
 62
     7
 10
57.5
 20
71.474999999999994
 30
0.0
 11
56.580172413793093
 21
71.474999999999994
 31
0.0
  0
LINE
  5
132
  8
DATA
  6
CONTINUOUS
 62
     7
 10
56.580172413793093
 20
72.275000000000006
 30
0.0
 11
57.5
 21
72.275000000000006
 31
0.0
  0
LINE
  5
133
  8
DATA
  6
CONTINUOUS
 62
     7
 10
56.0
 20
72.117757009345794
 30
0.0
 11
56.580172413793093
 21
72.275000000000006
 31
0.0
  0
LINE
  5
134
  8
DATA
  6
CONTINUOUS
 62
     7
 10
56.0
 20
71.632242990654206
 30
0.0
 11
56.580172413793093
 21
71.474999999999994
 31
0.0
  0
LINE
  5
135
  8
DATA
  6
CONTINUOUS
 62
     7
 10
62.5
 20
74.615318210216117
 30
0.0
 11
70.5
 21
74.615318210216117
 31
0.0
  0
LINE
  5
136
  8
DATA
  6
CONTINUOUS
 62
     7
 10
62.5
 20
69.134681789783883
 30
0.0
 11
70.5
 21
69.134681789783883
 31
0.0
  0
LINE
  5
137
  8
DATA
  6
CONTINUOUS
 62
     7
 10
137.75
 20
71.125
 30
0.0
 11
83.499999999999986
 21
71.125
 31
0.0
  0
LINE
  5
138
  8
DATA
  6
CONTINUOUS
 62
     7
 10
83.499999999999986
 20
72.625
 30
0.0
 11
136.25
 21
72.625
 31
0.0
  0
LINE
  5
139
  8
DATA
  6
CONTINUOUS
 62
     7
 10
70.5
 20
74.615318210216117
 30
0.0
 11
83.499999999999986
 21
72.900000000000006
 31
0.0
  0
LINE
  5
13A
  8
DATA
  6
CONTINUOUS
 62
     7
 10
70.5
 20
69.134681789783883
 30
0.0
 11
83.499999999999986
 21
70.849999999999994
 31
0.0
  0
CIRCLE
  5
13B
  8
DATA
  6
CONTINUOUS
 62
     7
 10
47.600000000000001
 20
71.875
 30
0.0
 40
2.8999999999999981
  0
CIRCLE
  5
13C
  8
DATA
  6
CONTINUOUS
 62
     7
 10
47.600000000000001
 20
71.875
 30
0.0
 40
2.0
  0
CIRCLE
  5
13D
  8
DATA
  6
CONTINUOUS
 62
     7
 10
47.600000000000001
 20
71.875
 30
0.0
 40
0.3900000000000006
  0
LINE
  5
13E
  8
DATA
  6
CONTINUOUS
 62
     7
 10
47.350000000000001
 20
69.890686516701564
 30
0.0
 11
47.350000000000001
 21
70.803785735718975
 31
0.0
  0
LINE
  5
13F
  8
DATA
  6
CONTINUOUS
 62
     7
 10
47.350000000000001
 20
72.946214264281011
 30
0.0
 11
47.350000000000001
 21
73.859313483298436
 31
0.0
  0
LINE
  5
140
  8
DATA
  6
CONTINUOUS
 62
     7
 10
47.850000000000001
 20
73.859313483298436
 30
0.0
 11
47.850000000000001
 21
72.946214264281011
 31
0.0
  0
LINE
  5
141
  8
DATA
  6
CONTINUOUS
 62
     7
 10
47.850000000000001
 20
70.803785735718975
 30
0.0
 11
47.850000000000001
 21
69.890686516701564
 31
0.0
  0
CIRCLE
  5
142
  8
DATA
  6
CONTINUOUS
 62
     7
 10
47.600000000000001
 20
71.875
 30
0.0
 40
1.1000000000000001
  0
LINE
  5
143
  8
DATA
  6
CONTINUOUS
 62
     7
 10
83.499999999999986
 20
72.900000000000006
 30
0.0
 11
83.499999999999986
 21
70.849999999999994
 31
0.0
  0
LINE
  5
144
  8
DATA
  6
CONTINUOUS
 62
     7
 10
151.25
 20
87.625000000000014
 30
0.0
 11
151.25
 21
94.374973274897556
 31
0.0
  0
LINE
  5
145
  8
DATA
  6
CONTINUOUS
 62
     7
 10
151.25
 20
95.374973274897556
 30
0.0
 11
151.25
 21
99.849999999999994
 31
0.0
  0
LINE
  5
146
  8
DATA
  6
CONTINUOUS
 62
     7
 10
152.75
 20
86.125
 30
0.0
 11
152.75
 21
92.750584380957264
 31
0.0
  0
LINE
  5
147
  8
DATA
  6
CONTINUOUS
 62
     7
 10
152.75
 20
93.750584380957264
 30
0.0
 11
152.75
 21
101.34999999999999
 31
0.0
  0
ARC
  5
148
  8
DATA
  6
CONTINUOUS
 62
     7
 10
136.25
 20
99.849999999999994
 30
0.0
 40
15.0
 50
0.0
 51
90.0
  0
ARC
  5
149
  8
DATA
  6
CONTINUOUS
 62
     7
 10
137.75
 20
101.34999999999999
 30
0.0
 40
15.0
 50
0.0
 51
90.0
  0
ARC
  5
14A
  8
DATA
  6
CONTINUOUS
 62
     7
 10
136.25
 20
87.625000000000014
 30
0.0
 40
15.0
 50
270.0
 51
0.0
  0
ARC
  5
14B
  8
DATA
  6
CONTINUOUS
 62
     7
 10
137.75
 20
86.125
 30
0.0
 40
15.0
 50
270.0
 51
0.0
  0
ARC
  5
14C
  8
DATA
  6
CONTINUOUS
 62
     7
 10
150.0044291345778
 20
93.672528278744409
 30
0.0
 40
2.1094467866517741
 50
27.269827443099341
 51
152.73017255690061
  0
ARC
  5
14D
  8
DATA
  6
CONTINUOUS
 62
     7
 10
153.7544291345778
 20
95.605547415447916
 30
0.0
 40
2.1094467866517741
 50
207.26982744309939
 51
332.73017255690058
  0
ARC
  5
14E
  8
DATA
  6
CONTINUOUS
 62
     7
 10
150.0044291345778
 20
92.672528278744409
 30
0.0
 40
2.1094467866517741
 50
27.269827443099341
 51
152.73017255690061
  0
ARC
  5
14F
  8
DATA
  6
CONTINUOUS
 62
     7
 10
153.7544291345778
 20
94.605547415447916
 30
0.0
 40
2.1094467866517741
 50
207.26982744309939
 51
332.73017255690058
  0
VIEWPORT
  5
150
 67
     1
  8
0
 10
128.5
 20
97.5
 30
0.0
 40
314.226
 41
222.18000000000001
 68
     1
 69
     1
1001
ACAD
1000
MVIEW
1002
{
1070
    16
1010
0.0
1020
0.0
1030
0.0
1010
0.0
1020
0.0
1030
1.0
1040
0.0
1040
222.18000000000001
1040
128.5
1040
97.5
1040
50.0
1040
0.0
1040
0.0
1070
     0
1070
   100
1070
     1
1070
     3
1070
     0
1070
     0
1070
     0
1070
     0
1040
0.0
1040
0.0
1040
0.0
1040
10.0
1040
10.0
1040
10.0
1040
10.0
1070
     0
1002
{
1002
}
1002
}
  0
ENDSEC
  0
EOF
