  0
SECTION
  2
HEADER
  9
$ACADVER
  1
AC1015
  9
$ACADMAINTVER
 70
    20
  9
$DWGCODEPAGE
  3
ANSI_932
  9
$INSBASE
 10
0.0
 20
0.0
 30
0.0
  9
$EXTMIN
 10
-80.01098548994741
 20
-131.6767750546553
 30
-0.0015258207003583
  9
$EXTMAX
 10
280.0109871663281
 20
403.5499496326415
 30
0.0000000349246037
  9
$LIMMIN
 10
0.0
 20
0.0
  9
$LIMMAX
 10
12.0
 20
9.0
  9
$ORTHOMODE
 70
     0
  9
$REGENMODE
 70
     1
  9
$FILLMODE
 70
     1
  9
$QTEXTMODE
 70
     0
  9
$MIRRTEXT
 70
     1
  9
$LTSCALE
 40
10.16
  9
$ATTMODE
 70
     1
  9
$TEXTSIZE
 40
0.2
  9
$TRACEWID
 40
1.0
  9
$TEXTSTYLE
  7
STANDARD
  9
$CLAYER
  8
DATA
  9
$CELTYPE
  6
ByLayer
  9
$CECOLOR
 62
   256
  9
$CELTSCALE
 40
1.0
  9
$DISPSILH
 70
     0
  9
$DIMSCALE
 40
1.0
  9
$DIMASZ
 40
0.18
  9
$DIMEXO
 40
0.0625
  9
$DIMDLI
 40
0.38
  9
$DIMRND
 40
0.0
  9
$DIMDLE
 40
0.0
  9
$DIMEXE
 40
0.18
  9
$DIMTP
 40
0.0
  9
$DIMTM
 40
0.0
  9
$DIMTXT
 40
0.18
  9
$DIMCEN
 40
0.09
  9
$DIMTSZ
 40
0.0
  9
$DIMTOL
 70
     0
  9
$DIMLIM
 70
     0
  9
$DIMTIH
 70
     1
  9
$DIMTOH
 70
     1
  9
$DIMSE1
 70
     0
  9
$DIMSE2
 70
     0
  9
$DIMTAD
 70
     0
  9
$DIMZIN
 70
     0
  9
$DIMBLK
  1

  9
$DIMASO
 70
     1
  9
$DIMSHO
 70
     1
  9
$DIMPOST
  1

  9
$DIMAPOST
  1

  9
$DIMALT
 70
     0
  9
$DIMALTD
 70
     2
  9
$DIMALTF
 40
25.4
  9
$DIMLFAC
 40
1.0
  9
$DIMTOFL
 70
     0
  9
$DIMTVP
 40
0.0
  9
$DIMTIX
 70
     0
  9
$DIMSOXD
 70
     0
  9
$DIMSAH
 70
     0
  9
$DIMBLK1
  1

  9
$DIMBLK2
  1

  9
$DIMSTYLE
  2
STANDARD
  9
$DIMCLRD
 70
     0
  9
$DIMCLRE
 70
     0
  9
$DIMCLRT
 70
     0
  9
$DIMTFAC
 40
1.0
  9
$DIMGAP
 40
0.09
  9
$DIMJUST
 70
     0
  9
$DIMSD1
 70
     0
  9
$DIMSD2
 70
     0
  9
$DIMTOLJ
 70
     1
  9
$DIMTZIN
 70
     0
  9
$DIMALTZ
 70
     0
  9
$DIMALTTZ
 70
     0
  9
$DIMUPT
 70
     0
  9
$DIMDEC
 70
     4
  9
$DIMTDEC
 70
     4
  9
$DIMALTU
 70
     2
  9
$DIMALTTD
 70
     2
  9
$DIMTXSTY
  7
STANDARD
  9
$DIMAUNIT
 70
     0
  9
$DIMADEC
 70
     0
  9
$DIMALTRND
 40
0.0
  9
$DIMAZIN
 70
     0
  9
$DIMDSEP
 70
    46
  9
$DIMATFIT
 70
     3
  9
$DIMFRAC
 70
     0
  9
$DIMLDRBLK
  1

  9
$DIMLUNIT
 70
     2
  9
$DIMLWD
 70
    -2
  9
$DIMLWE
 70
    -2
  9
$DIMTMOVE
 70
     0
  9
$LUNITS
 70
     2
  9
$LUPREC
 70
     4
  9
$SKETCHINC
 40
0.1
  9
$FILLETRAD
 40
0.5
  9
$AUNITS
 70
     0
  9
$AUPREC
 70
     0
  9
$MENU
  1
.
  9
$ELEVATION
 40
0.0
  9
$PELEVATION
 40
0.0
  9
$THICKNESS
 40
0.0
  9
$LIMCHECK
 70
     0
  9
$CHAMFERA
 40
0.5
  9
$CHAMFERB
 40
0.5
  9
$CHAMFERC
 40
0.0
  9
$CHAMFERD
 40
0.0
  9
$SKPOLY
 70
     0
  9
$TDCREATE
 40
2455779.549212651
  9
$TDUCREATE
 40
2455779.174212651
  9
$TDUPDATE
 40
2455779.550844745
  9
$TDUUPDATE
 40
2455779.175844746
  9
$TDINDWG
 40
0.0002735764
  9
$TDUSRTIMER
 40
0.0002735764
  9
$USRTIMER
 70
     1
  9
$ANGBASE
 50
0.0
  9
$ANGDIR
 70
     0
  9
$PDMODE
 70
     1
  9
$PDSIZE
 40
-2.0
  9
$PLINEWID
 40
0.0
  9
$SPLFRAME
 70
     0
  9
$SPLINETYPE
 70
     6
  9
$SPLINESEGS
 70
     8
  9
$HANDSEED
  5
1F6
  9
$SURFTAB1
 70
     6
  9
$SURFTAB2
 70
     6
  9
$SURFTYPE
 70
     6
  9
$SURFU
 70
     6
  9
$SURFV
 70
     6
  9
$UCSBASE
  2

  9
$UCSNAME
  2

  9
$UCSORG
 10
0.0
 20
0.0
 30
0.0
  9
$UCSXDIR
 10
1.0
 20
0.0
 30
0.0
  9
$UCSYDIR
 10
0.0
 20
1.0
 30
0.0
  9
$UCSORTHOREF
  2

  9
$UCSORTHOVIEW
 70
     0
  9
$UCSORGTOP
 10
0.0
 20
0.0
 30
0.0
  9
$UCSORGBOTTOM
 10
0.0
 20
0.0
 30
0.0
  9
$UCSORGLEFT
 10
0.0
 20
0.0
 30
0.0
  9
$UCSORGRIGHT
 10
0.0
 20
0.0
 30
0.0
  9
$UCSORGFRONT
 10
0.0
 20
0.0
 30
0.0
  9
$UCSORGBACK
 10
0.0
 20
0.0
 30
0.0
  9
$PUCSBASE
  2

  9
$PUCSNAME
  2

  9
$PUCSORG
 10
0.0
 20
0.0
 30
0.0
  9
$PUCSXDIR
 10
1.0
 20
0.0
 30
0.0
  9
$PUCSYDIR
 10
0.0
 20
1.0
 30
0.0
  9
$PUCSORTHOREF
  2

  9
$PUCSORTHOVIEW
 70
     0
  9
$PUCSORGTOP
 10
0.0
 20
0.0
 30
0.0
  9
$PUCSORGBOTTOM
 10
0.0
 20
0.0
 30
0.0
  9
$PUCSORGLEFT
 10
0.0
 20
0.0
 30
0.0
  9
$PUCSORGRIGHT
 10
0.0
 20
0.0
 30
0.0
  9
$PUCSORGFRONT
 10
0.0
 20
0.0
 30
0.0
  9
$PUCSORGBACK
 10
0.0
 20
0.0
 30
0.0
  9
$USERI1
 70
     0
  9
$USERI2
 70
     0
  9
$USERI3
 70
     0
  9
$USERI4
 70
     0
  9
$USERI5
 70
     0
  9
$USERR1
 40
0.0
  9
$USERR2
 40
0.0
  9
$USERR3
 40
0.0
  9
$USERR4
 40
0.0
  9
$USERR5
 40
0.0
  9
$WORLDVIEW
 70
     1
  9
$SHADEDGE
 70
     3
  9
$SHADEDIF
 70
    70
  9
$TILEMODE
 70
     1
  9
$MAXACTVP
 70
    64
  9
$PINSBASE
 10
0.0
 20
0.0
 30
0.0
  9
$PLIMCHECK
 70
     0
  9
$PEXTMIN
 10
1.000000000000000E+20
 20
1.000000000000000E+20
 30
1.000000000000000E+20
  9
$PEXTMAX
 10
-1.000000000000000E+20
 20
-1.000000000000000E+20
 30
-1.000000000000000E+20
  9
$PLIMMIN
 10
-20.0
 20
-7.5
  9
$PLIMMAX
 10
277.0
 20
202.5
  9
$UNITMODE
 70
     0
  9
$VISRETAIN
 70
     1
  9
$PLINEGEN
 70
     0
  9
$PSLTSCALE
 70
     1
  9
$TREEDEPTH
 70
  3020
  9
$CMLSTYLE
  2
Standard
  9
$CMLJUST
 70
     0
  9
$CMLSCALE
 40
1.0
  9
$PROXYGRAPHICS
 70
     1
  9
$MEASUREMENT
 70
     0
  9
$CELWEIGHT
370
    -1
  9
$ENDCAPS
280
     0
  9
$JOINSTYLE
280
     0
  9
$LWDISPLAY
290
     0
  9
$INSUNITS
 70
     0
  9
$HYPERLINKBASE
  1

  9
$STYLESHEET
  1

  9
$XEDIT
290
     1
  9
$CEPSNTYPE
380
     0
  9
$PSTYLEMODE
290
     1
  9
$FINGERPRINTGUID
  2
{B226AA20-6B44-45EA-83BC-A8F4982D94D7}
  9
$VERSIONGUID
  2
{35C04B17-47ED-4196-B822-994D1A422BF4}
  9
$EXTNAMES
290
     1
  9
$PSVPSCALE
 40
0.0
  9
$OLESTARTUP
290
     0
  0
ENDSEC
  0
SECTION
  2
CLASSES
  0
CLASS
  1
ACDBDICTIONARYWDFLT
  2
AcDbDictionaryWithDefault
  3
ObjectDBX Classes
 90
        0
280
     0
281
     0
  0
CLASS
  1
MATERIAL
  2
AcDbMaterial
  3
ObjectDBX Classes
 90
     1153
280
     0
281
     0
  0
CLASS
  1
VISUALSTYLE
  2
AcDbVisualStyle
  3
ObjectDBX Classes
 90
     4095
280
     0
281
     0
  0
CLASS
  1
SCALE
  2
AcDbScale
  3
ObjectDBX Classes
 90
     1153
280
     0
281
     0
  0
CLASS
  1
TABLESTYLE
  2
AcDbTableStyle
  3
ObjectDBX Classes
 90
     4095
280
     0
281
     0
  0
CLASS
  1
MLEADERSTYLE
  2
AcDbMLeaderStyle
  3
ACDB_MLEADERSTYLE_CLASS
 90
     4095
280
     0
281
     0
  0
CLASS
  1
DICTIONARYVAR
  2
AcDbDictionaryVar
  3
ObjectDBX Classes
 90
        0
280
     0
281
     0
  0
CLASS
  1
CELLSTYLEMAP
  2
AcDbCellStyleMap
  3
ObjectDBX Classes
 90
     1152
280
     0
281
     0
  0
CLASS
  1
ACDBPLACEHOLDER
  2
AcDbPlaceHolder
  3
ObjectDBX Classes
 90
        0
280
     0
281
     0
  0
CLASS
  1
LAYOUT
  2
AcDbLayout
  3
ObjectDBX Classes
 90
        0
280
     0
281
     0
  0
ENDSEC
  0
SECTION
  2
TABLES
  0
TABLE
  2
VPORT
  5
122
330
0
100
AcDbSymbolTable
 70
     1
  0
VPORT
  5
18A
330
122
100
AcDbSymbolTableRecord
100
AcDbViewportTableRecord
  2
*ACTIVE
 70
     0
 10
0.0
 20
0.0
 11
1.0
 21
1.0
 12
100.0000008381904
 22
135.9365872889931
 13
0.0
 23
0.0
 14
0.5
 24
0.5
 15
0.5
 25
0.5
 16
0.0
 26
0.0
 36
1.0
 17
0.0
 27
0.0
 37
0.0
 40
539.1670441328475
 41
1.961916461916461
 42
2000.0
 43
0.0
 44
0.0
 50
0.0
 51
0.0
 71
     0
 72
   100
 73
     1
 74
     3
 75
     0
 76
     0
 77
     0
 78
     0
281
     0
 65
     1
110
0.0
120
0.0
130
0.0
111
1.0
121
0.0
131
0.0
112
0.0
122
1.0
132
0.0
 79
     0
146
0.0
1001
ACAD_NAV_VCDISPLAY
1070
     3
  0
ENDTAB
  0
TABLE
  2
LTYPE
  5
11F
330
0
100
AcDbSymbolTable
 70
    11
  0
LTYPE
  5
174
330
11F
100
AcDbSymbolTableRecord
100
AcDbLinetypeTableRecord
  2
ByBlock
 70
     0
  3

 72
    65
 73
     0
 40
0.0
  0
LTYPE
  5
175
330
11F
100
AcDbSymbolTableRecord
100
AcDbLinetypeTableRecord
  2
ByLayer
 70
     0
  3

 72
    65
 73
     0
 40
0.0
  0
LTYPE
  5
176
330
11F
100
AcDbSymbolTableRecord
100
AcDbLinetypeTableRecord
  2
CONTINUOUS
 70
     0
  3
Solid line
 72
    65
 73
     0
 40
0.0
  0
LTYPE
  5
18F
330
11F
100
AcDbSymbolTableRecord
100
AcDbLinetypeTableRecord
  2
破線の種類-5
 70
     0
  3

 72
    65
 73
     2
 40
0.208282470703125
 49
0.069427490234375
 74
     0
 49
-0.13885498046875
 74
     0
  0
ENDTAB
  0
TABLE
  2
LAYER
  5
11C
330
0
100
AcDbSymbolTable
 70
     5
  0
LAYER
  5
16E
102
{ACAD_XDICTIONARY
360
1A4
102
}
330
11C
100
AcDbSymbolTableRecord
100
AcDbLayerTableRecord
  2
0
 70
     0
 62
     7
  6
CONTINUOUS
370
    -3
390
129
  0
LAYER
  5
189
102
{ACAD_XDICTIONARY
360
1A6
102
}
330
11C
100
AcDbSymbolTableRecord
100
AcDbLayerTableRecord
  2
DATA
 70
     0
 62
     7
  6
CONTINUOUS
370
    -3
390
129
  0
LAYER
  5
195
102
{ACAD_XDICTIONARY
360
1A8
102
}
330
11C
100
AcDbSymbolTableRecord
100
AcDbLayerTableRecord
  2
HIBINO-BASE
 70
     0
 62
     7
  6
CONTINUOUS
370
    -3
390
129
  0
LAYER
  5
196
102
{ACAD_XDICTIONARY
360
1AA
102
}
330
11C
100
AcDbSymbolTableRecord
100
AcDbLayerTableRecord
  2
SPEC
 70
     0
 62
     7
  6
CONTINUOUS
370
    -3
390
129
  0
LAYER
  5
197
102
{ACAD_XDICTIONARY
360
1AC
102
}
330
11C
100
AcDbSymbolTableRecord
100
AcDbLayerTableRecord
  2
DIMNSIONS
 70
     0
 62
     7
  6
CONTINUOUS
370
    -3
390
129
  0
ENDTAB
  0
TABLE
  2
STYLE
  5
11D
330
0
100
AcDbSymbolTable
 70
     3
  0
STYLE
  5
16F
330
11D
100
AcDbSymbolTableRecord
100
AcDbTextStyleTableRecord
  2
STANDARD
 70
     0
 40
0.0
 41
1.0
 50
0.0
 71
     0
 42
0.2
  3
txt
  4
BIGFONT.SHX
  0
ENDTAB
  0
TABLE
  2
VIEW
  5
120
330
0
100
AcDbSymbolTable
 70
     0
  0
ENDTAB
  0
TABLE
  2
UCS
  5
121
330
0
100
AcDbSymbolTable
 70
     0
  0
ENDTAB
  0
TABLE
  2
APPID
  5
123
330
0
100
AcDbSymbolTable
 70
     4
  0
APPID
  5
170
330
123
100
AcDbSymbolTableRecord
100
AcDbRegAppTableRecord
  2
ACAD
 70
     0
  0
APPID
  5
177
330
123
100
AcDbSymbolTableRecord
100
AcDbRegAppTableRecord
  2
AcadAnnotative
 70
     0
  0
APPID
  5
1B6
330
123
100
AcDbSymbolTableRecord
100
AcDbRegAppTableRecord
  2
ACAD_NAV_VCDISPLAY
 70
     0
  0
APPID
  5
1F1
330
123
100
AcDbSymbolTableRecord
100
AcDbRegAppTableRecord
  2
ACAD_MLEADERVER
 70
     0
  0
ENDTAB
  0
TABLE
  2
DIMSTYLE
  5
124
330
0
100
AcDbSymbolTable
 70
     2
100
AcDbDimStyleTable
 71
     0
  0
DIMSTYLE
105
171
330
124
100
AcDbSymbolTableRecord
100
AcDbDimStyleTableRecord
  2
STANDARD
 70
     0
279
     2
340
16F
  0
ENDTAB
  0
TABLE
  2
BLOCK_RECORD
  5
11B
330
0
100
AcDbSymbolTable
 70
     2
  0
BLOCK_RECORD
  5
185
330
11B
100
AcDbSymbolTableRecord
100
AcDbBlockTableRecord
  2
*Model_Space
340
188
  0
BLOCK_RECORD
  5
181
330
11B
100
AcDbSymbolTableRecord
100
AcDbBlockTableRecord
  2
*Paper_Space
340
184
  0
ENDTAB
  0
ENDSEC
  0
SECTION
  2
BLOCKS
  0
BLOCK
  5
186
330
185
100
AcDbEntity
  8
0
100
AcDbBlockBegin
  2
*Model_Space
 70
     0
 10
0.0
 20
0.0
 30
0.0
  3
*Model_Space
  1

  0
ENDBLK
  5
187
330
185
100
AcDbEntity
  8
0
100
AcDbBlockEnd
  0
BLOCK
  5
182
330
181
100
AcDbEntity
 67
     1
  8
0
100
AcDbBlockBegin
  2
*Paper_Space
 70
     0
 10
0.0
 20
0.0
 30
0.0
  3
*Paper_Space
  1

  0
ENDBLK
  5
183
330
181
100
AcDbEntity
 67
     1
  8
0
100
AcDbBlockEnd
  0
ENDSEC
  0
SECTION
  2
ENTITIES
  0
LINE
  5
4F
330
185
100
AcDbEntity
  8
HIBINO-BASE
  6
Continuous
 62
     7
100
AcDbLine
 10
-79.99999999999999
 20
403.5336478948658
 30
0.0
 11
279.9999999999999
 21
403.5336478948658
 31
0.0
  0
LINE
  5
50
330
185
100
AcDbEntity
  8
HIBINO-BASE
  6
Continuous
 62
     7
100
AcDbLine
 10
279.9999999999999
 20
-116.4663521051341
 30
0.0
 11
-79.99999999999999
 21
-116.4663521051341
 31
0.0
  0
LINE
  5
51
330
185
100
AcDbEntity
  8
HIBINO-BASE
  6
Continuous
 62
     7
100
AcDbLine
 10
-79.99999999999999
 20
-116.4663521051341
 30
0.0
 11
-79.99999999999999
 21
403.5336478948658
 31
0.0
  0
LINE
  5
52
330
185
100
AcDbEntity
  8
HIBINO-BASE
  6
Continuous
 62
     7
100
AcDbLine
 10
279.9999999999999
 20
403.5336478948658
 30
0.0
 11
279.9999999999999
 21
-116.4663521051341
 31
0.0
  0
LINE
  5
53
330
185
100
AcDbEntity
  8
HIBINO-BASE
  6
Continuous
 62
     7
100
AcDbLine
 10
100.0
 20
-71.46635210513406
 30
0.0
 11
279.9999999999999
 21
-71.46635210513406
 31
0.0
  0
LINE
  5
54
330
185
100
AcDbEntity
  8
HIBINO-BASE
  6
Continuous
 62
     7
100
AcDbLine
 10
100.0
 20
-116.4663521051341
 30
0.0
 11
100.0
 21
-71.46635210513406
 31
0.0
  0
TEXT
  5
55
330
185
100
AcDbEntity
  8
HIBINO-BASE
 62
     7
100
AcDbText
 10
101.8
 20
-76.48373877180074
 30
0.0
 40
3.257682291666666
  1
NOTE
 41
0.7
 11
101.8
 21
-73.22605648013407
 31
0.0
100
AcDbText
 73
     3
  0
LINE
  5
56
330
185
100
AcDbEntity
  8
HIBINO-BASE
  6
Continuous
 62
     7
100
AcDbLine
 10
170.0
 20
-116.4663521051341
 30
0.0
 11
170.0
 21
-71.46635210513406
 31
0.0
  0
TEXT
  5
57
330
185
100
AcDbEntity
  8
HIBINO-BASE
 62
     7
100
AcDbText
 10
171.8
 20
-76.48373877180074
 30
0.0
 40
3.257682291666666
  1
TITLE
 41
0.7
 11
171.8
 21
-73.22605648013407
 31
0.0
100
AcDbText
 73
     3
  0
LINE
  5
58
330
185
100
AcDbEntity
  8
HIBINO-BASE
  6
Continuous
 62
     7
100
AcDbLine
 10
100.0
 20
-96.46635210513407
 30
0.0
 11
279.9999999999999
 21
-96.46635210513407
 31
0.0
  0
TEXT
  5
59
330
185
100
AcDbEntity
  8
HIBINO-BASE
 62
     7
100
AcDbText
 10
196.8
 20
-101.3710987718007
 30
0.0
 40
3.257682291666666
  1
DRAWN
 41
0.7
 11
196.8
 21
-98.1134164801341
 31
0.0
100
AcDbText
 73
     3
  0
TEXT
  5
5A
330
185
100
AcDbEntity
  8
HIBINO-BASE
 62
     7
100
AcDbText
 10
146.8
 20
-101.3710987718007
 30
0.0
 40
3.257682291666666
  1
DATE
 41
0.7
 11
146.8
 21
-98.1134164801341
 31
0.0
100
AcDbText
 73
     3
  0
TEXT
  5
5B
330
185
100
AcDbEntity
  8
HIBINO-BASE
 62
     7
100
AcDbText
 10
126.8
 20
-101.3710987718007
 30
0.0
 40
3.257682291666666
  1
SCALE
 41
0.7
 11
126.8
 21
-98.1134164801341
 31
0.0
100
AcDbText
 73
     3
  0
TEXT
  5
5C
330
185
100
AcDbEntity
  8
HIBINO-BASE
 62
     7
100
AcDbText
 10
171.8
 20
-101.3710987718007
 30
0.0
 40
3.257682291666666
  1
DESIGN
 41
0.7
 11
171.8
 21
-98.1134164801341
 31
0.0
100
AcDbText
 73
     3
  0
TEXT
  5
5D
330
185
100
AcDbEntity
  8
HIBINO-BASE
 62
     7
100
AcDbText
 10
246.8
 20
-101.3710987718007
 30
0.0
 40
3.257682291666666
  1
DRAWING NO.
 41
0.7
 11
246.8
 21
-98.1134164801341
 31
0.0
100
AcDbText
 73
     3
  0
TEXT
  5
5E
330
185
100
AcDbEntity
  8
HIBINO-BASE
 62
     7
100
AcDbText
 10
221.8
 20
-101.3710987718007
 30
0.0
 40
3.257682291666666
  1
CHECK
 41
0.7
 11
221.8
 21
-98.1134164801341
 31
0.0
100
AcDbText
 73
     3
  0
LINE
  5
5F
330
185
100
AcDbEntity
  8
HIBINO-BASE
  6
Continuous
 62
     7
100
AcDbLine
 10
128.75
 20
-113.9663521051341
 30
0.0
 11
136.25
 21
-106.4663521051341
 31
0.0
  0
TEXT
  5
60
330
185
100
AcDbEntity
  8
HIBINO-BASE
 62
     7
100
AcDbText
 10
127.5
 20
-108.6842387718007
 30
0.0
 40
3.257682291666666
  1
1
 41
0.7
 11
127.5
 21
-105.4265564801341
 31
0.0
100
AcDbText
 73
     3
  0
LINE
  5
61
330
185
100
AcDbEntity
  8
HIBINO-BASE
  6
Continuous
 62
     7
100
AcDbLine
 10
125.0
 20
-116.4663521051341
 30
0.0
 11
125.0
 21
-96.46635210513407
 31
0.0
  0
LINE
  5
62
330
185
100
AcDbEntity
  8
HIBINO-BASE
  6
Continuous
 62
     7
100
AcDbLine
 10
145.0
 20
-116.4663521051341
 30
0.0
 11
145.0
 21
-96.46635210513407
 31
0.0
  0
LINE
  5
63
330
185
100
AcDbEntity
  8
HIBINO-BASE
  6
Continuous
 62
     7
100
AcDbLine
 10
195.0
 20
-96.46635210513407
 30
0.0
 11
195.0
 21
-116.4663521051341
 31
0.0
  0
LINE
  5
64
330
185
100
AcDbEntity
  8
HIBINO-BASE
  6
Continuous
 62
     7
100
AcDbLine
 10
245.0
 20
-96.46635210513407
 30
0.0
 11
245.0
 21
-116.4663521051341
 31
0.0
  0
LINE
  5
65
330
185
100
AcDbEntity
  8
HIBINO-BASE
  6
Continuous
 62
     7
100
AcDbLine
 10
220.0
 20
-116.4663521051341
 30
0.0
 11
220.0
 21
-96.46635210513407
 31
0.0
  0
TEXT
  5
66
330
185
100
AcDbEntity
  8
HIBINO-BASE
 62
     7
100
AcDbText
 10
146.71308
 20
-110.7390587718007
 30
0.0
 40
3.257682291666666
  1
'11.08.
 41
0.7
 11
146.71308
 21
-107.4813764801341
 31
0.0
100
AcDbText
 73
     3
  0
TEXT
  5
67
330
185
100
AcDbEntity
  8
HIBINO-BASE
 62
     7
100
AcDbText
 10
135.0
 20
-112.4342387718007
 30
0.0
 40
3.257682291666666
  1
2
 41
0.7
 11
135.0
 21
-109.1765564801341
 31
0.0
100
AcDbText
 73
     3
  0
TEXT
  5
68
330
185
100
AcDbEntity
  8
HIBINO-BASE
 62
     7
100
AcDbText
 10
198.0116200220692
 20
-110.7390587718007
 30
0.0
 40
3.257682291666666
  1
T.Ootake
 41
0.7
 11
198.0116200220692
 21
-107.4813764801341
 31
0.0
100
AcDbText
 73
     3
  0
TEXT
  5
69
330
185
100
AcDbEntity
  8
HIBINO-BASE
 62
     7
100
AcDbText
 10
107.7666666666667
 20
-112.514352105134
 30
0.0
 40
6.515364583333332
  1
A4
 41
0.7
 11
107.7666666666667
 21
-105.9989875218007
 31
0.0
100
AcDbText
 73
     3
  0
TEXT
  5
6A
330
185
100
AcDbEntity
  8
HIBINO-BASE
 62
     7
100
AcDbText
 10
101.9166666666667
 20
-101.7052621051341
 30
0.0
 40
3.257682291666666
  1
PAPER SIZE
 41
0.7
 11
101.9166666666667
 21
-98.44757981346742
 31
0.0
100
AcDbText
 73
     3
  0
TEXT
  5
6B
330
185
100
AcDbEntity
  8
HIBINO-BASE
 62
     7
100
AcDbText
 10
-74.48072948621963
 20
-129.3168325734865
 30
0.0
 40
7.058311631944443
  1
Hibino-Intersound Corporation
 41
0.7
 11
-74.48072948621963
 21
-122.2585209415421
 31
0.0
100
AcDbText
 73
     3
  0
TEXT
  5
6C
330
185
100
AcDbEntity
  8
HIBINO-BASE
 62
     7
100
AcDbText
 10
140.3612193604278
 20
-128.6146560669077
 30
0.0
 40
7.058311631944443
  1
ヒビノインターサウンド株式会社
 41
0.7
 11
140.3612193604278
 21
-121.5563444349633
 31
0.0
100
AcDbText
 73
     3
  0
LINE
  5
6D
330
185
100
AcDbEntity
  8
SPEC
  6
Continuous
 62
     7
100
AcDbLine
 10
-64.99999999999999
 20
383.5336478948658
 30
0.0
 11
230.0
 21
383.5336478948658
 31
0.0
  0
LINE
  5
6E
330
185
100
AcDbEntity
  8
SPEC
  6
Continuous
 62
     7
100
AcDbLine
 10
-64.99999999999999
 20
361.0336478948659
 30
0.0
 11
230.0
 21
361.0336478948659
 31
0.0
  0
LINE
  5
6F
330
185
100
AcDbEntity
  8
SPEC
  6
Continuous
 62
     7
100
AcDbLine
 10
-64.99999999999999
 20
368.5336478948658
 30
0.0
 11
230.0
 21
368.5336478948658
 31
0.0
  0
LINE
  5
70
330
185
100
AcDbEntity
  8
SPEC
  6
Continuous
 62
     7
100
AcDbLine
 10
-64.99999999999999
 20
383.5336478948658
 30
0.0
 11
-64.99999999999999
 21
256.0336478948659
 31
0.0
  0
TEXT
  5
71
330
185
100
AcDbEntity
  8
SPEC
 62
     7
100
AcDbText
 10
-62.5
 20
386.3201878948659
 30
0.0
 40
4.8865234375
  1
仕様
 41
0.7
 11
-62.5
 21
391.2067113323659
 31
0.0
100
AcDbText
 73
     3
  0
LINE
  5
72
330
185
100
AcDbEntity
  8
SPEC
  6
Continuous
 62
     7
100
AcDbLine
 10
30.0
 20
383.5336478948658
 30
0.0
 11
29.99999999999997
 21
256.0336478948659
 31
0.0
  0
LINE
  5
73
330
185
100
AcDbEntity
  8
SPEC
  6
Continuous
 62
     7
100
AcDbLine
 10
230.0
 20
383.5336478948658
 30
0.0
 11
230.0
 21
256.0336478948659
 31
0.0
  0
LINE
  5
74
330
185
100
AcDbEntity
  8
SPEC
  6
Continuous
 62
     7
100
AcDbLine
 10
-64.99999999999999
 20
353.5336478948658
 30
0.0
 11
230.0
 21
353.5336478948658
 31
0.0
  0
LINE
  5
75
330
185
100
AcDbEntity
  8
SPEC
  6
Continuous
 62
     7
100
AcDbLine
 10
-64.99999999999999
 20
346.0336478948658
 30
0.0
 11
230.0
 21
346.0336478948658
 31
0.0
  0
LINE
  5
76
330
185
100
AcDbEntity
  8
SPEC
  6
Continuous
 62
     7
100
AcDbLine
 10
-64.99999999999999
 20
338.5336478948659
 30
0.0
 11
230.0
 21
338.5336478948659
 31
0.0
  0
LINE
  5
77
330
185
100
AcDbEntity
  8
SPEC
  6
Continuous
 62
     7
100
AcDbLine
 10
-64.99999999999999
 20
331.0336478948658
 30
0.0
 11
230.0
 21
331.0336478948658
 31
0.0
  0
LINE
  5
78
330
185
100
AcDbEntity
  8
SPEC
  6
Continuous
 62
     7
100
AcDbLine
 10
-64.99999999999999
 20
323.5336478948659
 30
0.0
 11
230.0
 21
323.5336478948659
 31
0.0
  0
LINE
  5
79
330
185
100
AcDbEntity
  8
SPEC
  6
Continuous
 62
     7
100
AcDbLine
 10
-64.99999999999999
 20
316.0336478948658
 30
0.0
 11
230.0
 21
316.0336478948658
 31
0.0
  0
LINE
  5
7A
330
185
100
AcDbEntity
  8
SPEC
  6
Continuous
 62
     7
100
AcDbLine
 10
-64.99999999999999
 20
308.5336478948658
 30
0.0
 11
230.0
 21
308.5336478948658
 31
0.0
  0
LINE
  5
7B
330
185
100
AcDbEntity
  8
SPEC
  6
Continuous
 62
     7
100
AcDbLine
 10
-64.99999999999999
 20
301.0336478948659
 30
0.0
 11
230.0
 21
301.0336478948659
 31
0.0
  0
LINE
  5
7C
330
185
100
AcDbEntity
  8
SPEC
  6
Continuous
 62
     7
100
AcDbLine
 10
-64.99999999999999
 20
293.5336478948658
 30
0.0
 11
230.0
 21
293.5336478948658
 31
0.0
  0
LINE
  5
7D
330
185
100
AcDbEntity
  8
SPEC
  6
Continuous
 62
     7
100
AcDbLine
 10
-64.99999999999999
 20
286.0336478948659
 30
0.0
 11
230.0
 21
286.0336478948659
 31
0.0
  0
LINE
  5
7E
330
185
100
AcDbEntity
  8
SPEC
  6
Continuous
 62
     7
100
AcDbLine
 10
-64.99999999999999
 20
278.5336478948659
 30
0.0
 11
230.0
 21
278.5336478948659
 31
0.0
  0
LINE
  5
7F
330
185
100
AcDbEntity
  8
SPEC
  6
Continuous
 62
     7
100
AcDbLine
 10
-64.99999999999999
 20
271.0336478948659
 30
0.0
 11
230.0
 21
271.0336478948659
 31
0.0
  0
LINE
  5
80
330
185
100
AcDbEntity
  8
SPEC
  6
Continuous
 62
     7
100
AcDbLine
 10
-64.99999999999999
 20
263.5336478948659
 30
0.0
 11
230.0
 21
263.5336478948659
 31
0.0
  0
LINE
  5
81
330
185
100
AcDbEntity
  8
SPEC
  6
Continuous
 62
     7
100
AcDbLine
 10
-64.99999999999999
 20
256.0336478948659
 30
0.0
 11
230.0
 21
256.0336478948659
 31
0.0
  0
LINE
  5
82
330
185
100
AcDbEntity
  8
SPEC
  6
Continuous
 62
     7
100
AcDbLine
 10
-64.99999999999999
 20
256.0336478948659
 30
0.0
 11
230.0
 21
256.0336478948659
 31
0.0
  0
TEXT
  5
83
330
185
100
AcDbEntity
  8
SPEC
 62
     7
100
AcDbText
 10
-63.24246884355499
 20
362.8170264895654
 30
0.0
 40
3.800629340277778
  1
指向特性
 41
0.7
 11
-63.24246884355499
 21
366.6176558298432
 31
0.0
100
AcDbText
 73
     3
  0
TEXT
  5
84
330
185
100
AcDbEntity
  8
SPEC
 62
     7
100
AcDbText
 10
117.7275259882738
 20
362.9377961331126
 30
0.0
 40
3.800629340277778
  1
無指向性型
 41
0.7
 11
117.7275259882738
 21
366.7384254733903
 31
0.0
100
AcDbText
 73
     3
  0
TEXT
  5
85
330
185
100
AcDbEntity
  8
SPEC
 62
     7
100
AcDbText
 10
-63.38434777275636
 20
273.0892803481859
 30
0.0
 40
3.800629340277778
  1
寸法
 41
0.7
 11
-63.38434777275636
 21
276.8899096884636
 31
0.0
100
AcDbText
 73
     3
  0
TEXT
  5
86
330
185
100
AcDbEntity
  8
SPEC
 62
     7
100
AcDbText
 10
88.23341277525676
 20
272.8754891493524
 30
0.0
 40
3.800629340277778
  1
\U+03A619(先端\U+03A66.7)\U+00D7122mm(突起部含まず）
 41
0.7
 11
88.23341277525676
 21
276.6761184896302
 31
0.0
100
AcDbText
 73
     3
  0
TEXT
  5
87
330
185
100
AcDbEntity
  8
SPEC
 62
     7
100
AcDbText
 10
124.0967723853093
 20
265.4659796486624
 30
0.0
 40
3.800629340277778
  1
約38g
 41
0.7
 11
124.0967723853093
 21
269.2666089889402
 31
0.0
100
AcDbText
 73
     3
  0
TEXT
  5
88
330
185
100
AcDbEntity
  8
SPEC
 62
     7
100
AcDbText
 10
-63.35479783771261
 20
265.5112543915858
 30
0.0
 40
3.800629340277778
  1
重量
 41
0.7
 11
-63.35479783771261
 21
269.3118837318636
 31
0.0
100
AcDbText
 73
     3
  0
TEXT
  5
89
330
185
100
AcDbEntity
  8
SPEC
 62
     7
100
AcDbText
 10
-63.56574782694237
 20
355.3703224328649
 30
0.0
 40
3.800629340277778
  1
カートリッジ
 41
0.7
 11
-63.56574782694237
 21
359.1709517731426
 31
0.0
100
AcDbText
 73
     3
  0
TEXT
  5
8A
330
185
100
AcDbEntity
  8
SPEC
 62
     7
100
AcDbText
 10
95.46586851911269
 20
355.4497212804998
 30
0.0
 40
3.800629340277778
  1
プリポラライズド・コンデンサー
 41
0.7
 11
95.46586851911269
 21
359.2503506207776
 31
0.0
100
AcDbText
 73
     3
  0
TEXT
  5
8B
330
185
100
AcDbEntity
  8
SPEC
 62
     7
100
AcDbText
 10
-63.22619361834721
 20
332.8012147554048
 30
0.0
 40
3.800629340277778
  1
等価雑音レベル(Aウェイト)
 41
0.7
 11
-63.22619361834721
 21
336.6018440956826
 31
0.0
100
AcDbText
 73
     3
  0
TEXT
  5
8C
330
185
100
AcDbEntity
  8
SPEC
 62
     7
100
AcDbText
 10
69.60598339730889
 20
332.5538594307225
 30
0.0
 40
3.800629340277778
  1
23dB SPL
 41
0.7
 11
69.60598339730889
 21
336.3544887710003
 31
0.0
100
AcDbText
 73
     3
  0
TEXT
  5
8D
330
185
100
AcDbEntity
  8
SPEC
 62
     7
100
AcDbText
 10
-63.27033954221035
 20
340.3777273412889
 30
0.0
 40
3.800629340277778
  1
感度(\U+00B13dB）
 41
0.7
 11
-63.27033954221035
 21
344.1783566815666
 31
0.0
100
AcDbText
 73
     3
  0
TEXT
  5
8E
330
185
100
AcDbEntity
  8
SPEC
 62
     7
100
AcDbText
 10
62.112485713072
 20
340.3512093810162
 30
0.0
 40
3.800629340277778
  1
-34dB re 1V/Pa
 41
0.7
 11
62.112485713072
 21
344.1518387212941
 31
0.0
100
AcDbText
 73
     3
  0
TEXT
  5
8F
330
185
100
AcDbEntity
  8
SPEC
 62
     7
100
AcDbText
 10
-63.24588252700072
 20
348.0054896246524
 30
0.0
 40
3.800629340277778
  1
周波数レンジ(\U+00B12dB)
 41
0.7
 11
-63.24588252700072
 21
351.8061189649302
 31
0.0
100
AcDbText
 73
     3
  0
TEXT
  5
90
330
185
100
AcDbEntity
  8
SPEC
 62
     7
100
AcDbText
 10
117.9611358475887
 20
347.928073632665
 30
0.0
 40
3.800629340277778
  1
20Hz～20kHz
 41
0.7
 11
117.9611358475887
 21
351.7287029729428
 31
0.0
100
AcDbText
 73
     3
  0
TEXT
  5
91
330
185
100
AcDbEntity
  8
SPEC
 62
     7
100
AcDbText
 10
-63.29762273075544
 20
325.4858584899285
 30
0.0
 40
3.800629340277778
  1
全高調波歪み(THD)
 41
0.7
 11
-63.29762273075544
 21
329.2864878302063
 31
0.0
100
AcDbText
 73
     3
  0
TEXT
  5
92
330
185
100
AcDbEntity
  8
SPEC
 62
     7
100
AcDbText
 10
109.160414300076
 20
325.3778874466565
 30
0.0
 40
3.800629340277778
  1
1%%%以下(123dB SPL)
 41
0.7
 11
109.160414300076
 21
329.1785167869343
 31
0.0
100
AcDbText
 73
     3
  0
TEXT
  5
93
330
185
100
AcDbEntity
  8
SPEC
 62
     7
100
AcDbText
 10
-63.71706613535522
 20
280.500198633592
 30
0.0
 40
3.800629340277778
  1
コネクター
 41
0.7
 11
-63.71706613535522
 21
284.3008279738699
 31
0.0
100
AcDbText
 73
     3
  0
TEXT
  5
94
330
185
100
AcDbEntity
  8
SPEC
 62
     7
100
AcDbText
 10
110.3177240653484
 20
280.4955199681932
 30
0.0
 40
3.800629340277778
  1
XLR3ピン、オス型
 41
0.7
 11
110.3177240653484
 21
284.296149308471
 31
0.0
100
AcDbText
 73
     3
  0
TEXT
  5
95
330
185
100
AcDbEntity
  8
SPEC
 62
     7
100
AcDbText
 10
-63.43330512829943
 20
295.5013966181032
 30
0.0
 40
3.800629340277778
  1
ケーブル引き伸ばし可能距離
 41
0.7
 11
-63.43330512829943
 21
299.302025958381
 31
0.0
100
AcDbText
 73
     3
  0
TEXT
  5
96
330
185
100
AcDbEntity
  8
SPEC
 62
     7
100
AcDbText
 10
120.1462399537404
 20
295.3176270541912
 30
0.0
 40
3.800629340277778
  1
最大300m
 41
0.7
 11
120.1462399537404
 21
299.118256394469
 31
0.0
100
AcDbText
 73
     3
  0
TEXT
  5
97
330
185
100
AcDbEntity
  8
SPEC
 62
     7
100
AcDbText
 10
-63.52930531947327
 20
302.9416826433499
 30
0.0
 40
3.800629340277778
  1
出力インピーダンス
 41
0.7
 11
-63.52930531947327
 21
306.7423119836277
 31
0.0
100
AcDbText
 73
     3
  0
TEXT
  5
98
330
185
100
AcDbEntity
  8
SPEC
 62
     7
100
AcDbText
 10
120.0984725324609
 20
302.7046367172293
 30
0.0
 40
3.800629340277778
  1
40\U+03A9以下
 41
0.7
 11
120.0984725324609
 21
306.5052660575071
 31
0.0
100
AcDbText
 73
     3
  0
TEXT
  5
99
330
185
100
AcDbEntity
  8
SPEC
 62
     7
100
AcDbText
 10
-63.57747478595597
 20
317.868840535544
 30
0.0
 40
3.800629340277778
  1
ダイナミックレンジ(代表値)
 41
0.7
 11
-63.57747478595597
 21
321.6694698758218
 31
0.0
100
AcDbText
 73
     3
  0
TEXT
  5
9A
330
185
100
AcDbEntity
  8
SPEC
 62
     7
100
AcDbText
 10
74.37443450567247
 20
317.9407771746625
 30
0.0
 40
3.800629340277778
  1
100dB
 41
0.7
 11
74.37443450567247
 21
321.7414065149403
 31
0.0
100
AcDbText
 73
     3
  0
TEXT
  5
9B
330
185
100
AcDbEntity
  8
SPEC
 62
     7
100
AcDbText
 10
-63.20750270582307
 20
310.4692735429479
 30
0.0
 40
3.800629340277778
  1
最大音圧レベル
 41
0.7
 11
-63.20750270582307
 21
314.2699028832256
 31
0.0
100
AcDbText
 73
     3
  0
TEXT
  5
9C
330
185
100
AcDbEntity
  8
SPEC
 62
     7
100
AcDbText
 10
70.12038110280375
 20
310.4123019563054
 30
0.0
 40
3.800629340277778
  1
134dB SPL
 41
0.7
 11
70.12038110280375
 21
314.2129312965832
 31
0.0
100
AcDbText
 73
     3
  0
TEXT
  5
9D
330
185
100
AcDbEntity
  8
SPEC
 62
     7
100
AcDbText
 10
-63.33436783273612
 20
287.9749608465198
 30
0.0
 40
3.800629340277778
  1
電源
 41
0.7
 11
-63.33436783273612
 21
291.7755901867976
 31
0.0
100
AcDbText
 73
     3
  0
TEXT
  5
9E
330
185
100
AcDbEntity
  8
SPEC
 62
     7
100
AcDbText
 10
105.6183138938015
 20
287.8034721963067
 30
0.0
 40
3.800629340277778
  1
ファンタムDC48V/1.0mA
 41
0.7
 11
105.6183138938015
 21
291.6041015365845
 31
0.0
100
AcDbText
 73
     3
  0
TEXT
  5
9F
330
185
100
AcDbEntity
  8
SPEC
 62
     7
100
AcDbText
 10
-63.28553083631708
 20
258.0582167477011
 30
0.0
 40
3.800629340277778
  1
付属品
 41
0.7
 11
-63.28553083631708
 21
261.8588460879789
 31
0.0
100
AcDbText
 73
     3
  0
TEXT
  5
A0
330
185
100
AcDbEntity
  8
SPEC
 62
     7
100
AcDbText
 10
40.44613092468014
 20
257.8207328360299
 30
0.0
 40
3.800629340277778
  1
マイクロホン・ホルダー（UA0639）\U+00D71、
 41
0.7
 11
40.44613092468014
 21
261.6213621763077
 31
0.0
100
AcDbText
 73
     3
  0
TEXT
  5
A1
330
185
100
AcDbEntity
  8
SPEC
 62
     7
100
AcDbText
 10
-63.24246884355499
 20
377.8170264895654
 30
0.0
 40
3.800629340277778
  1
型番
 41
0.7
 11
-63.24246884355499
 21
381.6176558298431
 31
0.0
100
AcDbText
 73
     3
  0
TEXT
  5
A2
330
185
100
AcDbEntity
  8
SPEC
 62
     7
100
AcDbText
 10
75.30874404708083
 20
377.70512467882
 30
0.0
 40
3.800629340277778
  1
4090
 41
0.7
 11
75.30874404708083
 21
381.5057540190978
 31
0.0
100
AcDbText
 73
     3
  0
TEXT
  5
A3
330
185
100
AcDbEntity
  8
SPEC
 62
     7
100
AcDbText
 10
174.8956600065771
 20
377.70512467882
 30
0.0
 40
3.800629340277778
  1
4091
 41
0.7
 11
174.8956600065771
 21
381.5057540190978
 31
0.0
100
AcDbText
 73
     3
  0
TEXT
  5
A4
330
185
100
AcDbEntity
  8
SPEC
 62
     7
100
AcDbText
 10
65.47627728481074
 20
370.332474907593
 30
0.0
 40
3.800629340277778
  1
高感度モデル
 41
0.7
 11
65.47627728481074
 21
374.1331042478707
 31
0.0
100
AcDbText
 73
     3
  0
TEXT
  5
A5
330
185
100
AcDbEntity
  8
SPEC
 62
     7
100
AcDbText
 10
164.7518921987814
 20
370.332474907593
 30
0.0
 40
3.800629340277778
  1
低感度モデル
 41
0.7
 11
164.7518921987814
 21
374.1331042478707
 31
0.0
100
AcDbText
 73
     3
  0
TEXT
  5
A6
330
185
100
AcDbEntity
  8
SPEC
 62
     7
100
AcDbText
 10
159.8721893194056
 20
340.5090038149798
 30
0.0
 40
3.800629340277778
  1
-44.5dB re 1V/Pa
 41
0.7
 11
159.8721893194056
 21
344.3096331552577
 31
0.0
100
AcDbText
 73
     3
  0
TEXT
  5
A7
330
185
100
AcDbEntity
  8
SPEC
 62
     7
100
AcDbText
 10
169.7637778312725
 20
332.5538594307225
 30
0.0
 40
3.800629340277778
  1
26dB SPL
 41
0.7
 11
169.7637778312725
 21
336.3544887710003
 31
0.0
100
AcDbText
 73
     3
  0
TEXT
  5
A8
330
185
100
AcDbEntity
  8
SPEC
 62
     7
100
AcDbText
 10
175.1109294660523
 20
317.9407771746625
 30
0.0
 40
3.800629340277778
  1
97dB
 41
0.7
 11
175.1109294660523
 21
321.7414065149403
 31
0.0
100
AcDbText
 73
     3
  0
TEXT
  5
A9
330
185
100
AcDbEntity
  8
SPEC
 62
     7
100
AcDbText
 10
170.1203811028038
 20
310.4123019563054
 30
0.0
 40
3.800629340277778
  1
144dB SPL
 41
0.7
 11
170.1203811028038
 21
314.2129312965832
 31
0.0
100
AcDbText
 73
     3
  0
TEXT
  5
AA
330
185
100
AcDbEntity
  8
SPEC
 62
     7
100
AcDbText
 10
134.213731922486
 20
257.7678523015706
 30
0.0
 40
3.800629340277778
  1
ウインドスクリーン（DUA0573）\U+00D71
 41
0.7
 11
134.213731922486
 21
261.5684816418484
 31
0.0
100
AcDbText
 73
     3
  0
LINE
  5
AB
330
185
100
AcDbEntity
  8
SPEC
  6
Continuous
 62
     7
100
AcDbLine
 10
130.0
 20
368.5336478948658
 30
0.0
 11
130.0
 21
383.5336478948658
 31
0.0
  0
LINE
  5
AC
330
185
100
AcDbEntity
  8
SPEC
  6
Continuous
 62
     7
100
AcDbLine
 10
130.0
 20
331.0336478948658
 30
0.0
 11
130.0
 21
346.0336478948658
 31
0.0
  0
LINE
  5
AD
330
185
100
AcDbEntity
  8
SPEC
  6
Continuous
 62
     7
100
AcDbLine
 10
130.0
 20
308.5336478948658
 30
0.0
 11
130.0
 21
323.5336478948659
 31
0.0
  0
TEXT
  5
AE
330
185
100
AcDbEntity
  8
DIMNSIONS
 62
     7
100
AcDbText
 10
60.0
 20
-91.92737210513406
 30
0.0
 40
4.8865234375
  1
(単位：mm)
 41
0.7
 11
60.0
 21
-87.04084866763407
 31
0.0
100
AcDbText
 73
     3
  0
LINE
  5
AF
330
185
100
AcDbEntity
  8
DIMNSIONS
  6
Continuous
 62
     7
100
AcDbLine
 10
58.25377874915893
 20
-27.83339995024321
 30
0.0
 11
65.625
 21
-23.375
 31
0.0
  0
LWPOLYLINE
  5
B0
330
185
100
AcDbEntity
  8
DIMNSIONS
  6
Continuous
 62
     7
100
AcDbPolyline
 90
        3
 70
   128
 43
0.0
 10
63.23087453882277
 20
-26.40624069807751
 10
58.25377874915893
 20
-27.83339995024321
 10
61.85049051399353
 20
-24.1088958877898
  0
LINE
  5
B5
330
185
100
AcDbEntity
  8
DIMNSIONS
  6
Continuous
 62
     7
100
AcDbLine
 10
65.625
 20
-23.375
 30
0.0
 11
83.7361111111111
 21
-23.375
 31
0.0
  0
TEXT
  5
B6
330
185
100
AcDbEntity
  8
DIMNSIONS
 62
     7
100
AcDbText
 10
69.625
 20
-21.38722222222224
 30
0.0
 40
5.429470486111112
  1
\U+03C619
 41
0.7
 11
69.625
 21
-15.95775173611113
 31
0.0
100
AcDbText
 73
     3
  0
LINE
  5
B7
330
185
100
AcDbEntity
  8
DIMNSIONS
  6
Continuous
 62
     7
100
AcDbLine
 10
36.625
 20
-9.375
 30
0.0
 11
21.0
 21
-9.375
 31
0.0
  0
LINE
  5
B8
330
185
100
AcDbEntity
  8
DIMNSIONS
  6
Continuous
 62
     7
100
AcDbLine
 10
43.775
 20
112.625
 30
0.0
 11
21.0
 21
112.625
 31
0.0
  0
LINE
  5
B9
330
185
100
AcDbEntity
  8
DIMNSIONS
  6
Continuous
 62
     7
100
AcDbLine
 10
25.0
 20
-9.375
 30
0.0
 11
25.0
 21
112.625
 31
0.0
  0
LWPOLYLINE
  5
BA
330
185
100
AcDbEntity
  8
DIMNSIONS
  6
Continuous
 62
     7
100
AcDbPolyline
 90
        3
 70
   128
 43
0.0
 10
26.34007959030049
 20
-4.373754882812506
 10
25.0
 20
-9.375
 10
23.65992040969951
 20
-4.373754882812506
  0
LWPOLYLINE
  5
BF
330
185
100
AcDbEntity
  8
DIMNSIONS
  6
Continuous
 62
     7
100
AcDbPolyline
 90
        3
 70
   128
 43
0.0
 10
23.65992040969951
 20
107.6237548828125
 10
25.0
 20
112.625
 10
26.34007959030049
 20
107.6237548828125
  0
TEXT
  5
C4
330
185
100
AcDbEntity
  8
DIMNSIONS
 62
     7
100
AcDbText
 10
23.01222222222222
 20
46.33333333333334
 30
0.0
 40
5.429470486111112
  1
122
 50
90.0
 41
0.7
 11
17.58275173611111
 21
46.33333333333334
 31
0.0
100
AcDbText
 73
     3
  0
LINE
  5
C5
330
185
100
AcDbEntity
  8
DIMNSIONS
  6
Continuous
 62
     7
100
AcDbLine
 10
52.61104385321624
 20
172.6204589641953
 30
0.0
 11
65.625
 21
184.375
 31
0.0
  0
LWPOLYLINE
  5
C6
330
185
100
AcDbEntity
  8
DIMNSIONS
  6
Continuous
 62
     7
100
AcDbPolyline
 90
        3
 70
   128
 43
0.0
 10
57.22438155182511
 20
174.9710719287486
 10
52.61104385321624
 20
172.6204589641953
 10
55.43100501417132
 20
176.9628183552679
  0
LINE
  5
CB
330
185
100
AcDbEntity
  8
DIMNSIONS
  6
Continuous
 62
     7
100
AcDbLine
 10
65.625
 20
184.375
 30
0.0
 11
87.26388888888889
 21
184.375
 31
0.0
  0
TEXT
  5
CC
330
185
100
AcDbEntity
  8
DIMNSIONS
 62
     7
100
AcDbText
 10
69.625
 20
186.3627777777778
 30
0.0
 40
5.429470486111112
  1
\U+03C66.7
 41
0.7
 11
69.625
 21
191.7922482638889
 31
0.0
100
AcDbText
 73
     3
  0
TEXT
  5
CD
330
185
100
AcDbEntity
  8
DATA
 62
     7
100
AcDbText
 10
202.8954216546122
 20
-93.67880370923431
 30
0.0
 40
4.8865234375
  1
4090 & 4091
 41
0.7
 11
202.8954216546122
 21
-88.7922802717343
 31
0.0
100
AcDbText
 73
     3
  0
TEXT
  5
CE
330
185
100
AcDbEntity
  8
DATA
 62
     7
100
AcDbText
 10
203.1003369643245
 20
-78.47508024686007
 30
0.0
 40
4.8865234375
  1
DPA
 41
0.7
 11
203.1003369643245
 21
-73.58855680936007
 31
0.0
100
AcDbText
 73
     3
  0
TEXT
  5
CF
330
185
100
AcDbEntity
  8
DATA
 62
     7
100
AcDbText
 10
-60.0
 20
-107.9903521051341
 30
0.0
 40
3.257682291666666
  1
仕様および外観は予告なく変更されることがありますので、ご了承ください。
 41
0.7
 11
-60.0
 21
-104.7326698134674
 31
0.0
100
AcDbText
 73
     3
  0
CIRCLE
  5
D0
330
185
100
AcDbEntity
  8
DATA
  6
Continuous
 62
     7
100
AcDbCircle
 10
50.12500000022045
 20
-32.75000000015623
 30
0.0
 40
9.5
  0
ARC
  5
D1
330
185
100
AcDbEntity
  8
DATA
  6
Continuous
 62
     7
100
AcDbCircle
 10
50.12500000022038
 20
-32.75000000015626
 30
0.0
 40
8.000000000000074
100
AcDbArc
 50
52.79368802197978
 51
38.89742555091972
  0
CIRCLE
  5
D2
330
185
100
AcDbEntity
  8
DATA
  6
Continuous
 62
     7
100
AcDbCircle
 10
50.12500000022045
 20
-36.75000000015623
 30
0.0
 40
1.150000000000005
  0
CIRCLE
  5
D3
330
185
100
AcDbEntity
  8
DATA
  6
Continuous
 62
     7
100
AcDbCircle
 10
46.12500000022045
 20
-32.75000000015623
 30
0.0
 40
1.150000000000005
  0
CIRCLE
  5
D4
330
185
100
AcDbEntity
  8
DATA
  6
Continuous
 62
     7
100
AcDbCircle
 10
54.12500000022046
 20
-32.75000000015623
 30
0.0
 40
1.150000000000005
  0
ARC
  5
D5
330
185
100
AcDbEntity
  8
DATA
  6
Continuous
 62
     7
100
AcDbCircle
 10
55.22408610401183
 20
-27.49814622335805
 30
0.0
 40
1.150000000000004
100
AcDbArc
 50
348.5429111605176
 51
103.1482024123824
  0
TEXT
  5
D6
330
185
100
AcDbEntity
  8
DATA
 62
     7
100
AcDbText
 10
85.5454372904284
 20
136.4168733406609
 30
0.0
 40
5.429470486111112
  1
ウインドスクリーン
 41
0.7
 11
85.5454372904284
 21
141.846343826772
 31
0.0
100
AcDbText
 73
     3
  0
TEXT
  5
D7
330
185
100
AcDbEntity
  8
DATA
 62
     7
100
AcDbText
 10
197.4426644457152
 20
-85.81949520611676
 30
0.0
 40
3.257682291666666
  1
無指向性マイクロホン
 41
0.7
 11
197.4426644457152
 21
-82.56181291445008
 31
0.0
100
AcDbText
 73
     3
  0
LINE
  5
D8
330
185
100
AcDbEntity
  8
DATA
  6
Continuous
 62
     7
100
AcDbLine
 10
40.625
 20
-9.375
 30
0.0
 11
59.625
 21
-9.375
 31
0.0
  0
LINE
  5
D9
330
185
100
AcDbEntity
  8
DATA
  6
Continuous
 62
     7
100
AcDbLine
 10
40.625
 20
-9.375
 30
0.0
 11
40.625
 21
40.625
 31
0.0
  0
LINE
  5
DA
330
185
100
AcDbEntity
  8
DATA
  6
Continuous
 62
     7
100
AcDbLine
 10
59.625
 20
-9.375
 30
0.0
 11
59.625
 21
40.625
 31
0.0
  0
LINE
  5
DB
330
185
100
AcDbEntity
  8
DATA
  6
Continuous
 62
     7
100
AcDbLine
 10
46.825
 20
110.625
 30
0.0
 11
53.425
 21
110.625
 31
0.0
  0
LINE
  5
DC
330
185
100
AcDbEntity
  8
DATA
  6
Continuous
 62
     7
100
AcDbLine
 10
40.625
 20
40.625
 30
0.0
 11
46.825
 21
110.625
 31
0.0
  0
LINE
  5
DD
330
185
100
AcDbEntity
  8
DATA
  6
Continuous
 62
     7
100
AcDbLine
 10
53.425
 20
110.625
 30
0.0
 11
59.625
 21
40.625
 31
0.0
  0
LINE
  5
DE
330
185
100
AcDbEntity
  8
DATA
  6
Continuous
 62
     7
100
AcDbLine
 10
47.77499999999999
 20
112.625
 30
0.0
 11
47.77499999999999
 21
110.625
 31
0.0
  0
LINE
  5
DF
330
185
100
AcDbEntity
  8
DATA
  6
Continuous
 62
     7
100
AcDbLine
 10
52.475
 20
112.625
 30
0.0
 11
52.475
 21
110.625
 31
0.0
  0
LINE
  5
E0
330
185
100
AcDbEntity
  8
DATA
  6
Continuous
 62
     7
100
AcDbLine
 10
47.77499999999999
 20
112.625
 30
0.0
 11
52.475
 21
112.625
 31
0.0
  0
CIRCLE
  5
E1
330
185
100
AcDbEntity
  8
DATA
  6
Continuous
 62
     7
100
AcDbCircle
 10
50.125
 20
170.375
 30
0.0
 40
9.5
  0
CIRCLE
  5
E2
330
185
100
AcDbEntity
  8
DATA
  6
Continuous
 62
     7
100
AcDbCircle
 10
50.125
 20
170.375
 30
0.0
 40
2.35
  0
LINE
  5
E3
330
185
100
AcDbEntity
  8
DATA
  6
Continuous
 62
     7
100
AcDbLine
 10
47.80610888124595
 20
169.993891118754
 30
0.0
 11
49.74389111875428
 21
168.0561088812457
 31
0.0
  0
LINE
  5
E4
330
185
100
AcDbEntity
  8
DATA
  6
Continuous
 62
     7
100
AcDbLine
 10
47.84715196887053
 20
170.9528480311295
 30
0.0
 11
50.70284803112897
 21
168.097151968871
 31
0.0
  0
LINE
  5
E5
330
185
100
AcDbEntity
  8
DATA
  6
Continuous
 62
     7
100
AcDbLine
 10
48.15057702552556
 20
171.6494229744744
 30
0.0
 11
51.39942297447429
 21
168.4005770255257
 31
0.0
  0
LINE
  5
E6
330
185
100
AcDbEntity
  8
DATA
  6
Continuous
 62
     7
100
AcDbLine
 10
48.62008308365637
 20
172.1799169163436
 30
0.0
 11
51.92991691634349
 21
168.8700830836565
 31
0.0
  0
LINE
  5
E7
330
185
100
AcDbEntity
  8
DATA
  6
Continuous
 62
     7
100
AcDbLine
 10
49.24570277578243
 20
172.5542972242176
 30
0.0
 11
52.3042972242176
 21
169.4957027757824
 31
0.0
  0
LINE
  5
E8
330
185
100
AcDbEntity
  8
DATA
  6
Continuous
 62
     7
100
AcDbLine
 10
50.07552094641042
 20
172.7244790535896
 30
0.0
 11
52.47447905358939
 21
170.3255209464106
 31
0.0
  0
LINE
  5
E9
330
185
100
AcDbEntity
  8
DATA
  6
Continuous
 62
     7
100
AcDbLine
 10
51.5781498031496
 20
172.2218501968504
 30
0.0
 11
51.971850196848
 21
171.828149803152
 31
0.0
  0
LINE
  5
EA
330
185
100
AcDbEntity
  8
DATA
  6
Continuous
 62
     7
100
AcDbLine
 10
49.07974050251134
 20
172.4797405025113
 30
0.0
 11
48.02025949748999
 21
171.4202594974899
 31
0.0
  0
LINE
  5
EB
330
185
100
AcDbEntity
  8
DATA
  6
Continuous
 62
     7
100
AcDbLine
 10
50.31713258974754
 20
172.7171325897475
 30
0.0
 11
47.78286741025263
 21
170.1828674102526
 31
0.0
  0
LINE
  5
EC
330
185
100
AcDbEntity
  8
DATA
  6
Continuous
 62
     7
100
AcDbLine
 10
51.10904618276701
 20
172.509046182767
 30
0.0
 11
47.99095381723314
 21
169.3909538172331
 31
0.0
  0
LINE
  5
ED
330
185
100
AcDbEntity
  8
DATA
  6
Continuous
 62
     7
100
AcDbLine
 10
51.71000753010321
 20
172.1100075301032
 30
0.0
 11
48.38999246989665
 21
168.7899924698966
 31
0.0
  0
LINE
  5
EE
330
185
100
AcDbEntity
  8
DATA
  6
Continuous
 62
     7
100
AcDbLine
 10
52.15643238264175
 20
171.5564323826418
 30
0.0
 11
48.94356761735855
 21
168.3435676173585
 31
0.0
  0
LINE
  5
EF
330
185
100
AcDbEntity
  8
DATA
  6
Continuous
 62
     7
100
AcDbLine
 10
52.43044376922789
 20
170.8304437692279
 30
0.0
 11
49.6695562307721
 21
168.0695562307721
 31
0.0
  0
LINE
  5
F0
330
185
100
AcDbEntity
  8
DATA
  6
Continuous
 62
     7
100
AcDbLine
 10
52.40476604986421
 20
169.8047660498642
 30
0.0
 11
50.69523395013606
 21
168.095233950136
 31
0.0
  0
CIRCLE
  5
F1
330
185
100
AcDbEntity
  8
DATA
  6
Continuous
 62
     7
100
AcDbCircle
 10
50.125
 20
170.375
 30
0.0
 40
3.35
  0
CIRCLE
  5
F2
330
185
100
AcDbEntity
  8
DATA
  6
破線の種類-5
 62
     7
100
AcDbCircle
 10
50.125
 20
170.375
 30
0.0
 40
10.5
  0
LINE
  5
F3
330
185
100
AcDbEntity
  8
DATA
  6
破線の種類-5
 62
     7
100
AcDbLine
 10
56.62500000000001
 20
92.71921678336966
 30
0.0
 11
43.62500000000003
 21
92.71921678336966
 31
0.0
  0
ARC
  5
F4
330
185
100
AcDbEntity
  8
DATA
  6
破線の種類-5
 62
     7
100
AcDbCircle
 10
125.6747066093917
 20
119.5616134555544
 30
0.0
 40
86.32883998869766
100
AcDbArc
 50
185.0562347164158
 51
198.1154045686397
  0
ARC
  5
F5
330
185
100
AcDbEntity
  8
DATA
  6
破線の種類-5
 62
     7
100
AcDbCircle
 10
71.47016467306233
 20
108.752202163529
 30
0.0
 40
32.07979233312822
100
AcDbArc
 50
152.2278369875335
 51
171.7777569078809
  0
ARC
  5
F6
330
185
100
AcDbEntity
  8
DATA
  6
破線の種類-5
 62
     7
100
AcDbCircle
 10
-25.42470660939166
 20
119.5616134555544
 30
0.0
 40
86.32883998869766
100
AcDbArc
 50
341.8845954313603
 51
354.9437652835834
  0
ARC
  5
F7
330
185
100
AcDbEntity
  8
DATA
  6
破線の種類-5
 62
     7
100
AcDbCircle
 10
28.77983532693766
 20
108.752202163529
 30
0.0
 40
32.07979233312822
100
AcDbArc
 50
8.22224309211881
 51
27.7721630124664
  0
ARC
  5
F8
330
185
100
AcDbEntity
  8
DATA
  6
破線の種類-5
 62
     7
100
AcDbCircle
 10
45.65845211670149
 20
112.4819559150499
 30
0.0
 40
6.000000000000068
100
AcDbArc
 50
171.7777569078798
 51
185.0562347164154
  0
ARC
  5
F9
330
185
100
AcDbEntity
  8
DATA
  6
破線の種類-5
 62
     7
100
AcDbCircle
 10
54.59154788329855
 20
112.4819559150499
 30
0.0
 40
6.000000000000052
100
AcDbArc
 50
354.9437652835846
 51
8.222243092120208
  0
LINE
  5
FA
330
185
100
AcDbEntity
  8
DATA
  6
Continuous
 62
     7
100
AcDbLine
 10
48.51210136953437
 20
112.625
 30
0.0
 11
47.77499999999999
 21
111.8878986304656
 31
0.0
  0
LINE
  5
FB
330
185
100
AcDbEntity
  8
DATA
  6
Continuous
 62
     7
100
AcDbLine
 10
49.51210136953438
 20
112.625
 30
0.0
 11
47.77499999999999
 21
110.8878986304656
 31
0.0
  0
LINE
  5
FC
330
185
100
AcDbEntity
  8
DATA
  6
Continuous
 62
     7
100
AcDbLine
 10
50.51210136953438
 20
112.625
 30
0.0
 11
48.51210136953437
 21
110.625
 31
0.0
  0
LINE
  5
FD
330
185
100
AcDbEntity
  8
DATA
  6
Continuous
 62
     7
100
AcDbLine
 10
51.51210136953437
 20
112.625
 30
0.0
 11
49.51210136953438
 21
110.625
 31
0.0
  0
LINE
  5
FE
330
185
100
AcDbEntity
  8
DATA
  6
Continuous
 62
     7
100
AcDbLine
 10
52.475
 20
112.5878986304656
 30
0.0
 11
50.51210136953438
 21
110.625
 31
0.0
  0
LINE
  5
FF
330
185
100
AcDbEntity
  8
DATA
  6
Continuous
 62
     7
100
AcDbLine
 10
52.475
 20
111.5878986304656
 30
0.0
 11
51.51210136953437
 21
110.625
 31
0.0
  0
LINE
  5
100
330
185
100
AcDbEntity
  8
DATA
  6
Continuous
 62
     7
100
AcDbLine
 10
51.24491701273689
 20
112.625
 30
0.0
 11
52.475
 21
111.3949170127369
 31
0.0
  0
LINE
  5
101
330
185
100
AcDbEntity
  8
DATA
  6
Continuous
 62
     7
100
AcDbLine
 10
50.24491701273689
 20
112.625
 30
0.0
 11
52.24491701273689
 21
110.625
 31
0.0
  0
LINE
  5
102
330
185
100
AcDbEntity
  8
DATA
  6
Continuous
 62
     7
100
AcDbLine
 10
49.24491701273689
 20
112.625
 30
0.0
 11
51.24491701273689
 21
110.625
 31
0.0
  0
LINE
  5
103
330
185
100
AcDbEntity
  8
DATA
  6
Continuous
 62
     7
100
AcDbLine
 10
48.24491701273689
 20
112.625
 30
0.0
 11
50.24491701273689
 21
110.625
 31
0.0
  0
LINE
  5
104
330
185
100
AcDbEntity
  8
DATA
  6
Continuous
 62
     7
100
AcDbLine
 10
47.77499999999999
 20
112.0949170127369
 30
0.0
 11
49.24491701273689
 21
110.625
 31
0.0
  0
LINE
  5
105
330
185
100
AcDbEntity
  8
DATA
  6
Continuous
 62
     7
100
AcDbLine
 10
47.77499999999999
 20
111.0949170127369
 30
0.0
 11
48.24491701273689
 21
110.625
 31
0.0
  0
ARC
  5
106
330
185
100
AcDbEntity
  8
DATA
  6
破線の種類-5
 62
     7
100
AcDbCircle
 10
50.07545678631919
 20
121.303208843125
 30
0.0
 40
7.389246131947279
100
AcDbArc
 50
89.61584195938
 51
161.0730694359612
  0
ARC
  5
107
330
185
100
AcDbEntity
  8
DATA
  6
破線の種類-5
 62
     7
100
AcDbCircle
 10
50.17454321368081
 20
121.303208843125
 30
0.0
 40
7.389246131947276
100
AcDbArc
 50
18.92693056403883
 51
90.38415804061996
  0
LINE
  5
108
330
185
100
AcDbEntity
  8
DATA
  6
Continuous
 62
     7
100
AcDbLine
 10
81.25
 20
134.375
 30
0.0
 11
58.36254560050058
 21
121.1609220413837
 31
0.0
  0
LWPOLYLINE
  5
109
330
185
100
AcDbEntity
  8
DATA
  6
Continuous
 62
     7
100
AcDbPolyline
 90
        3
 70
   128
 43
0.0
 10
64.74127333938255
 20
122.7513174891996
 10
58.36254560050058
 20
121.1609220413837
 10
63.09148814228892
 20
125.7276087706964
  0
LINE
  5
10E
330
185
100
AcDbEntity
  8
DATA
  6
Continuous
 62
     7
100
AcDbLine
 10
81.25
 20
134.375
 30
0.0
 11
56.99231591974861
 21
162.4320803819775
 31
0.0
  0
LWPOLYLINE
  5
10F
330
185
100
AcDbEntity
  8
DATA
  6
Continuous
 62
     7
100
AcDbPolyline
 90
        3
 70
   128
 43
0.0
 10
59.87416948070475
 20
156.5234049550802
 10
56.99231591974861
 20
162.4320803819775
 10
62.44241202697192
 20
158.7559441400456
  0
LINE
  5
114
330
185
100
AcDbEntity
  8
DATA
  6
Continuous
 62
     7
100
AcDbLine
 10
81.25
 20
134.375
 30
0.0
 11
153.0
 21
134.375
 31
0.0
  0
VIEWPORT
  5
115
102
{ACAD_XDICTIONARY
360
1BB
102
}
330
181
100
AcDbEntity
 67
     1
  8
0
100
AcDbViewport
 10
128.5
 20
97.5
 30
0.0
 40
314.226
 41
222.18
 68
     1
 69
     1
 12
128.5
 22
97.5
 13
0.0
 23
0.0
 14
10.0
 24
10.0
 15
10.0
 25
10.0
 16
0.0
 26
0.0
 36
1.0
 17
0.0
 27
0.0
 37
0.0
 42
50.0
 43
0.0
 44
0.0
 45
222.18
 50
0.0
 51
0.0
 72
   100
 90
   557152
  1

281
     0
 71
     0
 74
     0
110
0.0
120
0.0
130
0.0
111
1.0
121
0.0
131
0.0
112
0.0
122
1.0
132
0.0
 79
     0
146
0.0
  0
ENDSEC
  0
SECTION
  2
OBJECTS
  0
DICTIONARY
  5
126
330
0
100
AcDbDictionary
281
     1
  3
ACAD_CIP_PREVIOUS_PRODUCT_INFO
350
1A3
  3
ACAD_COLOR
350
17C
  3
ACAD_GROUP
350
127
  3
ACAD_LAYOUT
350
17B
  3
ACAD_MATERIAL
350
12A
  3
ACAD_MLEADERSTYLE
350
17F
  3
ACAD_MLINESTYLE
350
178
  3
ACAD_PLOTSETTINGS
350
17A
  3
ACAD_PLOTSTYLENAME
350
128
  3
ACAD_SCALELIST
350
15C
  3
ACAD_TABLESTYLE
350
17D
  3
ACAD_VISUALSTYLE
350
143
  3
ACDB_RECOMPOSE_DATA
350
1B9
  3
AcDbVariableDictionary
350
1AE
  3
DWGPROPS
350
1BA
  0
DICTIONARY
  5
1A4
330
16E
100
AcDbDictionary
280
     1
281
     1
  3
ADSK_XREC_LAYER_RECONCILED
360
1A5
  0
DICTIONARY
  5
1A6
330
189
100
AcDbDictionary
280
     1
281
     1
  3
ADSK_XREC_LAYER_RECONCILED
360
1A7
  0
DICTIONARY
  5
1A8
330
195
100
AcDbDictionary
280
     1
281
     1
  3
ADSK_XREC_LAYER_RECONCILED
360
1A9
  0
DICTIONARY
  5
1AA
330
196
100
AcDbDictionary
280
     1
281
     1
  3
ADSK_XREC_LAYER_RECONCILED
360
1AB
  0
DICTIONARY
  5
1AC
330
197
100
AcDbDictionary
280
     1
281
     1
  3
ADSK_XREC_LAYER_RECONCILED
360
1AD
  0
DICTIONARY
  5
1BB
330
115
100
AcDbDictionary
280
     1
281
     1
  3
ACAD_XREC_ROUNDTRIP
360
1BC
  0
XRECORD
  5
1A3
102
{ACAD_REACTORS
330
126
102
}
330
126
100
AcDbXrecord
280
     1
300
ACDLT
300
2012
300
ACDLT_F_S
  0
DICTIONARY
  5
17C
102
{ACAD_REACTORS
330
126
102
}
330
126
100
AcDbDictionary
281
     1
  0
DICTIONARY
  5
127
102
{ACAD_REACTORS
330
126
102
}
330
126
100
AcDbDictionary
281
     1
  0
DICTIONARY
  5
17B
102
{ACAD_REACTORS
330
126
102
}
330
126
100
AcDbDictionary
281
     1
  3
Model
350
188
  3
レイアウト1
350
184
  0
DICTIONARY
  5
12A
102
{ACAD_REACTORS
330
126
102
}
330
126
100
AcDbDictionary
281
     1
  3
ByBlock
350
133
  3
ByLayer
350
12B
  3
Global
350
13B
  0
DICTIONARY
  5
17F
102
{ACAD_REACTORS
330
126
102
}
330
126
100
AcDbDictionary
281
     1
  3
Standard
350
180
  0
DICTIONARY
  5
178
102
{ACAD_REACTORS
330
126
102
}
330
126
100
AcDbDictionary
281
     1
  3
Standard
350
179
  0
DICTIONARY
  5
17A
102
{ACAD_REACTORS
330
126
102
}
330
126
100
AcDbDictionary
281
     1
  0
ACDBDICTIONARYWDFLT
  5
128
102
{ACAD_REACTORS
330
126
102
}
330
126
100
AcDbDictionary
281
     1
  3
Normal
350
129
100
AcDbDictionaryWithDefault
340
129
  0
DICTIONARY
  5
15C
102
{ACAD_REACTORS
330
126
102
}
330
126
100
AcDbDictionary
281
     1
  3
A0
350
15D
  3
A1
350
15E
  3
A2
350
15F
  3
A3
350
160
  3
A4
350
161
  3
A5
350
162
  3
A6
350
163
  3
A7
350
164
  3
A8
350
165
  3
A9
350
166
  3
B0
350
167
  3
B1
350
168
  3
B2
350
169
  3
B3
350
16A
  3
B4
350
16B
  3
B5
350
16C
  3
B6
350
16D
  0
DICTIONARY
  5
17D
102
{ACAD_REACTORS
330
126
102
}
330
126
100
AcDbDictionary
281
     1
  3
Standard
350
17E
  0
DICTIONARY
  5
143
102
{ACAD_REACTORS
330
126
102
}
330
126
100
AcDbDictionary
281
     1
  3
2dWireframe
350
149
  3
Basic
350
148
  3
Brighten
350
14F
  3
ColorChange
350
153
  3
Conceptual
350
14C
  3
Dim
350
14E
  3
EdgeColorOff
350
15B
  3
Facepattern
350
152
  3
Flat
350
144
  3
FlatWithEdges
350
145
  3
Gouraud
350
146
  3
GouraudWithEdges
350
147
  3
Hidden
350
14B
  3
JitterOff
350
159
  3
Linepattern
350
151
  3
OverhangOff
350
15A
  3
Realistic
350
14D
  3
Shaded
350
158
  3
Shaded with edges
350
157
  3
Shades of Gray
350
154
  3
Sketchy
350
155
  3
Thicken
350
150
  3
Wireframe
350
14A
  3
X-Ray
350
156
  0
XRECORD
  5
1B9
102
{ACAD_REACTORS
330
126
102
}
330
126
100
AcDbXrecord
280
     1
 90
        1
330
17E
  0
DICTIONARY
  5
1AE
102
{ACAD_REACTORS
330
126
102
}
330
126
100
AcDbDictionary
281
     1
  3
CANNOSCALE
350
1B1
  3
CMLEADERSTYLE
350
1B0
  3
CTABLESTYLE
350
1AF
  3
DIMASSOC
350
1B4
  3
INDEXCTL
350
1B3
  3
SORTENTS
350
1B2
  3
XCLIPFRAME
350
1B5
  0
XRECORD
  5
1BA
102
{ACAD_REACTORS
330
126
102
}
330
126
100
AcDbXrecord
280
     1
  1
DWGPROPS COOKIE
  2

  3

  4

  6

  7

  8
sasaki_n
  9

300
=
301
=
302
=
303
=
304
=
305
=
306
=
307
=
308
=
309
=
 40
0.0002733912037037
 41
2455779.549212651
 42
2455779.550844745
  1

 90
        0
  0
XRECORD
  5
1A5
102
{ACAD_REACTORS
330
1A4
102
}
330
1A4
100
AcDbXrecord
280
     1
290
     1
  0
XRECORD
  5
1A7
102
{ACAD_REACTORS
330
1A6
102
}
330
1A6
100
AcDbXrecord
280
     1
290
     1
  0
XRECORD
  5
1A9
102
{ACAD_REACTORS
330
1A8
102
}
330
1A8
100
AcDbXrecord
280
     1
290
     1
  0
XRECORD
  5
1AB
102
{ACAD_REACTORS
330
1AA
102
}
330
1AA
100
AcDbXrecord
280
     1
290
     1
  0
XRECORD
  5
1AD
102
{ACAD_REACTORS
330
1AC
102
}
330
1AC
100
AcDbXrecord
280
     1
290
     1
  0
XRECORD
  5
1BC
102
{ACAD_REACTORS
330
1BB
102
}
330
1BB
100
AcDbXrecord
280
     1
102
SHADEPLOT
 70
     0
  0
LAYOUT
  5
188
102
{ACAD_XDICTIONARY
360
1F4
102
}
102
{ACAD_REACTORS
330
17B
102
}
330
17B
100
AcDbPlotSettings
  1

  2
Microsoft XPS Document Writer
  4

  6

 40
0.0
 41
0.0
 42
0.0
 43
0.0
 44
0.0
 45
0.0
 46
0.0
 47
0.0
 48
0.0
 49
0.0
140
0.0
141
0.0
142
1.0
143
1.0
 70
  1712
 72
     0
 73
     0
 74
     0
  7

 75
     0
147
1.0
148
0.0
149
0.0
100
AcDbLayout
  1
Model
 70
     1
 71
     0
 10
0.0
 20
0.0
 11
12.0
 21
9.0
 12
0.0
 22
0.0
 32
0.0
 14
0.0
 24
0.0
 34
0.0
 15
0.0
 25
0.0
 35
0.0
146
0.0
 13
0.0
 23
0.0
 33
0.0
 16
1.0
 26
0.0
 36
0.0
 17
0.0
 27
1.0
 37
0.0
 76
     0
330
185
331
18A
  0
LAYOUT
  5
184
102
{ACAD_XDICTIONARY
360
1F2
102
}
102
{ACAD_REACTORS
330
17B
102
}
330
17B
100
AcDbPlotSettings
  1

  2
Microsoft XPS Document Writer
  4

  6

 40
0.0
 41
0.0
 42
0.0
 43
0.0
 44
0.0
 45
0.0
 46
0.0
 47
0.0
 48
0.0
 49
0.0
140
0.0
141
0.0
142
1.0
143
1.0
 70
   688
 72
     0
 73
     0
 74
     5
  7

 75
    16
147
1.0
148
0.0
149
0.0
100
AcDbLayout
  1
レイアウト1
 70
     1
 71
     1
 10
-20.0
 20
-7.5
 11
277.0
 21
202.5
 12
0.0
 22
0.0
 32
0.0
 14
1.000000000000000E+20
 24
1.000000000000000E+20
 34
1.000000000000000E+20
 15
-1.000000000000000E+20
 25
-1.000000000000000E+20
 35
-1.000000000000000E+20
146
0.0
 13
0.0
 23
0.0
 33
0.0
 16
1.0
 26
0.0
 36
0.0
 17
0.0
 27
1.0
 37
0.0
 76
     0
330
181
331
115
  0
MATERIAL
  5
133
102
{ACAD_XDICTIONARY
360
134
102
}
102
{ACAD_REACTORS
330
12A
102
}
330
12A
100
AcDbMaterial
  1
ByBlock
 72
     0
 43
0.0208333333333333
 43
0.0
 43
0.0
 43
0.0
 43
0.0
 43
0.0208333333333333
 43
0.0
 43
0.0
 43
0.0
 43
0.0
 43
1.0
 43
0.0
 43
0.0
 43
0.0
 43
0.0
 43
1.0
 77
     0
 47
0.0208333333333333
 47
0.0
 47
0.0
 47
0.0
 47
0.0
 47
0.0208333333333333
 47
0.0
 47
0.0
 47
0.0
 47
0.0
 47
1.0
 47
0.0
 47
0.0
 47
0.0
 47
0.0
 47
1.0
171
     0
 49
0.0208333333333333
 49
0.0
 49
0.0
 49
0.0
 49
0.0
 49
0.0208333333333333
 49
0.0
 49
0.0
 49
0.0
 49
0.0
 49
1.0
 49
0.0
 49
0.0
 49
0.0
 49
0.0
 49
1.0
175
     0
142
0.0208333333333333
142
0.0
142
0.0
142
0.0
142
0.0
142
0.0208333333333333
142
0.0
142
0.0
142
0.0
142
0.0
142
1.0
142
0.0
142
0.0
142
0.0
142
0.0
142
1.0
179
     0
144
0.0208333333333333
144
0.0
144
0.0
144
0.0
144
0.0
144
0.0208333333333333
144
0.0
144
0.0
144
0.0
144
0.0
144
1.0
144
0.0
144
0.0
144
0.0
144
0.0
144
1.0
147
0.0208333333333333
147
0.0
147
0.0
147
0.0
147
0.0
147
0.0208333333333333
147
0.0
147
0.0
147
0.0
147
0.0
147
1.0
147
0.0
147
0.0
147
0.0
147
0.0
147
1.0
  0
MATERIAL
  5
12B
102
{ACAD_XDICTIONARY
360
12C
102
}
102
{ACAD_REACTORS
330
12A
102
}
330
12A
100
AcDbMaterial
  1
ByLayer
 72
     0
 43
0.0208333333333333
 43
0.0
 43
0.0
 43
0.0
 43
0.0
 43
0.0208333333333333
 43
0.0
 43
0.0
 43
0.0
 43
0.0
 43
1.0
 43
0.0
 43
0.0
 43
0.0
 43
0.0
 43
1.0
 77
     0
 47
0.0208333333333333
 47
0.0
 47
0.0
 47
0.0
 47
0.0
 47
0.0208333333333333
 47
0.0
 47
0.0
 47
0.0
 47
0.0
 47
1.0
 47
0.0
 47
0.0
 47
0.0
 47
0.0
 47
1.0
171
     0
 49
0.0208333333333333
 49
0.0
 49
0.0
 49
0.0
 49
0.0
 49
0.0208333333333333
 49
0.0
 49
0.0
 49
0.0
 49
0.0
 49
1.0
 49
0.0
 49
0.0
 49
0.0
 49
0.0
 49
1.0
175
     0
142
0.0208333333333333
142
0.0
142
0.0
142
0.0
142
0.0
142
0.0208333333333333
142
0.0
142
0.0
142
0.0
142
0.0
142
1.0
142
0.0
142
0.0
142
0.0
142
0.0
142
1.0
179
     0
144
0.0208333333333333
144
0.0
144
0.0
144
0.0
144
0.0
144
0.0208333333333333
144
0.0
144
0.0
144
0.0
144
0.0
144
1.0
144
0.0
144
0.0
144
0.0
144
0.0
144
1.0
147
0.0208333333333333
147
0.0
147
0.0
147
0.0
147
0.0
147
0.0208333333333333
147
0.0
147
0.0
147
0.0
147
0.0
147
1.0
147
0.0
147
0.0
147
0.0
147
0.0
147
1.0
  0
MATERIAL
  5
13B
102
{ACAD_XDICTIONARY
360
13C
102
}
102
{ACAD_REACTORS
330
12A
102
}
330
12A
100
AcDbMaterial
  1
Global
 72
     0
 43
0.0208333333333333
 43
0.0
 43
0.0
 43
0.0
 43
0.0
 43
0.0208333333333333
 43
0.0
 43
0.0
 43
0.0
 43
0.0
 43
1.0
 43
0.0
 43
0.0
 43
0.0
 43
0.0
 43
1.0
 77
     0
 47
0.0208333333333333
 47
0.0
 47
0.0
 47
0.0
 47
0.0
 47
0.0208333333333333
 47
0.0
 47
0.0
 47
0.0
 47
0.0
 47
1.0
 47
0.0
 47
0.0
 47
0.0
 47
0.0
 47
1.0
171
     0
 49
0.0208333333333333
 49
0.0
 49
0.0
 49
0.0
 49
0.0
 49
0.0208333333333333
 49
0.0
 49
0.0
 49
0.0
 49
0.0
 49
1.0
 49
0.0
 49
0.0
 49
0.0
 49
0.0
 49
1.0
175
     0
142
0.0208333333333333
142
0.0
142
0.0
142
0.0
142
0.0
142
0.0208333333333333
142
0.0
142
0.0
142
0.0
142
0.0
142
1.0
142
0.0
142
0.0
142
0.0
142
0.0
142
1.0
179
     0
144
0.0208333333333333
144
0.0
144
0.0
144
0.0
144
0.0
144
0.0208333333333333
144
0.0
144
0.0
144
0.0
144
0.0
144
1.0
144
0.0
144
0.0
144
0.0
144
0.0
144
1.0
147
0.0208333333333333
147
0.0
147
0.0
147
0.0
147
0.0
147
0.0208333333333333
147
0.0
147
0.0
147
0.0
147
0.0
147
1.0
147
0.0
147
0.0
147
0.0
147
0.0
147
1.0
  0
MLEADERSTYLE
  5
180
102
{ACAD_REACTORS
330
17F
102
}
330
17F
100
AcDbMLeaderStyle
170
     2
171
     1
172
     0
 90
        2
 40
0.0
 41
0.0
173
     1
 91
-1056964608
340
174
 92
       -2
290
     1
 42
0.09
291
     1
 43
0.36
  3
Standard
 44
0.18
300

342
16F
174
     1
178
     6
175
     1
176
     0
 93
-1056964608
 45
0.18
292
     0
297
     0
 46
0.18
 94
-1056964608
 47
1.0
 49
1.0
140
1.0
293
     1
141
0.0
294
     1
177
     0
142
1.0
295
     0
296
     0
143
0.125
1001
ACAD_MLEADERVER
1070
     2
  0
MLINESTYLE
  5
179
102
{ACAD_REACTORS
330
178
102
}
330
178
100
AcDbMlineStyle
  2
STANDARD
 70
     0
  3

 62
   256
 51
90.0
 52
90.0
 71
     2
 49
0.5
 62
   256
  6
BYLAYER
 49
-0.5
 62
   256
  6
BYLAYER
  0
ACDBPLACEHOLDER
  5
129
102
{ACAD_REACTORS
330
128
102
}
330
128
  0
SCALE
  5
15D
102
{ACAD_REACTORS
330
15C
102
}
330
15C
100
AcDbScale
 70
     0
300
1:1
140
1.0
141
1.0
290
     1
  0
SCALE
  5
15E
102
{ACAD_REACTORS
330
15C
102
}
330
15C
100
AcDbScale
 70
     0
300
1/128" = 1'-0"
140
0.0078125
141
12.0
290
     0
  0
SCALE
  5
15F
102
{ACAD_REACTORS
330
15C
102
}
330
15C
100
AcDbScale
 70
     0
300
1/64" = 1'-0"
140
0.015625
141
12.0
290
     0
  0
SCALE
  5
160
102
{ACAD_REACTORS
330
15C
102
}
330
15C
100
AcDbScale
 70
     0
300
1/32" = 1'-0"
140
0.03125
141
12.0
290
     0
  0
SCALE
  5
161
102
{ACAD_REACTORS
330
15C
102
}
330
15C
100
AcDbScale
 70
     0
300
1/16" = 1'-0"
140
0.0625
141
12.0
290
     0
  0
SCALE
  5
162
102
{ACAD_REACTORS
330
15C
102
}
330
15C
100
AcDbScale
 70
     0
300
3/32" = 1'-0"
140
0.09375
141
12.0
290
     0
  0
SCALE
  5
163
102
{ACAD_REACTORS
330
15C
102
}
330
15C
100
AcDbScale
 70
     0
300
1/8" = 1'-0"
140
0.125
141
12.0
290
     0
  0
SCALE
  5
164
102
{ACAD_REACTORS
330
15C
102
}
330
15C
100
AcDbScale
 70
     0
300
3/16" = 1'-0"
140
0.1875
141
12.0
290
     0
  0
SCALE
  5
165
102
{ACAD_REACTORS
330
15C
102
}
330
15C
100
AcDbScale
 70
     0
300
1/4" = 1'-0"
140
0.25
141
12.0
290
     0
  0
SCALE
  5
166
102
{ACAD_REACTORS
330
15C
102
}
330
15C
100
AcDbScale
 70
     0
300
3/8" = 1'-0"
140
0.375
141
12.0
290
     0
  0
SCALE
  5
167
102
{ACAD_REACTORS
330
15C
102
}
330
15C
100
AcDbScale
 70
     0
300
1/2" = 1'-0"
140
0.5
141
12.0
290
     0
  0
SCALE
  5
168
102
{ACAD_REACTORS
330
15C
102
}
330
15C
100
AcDbScale
 70
     0
300
3/4" = 1'-0"
140
0.75
141
12.0
290
     0
  0
SCALE
  5
169
102
{ACAD_REACTORS
330
15C
102
}
330
15C
100
AcDbScale
 70
     0
300
1" = 1'-0"
140
1.0
141
12.0
290
     0
  0
SCALE
  5
16A
102
{ACAD_REACTORS
330
15C
102
}
330
15C
100
AcDbScale
 70
     0
300
1-1/2" = 1'-0"
140
1.5
141
12.0
290
     0
  0
SCALE
  5
16B
102
{ACAD_REACTORS
330
15C
102
}
330
15C
100
AcDbScale
 70
     0
300
3" = 1'-0"
140
3.0
141
12.0
290
     0
  0
SCALE
  5
16C
102
{ACAD_REACTORS
330
15C
102
}
330
15C
100
AcDbScale
 70
     0
300
6" = 1'-0"
140
6.0
141
12.0
290
     0
  0
SCALE
  5
16D
102
{ACAD_REACTORS
330
15C
102
}
330
15C
100
AcDbScale
 70
     0
300
1'-0" = 1'-0"
140
12.0
141
12.0
290
     0
  0
TABLESTYLE
  5
17E
102
{ACAD_XDICTIONARY
360
1B7
102
}
102
{ACAD_REACTORS
330
17D
102
}
330
17D
100
AcDbTableStyle
  3
Standard
 70
     0
 71
     0
 40
0.06
 41
0.06
280
     0
281
     0
  7
STANDARD
140
0.18
170
     2
 62
     0
 63
     7
283
     0
274
    -2
284
     1
 64
     0
275
    -2
285
     1
 65
     0
276
    -2
286
     1
 66
     0
277
    -2
287
     1
 67
     0
278
    -2
288
     1
 68
     0
279
    -2
289
     1
 69
     0
  7
STANDARD
140
0.25
170
     5
 62
     0
 63
     7
283
     0
274
    -2
284
     1
 64
     0
275
    -2
285
     1
 65
     0
276
    -2
286
     1
 66
     0
277
    -2
287
     1
 67
     0
278
    -2
288
     1
 68
     0
279
    -2
289
     1
 69
     0
  7
STANDARD
140
0.18
170
     5
 62
     0
 63
     7
283
     0
274
    -2
284
     1
 64
     0
275
    -2
285
     1
 65
     0
276
    -2
286
     1
 66
     0
277
    -2
287
     1
 67
     0
278
    -2
288
     1
 68
     0
279
    -2
289
     1
 69
     0
  0
VISUALSTYLE
  5
149
102
{ACAD_XDICTIONARY
360
1CA
102
}
102
{ACAD_REACTORS
330
143
102
}
330
143
100
AcDbVisualStyle
  2
2dWireframe
 70
     4
 71
     0
 72
     2
 73
     0
 90
        0
 40
-0.6
 41
-30.0
 62
     5
 63
     7
 74
     1
 91
        4
 64
     7
 65
   257
 75
     1
175
     1
 42
1.0
 92
        0
 66
   257
 43
1.0
 76
     1
 77
     6
 78
     2
 67
     7
 79
     5
170
     0
171
     0
290
     0
174
     0
 93
        1
 44
0.0
173
     0
291
     0
 45
0.0
1001
ACAD
1000
AcDbSavedByObjectVersion
1070
     0
  0
VISUALSTYLE
  5
148
102
{ACAD_XDICTIONARY
360
1C8
102
}
102
{ACAD_REACTORS
330
143
102
}
330
143
100
AcDbVisualStyle
  2
Basic
 70
     7
 71
     1
 72
     0
 73
     1
 90
        0
 40
-0.6
 41
-30.0
 62
     5
 63
     7
 74
     0
 91
        4
 64
     7
 65
   257
 75
     1
175
     1
 42
1.0
 92
        8
 66
     7
 43
1.0
 76
     1
 77
     6
 78
     2
 67
     7
 79
     5
170
     0
171
     0
290
     0
174
     0
 93
        1
 44
0.0
173
     0
291
     1
 45
0.0
1001
ACAD
1000
AcDbSavedByObjectVersion
1070
     0
  0
VISUALSTYLE
  5
14F
102
{ACAD_XDICTIONARY
360
1D6
102
}
102
{ACAD_REACTORS
330
143
102
}
330
143
100
AcDbVisualStyle
  2
Brighten
 70
    12
 71
     2
 72
     2
 73
     0
 90
        0
 40
-0.6
 41
-30.0
 62
     5
 63
     7
 74
     1
 91
        4
 64
     7
 65
   257
 75
     1
175
     1
 42
1.0
 92
        8
 66
     7
 43
1.0
 76
     1
 77
     6
 78
     2
 67
     7
 79
     5
170
     0
171
     0
290
     0
174
     0
 93
        1
 44
50.0
173
     0
291
     1
 45
0.0
1001
ACAD
1000
AcDbSavedByObjectVersion
1070
     0
  0
VISUALSTYLE
  5
153
102
{ACAD_XDICTIONARY
360
1DE
102
}
102
{ACAD_REACTORS
330
143
102
}
330
143
100
AcDbVisualStyle
  2
ColorChange
 70
    16
 71
     2
 72
     2
 73
     3
 90
        0
 40
-0.6
 41
-30.0
 62
     5
 63
     8
 74
     1
 91
        4
 64
     7
 65
   257
 75
     1
175
     1
 42
1.0
 92
        8
 66
     8
 43
1.0
 76
     1
 77
     6
 78
     2
 67
     7
 79
     5
170
     0
171
     0
290
     0
174
     0
 93
        1
 44
0.0
173
     0
291
     1
 45
0.0
1001
ACAD
1000
AcDbSavedByObjectVersion
1070
     0
  0
VISUALSTYLE
  5
14C
102
{ACAD_XDICTIONARY
360
1D0
102
}
102
{ACAD_REACTORS
330
143
102
}
330
143
100
AcDbVisualStyle
  2
Conceptual
 70
     9
 71
     3
 72
     2
 73
     0
 90
        0
 40
-0.6
 41
-30.0
 62
     5
 63
     7
 74
     2
 91
        2
 64
     7
 65
   257
 75
     1
175
     1
 42
179.0
 92
        8
 66
     7
 43
1.0
 76
     1
 77
     6
 78
     2
 67
     7
 79
     3
170
     0
171
     0
290
     0
174
     0
 93
        1
 44
0.0
173
     0
291
     0
 45
0.0
1001
ACAD
1000
AcDbSavedByObjectVersion
1070
     0
  0
VISUALSTYLE
  5
14E
102
{ACAD_XDICTIONARY
360
1D4
102
}
102
{ACAD_REACTORS
330
143
102
}
330
143
100
AcDbVisualStyle
  2
Dim
 70
    11
 71
     2
 72
     2
 73
     0
 90
        0
 40
-0.6
 41
-30.0
 62
     5
 63
     7
 74
     1
 91
        4
 64
     7
 65
   257
 75
     1
175
     1
 42
1.0
 92
        8
 66
     7
 43
1.0
 76
     1
 77
     6
 78
     2
 67
     7
 79
     5
170
     0
171
     0
290
     0
174
     0
 93
        1
 44
-50.0
173
     0
291
     1
 45
0.0
1001
ACAD
1000
AcDbSavedByObjectVersion
1070
     0
  0
VISUALSTYLE
  5
15B
102
{ACAD_XDICTIONARY
360
1EE
102
}
102
{ACAD_REACTORS
330
143
102
}
330
143
100
AcDbVisualStyle
  2
EdgeColorOff
 70
    22
 71
     2
 72
     2
 73
     0
 90
        0
 40
-0.6
 41
-30.0
 62
     5
 63
     7
 74
     1
 91
        4
 64
     7
 65
   257
 75
     1
175
     1
 42
1.0
 92
        8
 66
     7
 43
1.0
 76
     1
 77
     6
 78
     2
 67
     7
 79
     5
170
     0
171
     0
290
     0
174
     0
 93
        1
 44
0.0
173
     0
291
     1
 45
0.0
1001
ACAD
1000
AcDbSavedByObjectVersion
1070
     0
  0
VISUALSTYLE
  5
152
102
{ACAD_XDICTIONARY
360
1DC
102
}
102
{ACAD_REACTORS
330
143
102
}
330
143
100
AcDbVisualStyle
  2
Facepattern
 70
    15
 71
     2
 72
     2
 73
     0
 90
        0
 40
-0.6
 41
-30.0
 62
     5
 63
     7
 74
     1
 91
        4
 64
     7
 65
   257
 75
     1
175
     1
 42
1.0
 92
        8
 66
     7
 43
1.0
 76
     1
 77
     6
 78
     2
 67
     7
 79
     5
170
     0
171
     0
290
     0
174
     0
 93
        1
 44
0.0
173
     0
291
     1
 45
0.0
1001
ACAD
1000
AcDbSavedByObjectVersion
1070
     0
  0
VISUALSTYLE
  5
144
102
{ACAD_XDICTIONARY
360
1C0
102
}
102
{ACAD_REACTORS
330
143
102
}
330
143
100
AcDbVisualStyle
  2
Flat
 70
     0
 71
     2
 72
     1
 73
     1
 90
        2
 40
-0.6
 41
30.0
 62
     5
 63
     7
 74
     0
 91
        0
 64
     7
 65
   257
 75
     1
175
     1
 42
1.0
 92
        8
 66
     7
 43
1.0
 76
     1
 77
     6
 78
     2
 67
     7
 79
     5
170
     0
171
     0
290
     0
174
     0
 93
       13
 44
0.0
173
     0
291
     1
 45
0.0
1001
ACAD
1000
AcDbSavedByObjectVersion
1070
     0
  0
VISUALSTYLE
  5
145
102
{ACAD_XDICTIONARY
360
1C2
102
}
102
{ACAD_REACTORS
330
143
102
}
330
143
100
AcDbVisualStyle
  2
FlatWithEdges
 70
     1
 71
     2
 72
     1
 73
     1
 90
        2
 40
-0.6
 41
30.0
 62
     5
 63
     7
 74
     1
 91
        0
 64
     7
 65
   257
 75
     1
175
     1
 42
1.0
 92
        0
 66
   257
 43
1.0
 76
     1
 77
     6
 78
     2
 67
     7
 79
     5
170
     0
171
     0
290
     0
174
     0
 93
       13
 44
0.0
173
     0
291
     1
 45
0.0
1001
ACAD
1000
AcDbSavedByObjectVersion
1070
     0
  0
VISUALSTYLE
  5
146
102
{ACAD_XDICTIONARY
360
1C4
102
}
102
{ACAD_REACTORS
330
143
102
}
330
143
100
AcDbVisualStyle
  2
Gouraud
 70
     2
 71
     2
 72
     2
 73
     1
 90
        2
 40
-0.6
 41
30.0
 62
     5
 63
     7
 74
     0
 91
        0
 64
     7
 65
   257
 75
     1
175
     1
 42
1.0
 92
        0
 66
     7
 43
1.0
 76
     1
 77
     6
 78
     2
 67
     7
 79
     5
170
     0
171
     0
290
     0
174
     0
 93
       13
 44
0.0
173
     0
291
     1
 45
0.0
1001
ACAD
1000
AcDbSavedByObjectVersion
1070
     0
  0
VISUALSTYLE
  5
147
102
{ACAD_XDICTIONARY
360
1C6
102
}
102
{ACAD_REACTORS
330
143
102
}
330
143
100
AcDbVisualStyle
  2
GouraudWithEdges
 70
     3
 71
     2
 72
     2
 73
     1
 90
        2
 40
-0.6
 41
30.0
 62
     5
 63
     7
 74
     1
 91
        0
 64
     7
 65
   257
 75
     1
175
     1
 42
1.0
 92
        0
 66
   257
 43
1.0
 76
     1
 77
     6
 78
     2
 67
     7
 79
     5
170
     0
171
     0
290
     0
174
     0
 93
       13
 44
0.0
173
     0
291
     1
 45
0.0
1001
ACAD
1000
AcDbSavedByObjectVersion
1070
     0
  0
VISUALSTYLE
  5
14B
102
{ACAD_XDICTIONARY
360
1CE
102
}
102
{ACAD_REACTORS
330
143
102
}
330
143
100
AcDbVisualStyle
  2
Hidden
 70
     6
 71
     1
 72
     2
 73
     2
 90
        0
 40
-0.6
 41
-30.0
 62
     5
 63
     7
 74
     2
 91
        2
 64
     7
 65
   257
 75
     2
175
     1
 42
40.0
 92
        0
 66
   257
 43
1.0
 76
     1
 77
     6
 78
     2
 67
     7
 79
     3
170
     0
171
     0
290
     0
174
     0
 93
        1
 44
0.0
173
     0
291
     0
 45
0.0
1001
ACAD
1000
AcDbSavedByObjectVersion
1070
     0
  0
VISUALSTYLE
  5
159
102
{ACAD_XDICTIONARY
360
1EA
102
}
102
{ACAD_REACTORS
330
143
102
}
330
143
100
AcDbVisualStyle
  2
JitterOff
 70
    20
 71
     2
 72
     2
 73
     0
 90
        0
 40
-0.6
 41
-30.0
 62
     5
 63
     7
 74
     1
 91
        4
 64
     7
 65
   257
 75
     1
175
     1
 42
1.0
 92
       10
 66
     7
 43
1.0
 76
     1
 77
     6
 78
     2
 67
     7
 79
     5
170
     0
171
     0
290
     0
174
     0
 93
        1
 44
0.0
173
     0
291
     1
 45
0.0
1001
ACAD
1000
AcDbSavedByObjectVersion
1070
     0
  0
VISUALSTYLE
  5
151
102
{ACAD_XDICTIONARY
360
1DA
102
}
102
{ACAD_REACTORS
330
143
102
}
330
143
100
AcDbVisualStyle
  2
Linepattern
 70
    14
 71
     2
 72
     2
 73
     0
 90
        0
 40
-0.6
 41
-30.0
 62
     5
 63
     7
 74
     1
 91
        4
 64
     7
 65
   257
 75
     7
175
     7
 42
1.0
 92
        8
 66
     7
 43
1.0
 76
     1
 77
     6
 78
     2
 67
     7
 79
     5
170
     0
171
     0
290
     0
174
     0
 93
        1
 44
0.0
173
     0
291
     1
 45
0.0
1001
ACAD
1000
AcDbSavedByObjectVersion
1070
     0
  0
VISUALSTYLE
  5
15A
102
{ACAD_XDICTIONARY
360
1EC
102
}
102
{ACAD_REACTORS
330
143
102
}
330
143
100
AcDbVisualStyle
  2
OverhangOff
 70
    21
 71
     2
 72
     2
 73
     0
 90
        0
 40
-0.6
 41
-30.0
 62
     5
 63
     7
 74
     1
 91
        4
 64
     7
 65
   257
 75
     1
175
     1
 42
1.0
 92
        9
 66
     7
 43
1.0
 76
     1
 77
     6
 78
     2
 67
     7
 79
     5
170
     0
171
     0
290
     0
174
     0
 93
        1
 44
0.0
173
     0
291
     1
 45
0.0
1001
ACAD
1000
AcDbSavedByObjectVersion
1070
     0
  0
VISUALSTYLE
  5
14D
102
{ACAD_XDICTIONARY
360
1D2
102
}
102
{ACAD_REACTORS
330
143
102
}
330
143
100
AcDbVisualStyle
  2
Realistic
 70
     8
 71
     2
 72
     3
 73
     0
 90
        2
 40
-0.6
 41
30.0
 62
     5
 63
     7
 74
     0
 91
        0
 64
     7
 65
   257
 75
     1
175
     1
 42
1.0
 92
        8
 66
   257
 43
1.0
 76
     1
 77
     6
 78
     2
 67
     7
 79
     3
170
     0
171
     0
290
     0
174
     0
 93
       13
 44
0.0
173
     0
291
     0
 45
0.0
1001
ACAD
1000
AcDbSavedByObjectVersion
1070
     0
  0
VISUALSTYLE
  5
158
102
{ACAD_XDICTIONARY
360
1E8
102
}
102
{ACAD_REACTORS
330
143
102
}
330
143
100
AcDbVisualStyle
  2
Shaded
 70
    27
 71
     2
 72
     2
 73
     1
 90
        2
 40
-0.6
 41
30.0
 62
     5
 63
     7
 74
     0
 91
        4
 64
     7
 65
   257
 75
     1
175
     1
 42
1.0
 92
        8
 66
   257
 43
1.0
 76
     1
 77
     6
 78
     2
 67
     8
 79
     3
170
     0
171
     0
290
     0
174
     0
 93
        5
 44
0.0
173
     0
291
     0
 45
0.0
1001
ACAD
1000
AcDbSavedByObjectVersion
1070
     0
  0
VISUALSTYLE
  5
157
102
{ACAD_XDICTIONARY
360
1E6
102
}
102
{ACAD_REACTORS
330
143
102
}
330
143
100
AcDbVisualStyle
  2
Shaded with edges
 70
    26
 71
     2
 72
     2
 73
     1
 90
        2
 40
-0.6
 41
30.0
 62
     5
 63
     7
 74
     1
 91
       10
 64
     7
 65
   257
 75
     2
175
     1
 42
1.0
 92
        8
 66
   257
 43
1.0
 76
     1
 77
     6
 78
     2
 67
     7
 79
     3
170
     0
171
     0
290
     0
174
     0
 93
        5
 44
0.0
173
     0
291
     0
 45
0.0
1001
ACAD
1000
AcDbSavedByObjectVersion
1070
     0
  0
VISUALSTYLE
  5
154
102
{ACAD_XDICTIONARY
360
1E0
102
}
102
{ACAD_REACTORS
330
143
102
}
330
143
100
AcDbVisualStyle
  2
Shades of Gray
 70
    23
 71
     2
 72
     2
 73
     3
 90
        0
 40
-0.6
 41
-30.0
 62
     5
 63
     7
 74
     2
 91
        2
 64
     7
 65
     7
 75
     1
175
     1
 42
40.0
 92
        8
 66
     7
 43
1.0
 76
     1
 77
     6
 78
     2
 67
     7
 79
     3
170
     0
171
     0
290
     0
174
     0
 93
        1
 44
0.0
173
     0
291
     0
 45
0.0
1001
ACAD
1000
AcDbSavedByObjectVersion
1070
     0
  0
VISUALSTYLE
  5
155
102
{ACAD_XDICTIONARY
360
1E2
102
}
102
{ACAD_REACTORS
330
143
102
}
330
143
100
AcDbVisualStyle
  2
Sketchy
 70
    24
 71
     1
 72
     2
 73
     2
 90
        0
 40
-0.6
 41
-30.0
 62
     5
 63
     7
 74
     2
 91
        2
 64
     7
 65
     7
 75
     1
175
     1
 42
40.0
 92
       11
 66
     7
 43
1.0
 76
     1
 77
     6
 78
     2
 67
     7
 79
     6
170
     0
171
     0
290
     0
174
     0
 93
        1
 44
0.0
173
     0
291
     0
 45
0.0
1001
ACAD
1000
AcDbSavedByObjectVersion
1070
     0
  0
VISUALSTYLE
  5
150
102
{ACAD_XDICTIONARY
360
1D8
102
}
102
{ACAD_REACTORS
330
143
102
}
330
143
100
AcDbVisualStyle
  2
Thicken
 70
    13
 71
     2
 72
     2
 73
     0
 90
        0
 40
-0.6
 41
-30.0
 62
     5
 63
     7
 74
     1
 91
        4
 64
     7
 65
   257
 75
     1
175
     1
 42
1.0
 92
       12
 66
     7
 43
1.0
 76
     1
 77
     6
 78
     2
 67
     7
 79
     5
170
     0
171
     0
290
     0
174
     0
 93
        1
 44
0.0
173
     0
291
     1
 45
0.0
1001
ACAD
1000
AcDbSavedByObjectVersion
1070
     0
  0
VISUALSTYLE
  5
14A
102
{ACAD_XDICTIONARY
360
1CC
102
}
102
{ACAD_REACTORS
330
143
102
}
330
143
100
AcDbVisualStyle
  2
Wireframe
 70
     5
 71
     0
 72
     2
 73
     0
 90
        0
 40
-0.6
 41
-30.0
 62
     5
 63
     7
 74
     1
 91
        4
 64
     7
 65
   257
 75
     1
175
     1
 42
1.0
 92
        0
 66
   257
 43
1.0
 76
     1
 77
     6
 78
     2
 67
     7
 79
     3
170
     0
171
     0
290
     0
174
     0
 93
        1
 44
0.0
173
     0
291
     0
 45
0.0
1001
ACAD
1000
AcDbSavedByObjectVersion
1070
     0
  0
VISUALSTYLE
  5
156
102
{ACAD_XDICTIONARY
360
1E4
102
}
102
{ACAD_REACTORS
330
143
102
}
330
143
100
AcDbVisualStyle
  2
X-Ray
 70
    25
 71
     2
 72
     2
 73
     1
 90
        1
 40
0.5
 41
-30.0
 62
     5
 63
     7
 74
     1
 91
        0
 64
     7
 65
   257
 75
     1
175
     1
 42
1.0
 92
        8
 66
     7
 43
1.0
 76
     1
 77
     6
 78
     2
 67
     7
 79
     3
170
     0
171
     0
290
     0
174
     0
 93
       13
 44
0.0
173
     0
291
     0
 45
0.0
1001
ACAD
1000
AcDbSavedByObjectVersion
1070
     0
  0
DICTIONARYVAR
  5
1B1
102
{ACAD_REACTORS
330
1AE
102
}
330
1AE
100
DictionaryVariables
280
     0
  1
1:1
  0
DICTIONARYVAR
  5
1B0
102
{ACAD_REACTORS
330
1AE
102
}
330
1AE
100
DictionaryVariables
280
     0
  1
STANDARD
  0
DICTIONARYVAR
  5
1AF
102
{ACAD_REACTORS
330
1AE
102
}
330
1AE
100
DictionaryVariables
280
     0
  1
STANDARD
  0
DICTIONARYVAR
  5
1B4
102
{ACAD_REACTORS
330
1AE
102
}
330
1AE
100
DictionaryVariables
280
     0
  1
1
  0
DICTIONARYVAR
  5
1B3
102
{ACAD_REACTORS
330
1AE
102
}
330
1AE
100
DictionaryVariables
280
     0
  1
0
  0
DICTIONARYVAR
  5
1B2
102
{ACAD_REACTORS
330
1AE
102
}
330
1AE
100
DictionaryVariables
280
     0
  1
127
  0
DICTIONARYVAR
  5
1B5
102
{ACAD_REACTORS
330
1AE
102
}
330
1AE
100
DictionaryVariables
280
     0
  1
2
  0
DICTIONARY
  5
1F4
330
188
100
AcDbDictionary
280
     1
281
     1
  3
ACAD_XREC_ROUNDTRIP
360
1F5
  0
DICTIONARY
  5
1F2
330
184
100
AcDbDictionary
280
     1
281
     1
  3
ACAD_XREC_ROUNDTRIP
360
1F3
  0
DICTIONARY
  5
134
330
133
100
AcDbDictionary
280
     1
281
     1
  3
ACAD_XREC_ROUNDTRIP
360
1BE
  3
BUMPTILE
360
136
  3
DIFFUSETILE
360
135
  3
OPACITYTILE
360
139
  3
REFLECTIONTILE
360
138
  3
REFRACTIONTILE
360
13A
  3
SPECULARTILE
360
137
  0
DICTIONARY
  5
12C
330
12B
100
AcDbDictionary
280
     1
281
     1
  3
ACAD_XREC_ROUNDTRIP
360
1BD
  3
BUMPTILE
360
12E
  3
DIFFUSETILE
360
12D
  3
OPACITYTILE
360
131
  3
REFLECTIONTILE
360
130
  3
REFRACTIONTILE
360
132
  3
SPECULARTILE
360
12F
  0
DICTIONARY
  5
13C
330
13B
100
AcDbDictionary
280
     1
281
     1
  3
ACAD_XREC_ROUNDTRIP
360
1BF
  3
BUMPTILE
360
13E
  3
DIFFUSETILE
360
13D
  3
OPACITYTILE
360
141
  3
REFLECTIONTILE
360
140
  3
REFRACTIONTILE
360
142
  3
SPECULARTILE
360
13F
  0
DICTIONARY
  5
1B7
330
17E
100
AcDbDictionary
280
     1
281
     1
  3
ACAD_ROUNDTRIP_2008_TABLESTYLE_CELLSTYLEMAP
360
1B8
  3
ACAD_XREC_ROUNDTRIP
360
1F0
  0
DICTIONARY
  5
1CA
330
149
100
AcDbDictionary
280
     1
281
     1
  3
ACAD_XREC_ROUNDTRIP
360
1CB
  0
DICTIONARY
  5
1C8
330
148
100
AcDbDictionary
280
     1
281
     1
  3
ACAD_XREC_ROUNDTRIP
360
1C9
  0
DICTIONARY
  5
1D6
330
14F
100
AcDbDictionary
280
     1
281
     1
  3
ACAD_XREC_ROUNDTRIP
360
1D7
  0
DICTIONARY
  5
1DE
330
153
100
AcDbDictionary
280
     1
281
     1
  3
ACAD_XREC_ROUNDTRIP
360
1DF
  0
DICTIONARY
  5
1D0
330
14C
100
AcDbDictionary
280
     1
281
     1
  3
ACAD_XREC_ROUNDTRIP
360
1D1
  0
DICTIONARY
  5
1D4
330
14E
100
AcDbDictionary
280
     1
281
     1
  3
ACAD_XREC_ROUNDTRIP
360
1D5
  0
DICTIONARY
  5
1EE
330
15B
100
AcDbDictionary
280
     1
281
     1
  3
ACAD_XREC_ROUNDTRIP
360
1EF
  0
DICTIONARY
  5
1DC
330
152
100
AcDbDictionary
280
     1
281
     1
  3
ACAD_XREC_ROUNDTRIP
360
1DD
  0
DICTIONARY
  5
1C0
330
144
100
AcDbDictionary
280
     1
281
     1
  3
ACAD_XREC_ROUNDTRIP
360
1C1
  0
DICTIONARY
  5
1C2
330
145
100
AcDbDictionary
280
     1
281
     1
  3
ACAD_XREC_ROUNDTRIP
360
1C3
  0
DICTIONARY
  5
1C4
330
146
100
AcDbDictionary
280
     1
281
     1
  3
ACAD_XREC_ROUNDTRIP
360
1C5
  0
DICTIONARY
  5
1C6
330
147
100
AcDbDictionary
280
     1
281
     1
  3
ACAD_XREC_ROUNDTRIP
360
1C7
  0
DICTIONARY
  5
1CE
330
14B
100
AcDbDictionary
280
     1
281
     1
  3
ACAD_XREC_ROUNDTRIP
360
1CF
  0
DICTIONARY
  5
1EA
330
159
100
AcDbDictionary
280
     1
281
     1
  3
ACAD_XREC_ROUNDTRIP
360
1EB
  0
DICTIONARY
  5
1DA
330
151
100
AcDbDictionary
280
     1
281
     1
  3
ACAD_XREC_ROUNDTRIP
360
1DB
  0
DICTIONARY
  5
1EC
330
15A
100
AcDbDictionary
280
     1
281
     1
  3
ACAD_XREC_ROUNDTRIP
360
1ED
  0
DICTIONARY
  5
1D2
330
14D
100
AcDbDictionary
280
     1
281
     1
  3
ACAD_XREC_ROUNDTRIP
360
1D3
  0
DICTIONARY
  5
1E8
330
158
100
AcDbDictionary
280
     1
281
     1
  3
ACAD_XREC_ROUNDTRIP
360
1E9
  0
DICTIONARY
  5
1E6
330
157
100
AcDbDictionary
280
     1
281
     1
  3
ACAD_XREC_ROUNDTRIP
360
1E7
  0
DICTIONARY
  5
1E0
330
154
100
AcDbDictionary
280
     1
281
     1
  3
ACAD_XREC_ROUNDTRIP
360
1E1
  0
DICTIONARY
  5
1E2
330
155
100
AcDbDictionary
280
     1
281
     1
  3
ACAD_XREC_ROUNDTRIP
360
1E3
  0
DICTIONARY
  5
1D8
330
150
100
AcDbDictionary
280
     1
281
     1
  3
ACAD_XREC_ROUNDTRIP
360
1D9
  0
DICTIONARY
  5
1CC
330
14A
100
AcDbDictionary
280
     1
281
     1
  3
ACAD_XREC_ROUNDTRIP
360
1CD
  0
DICTIONARY
  5
1E4
330
156
100
AcDbDictionary
280
     1
281
     1
  3
ACAD_XREC_ROUNDTRIP
360
1E5
  0
XRECORD
  5
1F5
102
{ACAD_REACTORS
330
1F4
102
}
330
1F4
100
AcDbXrecord
280
     1
102
SHADEPLOT
 70
     0
102
SHADEPLOTRESLEVEL
 70
     2
102
SHADEPLOTCUSTOMDPI
 70
   300
  0
XRECORD
  5
1F3
102
{ACAD_REACTORS
330
1F2
102
}
330
1F2
100
AcDbXrecord
280
     1
102
SHADEPLOT
 70
     0
102
SHADEPLOTRESLEVEL
 70
     2
102
SHADEPLOTCUSTOMDPI
 70
   300
  0
XRECORD
  5
1BE
102
{ACAD_REACTORS
330
134
102
}
330
134
100
AcDbXrecord
280
     1
102
MATERIAL
148
0.0
149
0.0
149
0.0
 93
        0
 94
      127
282
     0
 72
     0
 77
     0
171
     0
175
     0
179
     0
273
     0
  0
XRECORD
  5
136
102
{ACAD_REACTORS
330
134
102
}
330
134
100
AcDbXrecord
280
     1
270
     1
271
     1
  0
XRECORD
  5
135
102
{ACAD_REACTORS
330
134
102
}
330
134
100
AcDbXrecord
280
     1
270
     1
271
     1
  0
XRECORD
  5
139
102
{ACAD_REACTORS
330
134
102
}
330
134
100
AcDbXrecord
280
     1
270
     1
271
     1
  0
XRECORD
  5
138
102
{ACAD_REACTORS
330
134
102
}
330
134
100
AcDbXrecord
280
     1
270
     1
271
     1
  0
XRECORD
  5
13A
102
{ACAD_REACTORS
330
134
102
}
330
134
100
AcDbXrecord
280
     1
270
     1
271
     1
  0
XRECORD
  5
137
102
{ACAD_REACTORS
330
134
102
}
330
134
100
AcDbXrecord
280
     1
270
     1
271
     1
  0
XRECORD
  5
1BD
102
{ACAD_REACTORS
330
12C
102
}
330
12C
100
AcDbXrecord
280
     1
102
MATERIAL
148
0.0
149
0.0
149
0.0
 93
        0
 94
      127
282
     0
 72
     0
 77
     0
171
     0
175
     0
179
     0
273
     0
  0
XRECORD
  5
12E
102
{ACAD_REACTORS
330
12C
102
}
330
12C
100
AcDbXrecord
280
     1
270
     1
271
     1
  0
XRECORD
  5
12D
102
{ACAD_REACTORS
330
12C
102
}
330
12C
100
AcDbXrecord
280
     1
270
     1
271
     1
  0
XRECORD
  5
131
102
{ACAD_REACTORS
330
12C
102
}
330
12C
100
AcDbXrecord
280
     1
270
     1
271
     1
  0
XRECORD
  5
130
102
{ACAD_REACTORS
330
12C
102
}
330
12C
100
AcDbXrecord
280
     1
270
     1
271
     1
  0
XRECORD
  5
132
102
{ACAD_REACTORS
330
12C
102
}
330
12C
100
AcDbXrecord
280
     1
270
     1
271
     1
  0
XRECORD
  5
12F
102
{ACAD_REACTORS
330
12C
102
}
330
12C
100
AcDbXrecord
280
     1
270
     1
271
     1
  0
XRECORD
  5
1BF
102
{ACAD_REACTORS
330
13C
102
}
330
13C
100
AcDbXrecord
280
     1
102
MATERIAL
148
0.0
149
0.0
149
0.0
 93
        0
 94
      127
282
     0
 72
     0
 77
     0
171
     0
175
     0
179
     0
273
     0
  0
XRECORD
  5
13E
102
{ACAD_REACTORS
330
13C
102
}
330
13C
100
AcDbXrecord
280
     1
270
     1
271
     1
  0
XRECORD
  5
13D
102
{ACAD_REACTORS
330
13C
102
}
330
13C
100
AcDbXrecord
280
     1
270
     1
271
     1
  0
XRECORD
  5
141
102
{ACAD_REACTORS
330
13C
102
}
330
13C
100
AcDbXrecord
280
     1
270
     1
271
     1
  0
XRECORD
  5
140
102
{ACAD_REACTORS
330
13C
102
}
330
13C
100
AcDbXrecord
280
     1
270
     1
271
     1
  0
XRECORD
  5
142
102
{ACAD_REACTORS
330
13C
102
}
330
13C
100
AcDbXrecord
280
     1
270
     1
271
     1
  0
XRECORD
  5
13F
102
{ACAD_REACTORS
330
13C
102
}
330
13C
100
AcDbXrecord
280
     1
270
     1
271
     1
  0
CELLSTYLEMAP
  5
1B8
102
{ACAD_REACTORS
330
1B7
102
}
330
1B7
100
AcDbCellStyleMap
 90
        3
300
CELLSTYLE
  1
TABLEFORMAT_BEGIN
 90
        5
170
     1
 91
        0
 92
    32768
 62
   257
 93
        1
300
CONTENTFORMAT
  1
CONTENTFORMAT_BEGIN
 90
        0
 91
        0
 92
      512
 93
        0
300

 40
0.0
140
1.0
 94
        5
 62
     0
340
16F
144
0.25
309
CONTENTFORMAT_END
171
     0
 94
        0
309
TABLEFORMAT_END
  1
CELLSTYLE_BEGIN
 90
        1
 91
        1
300
_TITLE
309
CELLSTYLE_END
300
CELLSTYLE
  1
TABLEFORMAT_BEGIN
 90
        5
170
     1
 91
        0
 92
        0
 62
   257
 93
        1
300
CONTENTFORMAT
  1
CONTENTFORMAT_BEGIN
 90
        0
 91
        0
 92
      512
 93
        0
300

 40
0.0
140
1.0
 94
        5
 62
     0
340
16F
144
0.18
309
CONTENTFORMAT_END
171
     0
 94
        0
309
TABLEFORMAT_END
  1
CELLSTYLE_BEGIN
 90
        2
 91
        1
300
_HEADER
309
CELLSTYLE_END
300
CELLSTYLE
  1
TABLEFORMAT_BEGIN
 90
        5
170
     1
 91
        0
 92
        0
 62
   257
 93
        1
300
CONTENTFORMAT
  1
CONTENTFORMAT_BEGIN
 90
        0
 91
        0
 92
      512
 93
        0
300

 40
0.0
140
1.0
 94
        2
 62
     0
340
16F
144
0.18
309
CONTENTFORMAT_END
171
     0
 94
        0
309
TABLEFORMAT_END
  1
CELLSTYLE_BEGIN
 90
        3
 91
        2
300
_DATA
309
CELLSTYLE_END
  0
XRECORD
  5
1F0
102
{ACAD_REACTORS
330
1B7
102
}
330
1B7
100
AcDbXrecord
280
     1
102
ACAD_ROUNDTRIP_PRE2007_TABLESTYLE
 90
      512
 91
        0
  1

 92
      512
 93
        0
  2

 94
      512
 95
        0
  3

  0
XRECORD
  5
1CB
102
{ACAD_REACTORS
330
1CA
102
}
330
1CA
100
AcDbXrecord
280
     1
102
RTVSPropertyOp0
 70
     1
102
RTVSPropertyOp1
 70
     1
102
RTVSPropertyOp2
 70
     1
102
RTVSPropertyOp3
 70
     1
102
RTVSPropertyOp4
 70
     1
102
RTVSPropertyOp5
 70
     1
102
RTVSPropertyOp6
 70
     1
102
RTVSPropertyOp7
 70
     1
102
RTVSPropertyOp8
 70
     1
102
RTVSPropertyOp9
 70
     1
102
RTVSPropertyOp10
 70
     1
102
RTVSPropertyOp11
 70
     1
102
RTVSPropertyOp12
 70
     1
102
RTVSPropertyOp13
 70
     1
102
RTVSPropertyOp14
 70
     1
102
RTVSPropertyOp15
 70
     1
102
RTVSPropertyOp16
 70
     1
102
RTVSPropertyOp17
 70
     1
102
RTVSPropertyOp18
 70
     1
102
RTVSPropertyOp19
 70
     1
102
RTVSPropertyOp20
 70
     1
102
RTVSPropertyOp21
 70
     1
102
RTVSPropertyOp22
 70
     1
102
RTVSPropertyOp23
 70
     1
102
RTVSPropertyOp24
 70
     1
102
RTVSPropertyOp25
 70
     1
102
RTVSPropertyOp26
 70
     1
102
RTVSPropertyOp27
 70
     1
102
RTVSPropertyOp28
 70
     1
102
RTVSPropertyOp29
 70
     1
102
RTVSPropertyOp30
 70
     1
102
RTVSPropertyOp31
 70
     1
102
RTVSPropertyOp32
 70
     1
  0
XRECORD
  5
1C9
102
{ACAD_REACTORS
330
1C8
102
}
330
1C8
100
AcDbXrecord
280
     1
102
RTVSPropertyOp0
 70
     1
102
RTVSPropertyOp1
 70
     1
102
RTVSPropertyOp2
 70
     1
102
RTVSPropertyOp3
 70
     1
102
RTVSPropertyOp4
 70
     1
102
RTVSPropertyOp5
 70
     1
102
RTVSPropertyOp6
 70
     1
102
RTVSPropertyOp7
 70
     1
102
RTVSPropertyOp8
 70
     1
102
RTVSPropertyOp9
 70
     1
102
RTVSPropertyOp10
 70
     1
102
RTVSPropertyOp11
 70
     1
102
RTVSPropertyOp12
 70
     1
102
RTVSPropertyOp13
 70
     1
102
RTVSPropertyOp14
 70
     1
102
RTVSPropertyOp15
 70
     1
102
RTVSPropertyOp16
 70
     1
102
RTVSPropertyOp17
 70
     1
102
RTVSPropertyOp18
 70
     1
102
RTVSPropertyOp19
 70
     1
102
RTVSPropertyOp20
 70
     1
102
RTVSPropertyOp21
 70
     1
102
RTVSPropertyOp22
 70
     1
102
RTVSPropertyOp23
 70
     1
102
RTVSPropertyOp24
 70
     1
102
RTVSPropertyOp25
 70
     1
102
RTVSPropertyOp26
 70
     1
102
RTVSPropertyOp27
 70
     1
102
RTVSPropertyOp28
 70
     1
102
RTVSPropertyOp29
 70
     1
102
RTVSPropertyOp30
 70
     1
102
RTVSPropertyOp31
 70
     1
102
RTVSPropertyOp32
 70
     1
  0
XRECORD
  5
1D7
102
{ACAD_REACTORS
330
1D6
102
}
330
1D6
100
AcDbXrecord
280
     1
102
RTVSPropertyOp0
 70
     1
102
RTVSPropertyOp1
 70
     1
102
RTVSPropertyOp2
 70
     1
102
RTVSPropertyOp3
 70
     1
102
RTVSPropertyOp4
 70
     1
102
RTVSPropertyOp5
 70
     1
102
RTVSPropertyOp6
 70
     1
102
RTVSPropertyOp7
 70
     1
102
RTVSPropertyOp8
 70
     1
102
RTVSPropertyOp9
 70
     1
102
RTVSPropertyOp10
 70
     1
102
RTVSPropertyOp11
 70
     1
102
RTVSPropertyOp12
 70
     1
102
RTVSPropertyOp13
 70
     1
102
RTVSPropertyOp14
 70
     1
102
RTVSPropertyOp15
 70
     1
102
RTVSPropertyOp16
 70
     1
102
RTVSPropertyOp17
 70
     1
102
RTVSPropertyOp18
 70
     1
102
RTVSPropertyOp19
 70
     1
102
RTVSPropertyOp20
 70
     1
102
RTVSPropertyOp21
 70
     1
102
RTVSPropertyOp22
 70
     1
102
RTVSPropertyOp23
 70
     1
102
RTVSPropertyOp24
 70
     1
102
RTVSPropertyOp25
 70
     1
102
RTVSPropertyOp26
 70
     1
102
RTVSPropertyOp27
 70
     1
102
RTVSPropertyOp28
 70
     1
102
RTVSPropertyOp29
 70
     1
102
RTVSPropertyOp30
 70
     1
102
RTVSPropertyOp31
 70
     1
102
RTVSPropertyOp32
 70
     1
  0
XRECORD
  5
1DF
102
{ACAD_REACTORS
330
1DE
102
}
330
1DE
100
AcDbXrecord
280
     1
102
RTVSPropertyOp0
 70
     1
102
RTVSPropertyOp1
 70
     1
102
RTVSPropertyOp2
 70
     1
102
RTVSPropertyOp3
 70
     1
102
RTVSPropertyOp4
 70
     1
102
RTVSPropertyOp5
 70
     1
102
RTVSPropertyOp6
 70
     1
102
RTVSPropertyOp7
 70
     1
102
RTVSPropertyOp8
 70
     1
102
RTVSPropertyOp9
 70
     1
102
RTVSPropertyOp10
 70
     1
102
RTVSPropertyOp11
 70
     1
102
RTVSPropertyOp12
 70
     1
102
RTVSPropertyOp13
 70
     1
102
RTVSPropertyOp14
 70
     1
102
RTVSPropertyOp15
 70
     1
102
RTVSPropertyOp16
 70
     1
102
RTVSPropertyOp17
 70
     1
102
RTVSPropertyOp18
 70
     1
102
RTVSPropertyOp19
 70
     1
102
RTVSPropertyOp20
 70
     1
102
RTVSPropertyOp21
 70
     1
102
RTVSPropertyOp22
 70
     1
102
RTVSPropertyOp23
 70
     1
102
RTVSPropertyOp24
 70
     1
102
RTVSPropertyOp25
 70
     1
102
RTVSPropertyOp26
 70
     1
102
RTVSPropertyOp27
 70
     1
102
RTVSPropertyOp28
 70
     1
102
RTVSPropertyOp29
 70
     1
102
RTVSPropertyOp30
 70
     1
102
RTVSPropertyOp31
 70
     1
102
RTVSPropertyOp32
 70
     1
  0
XRECORD
  5
1D1
102
{ACAD_REACTORS
330
1D0
102
}
330
1D0
100
AcDbXrecord
280
     1
102
RTVSPropertyOp0
 70
     1
102
RTVSPropertyOp1
 70
     1
102
RTVSPropertyOp2
 70
     1
102
RTVSPropertyOp3
 70
     1
102
RTVSPropertyOp4
 70
     1
102
RTVSPropertyOp5
 70
     1
102
RTVSPropertyOp6
 70
     1
102
RTVSPropertyOp7
 70
     1
102
RTVSPropertyOp8
 70
     1
102
RTVSPropertyOp9
 70
     1
102
RTVSPropertyOp10
 70
     1
102
RTVSPropertyOp11
 70
     1
102
RTVSPropertyOp12
 70
     1
102
RTVSPropertyOp13
 70
     1
102
RTVSPropertyOp14
 70
     1
102
RTVSPropertyOp15
 70
     1
102
RTVSPropertyOp16
 70
     1
102
RTVSPropertyOp17
 70
     1
102
RTVSPropertyOp18
 70
     1
102
RTVSPropertyOp19
 70
     1
102
RTVSPropertyOp20
 70
     1
102
RTVSPropertyOp21
 70
     1
102
RTVSPropertyOp22
 70
     1
102
RTVSPropertyOp23
 70
     1
102
RTVSPropertyOp24
 70
     1
102
RTVSPropertyOp25
 70
     1
102
RTVSPropertyOp26
 70
     1
102
RTVSPropertyOp27
 70
     1
102
RTVSPropertyOp28
 70
     1
102
RTVSPropertyOp29
 70
     1
102
RTVSPropertyOp30
 70
     1
102
RTVSPropertyOp31
 70
     1
102
RTVSPropertyOp32
 70
     1
  0
XRECORD
  5
1D5
102
{ACAD_REACTORS
330
1D4
102
}
330
1D4
100
AcDbXrecord
280
     1
102
RTVSPropertyOp0
 70
     1
102
RTVSPropertyOp1
 70
     1
102
RTVSPropertyOp2
 70
     1
102
RTVSPropertyOp3
 70
     1
102
RTVSPropertyOp4
 70
     1
102
RTVSPropertyOp5
 70
     1
102
RTVSPropertyOp6
 70
     1
102
RTVSPropertyOp7
 70
     1
102
RTVSPropertyOp8
 70
     1
102
RTVSPropertyOp9
 70
     1
102
RTVSPropertyOp10
 70
     1
102
RTVSPropertyOp11
 70
     1
102
RTVSPropertyOp12
 70
     1
102
RTVSPropertyOp13
 70
     1
102
RTVSPropertyOp14
 70
     1
102
RTVSPropertyOp15
 70
     1
102
RTVSPropertyOp16
 70
     1
102
RTVSPropertyOp17
 70
     1
102
RTVSPropertyOp18
 70
     1
102
RTVSPropertyOp19
 70
     1
102
RTVSPropertyOp20
 70
     1
102
RTVSPropertyOp21
 70
     1
102
RTVSPropertyOp22
 70
     1
102
RTVSPropertyOp23
 70
     1
102
RTVSPropertyOp24
 70
     1
102
RTVSPropertyOp25
 70
     1
102
RTVSPropertyOp26
 70
     1
102
RTVSPropertyOp27
 70
     1
102
RTVSPropertyOp28
 70
     1
102
RTVSPropertyOp29
 70
     1
102
RTVSPropertyOp30
 70
     1
102
RTVSPropertyOp31
 70
     1
102
RTVSPropertyOp32
 70
     1
  0
XRECORD
  5
1EF
102
{ACAD_REACTORS
330
1EE
102
}
330
1EE
100
AcDbXrecord
280
     1
102
RTVSPropertyOp0
 70
     0
102
RTVSPropertyOp1
 70
     0
102
RTVSPropertyOp2
 70
     0
102
RTVSPropertyOp3
 70
     0
102
RTVSPropertyOp4
 70
     0
102
RTVSPropertyOp5
 70
     0
102
RTVSPropertyOp6
 70
     0
102
RTVSPropertyOp7
 70
     0
102
RTVSPropertyOp8
 70
     0
102
RTVSPropertyOp9
 70
     0
102
RTVSPropertyOp10
 70
     0
102
RTVSPropertyOp11
 70
     0
102
RTVSPropertyOp12
 70
     0
102
RTVSPropertyOp13
 70
     0
102
RTVSPropertyOp14
 70
     2
102
RTVSPropertyOp15
 70
     0
102
RTVSPropertyOp16
 70
     0
102
RTVSPropertyOp17
 70
     0
102
RTVSPropertyOp18
 70
     0
102
RTVSPropertyOp19
 70
     0
102
RTVSPropertyOp20
 70
     0
102
RTVSPropertyOp21
 70
     0
102
RTVSPropertyOp22
 70
     0
102
RTVSPropertyOp23
 70
     0
102
RTVSPropertyOp24
 70
     0
102
RTVSPropertyOp25
 70
     0
102
RTVSPropertyOp26
 70
     0
102
RTVSPropertyOp27
 70
     0
102
RTVSPropertyOp28
 70
     0
102
RTVSPropertyOp29
 70
     0
102
RTVSPropertyOp30
 70
     0
102
RTVSPropertyOp31
 70
     0
102
RTVSPropertyOp32
 70
     0
  0
XRECORD
  5
1DD
102
{ACAD_REACTORS
330
1DC
102
}
330
1DC
100
AcDbXrecord
280
     1
102
RTVSPropertyOp0
 70
     1
102
RTVSPropertyOp1
 70
     1
102
RTVSPropertyOp2
 70
     1
102
RTVSPropertyOp3
 70
     1
102
RTVSPropertyOp4
 70
     1
102
RTVSPropertyOp5
 70
     1
102
RTVSPropertyOp6
 70
     1
102
RTVSPropertyOp7
 70
     1
102
RTVSPropertyOp8
 70
     1
102
RTVSPropertyOp9
 70
     1
102
RTVSPropertyOp10
 70
     1
102
RTVSPropertyOp11
 70
     1
102
RTVSPropertyOp12
 70
     1
102
RTVSPropertyOp13
 70
     1
102
RTVSPropertyOp14
 70
     1
102
RTVSPropertyOp15
 70
     1
102
RTVSPropertyOp16
 70
     1
102
RTVSPropertyOp17
 70
     1
102
RTVSPropertyOp18
 70
     1
102
RTVSPropertyOp19
 70
     1
102
RTVSPropertyOp20
 70
     1
102
RTVSPropertyOp21
 70
     1
102
RTVSPropertyOp22
 70
     1
102
RTVSPropertyOp23
 70
     1
102
RTVSPropertyOp24
 70
     1
102
RTVSPropertyOp25
 70
     1
102
RTVSPropertyOp26
 70
     1
102
RTVSPropertyOp27
 70
     1
102
RTVSPropertyOp28
 70
     1
102
RTVSPropertyOp29
 70
     1
102
RTVSPropertyOp30
 70
     1
102
RTVSPropertyOp31
 70
     1
102
RTVSPropertyOp32
 70
     1
  0
XRECORD
  5
1C1
102
{ACAD_REACTORS
330
1C0
102
}
330
1C0
100
AcDbXrecord
280
     1
102
RTVSPropertyOp0
 70
     1
102
RTVSPropertyOp1
 70
     1
102
RTVSPropertyOp2
 70
     1
102
RTVSPropertyOp3
 70
     1
102
RTVSPropertyOp4
 70
     1
102
RTVSPropertyOp5
 70
     1
102
RTVSPropertyOp6
 70
     1
102
RTVSPropertyOp7
 70
     1
102
RTVSPropertyOp8
 70
     1
102
RTVSPropertyOp9
 70
     1
102
RTVSPropertyOp10
 70
     1
102
RTVSPropertyOp11
 70
     1
102
RTVSPropertyOp12
 70
     1
102
RTVSPropertyOp13
 70
     1
102
RTVSPropertyOp14
 70
     1
102
RTVSPropertyOp15
 70
     1
102
RTVSPropertyOp16
 70
     1
102
RTVSPropertyOp17
 70
     1
102
RTVSPropertyOp18
 70
     1
102
RTVSPropertyOp19
 70
     1
102
RTVSPropertyOp20
 70
     1
102
RTVSPropertyOp21
 70
     1
102
RTVSPropertyOp22
 70
     1
102
RTVSPropertyOp23
 70
     1
102
RTVSPropertyOp24
 70
     1
102
RTVSPropertyOp25
 70
     1
102
RTVSPropertyOp26
 70
     1
102
RTVSPropertyOp27
 70
     1
102
RTVSPropertyOp28
 70
     1
102
RTVSPropertyOp29
 70
     1
102
RTVSPropertyOp30
 70
     1
102
RTVSPropertyOp31
 70
     1
102
RTVSPropertyOp32
 70
     1
  0
XRECORD
  5
1C3
102
{ACAD_REACTORS
330
1C2
102
}
330
1C2
100
AcDbXrecord
280
     1
102
RTVSPropertyOp0
 70
     1
102
RTVSPropertyOp1
 70
     1
102
RTVSPropertyOp2
 70
     1
102
RTVSPropertyOp3
 70
     1
102
RTVSPropertyOp4
 70
     1
102
RTVSPropertyOp5
 70
     1
102
RTVSPropertyOp6
 70
     1
102
RTVSPropertyOp7
 70
     1
102
RTVSPropertyOp8
 70
     1
102
RTVSPropertyOp9
 70
     1
102
RTVSPropertyOp10
 70
     1
102
RTVSPropertyOp11
 70
     1
102
RTVSPropertyOp12
 70
     1
102
RTVSPropertyOp13
 70
     1
102
RTVSPropertyOp14
 70
     1
102
RTVSPropertyOp15
 70
     1
102
RTVSPropertyOp16
 70
     1
102
RTVSPropertyOp17
 70
     1
102
RTVSPropertyOp18
 70
     1
102
RTVSPropertyOp19
 70
     1
102
RTVSPropertyOp20
 70
     1
102
RTVSPropertyOp21
 70
     1
102
RTVSPropertyOp22
 70
     1
102
RTVSPropertyOp23
 70
     1
102
RTVSPropertyOp24
 70
     1
102
RTVSPropertyOp25
 70
     1
102
RTVSPropertyOp26
 70
     1
102
RTVSPropertyOp27
 70
     1
102
RTVSPropertyOp28
 70
     1
102
RTVSPropertyOp29
 70
     1
102
RTVSPropertyOp30
 70
     1
102
RTVSPropertyOp31
 70
     1
102
RTVSPropertyOp32
 70
     1
  0
XRECORD
  5
1C5
102
{ACAD_REACTORS
330
1C4
102
}
330
1C4
100
AcDbXrecord
280
     1
102
RTVSPropertyOp0
 70
     1
102
RTVSPropertyOp1
 70
     1
102
RTVSPropertyOp2
 70
     1
102
RTVSPropertyOp3
 70
     1
102
RTVSPropertyOp4
 70
     1
102
RTVSPropertyOp5
 70
     1
102
RTVSPropertyOp6
 70
     1
102
RTVSPropertyOp7
 70
     1
102
RTVSPropertyOp8
 70
     1
102
RTVSPropertyOp9
 70
     1
102
RTVSPropertyOp10
 70
     1
102
RTVSPropertyOp11
 70
     1
102
RTVSPropertyOp12
 70
     1
102
RTVSPropertyOp13
 70
     1
102
RTVSPropertyOp14
 70
     1
102
RTVSPropertyOp15
 70
     1
102
RTVSPropertyOp16
 70
     1
102
RTVSPropertyOp17
 70
     1
102
RTVSPropertyOp18
 70
     1
102
RTVSPropertyOp19
 70
     1
102
RTVSPropertyOp20
 70
     1
102
RTVSPropertyOp21
 70
     1
102
RTVSPropertyOp22
 70
     1
102
RTVSPropertyOp23
 70
     1
102
RTVSPropertyOp24
 70
     1
102
RTVSPropertyOp25
 70
     1
102
RTVSPropertyOp26
 70
     1
102
RTVSPropertyOp27
 70
     1
102
RTVSPropertyOp28
 70
     1
102
RTVSPropertyOp29
 70
     1
102
RTVSPropertyOp30
 70
     1
102
RTVSPropertyOp31
 70
     1
102
RTVSPropertyOp32
 70
     1
  0
XRECORD
  5
1C7
102
{ACAD_REACTORS
330
1C6
102
}
330
1C6
100
AcDbXrecord
280
     1
102
RTVSPropertyOp0
 70
     1
102
RTVSPropertyOp1
 70
     1
102
RTVSPropertyOp2
 70
     1
102
RTVSPropertyOp3
 70
     1
102
RTVSPropertyOp4
 70
     1
102
RTVSPropertyOp5
 70
     1
102
RTVSPropertyOp6
 70
     1
102
RTVSPropertyOp7
 70
     1
102
RTVSPropertyOp8
 70
     1
102
RTVSPropertyOp9
 70
     1
102
RTVSPropertyOp10
 70
     1
102
RTVSPropertyOp11
 70
     1
102
RTVSPropertyOp12
 70
     1
102
RTVSPropertyOp13
 70
     1
102
RTVSPropertyOp14
 70
     1
102
RTVSPropertyOp15
 70
     1
102
RTVSPropertyOp16
 70
     1
102
RTVSPropertyOp17
 70
     1
102
RTVSPropertyOp18
 70
     1
102
RTVSPropertyOp19
 70
     1
102
RTVSPropertyOp20
 70
     1
102
RTVSPropertyOp21
 70
     1
102
RTVSPropertyOp22
 70
     1
102
RTVSPropertyOp23
 70
     1
102
RTVSPropertyOp24
 70
     1
102
RTVSPropertyOp25
 70
     1
102
RTVSPropertyOp26
 70
     1
102
RTVSPropertyOp27
 70
     1
102
RTVSPropertyOp28
 70
     1
102
RTVSPropertyOp29
 70
     1
102
RTVSPropertyOp30
 70
     1
102
RTVSPropertyOp31
 70
     1
102
RTVSPropertyOp32
 70
     1
  0
XRECORD
  5
1CF
102
{ACAD_REACTORS
330
1CE
102
}
330
1CE
100
AcDbXrecord
280
     1
102
RTVSPropertyOp0
 70
     1
102
RTVSPropertyOp1
 70
     1
102
RTVSPropertyOp2
 70
     1
102
RTVSPropertyOp3
 70
     1
102
RTVSPropertyOp4
 70
     1
102
RTVSPropertyOp5
 70
     1
102
RTVSPropertyOp6
 70
     1
102
RTVSPropertyOp7
 70
     1
102
RTVSPropertyOp8
 70
     1
102
RTVSPropertyOp9
 70
     1
102
RTVSPropertyOp10
 70
     1
102
RTVSPropertyOp11
 70
     1
102
RTVSPropertyOp12
 70
     1
102
RTVSPropertyOp13
 70
     1
102
RTVSPropertyOp14
 70
     1
102
RTVSPropertyOp15
 70
     1
102
RTVSPropertyOp16
 70
     1
102
RTVSPropertyOp17
 70
     1
102
RTVSPropertyOp18
 70
     1
102
RTVSPropertyOp19
 70
     1
102
RTVSPropertyOp20
 70
     1
102
RTVSPropertyOp21
 70
     1
102
RTVSPropertyOp22
 70
     1
102
RTVSPropertyOp23
 70
     1
102
RTVSPropertyOp24
 70
     1
102
RTVSPropertyOp25
 70
     1
102
RTVSPropertyOp26
 70
     1
102
RTVSPropertyOp27
 70
     1
102
RTVSPropertyOp28
 70
     1
102
RTVSPropertyOp29
 70
     1
102
RTVSPropertyOp30
 70
     1
102
RTVSPropertyOp31
 70
     1
102
RTVSPropertyOp32
 70
     1
  0
XRECORD
  5
1EB
102
{ACAD_REACTORS
330
1EA
102
}
330
1EA
100
AcDbXrecord
280
     1
102
RTVSPropertyOp0
 70
     0
102
RTVSPropertyOp1
 70
     0
102
RTVSPropertyOp2
 70
     0
102
RTVSPropertyOp3
 70
     0
102
RTVSPropertyOp4
 70
     0
102
RTVSPropertyOp5
 70
     0
102
RTVSPropertyOp6
 70
     0
102
RTVSPropertyOp7
 70
     0
102
RTVSPropertyOp8
 70
     0
102
RTVSPropertyOp9
 70
     0
102
RTVSPropertyOp10
 70
     0
102
RTVSPropertyOp11
 70
     0
102
RTVSPropertyOp12
 70
     0
102
RTVSPropertyOp13
 70
     0
102
RTVSPropertyOp14
 70
     2
102
RTVSPropertyOp15
 70
     0
102
RTVSPropertyOp16
 70
     0
102
RTVSPropertyOp17
 70
     0
102
RTVSPropertyOp18
 70
     0
102
RTVSPropertyOp19
 70
     0
102
RTVSPropertyOp20
 70
     0
102
RTVSPropertyOp21
 70
     0
102
RTVSPropertyOp22
 70
     0
102
RTVSPropertyOp23
 70
     0
102
RTVSPropertyOp24
 70
     0
102
RTVSPropertyOp25
 70
     0
102
RTVSPropertyOp26
 70
     0
102
RTVSPropertyOp27
 70
     0
102
RTVSPropertyOp28
 70
     0
102
RTVSPropertyOp29
 70
     0
102
RTVSPropertyOp30
 70
     0
102
RTVSPropertyOp31
 70
     0
102
RTVSPropertyOp32
 70
     0
  0
XRECORD
  5
1DB
102
{ACAD_REACTORS
330
1DA
102
}
330
1DA
100
AcDbXrecord
280
     1
102
RTVSPropertyOp0
 70
     1
102
RTVSPropertyOp1
 70
     1
102
RTVSPropertyOp2
 70
     1
102
RTVSPropertyOp3
 70
     1
102
RTVSPropertyOp4
 70
     1
102
RTVSPropertyOp5
 70
     1
102
RTVSPropertyOp6
 70
     1
102
RTVSPropertyOp7
 70
     1
102
RTVSPropertyOp8
 70
     1
102
RTVSPropertyOp9
 70
     1
102
RTVSPropertyOp10
 70
     1
102
RTVSPropertyOp11
 70
     1
102
RTVSPropertyOp12
 70
     1
102
RTVSPropertyOp13
 70
     1
102
RTVSPropertyOp14
 70
     1
102
RTVSPropertyOp15
 70
     1
102
RTVSPropertyOp16
 70
     1
102
RTVSPropertyOp17
 70
     1
102
RTVSPropertyOp18
 70
     1
102
RTVSPropertyOp19
 70
     1
102
RTVSPropertyOp20
 70
     1
102
RTVSPropertyOp21
 70
     1
102
RTVSPropertyOp22
 70
     1
102
RTVSPropertyOp23
 70
     1
102
RTVSPropertyOp24
 70
     1
102
RTVSPropertyOp25
 70
     1
102
RTVSPropertyOp26
 70
     1
102
RTVSPropertyOp27
 70
     1
102
RTVSPropertyOp28
 70
     1
102
RTVSPropertyOp29
 70
     1
102
RTVSPropertyOp30
 70
     1
102
RTVSPropertyOp31
 70
     1
102
RTVSPropertyOp32
 70
     1
  0
XRECORD
  5
1ED
102
{ACAD_REACTORS
330
1EC
102
}
330
1EC
100
AcDbXrecord
280
     1
102
RTVSPropertyOp0
 70
     0
102
RTVSPropertyOp1
 70
     0
102
RTVSPropertyOp2
 70
     0
102
RTVSPropertyOp3
 70
     0
102
RTVSPropertyOp4
 70
     0
102
RTVSPropertyOp5
 70
     0
102
RTVSPropertyOp6
 70
     0
102
RTVSPropertyOp7
 70
     0
102
RTVSPropertyOp8
 70
     0
102
RTVSPropertyOp9
 70
     0
102
RTVSPropertyOp10
 70
     0
102
RTVSPropertyOp11
 70
     0
102
RTVSPropertyOp12
 70
     0
102
RTVSPropertyOp13
 70
     0
102
RTVSPropertyOp14
 70
     2
102
RTVSPropertyOp15
 70
     0
102
RTVSPropertyOp16
 70
     0
102
RTVSPropertyOp17
 70
     0
102
RTVSPropertyOp18
 70
     0
102
RTVSPropertyOp19
 70
     0
102
RTVSPropertyOp20
 70
     0
102
RTVSPropertyOp21
 70
     0
102
RTVSPropertyOp22
 70
     0
102
RTVSPropertyOp23
 70
     0
102
RTVSPropertyOp24
 70
     0
102
RTVSPropertyOp25
 70
     0
102
RTVSPropertyOp26
 70
     0
102
RTVSPropertyOp27
 70
     0
102
RTVSPropertyOp28
 70
     0
102
RTVSPropertyOp29
 70
     0
102
RTVSPropertyOp30
 70
     0
102
RTVSPropertyOp31
 70
     0
102
RTVSPropertyOp32
 70
     0
  0
XRECORD
  5
1D3
102
{ACAD_REACTORS
330
1D2
102
}
330
1D2
100
AcDbXrecord
280
     1
102
RTVSPropertyOp0
 70
     1
102
RTVSPropertyOp1
 70
     1
102
RTVSPropertyOp2
 70
     1
102
RTVSPropertyOp3
 70
     1
102
RTVSPropertyOp4
 70
     1
102
RTVSPropertyOp5
 70
     1
102
RTVSPropertyOp6
 70
     1
102
RTVSPropertyOp7
 70
     1
102
RTVSPropertyOp8
 70
     1
102
RTVSPropertyOp9
 70
     1
102
RTVSPropertyOp10
 70
     1
102
RTVSPropertyOp11
 70
     1
102
RTVSPropertyOp12
 70
     1
102
RTVSPropertyOp13
 70
     1
102
RTVSPropertyOp14
 70
     1
102
RTVSPropertyOp15
 70
     1
102
RTVSPropertyOp16
 70
     1
102
RTVSPropertyOp17
 70
     1
102
RTVSPropertyOp18
 70
     1
102
RTVSPropertyOp19
 70
     1
102
RTVSPropertyOp20
 70
     1
102
RTVSPropertyOp21
 70
     1
102
RTVSPropertyOp22
 70
     1
102
RTVSPropertyOp23
 70
     1
102
RTVSPropertyOp24
 70
     1
102
RTVSPropertyOp25
 70
     1
102
RTVSPropertyOp26
 70
     1
102
RTVSPropertyOp27
 70
     1
102
RTVSPropertyOp28
 70
     1
102
RTVSPropertyOp29
 70
     1
102
RTVSPropertyOp30
 70
     1
102
RTVSPropertyOp31
 70
     1
102
RTVSPropertyOp32
 70
     1
  0
XRECORD
  5
1E9
102
{ACAD_REACTORS
330
1E8
102
}
330
1E8
100
AcDbXrecord
280
     1
102
RTVSPropertyOp0
 70
     1
102
RTVSPropertyOp1
 70
     1
102
RTVSPropertyOp2
 70
     1
102
RTVSPropertyOp3
 70
     1
102
RTVSPropertyOp4
 70
     1
102
RTVSPropertyOp5
 70
     1
102
RTVSPropertyOp6
 70
     1
102
RTVSPropertyOp7
 70
     1
102
RTVSPropertyOp8
 70
     1
102
RTVSPropertyOp9
 70
     1
102
RTVSPropertyOp10
 70
     1
102
RTVSPropertyOp11
 70
     1
102
RTVSPropertyOp12
 70
     1
102
RTVSPropertyOp13
 70
     1
102
RTVSPropertyOp14
 70
     1
102
RTVSPropertyOp15
 70
     1
102
RTVSPropertyOp16
 70
     1
102
RTVSPropertyOp17
 70
     1
102
RTVSPropertyOp18
 70
     1
102
RTVSPropertyOp19
 70
     1
102
RTVSPropertyOp20
 70
     1
102
RTVSPropertyOp21
 70
     1
102
RTVSPropertyOp22
 70
     1
102
RTVSPropertyOp23
 70
     1
102
RTVSPropertyOp24
 70
     1
102
RTVSPropertyOp25
 70
     1
102
RTVSPropertyOp26
 70
     1
102
RTVSPropertyOp27
 70
     1
102
RTVSPropertyOp28
 70
     1
102
RTVSPropertyOp29
 70
     1
102
RTVSPropertyOp30
 70
     1
102
RTVSPropertyOp31
 70
     1
102
RTVSPropertyOp32
 70
     1
  0
XRECORD
  5
1E7
102
{ACAD_REACTORS
330
1E6
102
}
330
1E6
100
AcDbXrecord
280
     1
102
RTVSPropertyOp0
 70
     1
102
RTVSPropertyOp1
 70
     1
102
RTVSPropertyOp2
 70
     1
102
RTVSPropertyOp3
 70
     1
102
RTVSPropertyOp4
 70
     1
102
RTVSPropertyOp5
 70
     1
102
RTVSPropertyOp6
 70
     1
102
RTVSPropertyOp7
 70
     1
102
RTVSPropertyOp8
 70
     1
102
RTVSPropertyOp9
 70
     1
102
RTVSPropertyOp10
 70
     1
102
RTVSPropertyOp11
 70
     1
102
RTVSPropertyOp12
 70
     1
102
RTVSPropertyOp13
 70
     1
102
RTVSPropertyOp14
 70
     1
102
RTVSPropertyOp15
 70
     1
102
RTVSPropertyOp16
 70
     1
102
RTVSPropertyOp17
 70
     1
102
RTVSPropertyOp18
 70
     1
102
RTVSPropertyOp19
 70
     1
102
RTVSPropertyOp20
 70
     1
102
RTVSPropertyOp21
 70
     1
102
RTVSPropertyOp22
 70
     1
102
RTVSPropertyOp23
 70
     1
102
RTVSPropertyOp24
 70
     1
102
RTVSPropertyOp25
 70
     1
102
RTVSPropertyOp26
 70
     1
102
RTVSPropertyOp27
 70
     1
102
RTVSPropertyOp28
 70
     1
102
RTVSPropertyOp29
 70
     1
102
RTVSPropertyOp30
 70
     1
102
RTVSPropertyOp31
 70
     1
102
RTVSPropertyOp32
 70
     1
  0
XRECORD
  5
1E1
102
{ACAD_REACTORS
330
1E0
102
}
330
1E0
100
AcDbXrecord
280
     1
102
RTVSPropertyOp0
 70
     1
102
RTVSPropertyOp1
 70
     1
102
RTVSPropertyOp2
 70
     1
102
RTVSPropertyOp3
 70
     1
102
RTVSPropertyOp4
 70
     1
102
RTVSPropertyOp5
 70
     1
102
RTVSPropertyOp6
 70
     1
102
RTVSPropertyOp7
 70
     1
102
RTVSPropertyOp8
 70
     1
102
RTVSPropertyOp9
 70
     1
102
RTVSPropertyOp10
 70
     1
102
RTVSPropertyOp11
 70
     1
102
RTVSPropertyOp12
 70
     1
102
RTVSPropertyOp13
 70
     1
102
RTVSPropertyOp14
 70
     1
102
RTVSPropertyOp15
 70
     1
102
RTVSPropertyOp16
 70
     1
102
RTVSPropertyOp17
 70
     1
102
RTVSPropertyOp18
 70
     1
102
RTVSPropertyOp19
 70
     1
102
RTVSPropertyOp20
 70
     1
102
RTVSPropertyOp21
 70
     1
102
RTVSPropertyOp22
 70
     1
102
RTVSPropertyOp23
 70
     1
102
RTVSPropertyOp24
 70
     1
102
RTVSPropertyOp25
 70
     1
102
RTVSPropertyOp26
 70
     1
102
RTVSPropertyOp27
 70
     1
102
RTVSPropertyOp28
 70
     1
102
RTVSPropertyOp29
 70
     1
102
RTVSPropertyOp30
 70
     1
102
RTVSPropertyOp31
 70
     1
102
RTVSPropertyOp32
 70
     1
  0
XRECORD
  5
1E3
102
{ACAD_REACTORS
330
1E2
102
}
330
1E2
100
AcDbXrecord
280
     1
102
RTVSPropertyOp0
 70
     1
102
RTVSPropertyOp1
 70
     1
102
RTVSPropertyOp2
 70
     1
102
RTVSPropertyOp3
 70
     1
102
RTVSPropertyOp4
 70
     1
102
RTVSPropertyOp5
 70
     1
102
RTVSPropertyOp6
 70
     1
102
RTVSPropertyOp7
 70
     1
102
RTVSPropertyOp8
 70
     1
102
RTVSPropertyOp9
 70
     1
102
RTVSPropertyOp10
 70
     1
102
RTVSPropertyOp11
 70
     1
102
RTVSPropertyOp12
 70
     1
102
RTVSPropertyOp13
 70
     1
102
RTVSPropertyOp14
 70
     1
102
RTVSPropertyOp15
 70
     1
102
RTVSPropertyOp16
 70
     1
102
RTVSPropertyOp17
 70
     1
102
RTVSPropertyOp18
 70
     1
102
RTVSPropertyOp19
 70
     1
102
RTVSPropertyOp20
 70
     1
102
RTVSPropertyOp21
 70
     1
102
RTVSPropertyOp22
 70
     1
102
RTVSPropertyOp23
 70
     1
102
RTVSPropertyOp24
 70
     1
102
RTVSPropertyOp25
 70
     1
102
RTVSPropertyOp26
 70
     1
102
RTVSPropertyOp27
 70
     1
102
RTVSPropertyOp28
 70
     1
102
RTVSPropertyOp29
 70
     1
102
RTVSPropertyOp30
 70
     1
102
RTVSPropertyOp31
 70
     1
102
RTVSPropertyOp32
 70
     1
  0
XRECORD
  5
1D9
102
{ACAD_REACTORS
330
1D8
102
}
330
1D8
100
AcDbXrecord
280
     1
102
RTVSPropertyOp0
 70
     1
102
RTVSPropertyOp1
 70
     1
102
RTVSPropertyOp2
 70
     1
102
RTVSPropertyOp3
 70
     1
102
RTVSPropertyOp4
 70
     1
102
RTVSPropertyOp5
 70
     1
102
RTVSPropertyOp6
 70
     1
102
RTVSPropertyOp7
 70
     1
102
RTVSPropertyOp8
 70
     1
102
RTVSPropertyOp9
 70
     1
102
RTVSPropertyOp10
 70
     1
102
RTVSPropertyOp11
 70
     1
102
RTVSPropertyOp12
 70
     1
102
RTVSPropertyOp13
 70
     1
102
RTVSPropertyOp14
 70
     1
102
RTVSPropertyOp15
 70
     1
102
RTVSPropertyOp16
 70
     1
102
RTVSPropertyOp17
 70
     1
102
RTVSPropertyOp18
 70
     1
102
RTVSPropertyOp19
 70
     1
102
RTVSPropertyOp20
 70
     1
102
RTVSPropertyOp21
 70
     1
102
RTVSPropertyOp22
 70
     1
102
RTVSPropertyOp23
 70
     1
102
RTVSPropertyOp24
 70
     1
102
RTVSPropertyOp25
 70
     1
102
RTVSPropertyOp26
 70
     1
102
RTVSPropertyOp27
 70
     1
102
RTVSPropertyOp28
 70
     1
102
RTVSPropertyOp29
 70
     1
102
RTVSPropertyOp30
 70
     1
102
RTVSPropertyOp31
 70
     1
102
RTVSPropertyOp32
 70
     1
  0
XRECORD
  5
1CD
102
{ACAD_REACTORS
330
1CC
102
}
330
1CC
100
AcDbXrecord
280
     1
102
RTVSPropertyOp0
 70
     1
102
RTVSPropertyOp1
 70
     1
102
RTVSPropertyOp2
 70
     1
102
RTVSPropertyOp3
 70
     1
102
RTVSPropertyOp4
 70
     1
102
RTVSPropertyOp5
 70
     1
102
RTVSPropertyOp6
 70
     1
102
RTVSPropertyOp7
 70
     1
102
RTVSPropertyOp8
 70
     1
102
RTVSPropertyOp9
 70
     1
102
RTVSPropertyOp10
 70
     1
102
RTVSPropertyOp11
 70
     1
102
RTVSPropertyOp12
 70
     1
102
RTVSPropertyOp13
 70
     1
102
RTVSPropertyOp14
 70
     1
102
RTVSPropertyOp15
 70
     1
102
RTVSPropertyOp16
 70
     1
102
RTVSPropertyOp17
 70
     1
102
RTVSPropertyOp18
 70
     1
102
RTVSPropertyOp19
 70
     1
102
RTVSPropertyOp20
 70
     1
102
RTVSPropertyOp21
 70
     1
102
RTVSPropertyOp22
 70
     1
102
RTVSPropertyOp23
 70
     1
102
RTVSPropertyOp24
 70
     1
102
RTVSPropertyOp25
 70
     1
102
RTVSPropertyOp26
 70
     1
102
RTVSPropertyOp27
 70
     1
102
RTVSPropertyOp28
 70
     1
102
RTVSPropertyOp29
 70
     1
102
RTVSPropertyOp30
 70
     1
102
RTVSPropertyOp31
 70
     1
102
RTVSPropertyOp32
 70
     1
  0
XRECORD
  5
1E5
102
{ACAD_REACTORS
330
1E4
102
}
330
1E4
100
AcDbXrecord
280
     1
102
RTVSPropertyOp0
 70
     1
102
RTVSPropertyOp1
 70
     1
102
RTVSPropertyOp2
 70
     1
102
RTVSPropertyOp3
 70
     1
102
RTVSPropertyOp4
 70
     1
102
RTVSPropertyOp5
 70
     1
102
RTVSPropertyOp6
 70
     1
102
RTVSPropertyOp7
 70
     1
102
RTVSPropertyOp8
 70
     1
102
RTVSPropertyOp9
 70
     1
102
RTVSPropertyOp10
 70
     1
102
RTVSPropertyOp11
 70
     1
102
RTVSPropertyOp12
 70
     1
102
RTVSPropertyOp13
 70
     1
102
RTVSPropertyOp14
 70
     1
102
RTVSPropertyOp15
 70
     1
102
RTVSPropertyOp16
 70
     1
102
RTVSPropertyOp17
 70
     1
102
RTVSPropertyOp18
 70
     1
102
RTVSPropertyOp19
 70
     1
102
RTVSPropertyOp20
 70
     1
102
RTVSPropertyOp21
 70
     1
102
RTVSPropertyOp22
 70
     1
102
RTVSPropertyOp23
 70
     1
102
RTVSPropertyOp24
 70
     1
102
RTVSPropertyOp25
 70
     1
102
RTVSPropertyOp26
 70
     1
102
RTVSPropertyOp27
 70
     1
102
RTVSPropertyOp28
 70
     1
102
RTVSPropertyOp29
 70
     1
102
RTVSPropertyOp30
 70
     1
102
RTVSPropertyOp31
 70
     1
102
RTVSPropertyOp32
 70
     1
  0
ENDSEC
  0
EOF
