  0
SECTION
  2
HEADER
  9
$ACADVER
  1
AC1009
  9
$INSBASE
 10
0.0
 20
0.0
 30
0.0
  9
$EXTMIN
 10
-80.010985489947416
 20
-131.67677505465531
 30
-0.0015258207003583
  9
$EXTMAX
 10
280.01098716632811
 20
403.54994963264153
 30
0.0000000349246037
  9
$LIMMIN
 10
0.0
 20
0.0
  9
$LIMMAX
 10
0.0
 20
0.0
  9
$ORTHOMODE
 70
     0
  9
$REGENMODE
 70
     1
  9
$FILLMODE
 70
     1
  9
$QTEXTMODE
 70
     0
  9
$MIRRTEXT
 70
     1
  9
$DRAGMODE
 70
     2
  9
$LTSCALE
 40
10.16
  9
$OSMODE
 70
   231
  9
$ATTMODE
 70
     1
  9
$TEXTSIZE
 40
0.0
  9
$TRACEWID
 40
1.0
  9
$TEXTSTYLE
  7
STANDARD
  9
$CLAYER
  8
DATA
  9
$CELTYPE
  6
BYLAYER
  9
$CECOLOR
 62
   256
  9
$DIMSCALE
 40
1.0
  9
$DIMASZ
 40
0.18
  9
$DIMEXO
 40
0.0625
  9
$DIMDLI
 40
0.38
  9
$DIMRND
 40
0.0
  9
$DIMDLE
 40
0.0
  9
$DIMEXE
 40
0.18
  9
$DIMTP
 40
0.0
  9
$DIMTM
 40
0.0
  9
$DIMTXT
 40
0.18
  9
$DIMCEN
 40
0.09
  9
$DIMTSZ
 40
0.0
  9
$DIMTOL
 70
     0
  9
$DIMLIM
 70
     0
  9
$DIMTIH
 70
     1
  9
$DIMTOH
 70
     1
  9
$DIMSE1
 70
     0
  9
$DIMSE2
 70
     0
  9
$DIMTAD
 70
     0
  9
$DIMZIN
 70
     0
  9
$DIMBLK
  1

  9
$DIMASO
 70
     1
  9
$DIMSHO
 70
     1
  9
$DIMPOST
  1

  9
$DIMAPOST
  1

  9
$DIMALT
 70
     0
  9
$DIMALTD
 70
     2
  9
$DIMALTF
 40
25.399999999999999
  9
$DIMLFAC
 40
1.0
  9
$DIMTOFL
 70
     0
  9
$DIMTVP
 40
0.0
  9
$DIMTIX
 70
     0
  9
$DIMSOXD
 70
     0
  9
$DIMSAH
 70
     0
  9
$DIMBLK1
  1

  9
$DIMBLK2
  1

  9
$DIMSTYLE
  2
STANDARD
  9
$DIMCLRD
 70
     0
  9
$DIMCLRE
 70
     0
  9
$DIMCLRT
 70
     0
  9
$DIMTFAC
 40
1.0
  9
$DIMGAP
 40
0.09
  9
$LUNITS
 70
     2
  9
$LUPREC
 70
     4
  9
$SKETCHINC
 40
0.1
  9
$FILLETRAD
 40
0.0
  9
$AUNITS
 70
     0
  9
$AUPREC
 70
     0
  9
$MENU
  1
acad
  9
$ELEVATION
 40
0.0
  9
$PELEVATION
 40
0.0
  9
$THICKNESS
 40
0.0
  9
$LIMCHECK
 70
     0
  9
$BLIPMODE
 70
     0
  9
$CHAMFERA
 40
0.0
  9
$CHAMFERB
 40
0.0
  9
$SKPOLY
 70
     0
  9
$TDCREATE
 40
2455618.5975462962
  9
$TDUPDATE
 40
2455618.616064549
  9
$TDINDWG
 40
0.0002331019
  9
$TDUSRTIMER
 40
0.0002331019
  9
$USRTIMER
 70
     1
  9
$ANGBASE
 50
0.0
  9
$ANGDIR
 70
     0
  9
$PDMODE
 70
     1
  9
$PDSIZE
 40
-2.0
  9
$PLINEWID
 40
0.0
  9
$COORDS
 70
     1
  9
$SPLFRAME
 70
     0
  9
$SPLINETYPE
 70
     6
  9
$SPLINESEGS
 70
     8
  9
$ATTDIA
 70
     0
  9
$ATTREQ
 70
     1
  9
$HANDLING
 70
     1
  9
$HANDSEED
  5
2C1
  9
$SURFTAB1
 70
     6
  9
$SURFTAB2
 70
     6
  9
$SURFTYPE
 70
     6
  9
$SURFU
 70
     6
  9
$SURFV
 70
     6
  9
$UCSNAME
  2

  9
$UCSORG
 10
0.0
 20
0.0
 30
0.0
  9
$UCSXDIR
 10
1.0
 20
0.0
 30
0.0
  9
$UCSYDIR
 10
0.0
 20
1.0
 30
0.0
  9
$PUCSNAME
  2

  9
$PUCSORG
 10
0.0
 20
0.0
 30
0.0
  9
$PUCSXDIR
 10
1.0
 20
0.0
 30
0.0
  9
$PUCSYDIR
 10
0.0
 20
1.0
 30
0.0
  9
$USERI1
 70
     0
  9
$USERI2
 70
     0
  9
$USERI3
 70
     0
  9
$USERI4
 70
     0
  9
$USERI5
 70
     0
  9
$USERR1
 40
0.0
  9
$USERR2
 40
0.0
  9
$USERR3
 40
0.0
  9
$USERR4
 40
0.0
  9
$USERR5
 40
0.0
  9
$WORLDVIEW
 70
     1
  9
$SHADEDGE
 70
     3
  9
$SHADEDIF
 70
    70
  9
$TILEMODE
 70
     1
  9
$MAXACTVP
 70
    64
  9
$PLIMCHECK
 70
     0
  9
$PEXTMIN
 10
1.0000000000000000E+020
 20
1.0000000000000000E+020
 30
1.0000000000000000E+020
  9
$PEXTMAX
 10
-1.0000000000000000E+020
 20
-1.0000000000000000E+020
 30
-1.0000000000000000E+020
  9
$PLIMMIN
 10
0.0
 20
0.0
  9
$PLIMMAX
 10
12.0
 20
9.0
  9
$UNITMODE
 70
     0
  9
$VISRETAIN
 70
     0
  9
$PLINEGEN
 70
     1
  9
$PSLTSCALE
 70
     0
  0
ENDSEC
  0
SECTION
  2
TABLES
  0
TABLE
  2
VPORT
 70
     1
  0
VPORT
  2
*ACTIVE
 70
     0
 10
0.0
 20
0.0
 11
1.0
 21
1.0
 12
100.0000008381904
 22
135.93658728899311
 13
0.0
 23
0.0
 14
1.0
 24
1.0
 15
0.0
 25
0.0
 16
0.0
 26
0.0
 36
1.0
 17
0.0
 27
0.0
 37
0.0
 40
539.16704413284754
 41
1.9619164619164611
 42
50.0
 43
0.0
 44
0.0
 50
0.0
 51
0.0
 71
     0
 72
  2000
 73
     1
 74
     1
 75
     0
 76
     0
 77
     0
 78
     0
  0
ENDTAB
  0
TABLE
  2
LTYPE
 70
    11
  0
LTYPE
  2
CONTINUOUS
 70
     0
  3
Solid line
 72
    65
 73
     0
 40
0.0
  0
ENDTAB
  0
TABLE
  2
LAYER
 70
     5
  0
LAYER
  2
0
 70
     0
 62
     7
  6
CONTINUOUS
  0
LAYER
  2
DATA
 70
     0
 62
     7
  6
CONTINUOUS
  0
LAYER
  2
HIBINO-BASE
 70
     0
 62
     7
  6
CONTINUOUS
  0
LAYER
  2
SPEC
 70
     0
 62
     7
  6
CONTINUOUS
  0
LAYER
  2
DIMNSIONS
 70
     0
 62
     7
  6
CONTINUOUS
  0
ENDTAB
  0
TABLE
  2
STYLE
 70
     3
  0
STYLE
  2
STANDARD
 70
     0
 40
0.0
 41
1.0
 50
0.0
 71
     0
 42
0.0
  3
txt
  4
BIGFONT.SHX
  0
ENDTAB
  0
TABLE
  2
VIEW
 70
     0
  0
ENDTAB
  0
TABLE
  2
UCS
 70
     0
  0
ENDTAB
  0
TABLE
  2
APPID
 70
     3
  0
APPID
  2
ACAD
 70
     0
  0
APPID
  2
ACADANNOTATIVE
 70
     0
  0
APPID
  2
ACAD_MLEADERVER
 70
     0
  0
ENDTAB
  0
TABLE
  2
DIMSTYLE
 70
     2
  0
DIMSTYLE
  2
STANDARD
 70
     0
  3

  4

  5

  6

  7

 40
1.0
 41
0.18
 42
0.0625
 43
0.38
 44
0.18
 45
0.0
 46
0.0
 47
0.0
 48
0.0
140
0.18
141
0.09
142
0.0
143
25.399999999999999
144
1.0
145
0.0
146
1.0
147
0.09
 71
     0
 72
     0
 73
     1
 74
     1
 75
     0
 76
     0
 77
     0
 78
     0
170
     0
171
     2
172
     0
173
     0
174
     0
175
     0
176
     0
177
     0
178
     0
  0
ENDTAB
  0
ENDSEC
  0
SECTION
  2
BLOCKS
  0
BLOCK
  8
0
  2
$MODEL_SPACE
 70
     0
 10
0.0
 20
0.0
 30
0.0
  3
$MODEL_SPACE
  1

  0
ENDBLK
  5
258
  8
0
  0
BLOCK
 67
     1
  8
0
  2
$PAPER_SPACE
 70
     0
 10
0.0
 20
0.0
 30
0.0
  3
$PAPER_SPACE
  1

  0
ENDBLK
  5
254
 67
     1
  8
0
  0
ENDSEC
  0
SECTION
  2
ENTITIES
  0
LINE
  5
2C
  8
HIBINO-BASE
  6
CONTINUOUS
 62
     7
 10
-79.999999999999986
 20
403.53364789486591
 30
0.0
 11
279.99999999999989
 21
403.53364789486591
 31
0.0
  0
LINE
  5
2D
  8
HIBINO-BASE
  6
CONTINUOUS
 62
     7
 10
279.99999999999989
 20
-116.46635210513411
 30
0.0
 11
-79.999999999999986
 21
-116.46635210513411
 31
0.0
  0
LINE
  5
2E
  8
HIBINO-BASE
  6
CONTINUOUS
 62
     7
 10
-79.999999999999986
 20
-116.46635210513411
 30
0.0
 11
-79.999999999999986
 21
403.53364789486591
 31
0.0
  0
LINE
  5
2F
  8
HIBINO-BASE
  6
CONTINUOUS
 62
     7
 10
279.99999999999989
 20
403.53364789486591
 30
0.0
 11
279.99999999999989
 21
-116.46635210513411
 31
0.0
  0
LINE
  5
30
  8
HIBINO-BASE
  6
CONTINUOUS
 62
     7
 10
100.0
 20
-71.466352105134064
 30
0.0
 11
279.99999999999989
 21
-71.466352105134064
 31
0.0
  0
LINE
  5
31
  8
HIBINO-BASE
  6
CONTINUOUS
 62
     7
 10
100.0
 20
-116.46635210513411
 30
0.0
 11
100.0
 21
-71.466352105134064
 31
0.0
  0
TEXT
  5
32
  8
HIBINO-BASE
 62
     7
 10
101.8
 20
-76.483738771800731
 30
0.0
 40
3.2576822916666659
  1
NOTE
 41
0.7
 11
101.8
 21
-73.226056480134062
 31
0.0
 73
     3
  0
LINE
  5
33
  8
HIBINO-BASE
  6
CONTINUOUS
 62
     7
 10
170.0
 20
-116.46635210513411
 30
0.0
 11
170.0
 21
-71.466352105134064
 31
0.0
  0
TEXT
  5
34
  8
HIBINO-BASE
 62
     7
 10
171.7999999999999
 20
-76.483738771800731
 30
0.0
 40
3.2576822916666659
  1
TITLE
 41
0.7
 11
171.7999999999999
 21
-73.226056480134062
 31
0.0
 73
     3
  0
LINE
  5
35
  8
HIBINO-BASE
  6
CONTINUOUS
 62
     7
 10
100.0
 20
-96.466352105134064
 30
0.0
 11
279.99999999999989
 21
-96.466352105134064
 31
0.0
  0
TEXT
  5
36
  8
HIBINO-BASE
 62
     7
 10
196.80000000000001
 20
-101.3710987718007
 30
0.0
 40
3.2576822916666659
  1
DRAWN
 41
0.7
 11
196.80000000000001
 21
-98.113416480134106
 31
0.0
 73
     3
  0
TEXT
  5
37
  8
HIBINO-BASE
 62
     7
 10
146.7999999999999
 20
-101.3710987718007
 30
0.0
 40
3.2576822916666659
  1
DATE
 41
0.7
 11
146.7999999999999
 21
-98.113416480134106
 31
0.0
 73
     3
  0
TEXT
  5
38
  8
HIBINO-BASE
 62
     7
 10
126.8
 20
-101.3710987718007
 30
0.0
 40
3.2576822916666659
  1
SCALE
 41
0.7
 11
126.8
 21
-98.113416480134106
 31
0.0
 73
     3
  0
TEXT
  5
39
  8
HIBINO-BASE
 62
     7
 10
171.7999999999999
 20
-101.3710987718007
 30
0.0
 40
3.2576822916666659
  1
DESIGN
 41
0.7
 11
171.7999999999999
 21
-98.113416480134106
 31
0.0
 73
     3
  0
TEXT
  5
3A
  8
HIBINO-BASE
 62
     7
 10
246.7999999999999
 20
-101.3710987718007
 30
0.0
 40
3.2576822916666659
  1
DRAWING NO.
 41
0.7
 11
246.7999999999999
 21
-98.113416480134106
 31
0.0
 73
     3
  0
TEXT
  5
3B
  8
HIBINO-BASE
 62
     7
 10
221.7999999999999
 20
-101.3710987718007
 30
0.0
 40
3.2576822916666659
  1
CHECK
 41
0.7
 11
221.7999999999999
 21
-98.113416480134106
 31
0.0
 73
     3
  0
LINE
  5
3C
  8
HIBINO-BASE
  6
CONTINUOUS
 62
     7
 10
128.74999999999989
 20
-113.96635210513411
 30
0.0
 11
136.25
 21
-106.46635210513401
 31
0.0
  0
TEXT
  5
3D
  8
HIBINO-BASE
 62
     7
 10
127.5
 20
-108.68423877180069
 30
0.0
 40
3.2576822916666659
  1
1
 41
0.7
 11
127.5
 21
-105.4265564801341
 31
0.0
 73
     3
  0
LINE
  5
3E
  8
HIBINO-BASE
  6
CONTINUOUS
 62
     7
 10
125.0
 20
-116.46635210513411
 30
0.0
 11
125.0
 21
-96.466352105134064
 31
0.0
  0
LINE
  5
3F
  8
HIBINO-BASE
  6
CONTINUOUS
 62
     7
 10
145.0
 20
-116.46635210513411
 30
0.0
 11
145.0
 21
-96.466352105134064
 31
0.0
  0
LINE
  5
40
  8
HIBINO-BASE
  6
CONTINUOUS
 62
     7
 10
195.0
 20
-96.466352105134064
 30
0.0
 11
195.0
 21
-116.46635210513411
 31
0.0
  0
LINE
  5
41
  8
HIBINO-BASE
  6
CONTINUOUS
 62
     7
 10
245.0
 20
-96.466352105134064
 30
0.0
 11
245.0
 21
-116.46635210513411
 31
0.0
  0
LINE
  5
42
  8
HIBINO-BASE
  6
CONTINUOUS
 62
     7
 10
220.0
 20
-116.46635210513411
 30
0.0
 11
220.0
 21
-96.466352105134064
 31
0.0
  0
TEXT
  5
43
  8
HIBINO-BASE
 62
     7
 10
146.71307999999999
 20
-110.7390587718007
 30
0.0
 40
3.2576822916666659
  1
'11.02.
 41
0.7
 11
146.71307999999999
 21
-107.4813764801341
 31
0.0
 73
     3
  0
TEXT
  5
44
  8
HIBINO-BASE
 62
     7
 10
135.0
 20
-112.43423877180069
 30
0.0
 40
3.2576822916666659
  1
2
 41
0.7
 11
135.0
 21
-109.1765564801341
 31
0.0
 73
     3
  0
TEXT
  5
45
  8
HIBINO-BASE
 62
     7
 10
198.0116200220692
 20
-110.7390587718007
 30
0.0
 40
3.2576822916666659
  1
T.Ootake
 41
0.7
 11
198.0116200220692
 21
-107.4813764801341
 31
0.0
 73
     3
  0
TEXT
  5
46
  8
HIBINO-BASE
 62
     7
 10
107.76666666666659
 20
-112.51435210513399
 30
0.0
 40
6.5153645833333318
  1
A4
 41
0.7
 11
107.76666666666659
 21
-105.9989875218007
 31
0.0
 73
     3
  0
TEXT
  5
47
  8
HIBINO-BASE
 62
     7
 10
101.9166666666666
 20
-101.7052621051341
 30
0.0
 40
3.2576822916666659
  1
PAPER SIZE
 41
0.7
 11
101.9166666666666
 21
-98.447579813467414
 31
0.0
 73
     3
  0
TEXT
  5
48
  8
HIBINO-BASE
 62
     7
 10
-74.48072948621963
 20
-129.31683257348661
 30
0.0
 40
7.0583116319444441
  1
Hibino-Intersound Corporation
 41
0.7
 11
-74.48072948621963
 21
-122.2585209415421
 31
0.0
 73
     3
  0
TEXT
  5
49
  8
HIBINO-BASE
 62
     7
 10
140.36121936042781
 20
-128.61465606690771
 30
0.0
 40
7.0583116319444441
  1
ヒビノインターサウンド株式会社
 41
0.7
 11
140.36121936042781
 21
-121.55634443496329
 31
0.0
 73
     3
  0
LINE
  5
4A
  8
SPEC
  6
CONTINUOUS
 62
     7
 10
-64.999999999999986
 20
383.53364789486602
 30
0.0
 11
265.0
 21
383.53364789486602
 31
0.0
  0
LINE
  5
4B
  8
SPEC
  6
CONTINUOUS
 62
     7
 10
-64.999999999999986
 20
376.03364789486591
 30
0.0
 11
265.0
 21
376.03364789486591
 31
0.0
  0
LINE
  5
4C
  8
SPEC
  6
CONTINUOUS
 62
     7
 10
-64.999999999999986
 20
361.03364789486602
 30
0.0
 11
265.0
 21
361.03364789486602
 31
0.0
  0
LINE
  5
4D
  8
SPEC
  6
CONTINUOUS
 62
     7
 10
-64.999999999999986
 20
368.53364789486602
 30
0.0
 11
265.0
 21
368.53364789486602
 31
0.0
  0
LINE
  5
4E
  8
SPEC
  6
CONTINUOUS
 62
     7
 10
-64.999999999999986
 20
383.53364789486602
 30
0.0
 11
-64.999999999999986
 21
308.53364789486602
 31
0.0
  0
TEXT
  5
4F
  8
SPEC
 62
     7
 10
-62.5
 20
386.32018789486591
 30
0.0
 40
4.8865234375000002
  1
仕様
 41
0.7
 11
-62.5
 21
391.2067113323659
 31
0.0
 73
     3
  0
LINE
  5
50
  8
SPEC
  6
CONTINUOUS
 62
     7
 10
265.0
 20
383.53364789486602
 30
0.0
 11
265.0
 21
308.53364789486602
 31
0.0
  0
LINE
  5
51
  8
SPEC
  6
CONTINUOUS
 62
     7
 10
-64.999999999999986
 20
353.53364789486602
 30
0.0
 11
265.0
 21
353.53364789486602
 31
0.0
  0
LINE
  5
52
  8
SPEC
  6
CONTINUOUS
 62
     7
 10
-64.999999999999986
 20
346.03364789486602
 30
0.0
 11
265.0
 21
346.03364789486602
 31
0.0
  0
LINE
  5
53
  8
SPEC
  6
CONTINUOUS
 62
     7
 10
-64.999999999999986
 20
338.53364789486591
 30
0.0
 11
265.0
 21
338.53364789486591
 31
0.0
  0
LINE
  5
54
  8
SPEC
  6
CONTINUOUS
 62
     7
 10
-64.999999999999986
 20
331.03364789486602
 30
0.0
 11
265.0
 21
331.03364789486602
 31
0.0
  0
LINE
  5
55
  8
SPEC
  6
CONTINUOUS
 62
     7
 10
-64.999999999999986
 20
323.53364789486602
 30
0.0
 11
265.0
 21
323.53364789486602
 31
0.0
  0
LINE
  5
56
  8
SPEC
  6
CONTINUOUS
 62
     7
 10
-64.999999999999986
 20
316.03364789486602
 30
0.0
 11
265.0
 21
316.03364789486602
 31
0.0
  0
LINE
  5
57
  8
SPEC
  6
CONTINUOUS
 62
     7
 10
-64.999999999999986
 20
308.53364789486602
 30
0.0
 11
265.0
 21
308.53364789486602
 31
0.0
  0
TEXT
  5
58
  8
SPEC
 62
     7
 10
31.29869943347299
 20
325.25186642735912
 30
0.0
 40
3.8006293402777769
  1
\U+03A619\U+00D723mm(DD0251実装時）、\U+03A619\U+00D725mm(DD0297実装時）、\U+03A619\U+00D723mm(DD0254実装時）(突起部含まず）
 41
0.7
 11
31.29869943347299
 21
329.0524957676368
 31
0.0
 73
     3
  0
TEXT
  5
59
  8
SPEC
 62
     7
 10
31.68207979788793
 20
332.97569744752508
 30
0.0
 40
3.8006293402777769
  1
約24g（DD0251実装時）、約24g（DD0297実装時）、約22g（DD0254実装時）
 41
0.7
 11
31.68207979788793
 21
336.77632678780287
 31
0.0
 73
     3
  0
LINE
  5
5A
  8
SPEC
  6
CONTINUOUS
 62
     7
 10
30.000000000000011
 20
383.53364789486602
 30
0.0
 11
30.000000000000011
 21
308.53364789486602
 31
0.0
  0
TEXT
  5
5B
  8
SPEC
 62
     7
 10
-63.194501032331097
 20
310.36909461892049
 30
0.0
 40
3.8006293402777769
  1
使用湿度範囲
 41
0.7
 11
-63.194501032331097
 21
314.16972395919828
 31
0.0
 73
     3
  0
TEXT
  5
5C
  8
SPEC
 62
     7
 10
31.834063253560171
 20
310.41075385980918
 30
0.0
 40
3.8006293402777769
  1
90%%%以下
 41
0.7
 11
31.834063253560171
 21
314.21138320008703
 31
0.0
 73
     3
  0
TEXT
  5
5D
  8
SPEC
 62
     7
 10
-63.268238828231873
 20
318.0341561006021
 30
0.0
 40
3.8006293402777769
  1
使用温度範囲
 41
0.7
 11
-63.268238828231873
 21
321.83478544088001
 31
0.0
 73
     3
  0
TEXT
  5
5E
  8
SPEC
 62
     7
 10
31.819710311145521
 20
317.61118838136582
 30
0.0
 40
3.8006293402777769
  1
-40℃～45℃
 41
0.7
 11
31.819710311145521
 21
321.41181772164362
 31
0.0
 73
     3
  0
TEXT
  5
5F
  8
SPEC
 62
     7
 10
-63.350609043219613
 20
325.39793357128741
 30
0.0
 40
3.8006293402777769
  1
寸法
 41
0.7
 11
-63.350609043219613
 21
329.19856291156509
 31
0.0
 73
     3
  0
TEXT
  5
60
  8
SPEC
 62
     7
 10
-63.365611014050721
 20
332.94420018894527
 30
0.0
 40
3.8006293402777769
  1
重量
 41
0.7
 11
-63.365611014050721
 21
336.74482952922313
 31
0.0
 73
     3
  0
TEXT
  5
61
  8
SPEC
 62
     7
 10
-63.110848461225423
 20
340.43156919455407
 30
0.0
 40
3.8006293402777769
  1
色
 41
0.7
 11
-63.110848461225423
 21
344.23219853483192
 31
0.0
 73
     3
  0
TEXT
  5
62
  8
SPEC
 62
     7
 10
31.63357693905759
 20
340.2930509971975
 30
0.0
 40
3.8006293402777769
  1
マットブラック
 41
0.7
 11
31.63357693905759
 21
344.09368033747529
 31
0.0
 73
     3
  0
TEXT
  5
63
  8
SPEC
 62
     7
 10
-63.348952886602319
 20
347.77141499801849
 30
0.0
 40
3.8006293402777769
  1
等価雑音レベル(Aウェイト、代表値)
 41
0.7
 11
-63.348952886602319
 21
351.57204433829639
 31
0.0
 73
     3
  0
TEXT
  5
64
  8
SPEC
 62
     7
 10
31.61215911034633
 20
347.75233861582228
 30
0.0
 40
3.8006293402777769
  1
15dB SPL
 41
0.7
 11
31.61215911034633
 21
351.55296795610019
 31
0.0
 73
     3
  0
TEXT
  5
65
  8
SPEC
 62
     7
 10
-63.254064117537602
 20
355.35668415014828
 30
0.0
 40
3.8006293402777769
  1
感度(\U+00B12dB@250Hz、公称値）
 41
0.7
 11
-63.254064117537602
 21
359.15731349042608
 31
0.0
 73
     3
  0
TEXT
  5
66
  8
SPEC
 62
     7
 10
31.95271226351241
 20
355.29491165134209
 30
0.0
 40
3.8006293402777769
  1
-28dB re、1V/Pa
 41
0.7
 11
31.95271226351241
 21
359.09554099161988
 31
0.0
 73
     3
  0
TEXT
  5
67
  8
SPEC
 62
     7
 10
-63.213052856357777
 20
362.81482316004133
 30
0.0
 40
3.8006293402777769
  1
周波数レンジ(\U+00B12dB)
 41
0.7
 11
-63.213052856357777
 21
366.61545250031912
 31
0.0
 73
     3
  0
TEXT
  5
68
  8
SPEC
 62
     7
 10
31.619570166931741
 20
362.77108424801281
 30
0.0
 40
3.8006293402777769
  1
10Hz～20kHz
 41
0.7
 11
31.619570166931741
 21
366.57171358829061
 31
0.0
 73
     3
  0
TEXT
  5
69
  8
SPEC
 62
     7
 10
-63.550675105855028
 20
370.3644367601056
 30
0.0
 40
3.8006293402777769
  1
カートリッジ
 41
0.7
 11
-63.550675105855028
 21
374.1650661003834
 31
0.0
 73
     3
  0
TEXT
  5
6A
  8
SPEC
 62
     7
 10
-63.278234863432218
 20
377.79614941149953
 30
0.0
 40
3.8006293402777769
  1
指向性
 41
0.7
 11
-63.278234863432218
 21
381.59677875177732
 31
0.0
 73
     3
  0
TEXT
  5
6B
  8
SPEC
 62
     7
 10
31.66225577037773
 20
377.88880178122821
 30
0.0
 40
3.8006293402777769
  1
無指向性
 41
0.7
 11
31.66225577037773
 21
381.689431121506
 31
0.0
 73
     3
  0
TEXT
  5
6C
  8
SPEC
 62
     7
 10
31.245421492139261
 20
370.41068135554929
 30
0.0
 40
3.8006293402777769
  1
プリポラライズド・コンデンサー
 41
0.7
 11
31.245421492139261
 21
374.21131069582708
 31
0.0
 73
     3
  0
TEXT
  5
6D
  8
DIMNSIONS
 62
     7
 10
60.0
 20
-91.927372105134054
 30
0.0
 40
4.8865234375000002
  1
(単位：mm)
 41
0.7
 11
60.0
 21
-87.040848667634066
 31
0.0
 73
     3
  0
LINE
  5
6E
  8
DIMNSIONS
  6
CONTINUOUS
 62
     7
 10
97.849999999999966
 20
172.5675769709386
 30
0.0
 11
102.8211557655777
 21
181.25
 31
0.0
  0
LINE
  5
6F
  8
DIMNSIONS
  6
CONTINUOUS
 62
     7
 10
97.849999999999966
 20
172.5675769709386
 30
0.0
 11
99.190079590300456
 21
177.5688220881261
 31
0.0
  0
LINE
  5
70
  8
DIMNSIONS
  6
CONTINUOUS
 62
     7
 10
97.849999999999966
 20
172.5675769709386
 30
0.0
 11
101.511165526887
 21
176.22874249782561
 31
0.0
  0
LINE
  5
71
  8
DIMNSIONS
  6
CONTINUOUS
 62
     7
 10
102.8211557655777
 20
181.25
 30
0.0
 11
120.9322668766888
 21
181.25
 31
0.0
  0
TEXT
  5
72
  8
DIMNSIONS
 62
     7
 10
106.8211557655778
 20
183.23777777777781
 30
0.0
 40
5.4294704861111107
  1
\U+03C616
 41
0.7
 11
106.8211557655778
 21
188.66724826388889
 31
0.0
 73
     3
  0
LINE
  5
73
  8
DIMNSIONS
  6
CONTINUOUS
 62
     7
 10
204.4710449449484
 20
171.11243048566249
 30
0.0
 11
212.5
 21
181.25
 31
0.0
  0
LINE
  5
74
  8
DIMNSIONS
  6
CONTINUOUS
 62
     7
 10
204.4710449449484
 20
171.11243048566249
 30
0.0
 11
206.57699303620009
 21
175.84246734254691
 31
0.0
  0
LINE
  5
75
  8
DIMNSIONS
  6
CONTINUOUS
 62
     7
 10
204.4710449449484
 20
171.11243048566249
 30
0.0
 11
208.659867919466
 21
174.15578851893531
 31
0.0
  0
LINE
  5
76
  8
DIMNSIONS
  6
CONTINUOUS
 62
     7
 10
212.5
 20
181.25
 30
0.0
 11
230.61111111111109
 21
181.25
 31
0.0
  0
TEXT
  5
77
  8
DIMNSIONS
 62
     7
 10
216.5
 20
183.23777777777781
 30
0.0
 40
5.4294704861111107
  1
\U+03C614
 41
0.7
 11
216.5
 21
188.66724826388889
 31
0.0
 73
     3
  0
LINE
  5
78
  8
DIMNSIONS
  6
CONTINUOUS
 62
     7
 10
80.375000000220453
 20
109.37499999968711
 30
0.0
 11
71.0
 21
109.37499999968711
 31
0.0
  0
LINE
  5
79
  8
DIMNSIONS
  6
CONTINUOUS
 62
     7
 10
81.875000000220453
 20
134.37499999968711
 30
0.0
 11
71.0
 21
134.37499999968711
 31
0.0
  0
LINE
  5
7A
  8
DIMNSIONS
  6
CONTINUOUS
 62
     7
 10
75.0
 20
109.37499999968711
 30
0.0
 11
75.0
 21
134.37499999968711
 31
0.0
  0
LINE
  5
7B
  8
DIMNSIONS
  6
CONTINUOUS
 62
     7
 10
75.0
 20
109.37499999968711
 30
0.0
 11
73.659920409699509
 21
114.3762451168746
 31
0.0
  0
LINE
  5
7C
  8
DIMNSIONS
  6
CONTINUOUS
 62
     7
 10
75.0
 20
109.37499999968711
 30
0.0
 11
76.340079590300505
 21
114.3762451168746
 31
0.0
  0
LINE
  5
7D
  8
DIMNSIONS
  6
CONTINUOUS
 62
     7
 10
75.0
 20
134.37499999968711
 30
0.0
 11
76.340079590300505
 21
129.37375488249961
 31
0.0
  0
LINE
  5
7E
  8
DIMNSIONS
  6
CONTINUOUS
 62
     7
 10
75.0
 20
134.37499999968711
 30
0.0
 11
73.659920409699509
 21
129.37375488249961
 31
0.0
  0
TEXT
  5
7F
  8
DIMNSIONS
 62
     7
 10
73.012222222222221
 20
118.34722222190931
 30
0.0
 40
5.4294704861111107
  1
25
 50
90.0
 41
0.7
 11
67.582751736111106
 21
118.34722222190931
 31
0.0
 73
     3
  0
LINE
  5
80
  8
DIMNSIONS
  6
CONTINUOUS
 62
     7
 10
186.62500000022041
 20
109.37499999968711
 30
0.0
 11
177.25
 21
109.37499999968711
 31
0.0
  0
LINE
  5
81
  8
DIMNSIONS
  6
CONTINUOUS
 62
     7
 10
189.12500000022041
 20
132.37499999968711
 30
0.0
 11
177.25
 21
132.37499999968711
 31
0.0
  0
LINE
  5
82
  8
DIMNSIONS
  6
CONTINUOUS
 62
     7
 10
181.25
 20
109.37499999968711
 30
0.0
 11
181.25
 21
132.37499999968711
 31
0.0
  0
LINE
  5
83
  8
DIMNSIONS
  6
CONTINUOUS
 62
     7
 10
181.25
 20
109.37499999968711
 30
0.0
 11
179.90992040969951
 21
114.3762451168746
 31
0.0
  0
LINE
  5
84
  8
DIMNSIONS
  6
CONTINUOUS
 62
     7
 10
181.25
 20
109.37499999968711
 30
0.0
 11
182.59007959030049
 21
114.3762451168746
 31
0.0
  0
LINE
  5
85
  8
DIMNSIONS
  6
CONTINUOUS
 62
     7
 10
181.25
 20
132.37499999968711
 30
0.0
 11
182.59007959030049
 21
127.3737548824996
 31
0.0
  0
LINE
  5
86
  8
DIMNSIONS
  6
CONTINUOUS
 62
     7
 10
181.25
 20
132.37499999968711
 30
0.0
 11
179.90992040969951
 21
127.3737548824996
 31
0.0
  0
TEXT
  5
87
  8
DIMNSIONS
 62
     7
 10
179.26222222222219
 20
117.34722222190931
 30
0.0
 40
5.4294704861111107
  1
23
 50
90.0
 41
0.7
 11
173.83275173611111
 21
117.34722222190931
 31
0.0
 73
     3
  0
LINE
  5
88
  8
DIMNSIONS
  6
CONTINUOUS
 62
     7
 10
-25.874999999779551
 20
109.37499999968711
 30
0.0
 11
-35.250000000000007
 21
109.37499999968711
 31
0.0
  0
LINE
  5
89
  8
DIMNSIONS
  6
CONTINUOUS
 62
     7
 10
-24.374999999779551
 20
132.37499999968711
 30
0.0
 11
-35.250000000000007
 21
132.37499999968711
 31
0.0
  0
LINE
  5
8A
  8
DIMNSIONS
  6
CONTINUOUS
 62
     7
 10
-31.250000000000011
 20
109.37499999968711
 30
0.0
 11
-31.250000000000011
 21
132.37499999968711
 31
0.0
  0
LINE
  5
8B
  8
DIMNSIONS
  6
CONTINUOUS
 62
     7
 10
-31.250000000000011
 20
109.37499999968711
 30
0.0
 11
-32.590079590300498
 21
114.3762451168746
 31
0.0
  0
LINE
  5
8C
  8
DIMNSIONS
  6
CONTINUOUS
 62
     7
 10
-31.250000000000011
 20
109.37499999968711
 30
0.0
 11
-29.90992040969952
 21
114.3762451168746
 31
0.0
  0
LINE
  5
8D
  8
DIMNSIONS
  6
CONTINUOUS
 62
     7
 10
-31.250000000000011
 20
132.37499999968711
 30
0.0
 11
-29.90992040969952
 21
127.3737548824996
 31
0.0
  0
LINE
  5
8E
  8
DIMNSIONS
  6
CONTINUOUS
 62
     7
 10
-31.250000000000011
 20
132.37499999968711
 30
0.0
 11
-32.590079590300498
 21
127.3737548824996
 31
0.0
  0
TEXT
  5
8F
  8
DIMNSIONS
 62
     7
 10
-33.237777777777772
 20
117.34722222190931
 30
0.0
 40
5.4294704861111107
  1
23
 50
90.0
 41
0.7
 11
-38.667248263888887
 21
117.34722222190931
 31
0.0
 73
     3
  0
LINE
  5
90
  8
DIMNSIONS
  6
CONTINUOUS
 62
     7
 10
-9.4553124116670801
 20
173.07318262284019
 30
0.0
 11
-6.25
 21
181.25
 31
0.0
  0
LINE
  5
91
  8
DIMNSIONS
  6
CONTINUOUS
 62
     7
 10
-9.4553124116670801
 20
173.07318262284019
 30
0.0
 11
-8.8243131754405937
 21
178.21225899845601
 31
0.0
  0
LINE
  5
92
  8
DIMNSIONS
  6
CONTINUOUS
 62
     7
 10
-9.4553124116670801
 20
173.07318262284019
 30
0.0
 11
-6.3393128555184139
 21
177.2082536979988
 31
0.0
  0
LINE
  5
93
  8
DIMNSIONS
  6
CONTINUOUS
 62
     7
 10
-6.25
 20
181.25
 30
0.0
 11
11.861111111111111
 21
181.25
 31
0.0
  0
TEXT
  5
94
  8
DIMNSIONS
 62
     7
 10
-2.25
 20
183.23777777777781
 30
0.0
 40
5.4294704861111107
  1
\U+03C616
 41
0.7
 11
-2.25
 21
188.66724826388889
 31
0.0
 73
     3
  0
LINE
  5
95
  8
DIMNSIONS
  6
CONTINUOUS
 62
     7
 10
-11.46717366950479
 20
175.0815242741721
 30
0.0
 11
-9.374999999999984
 21
196.875
 31
0.0
  0
LINE
  5
96
  8
DIMNSIONS
  6
CONTINUOUS
 62
     7
 10
-11.46717366950479
 20
175.0815242741721
 30
0.0
 11
-12.2771396970703
 21
180.1954485075492
 31
0.0
  0
LINE
  5
97
  8
DIMNSIONS
  6
CONTINUOUS
 62
     7
 10
-11.46717366950479
 20
175.0815242741721
 30
0.0
 11
-9.6116627088903481
 21
179.91529558708831
 31
0.0
  0
LINE
  5
98
  8
DIMNSIONS
  6
CONTINUOUS
 62
     7
 10
-9.374999999999984
 20
196.875
 30
0.0
 11
8.7361111111111285
 21
196.875
 31
0.0
  0
TEXT
  5
99
  8
DIMNSIONS
 62
     7
 10
-5.3749999999999849
 20
198.86277777777781
 30
0.0
 40
5.4294704861111107
  1
\U+03C619
 41
0.7
 11
-5.3749999999999849
 21
204.29224826388889
 31
0.0
 73
     3
  0
LINE
  5
9A
  8
DIMNSIONS
  6
CONTINUOUS
 62
     7
 10
94.782826330495865
 20
175.08152427417909
 30
0.0
 11
96.875
 21
196.875
 31
0.0
  0
LINE
  5
9B
  8
DIMNSIONS
  6
CONTINUOUS
 62
     7
 10
94.782826330495865
 20
175.08152427417909
 30
0.0
 11
93.972860302930357
 21
180.19544850755631
 31
0.0
  0
LINE
  5
9C
  8
DIMNSIONS
  6
CONTINUOUS
 62
     7
 10
94.782826330495865
 20
175.08152427417909
 30
0.0
 11
96.638337291110346
 21
179.91529558709539
 31
0.0
  0
LINE
  5
9D
  8
DIMNSIONS
  6
CONTINUOUS
 62
     7
 10
96.875
 20
196.875
 30
0.0
 11
114.9861111111111
 21
196.875
 31
0.0
  0
TEXT
  5
9E
  8
DIMNSIONS
 62
     7
 10
100.875
 20
198.86277777777781
 30
0.0
 40
5.4294704861111107
  1
\U+03C619
 41
0.7
 11
100.875
 21
204.29224826388889
 31
0.0
 73
     3
  0
LINE
  5
9F
  8
DIMNSIONS
  6
CONTINUOUS
 62
     7
 10
201.03282633049659
 20
175.08152427418619
 30
0.0
 11
203.125
 21
196.875
 31
0.0
  0
LINE
  5
A0
  8
DIMNSIONS
  6
CONTINUOUS
 62
     7
 10
201.03282633049659
 20
175.08152427418619
 30
0.0
 11
200.222860302931
 21
180.1954485075633
 31
0.0
  0
LINE
  5
A1
  8
DIMNSIONS
  6
CONTINUOUS
 62
     7
 10
201.03282633049659
 20
175.08152427418619
 30
0.0
 11
202.88833729111099
 21
179.91529558710241
 31
0.0
  0
LINE
  5
A2
  8
DIMNSIONS
  6
CONTINUOUS
 62
     7
 10
203.125
 20
196.875
 30
0.0
 11
221.23611111111109
 21
196.875
 31
0.0
  0
TEXT
  5
A3
  8
DIMNSIONS
 62
     7
 10
207.125
 20
198.86277777777781
 30
0.0
 40
5.4294704861111107
  1
\U+03C619
 41
0.7
 11
207.125
 21
204.29224826388889
 31
0.0
 73
     3
  0
TEXT
  5
A4
  8
DATA
 62
     7
 10
199.9773523275129
 20
-94.703380257795985
 30
0.0
 40
4.8865234375000002
  1
MMC4006
 41
0.7
 11
199.9773523275129
 21
-89.816856820295968
 31
0.0
 73
     3
  0
TEXT
  5
A5
  8
DATA
 62
     7
 10
199.9773523275129
 20
-79.704572105134062
 30
0.0
 40
4.8865234375000002
  1
DPA
 41
0.7
 11
199.9773523275129
 21
-74.818048667634059
 31
0.0
 73
     3
  0
TEXT
  5
A6
  8
DATA
 62
     7
 10
-60.0
 20
-107.99035210513409
 30
0.0
 40
3.2576822916666659
  1
仕様および外観は予告なく変更されることがありますので、ご了承ください。
 41
0.7
 11
-60.0
 21
-104.7326698134674
 31
0.0
 73
     3
  0
CIRCLE
  5
A7
  8
DATA
  6
CONTINUOUS
 62
     7
 10
-12.374999999779551
 20
165.62499999968711
 30
0.0
 40
3.8000000000000109
  0
LINE
  5
A8
  8
DATA
  6
CONTINUOUS
 62
     7
 10
-21.874999999779551
 20
109.37499999968711
 30
0.0
 11
-2.874999999779547
 21
109.37499999968711
 31
0.0
  0
LINE
  5
A9
  8
DATA
  6
CONTINUOUS
 62
     7
 10
-20.374999999779551
 20
132.17499999968709
 30
0.0
 11
-19.724999999779531
 21
132.17499999968709
 31
0.0
  0
LINE
  5
AA
  8
DATA
  6
CONTINUOUS
 62
     7
 10
-19.024999999779531
 20
132.17499999968709
 30
0.0
 11
-18.324999999779529
 21
132.17499999968709
 31
0.0
  0
LINE
  5
AB
  8
DATA
  6
CONTINUOUS
 62
     7
 10
-17.62499999977954
 20
132.17499999968709
 30
0.0
 11
-16.92499999977953
 21
132.17499999968709
 31
0.0
  0
LINE
  5
AC
  8
DATA
  6
CONTINUOUS
 62
     7
 10
-16.224999999779541
 20
132.17499999968709
 30
0.0
 11
-15.52499999977954
 21
132.17499999968709
 31
0.0
  0
LINE
  5
AD
  8
DATA
  6
CONTINUOUS
 62
     7
 10
-14.82499999977953
 20
132.17499999968709
 30
0.0
 11
-14.124999999779551
 21
132.17499999968709
 31
0.0
  0
LINE
  5
AE
  8
DATA
  6
CONTINUOUS
 62
     7
 10
-13.42499999977953
 20
132.17499999968709
 30
0.0
 11
-12.72499999977954
 21
132.17499999968709
 31
0.0
  0
LINE
  5
AF
  8
DATA
  6
CONTINUOUS
 62
     7
 10
-12.02499999977953
 20
132.17499999968709
 30
0.0
 11
-11.32499999977953
 21
132.17499999968709
 31
0.0
  0
LINE
  5
B0
  8
DATA
  6
CONTINUOUS
 62
     7
 10
-10.62499999977954
 20
132.17499999968709
 30
0.0
 11
-9.9249999997795442
 21
132.17499999968709
 31
0.0
  0
LINE
  5
B1
  8
DATA
  6
CONTINUOUS
 62
     7
 10
-9.2249999997795396
 20
132.17499999968709
 30
0.0
 11
-8.5249999997795385
 21
132.17499999968709
 31
0.0
  0
LINE
  5
B2
  8
DATA
  6
CONTINUOUS
 62
     7
 10
-7.8249999997795339
 20
132.17499999968709
 30
0.0
 11
-7.124999999779547
 21
132.17499999968709
 31
0.0
  0
LINE
  5
B3
  8
DATA
  6
CONTINUOUS
 62
     7
 10
-6.4249999997795442
 20
132.17499999968709
 30
0.0
 11
-5.7249999997795404
 21
132.17499999968709
 31
0.0
  0
LINE
  5
B4
  8
DATA
  6
CONTINUOUS
 62
     7
 10
-5.0249999997795376
 20
132.17499999968709
 30
0.0
 11
-4.374999999779547
 21
132.17499999968709
 31
0.0
  0
LINE
  5
B5
  8
DATA
  6
CONTINUOUS
 62
     7
 10
-21.874999999779551
 20
109.37499999968711
 30
0.0
 11
-21.874999999779551
 21
113.37499999968711
 31
0.0
  0
LINE
  5
B6
  8
DATA
  6
CONTINUOUS
 62
     7
 10
-2.874999999779547
 20
109.37499999968711
 30
0.0
 11
-2.874999999779547
 21
113.37499999968711
 31
0.0
  0
CIRCLE
  5
B7
  8
DATA
  6
CONTINUOUS
 62
     7
 10
-12.374999999779551
 20
165.62499999968711
 30
0.0
 40
1.0
  0
LINE
  5
B8
  8
DATA
  6
CONTINUOUS
 62
     7
 10
-21.874999999779551
 20
109.6749999996871
 30
0.0
 11
-2.874999999779547
 21
109.6749999996871
 31
0.0
  0
TEXT
  5
B9
  8
DATA
 62
     7
 10
-14.952726974986771
 20
110.4013387233567
 30
0.0
 40
1.900314670138888
  1
4006
 41
0.7
 11
-14.952726974986771
 21
112.3016533934956
 31
0.0
 73
     3
  0
LINE
  5
BA
  8
DATA
  6
CONTINUOUS
 62
     7
 10
-12.72499999977954
 20
130.37499999968711
 30
0.0
 11
-12.72499999977954
 21
132.37499999968711
 31
0.0
  0
LINE
  5
BB
  8
DATA
  6
CONTINUOUS
 62
     7
 10
-12.02499999977953
 20
132.37499999968711
 30
0.0
 11
-12.02499999977953
 21
130.37499999968711
 31
0.0
  0
LINE
  5
BC
  8
DATA
  6
CONTINUOUS
 62
     7
 10
-12.72499999977954
 20
132.37499999968711
 30
0.0
 11
-12.02499999977953
 21
132.37499999968711
 31
0.0
  0
LINE
  5
BD
  8
DATA
  6
CONTINUOUS
 62
     7
 10
-14.124999999779551
 20
130.37499999968711
 30
0.0
 11
-14.124999999779551
 21
132.37499999968711
 31
0.0
  0
LINE
  5
BE
  8
DATA
  6
CONTINUOUS
 62
     7
 10
-13.42499999977953
 20
132.37499999968711
 30
0.0
 11
-13.42499999977953
 21
130.37499999968711
 31
0.0
  0
LINE
  5
BF
  8
DATA
  6
CONTINUOUS
 62
     7
 10
-14.124999999779551
 20
132.37499999968711
 30
0.0
 11
-13.42499999977953
 21
132.37499999968711
 31
0.0
  0
LINE
  5
C0
  8
DATA
  6
CONTINUOUS
 62
     7
 10
-15.52499999977954
 20
130.37499999968711
 30
0.0
 11
-15.52499999977954
 21
132.37499999968711
 31
0.0
  0
LINE
  5
C1
  8
DATA
  6
CONTINUOUS
 62
     7
 10
-14.82499999977953
 20
132.37499999968711
 30
0.0
 11
-14.82499999977953
 21
130.37499999968711
 31
0.0
  0
LINE
  5
C2
  8
DATA
  6
CONTINUOUS
 62
     7
 10
-15.52499999977954
 20
132.37499999968711
 30
0.0
 11
-14.82499999977953
 21
132.37499999968711
 31
0.0
  0
LINE
  5
C3
  8
DATA
  6
CONTINUOUS
 62
     7
 10
-16.92499999977953
 20
130.37499999968711
 30
0.0
 11
-16.92499999977953
 21
132.37499999968711
 31
0.0
  0
LINE
  5
C4
  8
DATA
  6
CONTINUOUS
 62
     7
 10
-16.224999999779541
 20
132.37499999968711
 30
0.0
 11
-16.224999999779541
 21
130.37499999968711
 31
0.0
  0
LINE
  5
C5
  8
DATA
  6
CONTINUOUS
 62
     7
 10
-16.92499999977953
 20
132.37499999968711
 30
0.0
 11
-16.224999999779541
 21
132.37499999968711
 31
0.0
  0
LINE
  5
C6
  8
DATA
  6
CONTINUOUS
 62
     7
 10
-18.324999999779529
 20
130.37499999968711
 30
0.0
 11
-18.324999999779529
 21
132.37499999968711
 31
0.0
  0
LINE
  5
C7
  8
DATA
  6
CONTINUOUS
 62
     7
 10
-17.62499999977954
 20
132.37499999968711
 30
0.0
 11
-17.62499999977954
 21
130.37499999968711
 31
0.0
  0
LINE
  5
C8
  8
DATA
  6
CONTINUOUS
 62
     7
 10
-18.324999999779529
 20
132.37499999968711
 30
0.0
 11
-17.62499999977954
 21
132.37499999968711
 31
0.0
  0
LINE
  5
C9
  8
DATA
  6
CONTINUOUS
 62
     7
 10
-19.724999999779531
 20
130.37499999968711
 30
0.0
 11
-19.724999999779531
 21
132.37499999968711
 31
0.0
  0
LINE
  5
CA
  8
DATA
  6
CONTINUOUS
 62
     7
 10
-19.024999999779531
 20
132.37499999968711
 30
0.0
 11
-19.024999999779531
 21
130.37499999968711
 31
0.0
  0
LINE
  5
CB
  8
DATA
  6
CONTINUOUS
 62
     7
 10
-19.724999999779531
 20
132.37499999968711
 30
0.0
 11
-19.024999999779531
 21
132.37499999968711
 31
0.0
  0
LINE
  5
CC
  8
DATA
  6
CONTINUOUS
 62
     7
 10
-11.32499999977953
 20
130.37499999968711
 30
0.0
 11
-11.32499999977953
 21
132.37499999968711
 31
0.0
  0
LINE
  5
CD
  8
DATA
  6
CONTINUOUS
 62
     7
 10
-10.62499999977954
 20
132.37499999968711
 30
0.0
 11
-10.62499999977954
 21
130.37499999968711
 31
0.0
  0
LINE
  5
CE
  8
DATA
  6
CONTINUOUS
 62
     7
 10
-11.32499999977953
 20
132.37499999968711
 30
0.0
 11
-10.62499999977954
 21
132.37499999968711
 31
0.0
  0
LINE
  5
CF
  8
DATA
  6
CONTINUOUS
 62
     7
 10
-9.9249999997795442
 20
130.37499999968711
 30
0.0
 11
-9.9249999997795442
 21
132.37499999968711
 31
0.0
  0
LINE
  5
D0
  8
DATA
  6
CONTINUOUS
 62
     7
 10
-9.2249999997795396
 20
132.37499999968711
 30
0.0
 11
-9.2249999997795396
 21
130.37499999968711
 31
0.0
  0
LINE
  5
D1
  8
DATA
  6
CONTINUOUS
 62
     7
 10
-9.9249999997795442
 20
132.37499999968711
 30
0.0
 11
-9.2249999997795396
 21
132.37499999968711
 31
0.0
  0
LINE
  5
D2
  8
DATA
  6
CONTINUOUS
 62
     7
 10
-8.5249999997795385
 20
130.37499999968711
 30
0.0
 11
-8.5249999997795385
 21
132.37499999968711
 31
0.0
  0
LINE
  5
D3
  8
DATA
  6
CONTINUOUS
 62
     7
 10
-7.8249999997795339
 20
132.37499999968711
 30
0.0
 11
-7.8249999997795339
 21
130.37499999968711
 31
0.0
  0
LINE
  5
D4
  8
DATA
  6
CONTINUOUS
 62
     7
 10
-8.5249999997795385
 20
132.37499999968711
 30
0.0
 11
-7.8249999997795339
 21
132.37499999968711
 31
0.0
  0
LINE
  5
D5
  8
DATA
  6
CONTINUOUS
 62
     7
 10
-7.124999999779547
 20
130.37499999968711
 30
0.0
 11
-7.124999999779547
 21
132.37499999968711
 31
0.0
  0
LINE
  5
D6
  8
DATA
  6
CONTINUOUS
 62
     7
 10
-6.4249999997795442
 20
132.37499999968711
 30
0.0
 11
-6.4249999997795442
 21
130.37499999968711
 31
0.0
  0
LINE
  5
D7
  8
DATA
  6
CONTINUOUS
 62
     7
 10
-7.124999999779547
 20
132.37499999968711
 30
0.0
 11
-6.4249999997795442
 21
132.37499999968711
 31
0.0
  0
LINE
  5
D8
  8
DATA
  6
CONTINUOUS
 62
     7
 10
-5.7249999997795404
 20
130.37499999968711
 30
0.0
 11
-5.7249999997795404
 21
132.37499999968711
 31
0.0
  0
LINE
  5
D9
  8
DATA
  6
CONTINUOUS
 62
     7
 10
-5.0249999997795376
 20
132.37499999968711
 30
0.0
 11
-5.0249999997795376
 21
130.37499999968711
 31
0.0
  0
LINE
  5
DA
  8
DATA
  6
CONTINUOUS
 62
     7
 10
-5.7249999997795404
 20
132.37499999968711
 30
0.0
 11
-5.0249999997795376
 21
132.37499999968711
 31
0.0
  0
LINE
  5
DB
  8
DATA
  6
CONTINUOUS
 62
     7
 10
-20.374999999779551
 20
130.37499999968711
 30
0.0
 11
-19.724999999779531
 21
130.37499999968711
 31
0.0
  0
LINE
  5
DC
  8
DATA
  6
CONTINUOUS
 62
     7
 10
-19.024999999779531
 20
130.37499999968711
 30
0.0
 11
-18.324999999779529
 21
130.37499999968711
 31
0.0
  0
LINE
  5
DD
  8
DATA
  6
CONTINUOUS
 62
     7
 10
-17.62499999977954
 20
130.37499999968711
 30
0.0
 11
-16.92499999977953
 21
130.37499999968711
 31
0.0
  0
LINE
  5
DE
  8
DATA
  6
CONTINUOUS
 62
     7
 10
-16.224999999779541
 20
130.37499999968711
 30
0.0
 11
-15.52499999977954
 21
130.37499999968711
 31
0.0
  0
LINE
  5
DF
  8
DATA
  6
CONTINUOUS
 62
     7
 10
-14.82499999977953
 20
130.37499999968711
 30
0.0
 11
-14.124999999779551
 21
130.37499999968711
 31
0.0
  0
LINE
  5
E0
  8
DATA
  6
CONTINUOUS
 62
     7
 10
-13.42499999977953
 20
130.37499999968711
 30
0.0
 11
-12.72499999977954
 21
130.37499999968711
 31
0.0
  0
LINE
  5
E1
  8
DATA
  6
CONTINUOUS
 62
     7
 10
-12.02499999977953
 20
130.37499999968711
 30
0.0
 11
-11.32499999977953
 21
130.37499999968711
 31
0.0
  0
LINE
  5
E2
  8
DATA
  6
CONTINUOUS
 62
     7
 10
-10.62499999977954
 20
130.37499999968711
 30
0.0
 11
-9.9249999997795442
 21
130.37499999968711
 31
0.0
  0
LINE
  5
E3
  8
DATA
  6
CONTINUOUS
 62
     7
 10
-9.2249999997795396
 20
130.37499999968711
 30
0.0
 11
-8.5249999997795385
 21
130.37499999968711
 31
0.0
  0
LINE
  5
E4
  8
DATA
  6
CONTINUOUS
 62
     7
 10
-7.8249999997795339
 20
130.37499999968711
 30
0.0
 11
-7.124999999779547
 21
130.37499999968711
 31
0.0
  0
LINE
  5
E5
  8
DATA
  6
CONTINUOUS
 62
     7
 10
-6.4249999997795442
 20
130.37499999968711
 30
0.0
 11
-5.7249999997795404
 21
130.37499999968711
 31
0.0
  0
LINE
  5
E6
  8
DATA
  6
CONTINUOUS
 62
     7
 10
-5.0249999997795376
 20
130.37499999968711
 30
0.0
 11
-4.374999999779547
 21
130.37499999968711
 31
0.0
  0
LINE
  5
E7
  8
DATA
  6
CONTINUOUS
 62
     7
 10
-12.401227287004909
 20
169.4249094893203
 30
0.0
 11
-12.381901821576671
 21
173.6249970221761
 31
0.0
  0
LINE
  5
E8
  8
DATA
  6
CONTINUOUS
 62
     7
 10
-11.09999999977954
 20
169.20471716728571
 30
0.0
 11
-9.6453254624466762
 21
173.14489873040469
 31
0.0
  0
LINE
  5
E9
  8
DATA
  6
CONTINUOUS
 62
     7
 10
-9.9525565295500797
 20
168.55275812383991
 30
0.0
 11
-7.2379881382265401
 21
171.7577896695083
 31
0.0
  0
LINE
  5
EA
  8
DATA
  6
CONTINUOUS
 62
     7
 10
-9.0972954932882857
 20
167.54766824151321
 30
0.0
 11
-5.4502502587300929
 21
169.6309756640961
 31
0.0
  0
LINE
  5
EB
  8
DATA
  6
CONTINUOUS
 62
     7
 10
-8.6373739942759045
 20
166.3106761936611
 30
0.0
 11
-4.4977393964260131
 21
167.020981871652
 31
0.0
  0
LINE
  5
EC
  8
DATA
  6
CONTINUOUS
 62
     7
 10
-8.6282653530122246
 20
164.990981477313
 30
0.0
 11
-4.4953424188711599
 21
164.2426120629508
 31
0.0
  0
LINE
  5
ED
  8
DATA
  6
CONTINUOUS
 62
     7
 10
-9.0710682060629022
 20
163.74775875188001
 30
0.0
 11
-5.4433484369345564
 21
161.6309786412931
 31
0.0
  0
LINE
  5
EE
  8
DATA
  6
CONTINUOUS
 62
     7
 10
-9.9123739942759101
 20
162.73095902606261
 30
0.0
 11
-7.2274139337588252
 21
159.50108314093521
 31
0.0
  0
LINE
  5
EF
  8
DATA
  6
CONTINUOUS
 62
     7
 10
-11.05070882324169
 20
162.06322335316031
 30
0.0
 11
-9.6323542804241384
 21
158.10982239312941
 31
0.0
  0
LINE
  5
F0
  8
DATA
  6
CONTINUOUS
 62
     7
 10
-12.348772712554149
 20
161.82509051005391
 30
0.0
 11
-12.368098177982439
 21
157.6250029771891
 31
0.0
  0
LINE
  5
F1
  8
DATA
  6
CONTINUOUS
 62
     7
 10
-13.649999999779549
 20
162.0452828320885
 30
0.0
 11
-15.1046745371121
 21
158.1051012689704
 31
0.0
  0
LINE
  5
F2
  8
DATA
  6
CONTINUOUS
 62
     7
 10
-14.797443470009
 20
162.6972418755343
 30
0.0
 11
-17.512011861332478
 21
159.49221032986611
 31
0.0
  0
LINE
  5
F3
  8
DATA
  6
CONTINUOUS
 62
     7
 10
-15.652704506270791
 20
163.70233175786089
 30
0.0
 11
-19.299749740828911
 21
161.6190243352782
 31
0.0
  0
LINE
  5
F4
  8
DATA
  6
CONTINUOUS
 62
     7
 10
-16.11262600528319
 20
164.939323805713
 30
0.0
 11
-20.25226060313307
 21
164.2290181277223
 31
0.0
  0
LINE
  5
F5
  8
DATA
  6
CONTINUOUS
 62
     7
 10
-16.121734646546841
 20
166.2590185220611
 30
0.0
 11
-20.254657580687859
 21
167.00738793642341
 31
0.0
  0
LINE
  5
F6
  8
DATA
  6
CONTINUOUS
 62
     7
 10
-15.67893179349617
 20
167.50224124749411
 30
0.0
 11
-19.306651562624531
 21
169.61902135808111
 31
0.0
  0
LINE
  5
F7
  8
DATA
  6
CONTINUOUS
 62
     7
 10
-14.83762600528317
 20
168.51904097331149
 30
0.0
 11
-17.522586065800521
 21
171.7489168584392
 31
0.0
  0
LINE
  5
F8
  8
DATA
  6
CONTINUOUS
 62
     7
 10
-13.699291176317381
 20
169.1867766462139
 30
0.0
 11
-15.11764571913498
 21
173.14017760624469
 31
0.0
  0
LINE
  5
F9
  8
DATA
  6
CONTINUOUS
 62
     7
 10
-4.374999999779547
 20
132.37499999968711
 30
0.0
 11
-4.374999999779547
 21
125.37499999968711
 31
0.0
  0
LINE
  5
FA
  8
DATA
  6
CONTINUOUS
 62
     7
 10
-20.374999999779551
 20
125.37499999968711
 30
0.0
 11
-4.374999999779547
 21
125.37499999968711
 31
0.0
  0
LINE
  5
FB
  8
DATA
  6
CONTINUOUS
 62
     7
 10
-20.374999999779551
 20
125.37499999968711
 30
0.0
 11
-20.374999999779551
 21
132.37499999968711
 31
0.0
  0
LINE
  5
FC
  8
DATA
  6
CONTINUOUS
 62
     7
 10
-21.874999999779551
 20
113.37499999968711
 30
0.0
 11
-20.374999999779551
 21
125.37499999968711
 31
0.0
  0
LINE
  5
FD
  8
DATA
  6
CONTINUOUS
 62
     7
 10
-4.374999999779547
 20
125.37499999968711
 30
0.0
 11
-2.874999999779547
 21
113.37499999968711
 31
0.0
  0
ARC
  5
FE
  8
DATA
  6
CONTINUOUS
 62
     7
 10
-12.374999999779529
 20
165.62499999968711
 30
0.0
 40
8.0
 50
130.04943066361241
 51
150.0494306636123
  0
ARC
  5
FF
  8
DATA
  6
CONTINUOUS
 62
     7
 10
-12.374999999779529
 20
165.62499999968711
 30
0.0
 40
7.9999999999999956
 50
170.0494306636123
 51
190.0494306636121
  0
ARC
  5
100
  8
DATA
  6
CONTINUOUS
 62
     7
 10
-12.374999999779529
 20
165.62499999968711
 30
0.0
 40
7.9999999999999902
 50
210.04943066361199
 51
230.04943066361199
  0
ARC
  5
101
  8
DATA
  6
CONTINUOUS
 62
     7
 10
-12.374999999779529
 20
165.62499999968711
 30
0.0
 40
7.9999999999999822
 50
250.0494306636119
 51
270.04943066362432
  0
ARC
  5
102
  8
DATA
  6
CONTINUOUS
 62
     7
 10
-12.374999999779529
 20
165.62499999968711
 30
0.0
 40
7.9999999999999956
 50
330.04943066361199
 51
350.04943066361238
  0
ARC
  5
103
  8
DATA
  6
CONTINUOUS
 62
     7
 10
-12.374999999779529
 20
165.62499999968711
 30
0.0
 40
7.9999999999999982
 50
10.04943066361214
 51
30.04943066361237
  0
ARC
  5
104
  8
DATA
  6
CONTINUOUS
 62
     7
 10
-12.374999999779529
 20
165.62499999968711
 30
0.0
 40
8.0
 50
50.049430663612398
 51
70.049430663612384
  0
ARC
  5
105
  8
DATA
  6
CONTINUOUS
 62
     7
 10
-12.374999999779529
 20
165.62499999968711
 30
0.0
 40
7.9999999999999929
 50
90.049430663523594
 51
110.0494306636125
  0
ARC
  5
106
  8
DATA
  6
CONTINUOUS
 62
     7
 10
-12.37499999977957
 20
165.62499999968699
 30
0.0
 40
7.7500000000000009
 50
150.0595294288037
 51
170.05952942880381
  0
ARC
  5
107
  8
DATA
  6
CONTINUOUS
 62
     7
 10
-12.37499999977957
 20
165.62499999968699
 30
0.0
 40
7.7499999999999947
 50
190.05952942880359
 51
210.05952942880381
  0
ARC
  5
108
  8
DATA
  6
CONTINUOUS
 62
     7
 10
-12.37499999977957
 20
165.62499999968699
 30
0.0
 40
7.7499999999999947
 50
230.0595294288037
 51
250.05952942880401
  0
ARC
  5
109
  8
DATA
  6
CONTINUOUS
 62
     7
 10
-12.37499999977957
 20
165.62499999968699
 30
0.0
 40
7.7499999999999947
 50
270.05952942881061
 51
290.05952942880441
  0
ARC
  5
10A
  8
DATA
  6
CONTINUOUS
 62
     7
 10
-12.37499999977957
 20
165.62499999968699
 30
0.0
 40
7.7499999999999902
 50
310.0595294288043
 51
330.05952942880452
  0
ARC
  5
10B
  8
DATA
  6
CONTINUOUS
 62
     7
 10
-12.37499999977957
 20
165.62499999968699
 30
0.0
 40
7.7499999999999867
 50
350.05952942880458
 51
10.05952942880441
  0
ARC
  5
10C
  8
DATA
  6
CONTINUOUS
 62
     7
 10
-12.37499999977957
 20
165.62499999968699
 30
0.0
 40
7.7499999999999867
 50
30.059529428804471
 51
50.059529428803629
  0
ARC
  5
10D
  8
DATA
  6
CONTINUOUS
 62
     7
 10
-12.37499999977957
 20
165.62499999968699
 30
0.0
 40
7.7500000000000071
 50
70.059529428804325
 51
90.059529428810464
  0
ARC
  5
10E
  8
DATA
  6
CONTINUOUS
 62
     7
 10
-12.37499999977957
 20
165.62499999968699
 30
0.0
 40
7.7500000000000062
 50
110.0595294288039
 51
130.0595294288039
  0
ARC
  5
10F
  8
DATA
  6
CONTINUOUS
 62
     7
 10
-12.374999999779559
 20
165.62499999968711
 30
0.0
 40
8.0000000000000249
 50
290.0494306636121
 51
310.04943066361199
  0
TEXT
  5
110
  8
DATA
 62
     7
 10
-45.768635675901422
 20
90.308311089751754
 30
0.0
 40
5.4294704861111107
  1
音響補正イコライザー
 41
0.7
 11
-45.768635675901422
 21
95.737781575862869
 31
0.0
 73
     3
  0
TEXT
  5
111
  8
DATA
 62
     7
 10
-45.768635675901422
 20
83.25275553419624
 30
0.0
 40
5.4294704861111107
  1
DDO251実装時
 41
0.7
 11
-45.768635675901422
 21
88.682226020307354
 31
0.0
 73
     3
  0
CIRCLE
  5
112
  8
DATA
  6
CONTINUOUS
 62
     7
 10
93.875000000220425
 20
165.62499999968711
 30
0.0
 40
3.8000000000000109
  0
LINE
  5
113
  8
DATA
  6
CONTINUOUS
 62
     7
 10
84.375000000220453
 20
109.37499999968711
 30
0.0
 11
103.3750000002204
 21
109.37499999968711
 31
0.0
  0
LINE
  5
114
  8
DATA
  6
CONTINUOUS
 62
     7
 10
84.375000000220453
 20
109.37499999968711
 30
0.0
 11
84.375000000220453
 21
113.37499999968711
 31
0.0
  0
LINE
  5
115
  8
DATA
  6
CONTINUOUS
 62
     7
 10
103.3750000002204
 20
109.37499999968711
 30
0.0
 11
103.3750000002204
 21
113.37499999968711
 31
0.0
  0
CIRCLE
  5
116
  8
DATA
  6
CONTINUOUS
 62
     7
 10
93.875000000220425
 20
165.62499999968711
 30
0.0
 40
1.0
  0
LINE
  5
117
  8
DATA
  6
CONTINUOUS
 62
     7
 10
84.375000000220453
 20
109.6749999996871
 30
0.0
 11
103.3750000002204
 21
109.6749999996871
 31
0.0
  0
TEXT
  5
118
  8
DATA
 62
     7
 10
91.297273025013197
 20
110.4013387233567
 30
0.0
 40
1.900314670138888
  1
4006
 41
0.7
 11
91.297273025013197
 21
112.3016533934956
 31
0.0
 73
     3
  0
LINE
  5
119
  8
DATA
  6
CONTINUOUS
 62
     7
 10
93.848772712995057
 20
169.4249094893203
 30
0.0
 11
93.868098178423324
 21
173.6249970221761
 31
0.0
  0
LINE
  5
11A
  8
DATA
  6
CONTINUOUS
 62
     7
 10
95.150000000220444
 20
169.20471716728571
 30
0.0
 11
96.604674537553294
 21
173.14489873040469
 31
0.0
  0
LINE
  5
11B
  8
DATA
  6
CONTINUOUS
 62
     7
 10
96.29744347044992
 20
168.55275812383991
 30
0.0
 11
99.012011861773445
 21
171.7577896695083
 31
0.0
  0
LINE
  5
11C
  8
DATA
  6
CONTINUOUS
 62
     7
 10
97.152704506711714
 20
167.54766824151321
 30
0.0
 11
100.79974974126991
 21
169.6309756640961
 31
0.0
  0
LINE
  5
11D
  8
DATA
  6
CONTINUOUS
 62
     7
 10
97.612626005724081
 20
166.3106761936611
 30
0.0
 11
101.752260603574
 21
167.020981871652
 31
0.0
  0
LINE
  5
11E
  8
DATA
  6
CONTINUOUS
 62
     7
 10
97.621734646987761
 20
164.990981477313
 30
0.0
 11
101.7546575811288
 21
164.2426120629508
 31
0.0
  0
LINE
  5
11F
  8
DATA
  6
CONTINUOUS
 62
     7
 10
97.178931793937068
 20
163.74775875188001
 30
0.0
 11
100.8066515630654
 21
161.6309786412931
 31
0.0
  0
LINE
  5
120
  8
DATA
  6
CONTINUOUS
 62
     7
 10
96.337626005724104
 20
162.73095902606261
 30
0.0
 11
99.022586066241161
 21
159.50108314093521
 31
0.0
  0
LINE
  5
121
  8
DATA
  6
CONTINUOUS
 62
     7
 10
95.199291176758294
 20
162.06322335316031
 30
0.0
 11
96.617645719575862
 21
158.10982239312941
 31
0.0
  0
LINE
  5
122
  8
DATA
  6
CONTINUOUS
 62
     7
 10
93.901227287445835
 20
161.82509051005391
 30
0.0
 11
93.881901822017554
 21
157.6250029771891
 31
0.0
  0
LINE
  5
123
  8
DATA
  6
CONTINUOUS
 62
     7
 10
92.600000000220433
 20
162.0452828320885
 30
0.0
 11
91.145325462887882
 21
158.1051012689704
 31
0.0
  0
LINE
  5
124
  8
DATA
  6
CONTINUOUS
 62
     7
 10
91.452556529991
 20
162.6972418755343
 30
0.0
 11
88.737988138667504
 21
159.49221032986611
 31
0.0
  0
LINE
  5
125
  8
DATA
  6
CONTINUOUS
 62
     7
 10
90.597295493729206
 20
163.70233175786089
 30
0.0
 11
86.950250259171071
 21
161.6190243352782
 31
0.0
  0
LINE
  5
126
  8
DATA
  6
CONTINUOUS
 62
     7
 10
90.137373994716796
 20
164.939323805713
 30
0.0
 11
85.997739396866933
 21
164.2290181277223
 31
0.0
  0
LINE
  5
127
  8
DATA
  6
CONTINUOUS
 62
     7
 10
90.128265353453159
 20
166.2590185220611
 30
0.0
 11
85.995342419312138
 21
167.00738793642341
 31
0.0
  0
LINE
  5
128
  8
DATA
  6
CONTINUOUS
 62
     7
 10
90.571068206503796
 20
167.50224124749411
 30
0.0
 11
86.943348437375448
 21
169.61902135808111
 31
0.0
  0
LINE
  5
129
  8
DATA
  6
CONTINUOUS
 62
     7
 10
91.412373994716816
 20
168.51904097331149
 30
0.0
 11
88.727413934199461
 21
171.7489168584392
 31
0.0
  0
LINE
  5
12A
  8
DATA
  6
CONTINUOUS
 62
     7
 10
92.550708823682598
 20
169.1867766462139
 30
0.0
 11
91.132354280865002
 21
173.14017760624469
 31
0.0
  0
LINE
  5
12B
  8
DATA
  6
CONTINUOUS
 62
     7
 10
85.875000000220439
 20
125.37499999968711
 30
0.0
 11
101.8750000002204
 21
125.37499999968711
 31
0.0
  0
LINE
  5
12C
  8
DATA
  6
CONTINUOUS
 62
     7
 10
84.375000000220453
 20
113.37499999968711
 30
0.0
 11
85.875000000220439
 21
125.37499999968711
 31
0.0
  0
LINE
  5
12D
  8
DATA
  6
CONTINUOUS
 62
     7
 10
101.8750000002204
 20
125.37499999968711
 30
0.0
 11
103.3750000002204
 21
113.37499999968711
 31
0.0
  0
ARC
  5
12E
  8
DATA
  6
CONTINUOUS
 62
     7
 10
93.875000000220453
 20
165.62499999968711
 30
0.0
 40
8.0
 50
130.04943066361241
 51
150.0494306636123
  0
ARC
  5
12F
  8
DATA
  6
CONTINUOUS
 62
     7
 10
93.875000000220453
 20
165.62499999968711
 30
0.0
 40
7.9999999999999956
 50
170.0494306636123
 51
190.0494306636121
  0
ARC
  5
130
  8
DATA
  6
CONTINUOUS
 62
     7
 10
93.875000000220453
 20
165.62499999968711
 30
0.0
 40
7.9999999999999902
 50
210.04943066361199
 51
230.04943066361199
  0
ARC
  5
131
  8
DATA
  6
CONTINUOUS
 62
     7
 10
93.875000000220453
 20
165.62499999968711
 30
0.0
 40
7.9999999999999822
 50
250.0494306636119
 51
270.04943066362432
  0
ARC
  5
132
  8
DATA
  6
CONTINUOUS
 62
     7
 10
93.875000000220453
 20
165.62499999968711
 30
0.0
 40
7.9999999999999956
 50
330.04943066361199
 51
350.04943066361238
  0
ARC
  5
133
  8
DATA
  6
CONTINUOUS
 62
     7
 10
93.875000000220453
 20
165.62499999968711
 30
0.0
 40
7.9999999999999982
 50
10.04943066361214
 51
30.04943066361237
  0
ARC
  5
134
  8
DATA
  6
CONTINUOUS
 62
     7
 10
93.875000000220453
 20
165.62499999968711
 30
0.0
 40
8.0
 50
50.049430663612398
 51
70.049430663612384
  0
ARC
  5
135
  8
DATA
  6
CONTINUOUS
 62
     7
 10
93.875000000220453
 20
165.62499999968711
 30
0.0
 40
7.9999999999999929
 50
90.049430663523594
 51
110.0494306636125
  0
ARC
  5
136
  8
DATA
  6
CONTINUOUS
 62
     7
 10
93.875000000220425
 20
165.62499999968699
 30
0.0
 40
7.7500000000000009
 50
150.0595294288037
 51
170.05952942880381
  0
ARC
  5
137
  8
DATA
  6
CONTINUOUS
 62
     7
 10
93.875000000220425
 20
165.62499999968699
 30
0.0
 40
7.7499999999999947
 50
190.05952942880359
 51
210.05952942880381
  0
ARC
  5
138
  8
DATA
  6
CONTINUOUS
 62
     7
 10
93.875000000220425
 20
165.62499999968699
 30
0.0
 40
7.7499999999999947
 50
230.0595294288037
 51
250.05952942880401
  0
ARC
  5
139
  8
DATA
  6
CONTINUOUS
 62
     7
 10
93.875000000220425
 20
165.62499999968699
 30
0.0
 40
7.7499999999999947
 50
270.05952942881061
 51
290.05952942880441
  0
ARC
  5
13A
  8
DATA
  6
CONTINUOUS
 62
     7
 10
93.875000000220425
 20
165.62499999968699
 30
0.0
 40
7.7499999999999902
 50
310.0595294288043
 51
330.05952942880452
  0
ARC
  5
13B
  8
DATA
  6
CONTINUOUS
 62
     7
 10
93.875000000220425
 20
165.62499999968699
 30
0.0
 40
7.7499999999999867
 50
350.05952942880458
 51
10.05952942880441
  0
ARC
  5
13C
  8
DATA
  6
CONTINUOUS
 62
     7
 10
93.875000000220425
 20
165.62499999968699
 30
0.0
 40
7.7499999999999867
 50
30.059529428804471
 51
50.059529428803629
  0
ARC
  5
13D
  8
DATA
  6
CONTINUOUS
 62
     7
 10
93.875000000220425
 20
165.62499999968699
 30
0.0
 40
7.7500000000000071
 50
70.059529428804325
 51
90.059529428810464
  0
ARC
  5
13E
  8
DATA
  6
CONTINUOUS
 62
     7
 10
93.875000000220425
 20
165.62499999968699
 30
0.0
 40
7.7500000000000062
 50
110.0595294288039
 51
130.0595294288039
  0
ARC
  5
13F
  8
DATA
  6
CONTINUOUS
 62
     7
 10
93.875000000220453
 20
165.62499999968711
 30
0.0
 40
8.0000000000000249
 50
290.0494306636121
 51
310.04943066361199
  0
CIRCLE
  5
140
  8
DATA
  6
CONTINUOUS
 62
     7
 10
200.12500000022041
 20
165.62499999968711
 30
0.0
 40
3.8000000000000109
  0
LINE
  5
141
  8
DATA
  6
CONTINUOUS
 62
     7
 10
190.62500000022041
 20
109.37499999968711
 30
0.0
 11
209.62500000022041
 21
109.37499999968711
 31
0.0
  0
LINE
  5
142
  8
DATA
  6
CONTINUOUS
 62
     7
 10
193.4750000002204
 20
132.17499999968709
 30
0.0
 11
194.17500000022039
 21
132.17499999968709
 31
0.0
  0
LINE
  5
143
  8
DATA
  6
CONTINUOUS
 62
     7
 10
194.87500000022041
 20
132.17499999968709
 30
0.0
 11
195.5750000002204
 21
132.17499999968709
 31
0.0
  0
LINE
  5
144
  8
DATA
  6
CONTINUOUS
 62
     7
 10
196.27500000022039
 20
132.17499999968709
 30
0.0
 11
196.9750000002204
 21
132.17499999968709
 31
0.0
  0
LINE
  5
145
  8
DATA
  6
CONTINUOUS
 62
     7
 10
197.67500000022039
 20
132.17499999968709
 30
0.0
 11
198.37500000022041
 21
132.17499999968709
 31
0.0
  0
LINE
  5
146
  8
DATA
  6
CONTINUOUS
 62
     7
 10
199.0750000002204
 20
132.17499999968709
 30
0.0
 11
199.77500000022039
 21
132.17499999968709
 31
0.0
  0
LINE
  5
147
  8
DATA
  6
CONTINUOUS
 62
     7
 10
200.4750000002204
 20
132.17499999968709
 30
0.0
 11
201.17500000022051
 21
132.17499999968709
 31
0.0
  0
LINE
  5
148
  8
DATA
  6
CONTINUOUS
 62
     7
 10
201.87500000022041
 20
132.17499999968709
 30
0.0
 11
202.5750000002204
 21
132.17499999968709
 31
0.0
  0
LINE
  5
149
  8
DATA
  6
CONTINUOUS
 62
     7
 10
203.27500000022039
 20
132.17499999968709
 30
0.0
 11
203.97500000022049
 21
132.17499999968709
 31
0.0
  0
LINE
  5
14A
  8
DATA
  6
CONTINUOUS
 62
     7
 10
204.67500000022051
 20
132.17499999968709
 30
0.0
 11
205.37500000022041
 21
132.17499999968709
 31
0.0
  0
LINE
  5
14B
  8
DATA
  6
CONTINUOUS
 62
     7
 10
206.0750000002204
 20
132.17499999968709
 30
0.0
 11
206.7750000002205
 21
132.17499999968709
 31
0.0
  0
LINE
  5
14C
  8
DATA
  6
CONTINUOUS
 62
     7
 10
190.62500000022041
 20
109.37499999968711
 30
0.0
 11
190.62500000022041
 21
113.37499999968711
 31
0.0
  0
LINE
  5
14D
  8
DATA
  6
CONTINUOUS
 62
     7
 10
209.62500000022041
 20
109.37499999968711
 30
0.0
 11
209.62500000022041
 21
113.37499999968711
 31
0.0
  0
CIRCLE
  5
14E
  8
DATA
  6
CONTINUOUS
 62
     7
 10
200.12500000022041
 20
165.62499999968711
 30
0.0
 40
1.0
  0
LINE
  5
14F
  8
DATA
  6
CONTINUOUS
 62
     7
 10
190.62500000022041
 20
109.6749999996871
 30
0.0
 11
209.62500000022041
 21
109.6749999996871
 31
0.0
  0
TEXT
  5
150
  8
DATA
 62
     7
 10
197.5472730250132
 20
110.4013387233567
 30
0.0
 40
1.900314670138888
  1
4006
 41
0.7
 11
197.5472730250132
 21
112.3016533934956
 31
0.0
 73
     3
  0
LINE
  5
151
  8
DATA
  6
CONTINUOUS
 62
     7
 10
199.77500000022039
 20
130.37499999968711
 30
0.0
 11
199.77500000022039
 21
132.37499999968711
 31
0.0
  0
LINE
  5
152
  8
DATA
  6
CONTINUOUS
 62
     7
 10
200.4750000002204
 20
132.37499999968711
 30
0.0
 11
200.4750000002204
 21
130.37499999968711
 31
0.0
  0
LINE
  5
153
  8
DATA
  6
CONTINUOUS
 62
     7
 10
199.77500000022039
 20
132.37499999968711
 30
0.0
 11
200.4750000002204
 21
132.37499999968711
 31
0.0
  0
LINE
  5
154
  8
DATA
  6
CONTINUOUS
 62
     7
 10
198.37500000022041
 20
130.37499999968711
 30
0.0
 11
198.37500000022041
 21
132.37499999968711
 31
0.0
  0
LINE
  5
155
  8
DATA
  6
CONTINUOUS
 62
     7
 10
199.0750000002204
 20
132.37499999968711
 30
0.0
 11
199.0750000002204
 21
130.37499999968711
 31
0.0
  0
LINE
  5
156
  8
DATA
  6
CONTINUOUS
 62
     7
 10
198.37500000022041
 20
132.37499999968711
 30
0.0
 11
199.0750000002204
 21
132.37499999968711
 31
0.0
  0
LINE
  5
157
  8
DATA
  6
CONTINUOUS
 62
     7
 10
196.9750000002204
 20
130.37499999968711
 30
0.0
 11
196.9750000002204
 21
132.37499999968711
 31
0.0
  0
LINE
  5
158
  8
DATA
  6
CONTINUOUS
 62
     7
 10
197.67500000022039
 20
132.37499999968711
 30
0.0
 11
197.67500000022039
 21
130.37499999968711
 31
0.0
  0
LINE
  5
159
  8
DATA
  6
CONTINUOUS
 62
     7
 10
196.9750000002204
 20
132.37499999968711
 30
0.0
 11
197.67500000022039
 21
132.37499999968711
 31
0.0
  0
LINE
  5
15A
  8
DATA
  6
CONTINUOUS
 62
     7
 10
195.5750000002204
 20
130.37499999968711
 30
0.0
 11
195.5750000002204
 21
132.37499999968711
 31
0.0
  0
LINE
  5
15B
  8
DATA
  6
CONTINUOUS
 62
     7
 10
196.27500000022039
 20
132.37499999968711
 30
0.0
 11
196.27500000022039
 21
130.37499999968711
 31
0.0
  0
LINE
  5
15C
  8
DATA
  6
CONTINUOUS
 62
     7
 10
195.5750000002204
 20
132.37499999968711
 30
0.0
 11
196.27500000022039
 21
132.37499999968711
 31
0.0
  0
LINE
  5
15D
  8
DATA
  6
CONTINUOUS
 62
     7
 10
194.17500000022039
 20
130.37499999968711
 30
0.0
 11
194.17500000022039
 21
132.37499999968711
 31
0.0
  0
LINE
  5
15E
  8
DATA
  6
CONTINUOUS
 62
     7
 10
194.87500000022041
 20
132.37499999968711
 30
0.0
 11
194.87500000022041
 21
130.37499999968711
 31
0.0
  0
LINE
  5
15F
  8
DATA
  6
CONTINUOUS
 62
     7
 10
194.17500000022039
 20
132.37499999968711
 30
0.0
 11
194.87500000022041
 21
132.37499999968711
 31
0.0
  0
LINE
  5
160
  8
DATA
  6
CONTINUOUS
 62
     7
 10
193.4750000002204
 20
132.37499999968711
 30
0.0
 11
193.4750000002204
 21
130.37499999968711
 31
0.0
  0
LINE
  5
161
  8
DATA
  6
CONTINUOUS
 62
     7
 10
193.12500000022041
 20
132.37499999968711
 30
0.0
 11
193.4750000002204
 21
132.37499999968711
 31
0.0
  0
LINE
  5
162
  8
DATA
  6
CONTINUOUS
 62
     7
 10
201.17500000022051
 20
130.37499999968711
 30
0.0
 11
201.17500000022051
 21
132.37499999968711
 31
0.0
  0
LINE
  5
163
  8
DATA
  6
CONTINUOUS
 62
     7
 10
201.87500000022041
 20
132.37499999968711
 30
0.0
 11
201.87500000022041
 21
130.37499999968711
 31
0.0
  0
LINE
  5
164
  8
DATA
  6
CONTINUOUS
 62
     7
 10
201.17500000022051
 20
132.37499999968711
 30
0.0
 11
201.87500000022041
 21
132.37499999968711
 31
0.0
  0
LINE
  5
165
  8
DATA
  6
CONTINUOUS
 62
     7
 10
202.5750000002204
 20
130.37499999968711
 30
0.0
 11
202.5750000002204
 21
132.37499999968711
 31
0.0
  0
LINE
  5
166
  8
DATA
  6
CONTINUOUS
 62
     7
 10
203.27500000022039
 20
132.37499999968711
 30
0.0
 11
203.27500000022039
 21
130.37499999968711
 31
0.0
  0
LINE
  5
167
  8
DATA
  6
CONTINUOUS
 62
     7
 10
202.5750000002204
 20
132.37499999968711
 30
0.0
 11
203.27500000022039
 21
132.37499999968711
 31
0.0
  0
LINE
  5
168
  8
DATA
  6
CONTINUOUS
 62
     7
 10
203.97500000022049
 20
130.37499999968711
 30
0.0
 11
203.97500000022049
 21
132.37499999968711
 31
0.0
  0
LINE
  5
169
  8
DATA
  6
CONTINUOUS
 62
     7
 10
204.67500000022051
 20
132.37499999968711
 30
0.0
 11
204.67500000022051
 21
130.37499999968711
 31
0.0
  0
LINE
  5
16A
  8
DATA
  6
CONTINUOUS
 62
     7
 10
203.97500000022049
 20
132.37499999968711
 30
0.0
 11
204.67500000022051
 21
132.37499999968711
 31
0.0
  0
LINE
  5
16B
  8
DATA
  6
CONTINUOUS
 62
     7
 10
205.37500000022041
 20
130.37499999968711
 30
0.0
 11
205.37500000022041
 21
132.37499999968711
 31
0.0
  0
LINE
  5
16C
  8
DATA
  6
CONTINUOUS
 62
     7
 10
206.0750000002204
 20
132.37499999968711
 30
0.0
 11
206.0750000002204
 21
130.37499999968711
 31
0.0
  0
LINE
  5
16D
  8
DATA
  6
CONTINUOUS
 62
     7
 10
205.37500000022041
 20
132.37499999968711
 30
0.0
 11
206.0750000002204
 21
132.37499999968711
 31
0.0
  0
LINE
  5
16E
  8
DATA
  6
CONTINUOUS
 62
     7
 10
206.7750000002205
 20
130.37499999968711
 30
0.0
 11
206.7750000002205
 21
132.37499999968711
 31
0.0
  0
LINE
  5
16F
  8
DATA
  6
CONTINUOUS
 62
     7
 10
206.7750000002205
 20
132.37499999968711
 30
0.0
 11
207.12500000022041
 21
132.37499999968711
 31
0.0
  0
LINE
  5
170
  8
DATA
  6
CONTINUOUS
 62
     7
 10
193.4750000002204
 20
130.37499999968711
 30
0.0
 11
194.17500000022039
 21
130.37499999968711
 31
0.0
  0
LINE
  5
171
  8
DATA
  6
CONTINUOUS
 62
     7
 10
194.87500000022041
 20
130.37499999968711
 30
0.0
 11
195.5750000002204
 21
130.37499999968711
 31
0.0
  0
LINE
  5
172
  8
DATA
  6
CONTINUOUS
 62
     7
 10
196.27500000022039
 20
130.37499999968711
 30
0.0
 11
196.9750000002204
 21
130.37499999968711
 31
0.0
  0
LINE
  5
173
  8
DATA
  6
CONTINUOUS
 62
     7
 10
197.67500000022039
 20
130.37499999968711
 30
0.0
 11
198.37500000022041
 21
130.37499999968711
 31
0.0
  0
LINE
  5
174
  8
DATA
  6
CONTINUOUS
 62
     7
 10
199.0750000002204
 20
130.37499999968711
 30
0.0
 11
199.77500000022039
 21
130.37499999968711
 31
0.0
  0
LINE
  5
175
  8
DATA
  6
CONTINUOUS
 62
     7
 10
200.4750000002204
 20
130.37499999968711
 30
0.0
 11
201.17500000022051
 21
130.37499999968711
 31
0.0
  0
LINE
  5
176
  8
DATA
  6
CONTINUOUS
 62
     7
 10
201.87500000022041
 20
130.37499999968711
 30
0.0
 11
202.5750000002204
 21
130.37499999968711
 31
0.0
  0
LINE
  5
177
  8
DATA
  6
CONTINUOUS
 62
     7
 10
203.27500000022039
 20
130.37499999968711
 30
0.0
 11
203.97500000022049
 21
130.37499999968711
 31
0.0
  0
LINE
  5
178
  8
DATA
  6
CONTINUOUS
 62
     7
 10
204.67500000022051
 20
130.37499999968711
 30
0.0
 11
205.37500000022041
 21
130.37499999968711
 31
0.0
  0
LINE
  5
179
  8
DATA
  6
CONTINUOUS
 62
     7
 10
206.0750000002204
 20
130.37499999968711
 30
0.0
 11
206.7750000002205
 21
130.37499999968711
 31
0.0
  0
LINE
  5
17A
  8
DATA
  6
CONTINUOUS
 62
     7
 10
200.0987727129951
 20
169.4249094893203
 30
0.0
 11
200.11349694331699
 21
172.6249905655277
 31
0.0
  0
LINE
  5
17B
  8
DATA
  6
CONTINUOUS
 62
     7
 10
201.4000000002205
 20
169.20471716728571
 30
0.0
 11
202.50832843314879
 21
172.2067737409244
 31
0.0
  0
LINE
  5
17C
  8
DATA
  6
CONTINUOUS
 62
     7
 10
202.54744347044999
 20
168.55275812383991
 30
0.0
 11
204.61569533986531
 21
170.99469788378519
 31
0.0
  0
LINE
  5
17D
  8
DATA
  6
CONTINUOUS
 62
     7
 10
203.4027045067117
 20
167.54766824151321
 30
0.0
 11
206.18141811301729
 21
169.13495721352669
 31
0.0
  0
LINE
  5
17E
  8
DATA
  6
CONTINUOUS
 62
     7
 10
203.86262600572411
 20
166.3106761936611
 30
0.0
 11
207.0166474785544
 21
166.85186390182739
 31
0.0
  0
LINE
  5
17F
  8
DATA
  6
CONTINUOUS
 62
     7
 10
203.87173464698779
 20
164.990981477313
 30
0.0
 11
207.02064244831959
 21
164.4207926969473
 31
0.0
  0
LINE
  5
180
  8
DATA
  6
CONTINUOUS
 62
     7
 10
203.4289317939371
 20
163.74775875188001
 30
0.0
 11
206.1929211700006
 21
162.1349666649844
 31
0.0
  0
LINE
  5
181
  8
DATA
  6
CONTINUOUS
 62
     7
 10
202.5876260057241
 20
162.73095902606261
 30
0.0
 11
204.63331904562659
 21
160.2700901605937
 31
0.0
  0
LINE
  5
182
  8
DATA
  6
CONTINUOUS
 62
     7
 10
201.44929117675829
 20
162.06322335316031
 30
0.0
 11
202.52994710867529
 21
159.051094812847
 31
0.0
  0
LINE
  5
183
  8
DATA
  6
CONTINUOUS
 62
     7
 10
200.15122728744581
 20
161.82509051005391
 30
0.0
 11
200.1365030572166
 21
158.62500945399361
 31
0.0
  0
LINE
  5
184
  8
DATA
  6
CONTINUOUS
 62
     7
 10
198.8500000002204
 20
162.0452828320885
 30
0.0
 11
197.7416715672932
 21
159.0432262584529
 31
0.0
  0
LINE
  5
185
  8
DATA
  6
CONTINUOUS
 62
     7
 10
197.702556529991
 20
162.6972418755343
 30
0.0
 11
195.63430466057571
 21
160.25530211558919
 31
0.0
  0
LINE
  5
186
  8
DATA
  6
CONTINUOUS
 62
     7
 10
196.84729549372921
 20
163.70233175786089
 30
0.0
 11
194.06858188742339
 21
162.11504278584741
 31
0.0
  0
LINE
  5
187
  8
DATA
  6
CONTINUOUS
 62
     7
 10
196.3873739947168
 20
164.939323805713
 30
0.0
 11
193.23335252188659
 21
164.39813609754671
 31
0.0
  0
LINE
  5
188
  8
DATA
  6
CONTINUOUS
 62
     7
 10
196.37826535345309
 20
166.2590185220611
 30
0.0
 11
193.22935755212129
 21
166.82920730242679
 31
0.0
  0
LINE
  5
189
  8
DATA
  6
CONTINUOUS
 62
     7
 10
196.82106820650381
 20
167.50224124749411
 30
0.0
 11
194.0570788304405
 21
169.11503333438949
 31
0.0
  0
LINE
  5
18A
  8
DATA
  6
CONTINUOUS
 62
     7
 10
197.66237399471689
 20
168.51904097331149
 30
0.0
 11
195.61668095481369
 21
170.97990983878111
 31
0.0
  0
LINE
  5
18B
  8
DATA
  6
CONTINUOUS
 62
     7
 10
198.80070882368261
 20
169.1867766462139
 30
0.0
 11
197.7200528917655
 21
172.1989051865273
 31
0.0
  0
LINE
  5
18C
  8
DATA
  6
CONTINUOUS
 62
     7
 10
192.12500000022041
 20
125.37499999968711
 30
0.0
 11
208.12500000022041
 21
125.37499999968711
 31
0.0
  0
LINE
  5
18D
  8
DATA
  6
CONTINUOUS
 62
     7
 10
190.62500000022041
 20
113.37499999968711
 30
0.0
 11
192.12500000022041
 21
125.37499999968711
 31
0.0
  0
LINE
  5
18E
  8
DATA
  6
CONTINUOUS
 62
     7
 10
208.12500000022041
 20
125.37499999968711
 30
0.0
 11
209.62500000022041
 21
113.37499999968711
 31
0.0
  0
ARC
  5
18F
  8
DATA
  6
CONTINUOUS
 62
     7
 10
200.1250000002205
 20
165.62499999968711
 30
0.0
 40
7.9999999999999867
 50
269.99999999999949
 51
270.04943066362409
  0
LINE
  5
190
  8
DATA
  6
CONTINUOUS
 62
     7
 10
85.875000000220439
 20
134.17499999968709
 30
0.0
 11
86.525000000220444
 21
134.17499999968709
 31
0.0
  0
LINE
  5
191
  8
DATA
  6
CONTINUOUS
 62
     7
 10
87.225000000220433
 20
134.17499999968709
 30
0.0
 11
87.92500000022045
 21
134.17499999968709
 31
0.0
  0
LINE
  5
192
  8
DATA
  6
CONTINUOUS
 62
     7
 10
88.625000000220453
 20
134.17499999968709
 30
0.0
 11
89.32500000022047
 21
134.17499999968709
 31
0.0
  0
LINE
  5
193
  8
DATA
  6
CONTINUOUS
 62
     7
 10
90.025000000220444
 20
134.17499999968709
 30
0.0
 11
90.725000000220433
 21
134.17499999968709
 31
0.0
  0
LINE
  5
194
  8
DATA
  6
CONTINUOUS
 62
     7
 10
91.425000000220436
 20
134.17499999968709
 30
0.0
 11
92.125000000220439
 21
134.17499999968709
 31
0.0
  0
LINE
  5
195
  8
DATA
  6
CONTINUOUS
 62
     7
 10
92.825000000220484
 20
134.17499999968709
 30
0.0
 11
93.525000000220444
 21
134.17499999968709
 31
0.0
  0
LINE
  5
196
  8
DATA
  6
CONTINUOUS
 62
     7
 10
94.225000000220447
 20
134.17499999968709
 30
0.0
 11
94.925000000220464
 21
134.17499999968709
 31
0.0
  0
LINE
  5
197
  8
DATA
  6
CONTINUOUS
 62
     7
 10
95.625000000220439
 20
134.17499999968709
 30
0.0
 11
96.325000000220427
 21
134.17499999968709
 31
0.0
  0
LINE
  5
198
  8
DATA
  6
CONTINUOUS
 62
     7
 10
97.025000000220444
 20
134.17499999968709
 30
0.0
 11
97.725000000220447
 21
134.17499999968709
 31
0.0
  0
LINE
  5
199
  8
DATA
  6
CONTINUOUS
 62
     7
 10
98.42500000022045
 20
134.17499999968709
 30
0.0
 11
99.125000000220439
 21
134.17499999968709
 31
0.0
  0
LINE
  5
19A
  8
DATA
  6
CONTINUOUS
 62
     7
 10
99.825000000220413
 20
134.17499999968709
 30
0.0
 11
100.5250000002204
 21
134.17499999968709
 31
0.0
  0
LINE
  5
19B
  8
DATA
  6
CONTINUOUS
 62
     7
 10
101.2250000002204
 20
134.17499999968709
 30
0.0
 11
101.8750000002204
 21
134.17499999968709
 31
0.0
  0
LINE
  5
19C
  8
DATA
  6
CONTINUOUS
 62
     7
 10
93.525000000220444
 20
132.37499999968711
 30
0.0
 11
93.525000000220444
 21
134.37499999968711
 31
0.0
  0
LINE
  5
19D
  8
DATA
  6
CONTINUOUS
 62
     7
 10
94.225000000220447
 20
134.37499999968711
 30
0.0
 11
94.225000000220447
 21
132.37499999968711
 31
0.0
  0
LINE
  5
19E
  8
DATA
  6
CONTINUOUS
 62
     7
 10
93.525000000220444
 20
134.37499999968711
 30
0.0
 11
94.225000000220447
 21
134.37499999968711
 31
0.0
  0
LINE
  5
19F
  8
DATA
  6
CONTINUOUS
 62
     7
 10
92.125000000220439
 20
132.37499999968711
 30
0.0
 11
92.125000000220439
 21
134.37499999968711
 31
0.0
  0
LINE
  5
1A0
  8
DATA
  6
CONTINUOUS
 62
     7
 10
92.825000000220484
 20
134.37499999968711
 30
0.0
 11
92.825000000220484
 21
132.37499999968711
 31
0.0
  0
LINE
  5
1A1
  8
DATA
  6
CONTINUOUS
 62
     7
 10
92.125000000220439
 20
134.37499999968711
 30
0.0
 11
92.825000000220484
 21
134.37499999968711
 31
0.0
  0
LINE
  5
1A2
  8
DATA
  6
CONTINUOUS
 62
     7
 10
90.725000000220433
 20
132.37499999968711
 30
0.0
 11
90.725000000220433
 21
134.37499999968711
 31
0.0
  0
LINE
  5
1A3
  8
DATA
  6
CONTINUOUS
 62
     7
 10
91.425000000220436
 20
134.37499999968711
 30
0.0
 11
91.425000000220436
 21
132.37499999968711
 31
0.0
  0
LINE
  5
1A4
  8
DATA
  6
CONTINUOUS
 62
     7
 10
90.725000000220433
 20
134.37499999968711
 30
0.0
 11
91.425000000220436
 21
134.37499999968711
 31
0.0
  0
LINE
  5
1A5
  8
DATA
  6
CONTINUOUS
 62
     7
 10
89.32500000022047
 20
132.37499999968711
 30
0.0
 11
89.32500000022047
 21
134.37499999968711
 31
0.0
  0
LINE
  5
1A6
  8
DATA
  6
CONTINUOUS
 62
     7
 10
90.025000000220444
 20
134.37499999968711
 30
0.0
 11
90.025000000220444
 21
132.37499999968711
 31
0.0
  0
LINE
  5
1A7
  8
DATA
  6
CONTINUOUS
 62
     7
 10
89.32500000022047
 20
134.37499999968711
 30
0.0
 11
90.025000000220444
 21
134.37499999968711
 31
0.0
  0
LINE
  5
1A8
  8
DATA
  6
CONTINUOUS
 62
     7
 10
87.92500000022045
 20
132.37499999968711
 30
0.0
 11
87.92500000022045
 21
134.37499999968711
 31
0.0
  0
LINE
  5
1A9
  8
DATA
  6
CONTINUOUS
 62
     7
 10
88.625000000220453
 20
134.37499999968711
 30
0.0
 11
88.625000000220453
 21
132.37499999968711
 31
0.0
  0
LINE
  5
1AA
  8
DATA
  6
CONTINUOUS
 62
     7
 10
87.92500000022045
 20
134.37499999968711
 30
0.0
 11
88.625000000220453
 21
134.37499999968711
 31
0.0
  0
LINE
  5
1AB
  8
DATA
  6
CONTINUOUS
 62
     7
 10
86.525000000220444
 20
132.37499999968711
 30
0.0
 11
86.525000000220444
 21
134.37499999968711
 31
0.0
  0
LINE
  5
1AC
  8
DATA
  6
CONTINUOUS
 62
     7
 10
87.225000000220433
 20
134.37499999968711
 30
0.0
 11
87.225000000220433
 21
132.37499999968711
 31
0.0
  0
LINE
  5
1AD
  8
DATA
  6
CONTINUOUS
 62
     7
 10
86.525000000220444
 20
134.37499999968711
 30
0.0
 11
87.225000000220433
 21
134.37499999968711
 31
0.0
  0
LINE
  5
1AE
  8
DATA
  6
CONTINUOUS
 62
     7
 10
94.925000000220464
 20
132.37499999968711
 30
0.0
 11
94.925000000220464
 21
134.37499999968711
 31
0.0
  0
LINE
  5
1AF
  8
DATA
  6
CONTINUOUS
 62
     7
 10
95.625000000220439
 20
134.37499999968711
 30
0.0
 11
95.625000000220439
 21
132.37499999968711
 31
0.0
  0
LINE
  5
1B0
  8
DATA
  6
CONTINUOUS
 62
     7
 10
94.925000000220464
 20
134.37499999968711
 30
0.0
 11
95.625000000220439
 21
134.37499999968711
 31
0.0
  0
LINE
  5
1B1
  8
DATA
  6
CONTINUOUS
 62
     7
 10
96.325000000220427
 20
132.37499999968711
 30
0.0
 11
96.325000000220427
 21
134.37499999968711
 31
0.0
  0
LINE
  5
1B2
  8
DATA
  6
CONTINUOUS
 62
     7
 10
97.025000000220444
 20
134.37499999968711
 30
0.0
 11
97.025000000220444
 21
132.37499999968711
 31
0.0
  0
LINE
  5
1B3
  8
DATA
  6
CONTINUOUS
 62
     7
 10
96.325000000220427
 20
134.37499999968711
 30
0.0
 11
97.025000000220444
 21
134.37499999968711
 31
0.0
  0
LINE
  5
1B4
  8
DATA
  6
CONTINUOUS
 62
     7
 10
97.725000000220447
 20
132.37499999968711
 30
0.0
 11
97.725000000220447
 21
134.37499999968711
 31
0.0
  0
LINE
  5
1B5
  8
DATA
  6
CONTINUOUS
 62
     7
 10
98.42500000022045
 20
134.37499999968711
 30
0.0
 11
98.42500000022045
 21
132.37499999968711
 31
0.0
  0
LINE
  5
1B6
  8
DATA
  6
CONTINUOUS
 62
     7
 10
97.725000000220447
 20
134.37499999968711
 30
0.0
 11
98.42500000022045
 21
134.37499999968711
 31
0.0
  0
LINE
  5
1B7
  8
DATA
  6
CONTINUOUS
 62
     7
 10
99.125000000220439
 20
132.37499999968711
 30
0.0
 11
99.125000000220439
 21
134.37499999968711
 31
0.0
  0
LINE
  5
1B8
  8
DATA
  6
CONTINUOUS
 62
     7
 10
99.825000000220413
 20
134.37499999968711
 30
0.0
 11
99.825000000220413
 21
132.37499999968711
 31
0.0
  0
LINE
  5
1B9
  8
DATA
  6
CONTINUOUS
 62
     7
 10
99.125000000220439
 20
134.37499999968711
 30
0.0
 11
99.825000000220413
 21
134.37499999968711
 31
0.0
  0
LINE
  5
1BA
  8
DATA
  6
CONTINUOUS
 62
     7
 10
100.5250000002204
 20
132.37499999968711
 30
0.0
 11
100.5250000002204
 21
134.37499999968711
 31
0.0
  0
LINE
  5
1BB
  8
DATA
  6
CONTINUOUS
 62
     7
 10
101.2250000002204
 20
134.37499999968711
 30
0.0
 11
101.2250000002204
 21
132.37499999968711
 31
0.0
  0
LINE
  5
1BC
  8
DATA
  6
CONTINUOUS
 62
     7
 10
100.5250000002204
 20
134.37499999968711
 30
0.0
 11
101.2250000002204
 21
134.37499999968711
 31
0.0
  0
LINE
  5
1BD
  8
DATA
  6
CONTINUOUS
 62
     7
 10
85.875000000220439
 20
132.37499999968711
 30
0.0
 11
86.525000000220444
 21
132.37499999968711
 31
0.0
  0
LINE
  5
1BE
  8
DATA
  6
CONTINUOUS
 62
     7
 10
87.225000000220433
 20
132.37499999968711
 30
0.0
 11
87.92500000022045
 21
132.37499999968711
 31
0.0
  0
LINE
  5
1BF
  8
DATA
  6
CONTINUOUS
 62
     7
 10
88.625000000220453
 20
132.37499999968711
 30
0.0
 11
89.32500000022047
 21
132.37499999968711
 31
0.0
  0
LINE
  5
1C0
  8
DATA
  6
CONTINUOUS
 62
     7
 10
90.025000000220444
 20
132.37499999968711
 30
0.0
 11
90.725000000220433
 21
132.37499999968711
 31
0.0
  0
LINE
  5
1C1
  8
DATA
  6
CONTINUOUS
 62
     7
 10
91.425000000220436
 20
132.37499999968711
 30
0.0
 11
92.125000000220439
 21
132.37499999968711
 31
0.0
  0
LINE
  5
1C2
  8
DATA
  6
CONTINUOUS
 62
     7
 10
92.825000000220484
 20
132.37499999968711
 30
0.0
 11
93.525000000220444
 21
132.37499999968711
 31
0.0
  0
LINE
  5
1C3
  8
DATA
  6
CONTINUOUS
 62
     7
 10
94.225000000220447
 20
132.37499999968711
 30
0.0
 11
94.925000000220464
 21
132.37499999968711
 31
0.0
  0
LINE
  5
1C4
  8
DATA
  6
CONTINUOUS
 62
     7
 10
95.625000000220439
 20
132.37499999968711
 30
0.0
 11
96.325000000220427
 21
132.37499999968711
 31
0.0
  0
LINE
  5
1C5
  8
DATA
  6
CONTINUOUS
 62
     7
 10
97.025000000220444
 20
132.37499999968711
 30
0.0
 11
97.725000000220447
 21
132.37499999968711
 31
0.0
  0
LINE
  5
1C6
  8
DATA
  6
CONTINUOUS
 62
     7
 10
98.42500000022045
 20
132.37499999968711
 30
0.0
 11
99.125000000220439
 21
132.37499999968711
 31
0.0
  0
LINE
  5
1C7
  8
DATA
  6
CONTINUOUS
 62
     7
 10
99.825000000220413
 20
132.37499999968711
 30
0.0
 11
100.5250000002204
 21
132.37499999968711
 31
0.0
  0
LINE
  5
1C8
  8
DATA
  6
CONTINUOUS
 62
     7
 10
101.2250000002204
 20
132.37499999968711
 30
0.0
 11
101.8750000002204
 21
132.37499999968711
 31
0.0
  0
LINE
  5
1C9
  8
DATA
  6
CONTINUOUS
 62
     7
 10
101.8750000002204
 20
134.37499999968711
 30
0.0
 11
101.8750000002204
 21
125.37499999968711
 31
0.0
  0
LINE
  5
1CA
  8
DATA
  6
CONTINUOUS
 62
     7
 10
85.875000000220439
 20
125.37499999968711
 30
0.0
 11
85.875000000220439
 21
134.37499999968711
 31
0.0
  0
ARC
  5
1CB
  8
DATA
  6
CONTINUOUS
 62
     7
 10
200.12500000022041
 20
165.62499999968711
 30
0.0
 40
6.9999999999999662
 50
130.0941538447515
 51
150.09415384475159
  0
ARC
  5
1CC
  8
DATA
  6
CONTINUOUS
 62
     7
 10
200.12500000022041
 20
165.62499999968711
 30
0.0
 40
6.9999999999999662
 50
170.0941538447513
 51
190.09415384475119
  0
ARC
  5
1CD
  8
DATA
  6
CONTINUOUS
 62
     7
 10
200.12500000022041
 20
165.62499999968711
 30
0.0
 40
6.9999999999999618
 50
210.09415384475119
 51
230.09415384475099
  0
ARC
  5
1CE
  8
DATA
  6
CONTINUOUS
 62
     7
 10
200.12500000022041
 20
165.62499999968711
 30
0.0
 40
6.9999999999999671
 50
250.0941538447511
 51
270.09415384489711
  0
ARC
  5
1CF
  8
DATA
  6
CONTINUOUS
 62
     7
 10
200.12500000022041
 20
165.62499999968711
 30
0.0
 40
6.9999999999999662
 50
290.09415384475068
 51
310.09415384475147
  0
ARC
  5
1D0
  8
DATA
  6
CONTINUOUS
 62
     7
 10
200.12500000022041
 20
165.62499999968711
 30
0.0
 40
6.9999999999999796
 50
330.09415384475102
 51
350.09415384475119
  0
ARC
  5
1D1
  8
DATA
  6
CONTINUOUS
 62
     7
 10
200.12500000022041
 20
165.62499999968711
 30
0.0
 40
6.9999999999999538
 50
10.09415384475116
 51
30.09415384475124
  0
ARC
  5
1D2
  8
DATA
  6
CONTINUOUS
 62
     7
 10
200.12500000022041
 20
165.62499999968711
 30
0.0
 40
6.9999999999999556
 50
50.094153844751411
 51
70.094153844751531
  0
ARC
  5
1D3
  8
DATA
  6
CONTINUOUS
 62
     7
 10
200.12500000022041
 20
165.62499999968711
 30
0.0
 40
6.9999999999999707
 50
90.000000000000213
 51
110.0941538447517
  0
CIRCLE
  5
1D4
  8
DATA
  6
CONTINUOUS
 62
     7
 10
-12.374999999779559
 20
165.62499999968711
 30
0.0
 40
9.5
  0
ARC
  5
1D5
  8
DATA
  6
CONTINUOUS
 62
     7
 10
200.12500000022041
 20
165.62499999968699
 30
0.0
 40
6.7499999999999982
 50
150.10740519831779
 51
170.10740519831779
  0
ARC
  5
1D6
  8
DATA
  6
CONTINUOUS
 62
     7
 10
200.12500000022041
 20
165.62499999968699
 30
0.0
 40
6.7500000000000044
 50
190.10740519831771
 51
210.10740519831799
  0
ARC
  5
1D7
  8
DATA
  6
CONTINUOUS
 62
     7
 10
200.12500000022041
 20
165.62499999968699
 30
0.0
 40
6.7499999999999982
 50
230.10740519831799
 51
250.10740519831839
  0
ARC
  5
1D8
  8
DATA
  6
CONTINUOUS
 62
     7
 10
200.12500000022041
 20
165.62499999968699
 30
0.0
 40
6.7499999999999956
 50
270.10740519874071
 51
290.10740519831847
  0
ARC
  5
1D9
  8
DATA
  6
CONTINUOUS
 62
     7
 10
200.12500000022041
 20
165.62499999968699
 30
0.0
 40
6.7499999999999956
 50
310.10740519831847
 51
330.10740434454408
  0
ARC
  5
1DA
  8
DATA
  6
CONTINUOUS
 62
     7
 10
200.12500000022041
 20
165.62499999968699
 30
0.0
 40
6.7500000000000044
 50
350.10740519831887
 51
10.10740519831876
  0
ARC
  5
1DB
  8
DATA
  6
CONTINUOUS
 62
     7
 10
200.12500000022041
 20
165.62499999968699
 30
0.0
 40
6.7500000000000062
 50
30.10740519831862
 51
50.107405198318553
  0
ARC
  5
1DC
  8
DATA
  6
CONTINUOUS
 62
     7
 10
200.12500000022041
 20
165.62499999968699
 30
0.0
 40
6.75
 50
70.10740519831846
 51
90.107405198076151
  0
ARC
  5
1DD
  8
DATA
  6
CONTINUOUS
 62
     7
 10
200.12500000022041
 20
165.62499999968699
 30
0.0
 40
6.75
 50
110.10740519831801
 51
130.10740519831771
  0
CIRCLE
  5
1DE
  8
DATA
  6
CONTINUOUS
 62
     7
 10
200.12500000022041
 20
165.62499999968711
 30
0.0
 40
9.5000000000000142
  0
CIRCLE
  5
1DF
  8
DATA
  6
CONTINUOUS
 62
     7
 10
93.875000000220453
 20
165.62499999968711
 30
0.0
 40
9.5
  0
LINE
  5
1E0
  8
DATA
  6
CONTINUOUS
 62
     7
 10
192.12500000022041
 20
125.37499999968711
 30
0.0
 11
193.12500000022041
 21
132.37499999968711
 31
0.0
  0
LINE
  5
1E1
  8
DATA
  6
CONTINUOUS
 62
     7
 10
208.12500000022041
 20
125.37499999968711
 30
0.0
 11
207.12500000022041
 21
132.37499999968711
 31
0.0
  0
LINE
  5
1E2
  8
DATA
  6
CONTINUOUS
 62
     7
 10
-46.875000000000021
 20
81.25
 30
0.0
 11
21.875
 21
81.25
 31
0.0
  0
LINE
  5
1E3
  8
DATA
  6
CONTINUOUS
 62
     7
 10
59.375
 20
81.25
 30
0.0
 11
128.125
 21
81.25
 31
0.0
  0
LINE
  5
1E4
  8
DATA
  6
CONTINUOUS
 62
     7
 10
165.625
 20
81.25
 30
0.0
 11
234.375
 21
81.25
 31
0.0
  0
TEXT
  5
1E5
  8
DATA
 62
     7
 10
60.481364324098578
 20
90.308311089751754
 30
0.0
 40
5.4294704861111107
  1
音響補正イコライザー
 41
0.7
 11
60.481364324098578
 21
95.737781575862869
 31
0.0
 73
     3
  0
TEXT
  5
1E6
  8
DATA
 62
     7
 10
60.481364324098578
 20
83.25275553419624
 30
0.0
 40
5.4294704861111107
  1
DDO297実装時
 41
0.7
 11
60.481364324098578
 21
88.682226020307354
 31
0.0
 73
     3
  0
TEXT
  5
1E7
  8
DATA
 62
     7
 10
166.73136432409859
 20
90.308311089751754
 30
0.0
 40
5.4294704861111107
  1
音響補正イコライザー
 41
0.7
 11
166.73136432409859
 21
95.737781575862869
 31
0.0
 73
     3
  0
TEXT
  5
1E8
  8
DATA
 62
     7
 10
166.73136432409859
 20
83.25275553419624
 30
0.0
 40
5.4294704861111107
  1
DDO254実装時
 41
0.7
 11
166.73136432409859
 21
88.682226020307354
 31
0.0
 73
     3
  0
TEXT
  5
1E9
  8
DATA
 62
     7
 10
194.4193888382334
 20
-86.237327745679664
 30
0.0
 40
3.257687421875
  1
無指向性カプセル
 41
0.7
 11
194.4193888382334
 21
-82.979640323804674
 31
0.0
 73
     3
  0
ENDSEC
  0
EOF
