  0
SECTION
  2
HEADER
  9
$ACADVER
  1
AC1015
  9
$ACADMAINTVER
 70
    20
  9
$DWGCODEPAGE
  3
ANSI_932
  9
$INSBASE
 10
0.0
 20
0.0
 30
0.0
  9
$EXTMIN
 10
-170.0164782349211
 20
-265.74833863455
 30
-0.0015258207003583
  9
$EXTMAX
 10
370.0164807494923
 20
537.0917483963953
 30
0.0000000349246037
  9
$LIMMIN
 10
0.0
 20
0.0
  9
$LIMMAX
 10
0.0
 20
0.0
  9
$ORTHOMODE
 70
     0
  9
$REGENMODE
 70
     1
  9
$FILLMODE
 70
     1
  9
$QTEXTMODE
 70
     0
  9
$MIRRTEXT
 70
     1
  9
$LTSCALE
 40
15.24
  9
$ATTMODE
 70
     1
  9
$TEXTSIZE
 40
0.0
  9
$TRACEWID
 40
1.0
  9
$TEXTSTYLE
  7
STANDARD
  9
$CLAYER
  8
DATA
  9
$CELTYPE
  6
ByLayer
  9
$CECOLOR
 62
   256
  9
$CELTSCALE
 40
1.0
  9
$DISPSILH
 70
     0
  9
$DIMSCALE
 40
1.0
  9
$DIMASZ
 40
0.18
  9
$DIMEXO
 40
0.0625
  9
$DIMDLI
 40
0.38
  9
$DIMRND
 40
0.0
  9
$DIMDLE
 40
0.0
  9
$DIMEXE
 40
0.18
  9
$DIMTP
 40
0.0
  9
$DIMTM
 40
0.0
  9
$DIMTXT
 40
0.18
  9
$DIMCEN
 40
0.09
  9
$DIMTSZ
 40
0.0
  9
$DIMTOL
 70
     0
  9
$DIMLIM
 70
     0
  9
$DIMTIH
 70
     1
  9
$DIMTOH
 70
     1
  9
$DIMSE1
 70
     0
  9
$DIMSE2
 70
     0
  9
$DIMTAD
 70
     0
  9
$DIMZIN
 70
     0
  9
$DIMBLK
  1

  9
$DIMASO
 70
     1
  9
$DIMSHO
 70
     1
  9
$DIMPOST
  1

  9
$DIMAPOST
  1

  9
$DIMALT
 70
     0
  9
$DIMALTD
 70
     2
  9
$DIMALTF
 40
25.4
  9
$DIMLFAC
 40
1.0
  9
$DIMTOFL
 70
     0
  9
$DIMTVP
 40
0.0
  9
$DIMTIX
 70
     0
  9
$DIMSOXD
 70
     0
  9
$DIMSAH
 70
     0
  9
$DIMBLK1
  1

  9
$DIMBLK2
  1

  9
$DIMSTYLE
  2
STANDARD
  9
$DIMCLRD
 70
     0
  9
$DIMCLRE
 70
     0
  9
$DIMCLRT
 70
     0
  9
$DIMTFAC
 40
1.0
  9
$DIMGAP
 40
0.09
  9
$DIMJUST
 70
     0
  9
$DIMSD1
 70
     0
  9
$DIMSD2
 70
     0
  9
$DIMTOLJ
 70
     1
  9
$DIMTZIN
 70
     0
  9
$DIMALTZ
 70
     0
  9
$DIMALTTZ
 70
     0
  9
$DIMUPT
 70
     0
  9
$DIMDEC
 70
     4
  9
$DIMTDEC
 70
     4
  9
$DIMALTU
 70
     2
  9
$DIMALTTD
 70
     2
  9
$DIMTXSTY
  7
STANDARD
  9
$DIMAUNIT
 70
     0
  9
$DIMADEC
 70
     0
  9
$DIMALTRND
 40
0.0
  9
$DIMAZIN
 70
     0
  9
$DIMDSEP
 70
    46
  9
$DIMATFIT
 70
     3
  9
$DIMFRAC
 70
     0
  9
$DIMLDRBLK
  1

  9
$DIMLUNIT
 70
     2
  9
$DIMLWD
 70
    -2
  9
$DIMLWE
 70
    -2
  9
$DIMTMOVE
 70
     0
  9
$LUNITS
 70
     2
  9
$LUPREC
 70
     4
  9
$SKETCHINC
 40
0.1
  9
$FILLETRAD
 40
0.0
  9
$AUNITS
 70
     0
  9
$AUPREC
 70
     0
  9
$MENU
  1
acad
  9
$ELEVATION
 40
0.0
  9
$PELEVATION
 40
0.0
  9
$THICKNESS
 40
0.0
  9
$LIMCHECK
 70
     0
  9
$CHAMFERA
 40
0.0
  9
$CHAMFERB
 40
0.0
  9
$CHAMFERC
 40
0.0
  9
$CHAMFERD
 40
0.0
  9
$SKPOLY
 70
     0
  9
$TDCREATE
 40
2455618.598564815
  9
$TDUCREATE
 40
2455618.223564815
  9
$TDUPDATE
 40
2455618.617016273
  9
$TDUUPDATE
 40
2455618.242016273
  9
$TDINDWG
 40
0.0002773264
  9
$TDUSRTIMER
 40
0.0002773264
  9
$USRTIMER
 70
     1
  9
$ANGBASE
 50
0.0
  9
$ANGDIR
 70
     0
  9
$PDMODE
 70
     1
  9
$PDSIZE
 40
-2.0
  9
$PLINEWID
 40
0.0
  9
$SPLFRAME
 70
     0
  9
$SPLINETYPE
 70
     6
  9
$SPLINESEGS
 70
     8
  9
$HANDSEED
  5
3E3
  9
$SURFTAB1
 70
     6
  9
$SURFTAB2
 70
     6
  9
$SURFTYPE
 70
     6
  9
$SURFU
 70
     6
  9
$SURFV
 70
     6
  9
$UCSBASE
  2

  9
$UCSNAME
  2

  9
$UCSORG
 10
0.0
 20
0.0
 30
0.0
  9
$UCSXDIR
 10
1.0
 20
0.0
 30
0.0
  9
$UCSYDIR
 10
0.0
 20
1.0
 30
0.0
  9
$UCSORTHOREF
  2

  9
$UCSORTHOVIEW
 70
     0
  9
$UCSORGTOP
 10
0.0
 20
0.0
 30
0.0
  9
$UCSORGBOTTOM
 10
0.0
 20
0.0
 30
0.0
  9
$UCSORGLEFT
 10
0.0
 20
0.0
 30
0.0
  9
$UCSORGRIGHT
 10
0.0
 20
0.0
 30
0.0
  9
$UCSORGFRONT
 10
0.0
 20
0.0
 30
0.0
  9
$UCSORGBACK
 10
0.0
 20
0.0
 30
0.0
  9
$PUCSBASE
  2

  9
$PUCSNAME
  2

  9
$PUCSORG
 10
0.0
 20
0.0
 30
0.0
  9
$PUCSXDIR
 10
1.0
 20
0.0
 30
0.0
  9
$PUCSYDIR
 10
0.0
 20
1.0
 30
0.0
  9
$PUCSORTHOREF
  2

  9
$PUCSORTHOVIEW
 70
     0
  9
$PUCSORGTOP
 10
0.0
 20
0.0
 30
0.0
  9
$PUCSORGBOTTOM
 10
0.0
 20
0.0
 30
0.0
  9
$PUCSORGLEFT
 10
0.0
 20
0.0
 30
0.0
  9
$PUCSORGRIGHT
 10
0.0
 20
0.0
 30
0.0
  9
$PUCSORGFRONT
 10
0.0
 20
0.0
 30
0.0
  9
$PUCSORGBACK
 10
0.0
 20
0.0
 30
0.0
  9
$USERI1
 70
     0
  9
$USERI2
 70
     0
  9
$USERI3
 70
     0
  9
$USERI4
 70
     0
  9
$USERI5
 70
     0
  9
$USERR1
 40
0.0
  9
$USERR2
 40
0.0
  9
$USERR3
 40
0.0
  9
$USERR4
 40
0.0
  9
$USERR5
 40
0.0
  9
$WORLDVIEW
 70
     1
  9
$SHADEDGE
 70
     3
  9
$SHADEDIF
 70
    70
  9
$TILEMODE
 70
     1
  9
$MAXACTVP
 70
    64
  9
$PINSBASE
 10
0.0
 20
0.0
 30
0.0
  9
$PLIMCHECK
 70
     0
  9
$PEXTMIN
 10
1.000000000000000E+20
 20
1.000000000000000E+20
 30
1.000000000000000E+20
  9
$PEXTMAX
 10
-1.000000000000000E+20
 20
-1.000000000000000E+20
 30
-1.000000000000000E+20
  9
$PLIMMIN
 10
0.0
 20
0.0
  9
$PLIMMAX
 10
12.0
 20
9.0
  9
$UNITMODE
 70
     0
  9
$VISRETAIN
 70
     0
  9
$PLINEGEN
 70
     1
  9
$PSLTSCALE
 70
     0
  9
$TREEDEPTH
 70
  3020
  9
$CMLSTYLE
  2
Standard
  9
$CMLJUST
 70
     0
  9
$CMLSCALE
 40
1.0
  9
$PROXYGRAPHICS
 70
     1
  9
$MEASUREMENT
 70
     0
  9
$CELWEIGHT
370
    -1
  9
$ENDCAPS
280
     0
  9
$JOINSTYLE
280
     0
  9
$LWDISPLAY
290
     0
  9
$INSUNITS
 70
     0
  9
$HYPERLINKBASE
  1

  9
$STYLESHEET
  1

  9
$XEDIT
290
     1
  9
$CEPSNTYPE
380
     0
  9
$PSTYLEMODE
290
     1
  9
$FINGERPRINTGUID
  2
{418ACD63-9404-4C79-8F21-C21BA7D971BA}
  9
$VERSIONGUID
  2
{35E7E6D8-E89E-4C18-AE09-FDD13D8BE645}
  9
$EXTNAMES
290
     1
  9
$PSVPSCALE
 40
0.0
  9
$OLESTARTUP
290
     0
  0
ENDSEC
  0
SECTION
  2
CLASSES
  0
CLASS
  1
ACDBDICTIONARYWDFLT
  2
AcDbDictionaryWithDefault
  3
ObjectDBX Classes
 90
        0
280
     0
281
     0
  0
CLASS
  1
MATERIAL
  2
AcDbMaterial
  3
ObjectDBX Classes
 90
     1153
280
     0
281
     0
  0
CLASS
  1
VISUALSTYLE
  2
AcDbVisualStyle
  3
ObjectDBX Classes
 90
     4095
280
     0
281
     0
  0
CLASS
  1
SCALE
  2
AcDbScale
  3
ObjectDBX Classes
 90
     1153
280
     0
281
     0
  0
CLASS
  1
TABLESTYLE
  2
AcDbTableStyle
  3
ObjectDBX Classes
 90
     4095
280
     0
281
     0
  0
CLASS
  1
MLEADERSTYLE
  2
AcDbMLeaderStyle
  3
ACDB_MLEADERSTYLE_CLASS
 90
     4095
280
     0
281
     0
  0
CLASS
  1
DICTIONARYVAR
  2
AcDbDictionaryVar
  3
ObjectDBX Classes
 90
        0
280
     0
281
     0
  0
CLASS
  1
CELLSTYLEMAP
  2
AcDbCellStyleMap
  3
ObjectDBX Classes
 90
     1152
280
     0
281
     0
  0
CLASS
  1
ACDBPLACEHOLDER
  2
AcDbPlaceHolder
  3
ObjectDBX Classes
 90
        0
280
     0
281
     0
  0
CLASS
  1
LAYOUT
  2
AcDbLayout
  3
ObjectDBX Classes
 90
        0
280
     0
281
     0
  0
ENDSEC
  0
SECTION
  2
TABLES
  0
TABLE
  2
VPORT
  5
319
330
0
100
AcDbSymbolTable
 70
     1
  0
VPORT
  5
381
330
319
100
AcDbSymbolTableRecord
100
AcDbViewportTableRecord
  2
*ACTIVE
 70
     0
 10
0.0
 20
0.0
 11
1.0
 21
1.0
 12
100.0000012572856
 22
135.6717048809227
 13
0.0
 23
0.0
 14
1.0
 24
1.0
 15
0.0
 25
0.0
 16
0.0
 26
0.0
 36
1.0
 17
0.0
 27
0.0
 37
0.0
 40
808.7505661992713
 41
1.961916461916461
 42
50.0
 43
0.0
 44
0.0
 50
0.0
 51
0.0
 71
     0
 72
  2000
 73
     1
 74
     1
 75
     0
 76
     0
 77
     0
 78
     0
281
     0
 65
     1
110
0.0
120
0.0
130
0.0
111
1.0
121
0.0
131
0.0
112
0.0
122
1.0
132
0.0
 79
     0
146
0.0
  0
ENDTAB
  0
TABLE
  2
LTYPE
  5
316
330
0
100
AcDbSymbolTable
 70
    11
  0
LTYPE
  5
36B
330
316
100
AcDbSymbolTableRecord
100
AcDbLinetypeTableRecord
  2
ByBlock
 70
     0
  3

 72
    65
 73
     0
 40
0.0
  0
LTYPE
  5
36C
330
316
100
AcDbSymbolTableRecord
100
AcDbLinetypeTableRecord
  2
ByLayer
 70
     0
  3

 72
    65
 73
     0
 40
0.0
  0
LTYPE
  5
36D
330
316
100
AcDbSymbolTableRecord
100
AcDbLinetypeTableRecord
  2
CONTINUOUS
 70
     0
  3
Solid line
 72
    65
 73
     0
 40
0.0
  0
ENDTAB
  0
TABLE
  2
LAYER
  5
313
330
0
100
AcDbSymbolTable
 70
     5
  0
LAYER
  5
365
102
{ACAD_XDICTIONARY
360
394
102
}
330
313
100
AcDbSymbolTableRecord
100
AcDbLayerTableRecord
  2
0
 70
     0
 62
     7
  6
CONTINUOUS
370
    -3
390
320
  0
LAYER
  5
380
102
{ACAD_XDICTIONARY
360
396
102
}
330
313
100
AcDbSymbolTableRecord
100
AcDbLayerTableRecord
  2
DATA
 70
     0
 62
     7
  6
CONTINUOUS
370
    -3
390
320
  0
LAYER
  5
38C
102
{ACAD_XDICTIONARY
360
398
102
}
330
313
100
AcDbSymbolTableRecord
100
AcDbLayerTableRecord
  2
HIBINO-BASE
 70
     0
 62
     7
  6
CONTINUOUS
370
    -3
390
320
  0
LAYER
  5
38D
102
{ACAD_XDICTIONARY
360
39A
102
}
330
313
100
AcDbSymbolTableRecord
100
AcDbLayerTableRecord
  2
SPEC
 70
     0
 62
     7
  6
CONTINUOUS
370
    -3
390
320
  0
LAYER
  5
38E
102
{ACAD_XDICTIONARY
360
39C
102
}
330
313
100
AcDbSymbolTableRecord
100
AcDbLayerTableRecord
  2
DIMNSIONS
 70
     0
 62
     7
  6
CONTINUOUS
370
    -3
390
320
  0
ENDTAB
  0
TABLE
  2
STYLE
  5
314
330
0
100
AcDbSymbolTable
 70
     3
  0
STYLE
  5
366
330
314
100
AcDbSymbolTableRecord
100
AcDbTextStyleTableRecord
  2
STANDARD
 70
     0
 40
0.0
 41
1.0
 50
0.0
 71
     0
 42
0.0
  3
txt
  4
BIGFONT.SHX
  0
ENDTAB
  0
TABLE
  2
VIEW
  5
317
330
0
100
AcDbSymbolTable
 70
     0
  0
ENDTAB
  0
TABLE
  2
UCS
  5
318
330
0
100
AcDbSymbolTable
 70
     0
  0
ENDTAB
  0
TABLE
  2
APPID
  5
31A
330
0
100
AcDbSymbolTable
 70
     3
  0
APPID
  5
367
330
31A
100
AcDbSymbolTableRecord
100
AcDbRegAppTableRecord
  2
ACAD
 70
     0
  0
APPID
  5
36E
330
31A
100
AcDbSymbolTableRecord
100
AcDbRegAppTableRecord
  2
AcadAnnotative
 70
     0
  0
APPID
  5
3DE
330
31A
100
AcDbSymbolTableRecord
100
AcDbRegAppTableRecord
  2
ACAD_MLEADERVER
 70
     0
  0
ENDTAB
  0
TABLE
  2
DIMSTYLE
  5
31B
330
0
100
AcDbSymbolTable
 70
     2
100
AcDbDimStyleTable
 71
     0
  0
DIMSTYLE
105
368
330
31B
100
AcDbSymbolTableRecord
100
AcDbDimStyleTableRecord
  2
STANDARD
 70
     0
279
     2
340
366
  0
ENDTAB
  0
TABLE
  2
BLOCK_RECORD
  5
312
330
0
100
AcDbSymbolTable
 70
     0
  0
BLOCK_RECORD
  5
37C
330
312
100
AcDbSymbolTableRecord
100
AcDbBlockTableRecord
  2
*Model_Space
340
37F
  0
BLOCK_RECORD
  5
378
330
312
100
AcDbSymbolTableRecord
100
AcDbBlockTableRecord
  2
*Paper_Space
340
37B
  0
ENDTAB
  0
ENDSEC
  0
SECTION
  2
BLOCKS
  0
BLOCK
  5
37D
330
37C
100
AcDbEntity
  8
0
100
AcDbBlockBegin
  2
*Model_Space
 70
     0
 10
0.0
 20
0.0
 30
0.0
  3
*Model_Space
  1

  0
ENDBLK
  5
37E
330
37C
100
AcDbEntity
  8
0
100
AcDbBlockEnd
  0
BLOCK
  5
379
330
378
100
AcDbEntity
 67
     1
  8
0
100
AcDbBlockBegin
  2
*Paper_Space
 70
     0
 10
0.0
 20
0.0
 30
0.0
  3
*Paper_Space
  1

  0
ENDBLK
  5
37A
330
378
100
AcDbEntity
 67
     1
  8
0
100
AcDbBlockEnd
  0
ENDSEC
  0
SECTION
  2
ENTITIES
  0
LINE
  5
2C
330
37C
100
AcDbEntity
  8
HIBINO-BASE
  6
Continuous
 62
     7
100
AcDbLine
 10
-169.9999999999999
 20
537.0672957897318
 30
0.0
 11
370.0
 21
537.0672957897318
 31
0.0
  0
LINE
  5
2D
330
37C
100
AcDbEntity
  8
HIBINO-BASE
  6
Continuous
 62
     7
100
AcDbLine
 10
370.0
 20
-242.9327042102682
 30
0.0
 11
-169.9999999999999
 21
-242.9327042102682
 31
0.0
  0
LINE
  5
2E
330
37C
100
AcDbEntity
  8
HIBINO-BASE
  6
Continuous
 62
     7
100
AcDbLine
 10
-169.9999999999999
 20
-242.9327042102682
 30
0.0
 11
-169.9999999999999
 21
537.0672957897318
 31
0.0
  0
LINE
  5
2F
330
37C
100
AcDbEntity
  8
HIBINO-BASE
  6
Continuous
 62
     7
100
AcDbLine
 10
370.0
 20
537.0672957897318
 30
0.0
 11
370.0
 21
-242.9327042102682
 31
0.0
  0
LINE
  5
30
330
37C
100
AcDbEntity
  8
HIBINO-BASE
  6
Continuous
 62
     7
100
AcDbLine
 10
100.0
 20
-175.4327042102681
 30
0.0
 11
370.0
 21
-175.4327042102681
 31
0.0
  0
LINE
  5
31
330
37C
100
AcDbEntity
  8
HIBINO-BASE
  6
Continuous
 62
     7
100
AcDbLine
 10
100.0
 20
-242.9327042102682
 30
0.0
 11
100.0
 21
-175.4327042102681
 31
0.0
  0
TEXT
  5
32
330
37C
100
AcDbEntity
  8
HIBINO-BASE
 62
     7
100
AcDbText
 10
102.7
 20
-182.9587842102681
 30
0.0
 40
4.886523437499999
  1
NOTE
 41
0.7
 11
102.7
 21
-178.0722607727682
 31
0.0
100
AcDbText
 73
     3
  0
LINE
  5
33
330
37C
100
AcDbEntity
  8
HIBINO-BASE
  6
Continuous
 62
     7
100
AcDbLine
 10
205.0
 20
-242.9327042102682
 30
0.0
 11
205.0
 21
-175.4327042102681
 31
0.0
  0
TEXT
  5
34
330
37C
100
AcDbEntity
  8
HIBINO-BASE
 62
     7
100
AcDbText
 10
207.7
 20
-182.9587842102681
 30
0.0
 40
4.886523437499999
  1
TITLE
 41
0.7
 11
207.7
 21
-178.0722607727682
 31
0.0
100
AcDbText
 73
     3
  0
LINE
  5
35
330
37C
100
AcDbEntity
  8
HIBINO-BASE
  6
Continuous
 62
     7
100
AcDbLine
 10
100.0
 20
-212.9327042102681
 30
0.0
 11
370.0
 21
-212.9327042102681
 31
0.0
  0
TEXT
  5
36
330
37C
100
AcDbEntity
  8
HIBINO-BASE
 62
     7
100
AcDbText
 10
245.2
 20
-220.2898242102682
 30
0.0
 40
4.886523437499999
  1
DRAWN
 41
0.7
 11
245.2
 21
-215.4033007727682
 31
0.0
100
AcDbText
 73
     3
  0
TEXT
  5
37
330
37C
100
AcDbEntity
  8
HIBINO-BASE
 62
     7
100
AcDbText
 10
170.2
 20
-220.2898242102682
 30
0.0
 40
4.886523437499999
  1
DATE
 41
0.7
 11
170.2
 21
-215.4033007727682
 31
0.0
100
AcDbText
 73
     3
  0
TEXT
  5
38
330
37C
100
AcDbEntity
  8
HIBINO-BASE
 62
     7
100
AcDbText
 10
140.2
 20
-220.2898242102682
 30
0.0
 40
4.886523437499999
  1
SCALE
 41
0.7
 11
140.2
 21
-215.4033007727682
 31
0.0
100
AcDbText
 73
     3
  0
TEXT
  5
39
330
37C
100
AcDbEntity
  8
HIBINO-BASE
 62
     7
100
AcDbText
 10
207.7
 20
-220.2898242102682
 30
0.0
 40
4.886523437499999
  1
DESIGN
 41
0.7
 11
207.7
 21
-215.4033007727682
 31
0.0
100
AcDbText
 73
     3
  0
TEXT
  5
3A
330
37C
100
AcDbEntity
  8
HIBINO-BASE
 62
     7
100
AcDbText
 10
320.2
 20
-220.2898242102682
 30
0.0
 40
4.886523437499999
  1
DRAWING NO.
 41
0.7
 11
320.2
 21
-215.4033007727682
 31
0.0
100
AcDbText
 73
     3
  0
TEXT
  5
3B
330
37C
100
AcDbEntity
  8
HIBINO-BASE
 62
     7
100
AcDbText
 10
282.7
 20
-220.2898242102682
 30
0.0
 40
4.886523437499999
  1
CHECK
 41
0.7
 11
282.7
 21
-215.4033007727682
 31
0.0
100
AcDbText
 73
     3
  0
LINE
  5
3C
330
37C
100
AcDbEntity
  8
HIBINO-BASE
  6
Continuous
 62
     7
100
AcDbLine
 10
143.1249999999999
 20
-239.1827042102682
 30
0.0
 11
154.375
 21
-227.9327042102681
 31
0.0
  0
TEXT
  5
3D
330
37C
100
AcDbEntity
  8
HIBINO-BASE
 62
     7
100
AcDbText
 10
141.2499999999999
 20
-231.2595342102682
 30
0.0
 40
4.886523437499999
  1
1
 41
0.7
 11
141.2499999999999
 21
-226.3730107727682
 31
0.0
100
AcDbText
 73
     3
  0
LINE
  5
3E
330
37C
100
AcDbEntity
  8
HIBINO-BASE
  6
Continuous
 62
     7
100
AcDbLine
 10
137.5
 20
-242.9327042102682
 30
0.0
 11
137.5
 21
-212.9327042102681
 31
0.0
  0
LINE
  5
3F
330
37C
100
AcDbEntity
  8
HIBINO-BASE
  6
Continuous
 62
     7
100
AcDbLine
 10
167.5
 20
-242.9327042102682
 30
0.0
 11
167.5
 21
-212.9327042102681
 31
0.0
  0
LINE
  5
40
330
37C
100
AcDbEntity
  8
HIBINO-BASE
  6
Continuous
 62
     7
100
AcDbLine
 10
242.5
 20
-212.9327042102681
 30
0.0
 11
242.5
 21
-242.9327042102682
 31
0.0
  0
LINE
  5
41
330
37C
100
AcDbEntity
  8
HIBINO-BASE
  6
Continuous
 62
     7
100
AcDbLine
 10
317.5
 20
-212.9327042102681
 30
0.0
 11
317.5
 21
-242.9327042102682
 31
0.0
  0
LINE
  5
42
330
37C
100
AcDbEntity
  8
HIBINO-BASE
  6
Continuous
 62
     7
100
AcDbLine
 10
279.9999999999999
 20
-242.9327042102682
 30
0.0
 11
279.9999999999999
 21
-212.9327042102681
 31
0.0
  0
TEXT
  5
43
330
37C
100
AcDbEntity
  8
HIBINO-BASE
 62
     7
100
AcDbText
 10
170.06962
 20
-234.3417642102682
 30
0.0
 40
4.886523437499999
  1
'11.02.
 41
0.7
 11
170.06962
 21
-229.4552407727682
 31
0.0
100
AcDbText
 73
     3
  0
TEXT
  5
44
330
37C
100
AcDbEntity
  8
HIBINO-BASE
 62
     7
100
AcDbText
 10
152.5
 20
-236.8845342102682
 30
0.0
 40
4.886523437499999
  1
3
 41
0.7
 11
152.5
 21
-231.9980107727682
 31
0.0
100
AcDbText
 73
     3
  0
TEXT
  5
45
330
37C
100
AcDbEntity
  8
HIBINO-BASE
 62
     7
100
AcDbText
 10
247.0174300331039
 20
-234.3417642102682
 30
0.0
 40
4.886523437499999
  1
T.Ootake
 41
0.7
 11
247.0174300331039
 21
-229.4552407727682
 31
0.0
100
AcDbText
 73
     3
  0
TEXT
  5
46
330
37C
100
AcDbEntity
  8
HIBINO-BASE
 62
     7
100
AcDbText
 10
111.65
 20
-237.0047042102681
 30
0.0
 40
9.773046874999998
  1
A4
 41
0.7
 11
111.65
 21
-227.2316573352681
 31
0.0
100
AcDbText
 73
     3
  0
TEXT
  5
47
330
37C
100
AcDbEntity
  8
HIBINO-BASE
 62
     7
100
AcDbText
 10
102.875
 20
-220.7910692102681
 30
0.0
 40
4.886523437499999
  1
PAPER SIZE
 41
0.7
 11
102.875
 21
-215.9045457727681
 31
0.0
100
AcDbText
 73
     3
  0
TEXT
  5
48
330
37C
100
AcDbEntity
  8
HIBINO-BASE
 62
     7
100
AcDbText
 10
-161.7210942293294
 20
-262.2084249127969
 30
0.0
 40
10.58746744791666
  1
Hibino-Intersound Corporation
 41
0.7
 11
-161.7210942293294
 21
-251.6209574648803
 31
0.0
100
AcDbText
 73
     3
  0
TEXT
  5
49
330
37C
100
AcDbEntity
  8
HIBINO-BASE
 62
     7
100
AcDbText
 10
160.5418290406417
 20
-261.1551601529287
 30
0.0
 40
10.58746744791666
  1
ヒビノインターサウンド株式会社
 41
0.7
 11
160.5418290406417
 21
-250.567692705012
 31
0.0
100
AcDbText
 73
     3
  0
LINE
  5
4A
330
37C
100
AcDbEntity
  8
SPEC
  6
Continuous
 62
     7
100
AcDbLine
 10
-147.4999999999999
 20
507.0672957897317
 30
0.0
 11
295.0
 21
507.0672957897317
 31
0.0
  0
LINE
  5
4B
330
37C
100
AcDbEntity
  8
SPEC
  6
Continuous
 62
     7
100
AcDbLine
 10
-147.4999999999999
 20
495.8172957897317
 30
0.0
 11
295.0
 21
495.8172957897317
 31
0.0
  0
LINE
  5
4C
330
37C
100
AcDbEntity
  8
SPEC
  6
Continuous
 62
     7
100
AcDbLine
 10
-147.4999999999999
 20
473.3172957897317
 30
0.0
 11
295.0
 21
473.3172957897317
 31
0.0
  0
LINE
  5
4D
330
37C
100
AcDbEntity
  8
SPEC
  6
Continuous
 62
     7
100
AcDbLine
 10
-147.4999999999999
 20
484.5672957897317
 30
0.0
 11
295.0
 21
484.5672957897317
 31
0.0
  0
LINE
  5
4E
330
37C
100
AcDbEntity
  8
SPEC
  6
Continuous
 62
     7
100
AcDbLine
 10
-147.4999999999999
 20
507.0672957897317
 30
0.0
 11
-147.4999999999999
 21
394.5672957897317
 31
0.0
  0
TEXT
  5
4F
330
37C
100
AcDbEntity
  8
SPEC
 62
     7
100
AcDbText
 10
-143.7499999999999
 20
511.2471057897318
 30
0.0
 40
7.329785156249999
  1
仕様
 41
0.7
 11
-143.7499999999999
 21
518.5768909459818
 31
0.0
100
AcDbText
 73
     3
  0
LINE
  5
50
330
37C
100
AcDbEntity
  8
SPEC
  6
Continuous
 62
     7
100
AcDbLine
 10
295.0
 20
507.0672957897317
 30
0.0
 11
295.0
 21
394.5672957897317
 31
0.0
  0
LINE
  5
51
330
37C
100
AcDbEntity
  8
SPEC
  6
Continuous
 62
     7
100
AcDbLine
 10
-147.4999999999999
 20
462.0672957897317
 30
0.0
 11
295.0
 21
462.0672957897317
 31
0.0
  0
LINE
  5
52
330
37C
100
AcDbEntity
  8
SPEC
  6
Continuous
 62
     7
100
AcDbLine
 10
-147.4999999999999
 20
450.8172957897317
 30
0.0
 11
295.0
 21
450.8172957897317
 31
0.0
  0
LINE
  5
53
330
37C
100
AcDbEntity
  8
SPEC
  6
Continuous
 62
     7
100
AcDbLine
 10
-147.4999999999999
 20
439.5672957897317
 30
0.0
 11
295.0
 21
439.5672957897317
 31
0.0
  0
LINE
  5
54
330
37C
100
AcDbEntity
  8
SPEC
  6
Continuous
 62
     7
100
AcDbLine
 10
-147.4999999999999
 20
428.3172957897317
 30
0.0
 11
295.0
 21
428.3172957897317
 31
0.0
  0
LINE
  5
55
330
37C
100
AcDbEntity
  8
SPEC
  6
Continuous
 62
     7
100
AcDbLine
 10
-147.4999999999999
 20
417.0672957897317
 30
0.0
 11
295.0
 21
417.0672957897317
 31
0.0
  0
LINE
  5
56
330
37C
100
AcDbEntity
  8
SPEC
  6
Continuous
 62
     7
100
AcDbLine
 10
-147.4999999999999
 20
405.8172957897317
 30
0.0
 11
295.0
 21
405.8172957897317
 31
0.0
  0
LINE
  5
57
330
37C
100
AcDbEntity
  8
SPEC
  6
Continuous
 62
     7
100
AcDbLine
 10
-147.4999999999999
 20
394.5672957897317
 30
0.0
 11
295.0
 21
394.5672957897317
 31
0.0
  0
TEXT
  5
58
330
37C
100
AcDbEntity
  8
SPEC
 62
     7
100
AcDbText
 10
-144.6344126357997
 20
397.5164101211234
 30
0.0
 40
5.700944010416665
  1
使用湿度範囲
 41
0.7
 11
-144.6344126357997
 21
403.21735413154
 31
0.0
100
AcDbText
 73
     3
  0
TEXT
  5
59
330
37C
100
AcDbEntity
  8
SPEC
 62
     7
100
AcDbText
 10
-8.695058289433008
 20
397.4229861197841
 30
0.0
 40
5.700944010416665
  1
90%%%以下
 41
0.7
 11
-8.695058289433008
 21
403.1239301302007
 31
0.0
100
AcDbText
 73
     3
  0
TEXT
  5
5A
330
37C
100
AcDbEntity
  8
SPEC
 62
     7
100
AcDbText
 10
-144.6683672277902
 20
408.6875958136626
 30
0.0
 40
5.700944010416665
  1
使用温度範囲
 41
0.7
 11
-144.6683672277902
 21
414.3885398240792
 31
0.0
100
AcDbText
 73
     3
  0
TEXT
  5
5B
330
37C
100
AcDbEntity
  8
SPEC
 62
     7
100
AcDbText
 10
-8.497668385554945
 20
408.4555003878276
 30
0.0
 40
5.700944010416665
  1
-40℃～45℃
 41
0.7
 11
-8.497668385554945
 21
414.1564443982442
 31
0.0
100
AcDbText
 73
     3
  0
TEXT
  5
5C
330
37C
100
AcDbEntity
  8
SPEC
 62
     7
100
AcDbText
 10
-145.1310720577779
 20
419.9475308968509
 30
0.0
 40
5.700944010416665
  1
寸法
 41
0.7
 11
-145.1310720577779
 21
425.6484749072676
 31
0.0
100
AcDbText
 73
     3
  0
TEXT
  5
5D
330
37C
100
AcDbEntity
  8
SPEC
 62
     7
100
AcDbText
 10
-9.514605783749786
 20
419.7226040405076
 30
0.0
 40
5.700944010416665
  1
\U+03A619\U+00D7113mm(突起は含まず）
 41
0.7
 11
-9.514605783749786
 21
425.4235480509242
 31
0.0
100
AcDbText
 73
     3
  0
TEXT
  5
5E
330
37C
100
AcDbEntity
  8
SPEC
 62
     7
100
AcDbText
 10
-144.8724633082491
 20
431.0980806769395
 30
0.0
 40
5.700944010416665
  1
重量
 41
0.7
 11
-144.8724633082491
 21
436.7990246873563
 31
0.0
100
AcDbText
 73
     3
  0
TEXT
  5
5F
330
37C
100
AcDbEntity
  8
SPEC
 62
     7
100
AcDbText
 10
-8.833835673912744
 20
431.2656038398693
 30
0.0
 40
5.700944010416665
  1
約30g
 41
0.7
 11
-8.833835673912744
 21
436.9665478502859
 31
0.0
100
AcDbText
 73
     3
  0
TEXT
  5
60
330
37C
100
AcDbEntity
  8
SPEC
 62
     7
100
AcDbText
 10
-144.8859138135974
 20
442.2952707722125
 30
0.0
 40
5.700944010416665
  1
色
 41
0.7
 11
-144.8859138135974
 21
447.9962147826292
 31
0.0
100
AcDbText
 73
     3
  0
TEXT
  5
61
330
37C
100
AcDbEntity
  8
SPEC
 62
     7
100
AcDbText
 10
-9.123003864200951
 20
442.2794464169801
 30
0.0
 40
5.700944010416665
  1
マットブラック
 41
0.7
 11
-9.123003864200951
 21
447.9803904273969
 31
0.0
100
AcDbText
 73
     3
  0
TEXT
  5
62
330
37C
100
AcDbEntity
  8
SPEC
 62
     7
100
AcDbText
 10
-144.9911090671591
 20
453.4620290521523
 30
0.0
 40
5.700944010416665
  1
等価雑音レベル(Aウェイト、代表値)
 41
0.7
 11
-144.9911090671591
 21
459.1629730625689
 31
0.0
100
AcDbText
 73
     3
  0
TEXT
  5
63
330
37C
100
AcDbEntity
  8
SPEC
 62
     7
100
AcDbText
 10
-144.914376801584
 20
464.934100363991
 30
0.0
 40
5.700944010416665
  1
感度(\U+00B12dB@250Hz、公称値）
 41
0.7
 11
-144.914376801584
 21
470.6350443744076
 31
0.0
100
AcDbText
 73
     3
  0
TEXT
  5
64
330
37C
100
AcDbEntity
  8
SPEC
 62
     7
100
AcDbText
 10
-8.548251982129428
 20
464.5097251193996
 30
0.0
 40
5.700944010416665
  1
-34dB re、1V/Pa
 41
0.7
 11
-8.548251982129428
 21
470.2106691298164
 31
0.0
100
AcDbText
 73
     3
  0
TEXT
  5
65
330
37C
100
AcDbEntity
  8
SPEC
 62
     7
100
AcDbText
 10
-144.8443861258234
 20
476.0656255223481
 30
0.0
 40
5.700944010416665
  1
周波数レンジ(\U+00B12dB)
 41
0.7
 11
-144.8443861258234
 21
481.7665695327648
 31
0.0
100
AcDbText
 73
     3
  0
TEXT
  5
66
330
37C
100
AcDbEntity
  8
SPEC
 62
     7
100
AcDbText
 10
-8.619960744873509
 20
476.0024412693398
 30
0.0
 40
5.700944010416665
  1
40Hz～20kHz
 41
0.7
 11
-8.619960744873509
 21
481.7033852797564
 31
0.0
100
AcDbText
 73
     3
  0
TEXT
  5
67
330
37C
100
AcDbEntity
  8
SPEC
 62
     7
100
AcDbText
 10
-145.3406286424294
 20
487.4092225739158
 30
0.0
 40
5.700944010416665
  1
カートリッジ
 41
0.7
 11
-145.3406286424294
 21
493.1101665843325
 31
0.0
100
AcDbText
 73
     3
  0
TEXT
  5
68
330
37C
100
AcDbEntity
  8
SPEC
 62
     7
100
AcDbText
 10
-144.9175539042672
 20
498.497894590905
 30
0.0
 40
5.700944010416665
  1
指向性
 41
0.7
 11
-144.9175539042672
 21
504.1988386013216
 31
0.0
100
AcDbText
 73
     3
  0
TEXT
  5
69
330
37C
100
AcDbEntity
  8
SPEC
 62
     7
100
AcDbText
 10
-8.807611464993115
 20
498.4794739691677
 30
0.0
 40
5.700944010416665
  1
超単一指向性
 41
0.7
 11
-8.807611464993115
 21
504.1804179795843
 31
0.0
100
AcDbText
 73
     3
  0
LINE
  5
6A
330
37C
100
AcDbEntity
  8
SPEC
  6
Continuous
 62
     7
100
AcDbLine
 10
-11.49999999999995
 20
507.0672957897317
 30
0.0
 11
-11.49999999999995
 21
394.5672957897317
 31
0.0
  0
TEXT
  5
6B
330
37C
100
AcDbEntity
  8
SPEC
 62
     7
100
AcDbText
 10
-9.049605912086521
 20
453.1001096159024
 30
0.0
 40
5.700944010416665
  1
14dB SPL
 41
0.7
 11
-9.049605912086521
 21
458.801053626319
 31
0.0
100
AcDbText
 73
     3
  0
TEXT
  5
6C
330
37C
100
AcDbEntity
  8
SPEC
 62
     7
100
AcDbText
 10
-9.699973148969247
 20
487.0064732518349
 30
0.0
 40
5.700944010416665
  1
プリポラライズド・コンデンサー
 41
0.7
 11
-9.699973148969247
 21
492.7074172622515
 31
0.0
100
AcDbText
 73
     3
  0
TEXT
  5
6D
330
37C
100
AcDbEntity
  8
DIMNSIONS
 62
     7
100
AcDbText
 10
40.0
 20
-206.1242342102682
 30
0.0
 40
7.329785156249999
  1
(単位：mm)
 41
0.7
 11
40.0
 21
-198.7944490540181
 31
0.0
100
AcDbText
 73
     3
  0
LINE
  5
6E
330
37C
100
AcDbEntity
  8
DIMNSIONS
  6
Continuous
 62
     7
100
AcDbLine
 10
-10.01304625709888
 20
251.555769858649
 30
0.0
 11
6.249999999999985
 21
275.0
 31
0.0
  0
LINE
  5
6F
330
37C
100
AcDbEntity
  8
DIMNSIONS
  6
Continuous
 62
     7
100
AcDbLine
 10
-10.01304625709888
 20
251.555769858649
 30
0.0
 11
-7.356745133504063
 21
258.8538972149977
 31
0.0
  0
LINE
  5
70
330
37C
100
AcDbEntity
  8
DIMNSIONS
  6
Continuous
 62
     7
100
AcDbLine
 10
-10.01304625709888
 20
251.555769858649
 30
0.0
 11
-4.063558325790268
 21
256.5479829875037
 31
0.0
  0
LINE
  5
71
330
37C
100
AcDbEntity
  8
DIMNSIONS
  6
Continuous
 62
     7
100
AcDbLine
 10
6.249999999999985
 20
275.0
 30
0.0
 11
33.41666666666665
 21
275.0
 31
0.0
  0
TEXT
  5
72
330
37C
100
AcDbEntity
  8
DIMNSIONS
 62
     7
100
AcDbText
 10
12.24999999999998
 20
277.9816666666666
 30
0.0
 40
8.144205729166666
  1
\U+03C619
 41
0.7
 11
12.24999999999998
 21
286.1258723958333
 31
0.0
100
AcDbText
 73
     3
  0
LINE
  5
73
330
37C
100
AcDbEntity
  8
DIMNSIONS
  6
Continuous
 62
     7
100
AcDbLine
 10
-30.99999999999999
 20
37.5
 30
0.0
 11
-62.25000000000002
 21
37.5
 31
0.0
  0
LINE
  5
74
330
37C
100
AcDbEntity
  8
DIMNSIONS
  6
Continuous
 62
     7
100
AcDbLine
 10
-30.99999999999999
 20
150.5
 30
0.0
 11
-62.25000000000002
 21
150.5
 31
0.0
  0
LINE
  5
75
330
37C
100
AcDbEntity
  8
DIMNSIONS
  6
Continuous
 62
     7
100
AcDbLine
 10
-56.25000000000002
 20
37.5
 30
0.0
 11
-56.25000000000002
 21
150.5
 31
0.0
  0
LINE
  5
76
330
37C
100
AcDbEntity
  8
DIMNSIONS
  6
Continuous
 62
     7
100
AcDbLine
 10
-56.25000000000002
 20
37.5
 30
0.0
 11
-58.26011938545075
 21
45.00186767578126
 31
0.0
  0
LINE
  5
77
330
37C
100
AcDbEntity
  8
DIMNSIONS
  6
Continuous
 62
     7
100
AcDbLine
 10
-56.25000000000002
 20
37.5
 30
0.0
 11
-54.23988061454928
 21
45.00186767578126
 31
0.0
  0
LINE
  5
78
330
37C
100
AcDbEntity
  8
DIMNSIONS
  6
Continuous
 62
     7
100
AcDbLine
 10
-56.25000000000002
 20
150.5
 30
0.0
 11
-54.23988061454928
 21
142.9981323242187
 31
0.0
  0
LINE
  5
79
330
37C
100
AcDbEntity
  8
DIMNSIONS
  6
Continuous
 62
     7
100
AcDbLine
 10
-56.25000000000002
 20
150.5
 30
0.0
 11
-58.26011938545075
 21
142.9981323242187
 31
0.0
  0
TEXT
  5
7A
330
37C
100
AcDbEntity
  8
DIMNSIONS
 62
     7
100
AcDbText
 10
-59.23166666666666
 20
86.06250000000001
 30
0.0
 40
8.144205729166666
  1
113
 50
90.0
 41
0.7
 11
-67.37587239583333
 21
86.06250000000001
 31
0.0
100
AcDbText
 73
     3
  0
TEXT
  5
7B
330
37C
100
AcDbEntity
  8
DATA
 62
     7
100
AcDbText
 10
250.0
 20
-210.4278108862609
 30
0.0
 40
7.329785156249999
  1
MMC4017
 41
0.7
 11
250.0
 21
-203.0980257300109
 31
0.0
100
AcDbText
 73
     3
  0
TEXT
  5
7C
330
37C
100
AcDbEntity
  8
DATA
 62
     7
100
AcDbText
 10
250.0
 20
-186.9526475282689
 30
0.0
 40
7.329785156249999
  1
DPA
 41
0.7
 11
250.0
 21
-179.6228623720189
 31
0.0
100
AcDbText
 73
     3
  0
TEXT
  5
7D
330
37C
100
AcDbEntity
  8
DATA
 62
     7
100
AcDbText
 10
241.6994048867805
 20
-197.3762519126518
 30
0.0
 40
4.886531132812499
  1
超単一指向性カプセル
 41
0.7
 11
241.6994048867805
 21
-192.4897207798393
 31
0.0
100
AcDbText
 73
     3
  0
TEXT
  5
7E
330
37C
100
AcDbEntity
  8
DATA
 62
     7
100
AcDbText
 10
-139.9999999999999
 20
-230.2187042102682
 30
0.0
 40
4.886523437499999
  1
仕様および外観は予告なく変更されることがありますので、ご了承ください。
 41
0.7
 11
-139.9999999999999
 21
-225.3321807727682
 31
0.0
100
AcDbText
 73
     3
  0
LINE
  5
7F
330
37C
100
AcDbEntity
  8
DATA
  6
Continuous
 62
     7
100
AcDbLine
 10
-24.99999999999999
 20
150.3
 30
0.0
 11
-24.24999999999999
 21
150.3
 31
0.0
  0
LINE
  5
80
330
37C
100
AcDbEntity
  8
DATA
  6
Continuous
 62
     7
100
AcDbLine
 10
-23.54999999999996
 20
150.3
 30
0.0
 11
-22.84999999999998
 21
150.3
 31
0.0
  0
LINE
  5
81
330
37C
100
AcDbEntity
  8
DATA
  6
Continuous
 62
     7
100
AcDbLine
 10
-22.14999999999999
 20
150.3
 30
0.0
 11
-21.44999999999997
 21
150.3
 31
0.0
  0
LINE
  5
82
330
37C
100
AcDbEntity
  8
DATA
  6
Continuous
 62
     7
100
AcDbLine
 10
-20.74999999999998
 20
150.3
 30
0.0
 11
-20.04999999999997
 21
150.3
 31
0.0
  0
LINE
  5
83
330
37C
100
AcDbEntity
  8
DATA
  6
Continuous
 62
     7
100
AcDbLine
 10
-19.34999999999998
 20
150.3
 30
0.0
 11
-18.64999999999999
 21
150.3
 31
0.0
  0
LINE
  5
84
330
37C
100
AcDbEntity
  8
DATA
  6
Continuous
 62
     7
100
AcDbLine
 10
-17.94999999999997
 20
150.3
 30
0.0
 11
-17.24999999999998
 21
150.3
 31
0.0
  0
LINE
  5
85
330
37C
100
AcDbEntity
  8
DATA
  6
Continuous
 62
     7
100
AcDbLine
 10
-16.54999999999996
 20
150.3
 30
0.0
 11
-15.84999999999998
 21
150.3
 31
0.0
  0
LINE
  5
86
330
37C
100
AcDbEntity
  8
DATA
  6
Continuous
 62
     7
100
AcDbLine
 10
-15.14999999999997
 20
150.3
 30
0.0
 11
-14.44999999999997
 21
150.3
 31
0.0
  0
LINE
  5
87
330
37C
100
AcDbEntity
  8
DATA
  6
Continuous
 62
     7
100
AcDbLine
 10
-13.74999999999998
 20
150.3
 30
0.0
 11
-13.04999999999998
 21
150.3
 31
0.0
  0
LINE
  5
88
330
37C
100
AcDbEntity
  8
DATA
  6
Continuous
 62
     7
100
AcDbLine
 10
-12.34999999999998
 20
150.3
 30
0.0
 11
-11.64999999999997
 21
150.3
 31
0.0
  0
LINE
  5
89
330
37C
100
AcDbEntity
  8
DATA
  6
Continuous
 62
     7
100
AcDbLine
 10
-10.94999999999997
 20
150.3
 30
0.0
 11
-10.24999999999999
 21
150.3
 31
0.0
  0
LINE
  5
8A
330
37C
100
AcDbEntity
  8
DATA
  6
Continuous
 62
     7
100
AcDbLine
 10
-9.549999999999984
 20
150.3
 30
0.0
 11
-8.84999999999998
 21
150.3
 31
0.0
  0
LINE
  5
8B
330
37C
100
AcDbEntity
  8
DATA
  6
Continuous
 62
     7
100
AcDbLine
 10
-8.149999999999977
 20
150.3
 30
0.0
 11
-7.449999999999986
 21
150.3
 31
0.0
  0
LINE
  5
8C
330
37C
100
AcDbEntity
  8
DATA
  6
Continuous
 62
     7
100
AcDbLine
 10
-6.749999999999985
 20
150.3
 30
0.0
 11
-5.999999999999985
 21
150.3
 31
0.0
  0
TEXT
  5
8D
330
37C
100
AcDbEntity
  8
DATA
 62
     7
100
AcDbText
 10
-18.22222222222218
 20
144.8839600745701
 30
0.0
 40
1.900314670138888
  1
4017
 41
0.7
 11
-18.22222222222218
 21
146.784274744709
 31
0.0
100
AcDbText
 73
     3
  0
LWPOLYLINE
  5
8E
330
37C
100
AcDbEntity
  8
DATA
  6
Continuous
 62
     7
100
AcDbPolyline
 90
        4
 70
     1
 43
0.0
 10
-24.24999999999999
 20
137.4083410861505
 10
-23.54999999999996
 20
137.4083410861505
 10
-23.54999999999996
 20
123.4083410861505
 10
-24.24999999999999
 20
123.4083410861505
  0
LINE
  5
95
330
37C
100
AcDbEntity
  8
DATA
  6
Continuous
 62
     7
100
AcDbLine
 10
-15.84999999999998
 20
148.5
 30
0.0
 11
-15.84999999999998
 21
150.5
 31
0.0
  0
LINE
  5
96
330
37C
100
AcDbEntity
  8
DATA
  6
Continuous
 62
     7
100
AcDbLine
 10
-15.14999999999997
 20
150.5
 30
0.0
 11
-15.14999999999997
 21
148.5
 31
0.0
  0
LINE
  5
97
330
37C
100
AcDbEntity
  8
DATA
  6
Continuous
 62
     7
100
AcDbLine
 10
-15.84999999999998
 20
150.5
 30
0.0
 11
-15.14999999999997
 21
150.5
 31
0.0
  0
LINE
  5
98
330
37C
100
AcDbEntity
  8
DATA
  6
Continuous
 62
     7
100
AcDbLine
 10
-17.24999999999998
 20
148.5
 30
0.0
 11
-17.24999999999998
 21
150.5
 31
0.0
  0
LINE
  5
99
330
37C
100
AcDbEntity
  8
DATA
  6
Continuous
 62
     7
100
AcDbLine
 10
-16.54999999999996
 20
150.5
 30
0.0
 11
-16.54999999999996
 21
148.5
 31
0.0
  0
LINE
  5
9A
330
37C
100
AcDbEntity
  8
DATA
  6
Continuous
 62
     7
100
AcDbLine
 10
-17.24999999999998
 20
150.5
 30
0.0
 11
-16.54999999999996
 21
150.5
 31
0.0
  0
LINE
  5
9B
330
37C
100
AcDbEntity
  8
DATA
  6
Continuous
 62
     7
100
AcDbLine
 10
-18.64999999999999
 20
148.5
 30
0.0
 11
-18.64999999999999
 21
150.5
 31
0.0
  0
LINE
  5
9C
330
37C
100
AcDbEntity
  8
DATA
  6
Continuous
 62
     7
100
AcDbLine
 10
-17.94999999999997
 20
150.5
 30
0.0
 11
-17.94999999999997
 21
148.5
 31
0.0
  0
LINE
  5
9D
330
37C
100
AcDbEntity
  8
DATA
  6
Continuous
 62
     7
100
AcDbLine
 10
-18.64999999999999
 20
150.5
 30
0.0
 11
-17.94999999999997
 21
150.5
 31
0.0
  0
LINE
  5
9E
330
37C
100
AcDbEntity
  8
DATA
  6
Continuous
 62
     7
100
AcDbLine
 10
-20.04999999999997
 20
148.5
 30
0.0
 11
-20.04999999999997
 21
150.5
 31
0.0
  0
LINE
  5
9F
330
37C
100
AcDbEntity
  8
DATA
  6
Continuous
 62
     7
100
AcDbLine
 10
-19.34999999999998
 20
150.5
 30
0.0
 11
-19.34999999999998
 21
148.5
 31
0.0
  0
LINE
  5
A0
330
37C
100
AcDbEntity
  8
DATA
  6
Continuous
 62
     7
100
AcDbLine
 10
-20.04999999999997
 20
150.5
 30
0.0
 11
-19.34999999999998
 21
150.5
 31
0.0
  0
LINE
  5
A1
330
37C
100
AcDbEntity
  8
DATA
  6
Continuous
 62
     7
100
AcDbLine
 10
-21.44999999999997
 20
148.5
 30
0.0
 11
-21.44999999999997
 21
150.5
 31
0.0
  0
LINE
  5
A2
330
37C
100
AcDbEntity
  8
DATA
  6
Continuous
 62
     7
100
AcDbLine
 10
-20.74999999999998
 20
150.5
 30
0.0
 11
-20.74999999999998
 21
148.5
 31
0.0
  0
LINE
  5
A3
330
37C
100
AcDbEntity
  8
DATA
  6
Continuous
 62
     7
100
AcDbLine
 10
-21.44999999999997
 20
150.5
 30
0.0
 11
-20.74999999999998
 21
150.5
 31
0.0
  0
LINE
  5
A4
330
37C
100
AcDbEntity
  8
DATA
  6
Continuous
 62
     7
100
AcDbLine
 10
-22.84999999999998
 20
148.5
 30
0.0
 11
-22.84999999999998
 21
150.5
 31
0.0
  0
LINE
  5
A5
330
37C
100
AcDbEntity
  8
DATA
  6
Continuous
 62
     7
100
AcDbLine
 10
-22.14999999999999
 20
150.5
 30
0.0
 11
-22.14999999999999
 21
148.5
 31
0.0
  0
LINE
  5
A6
330
37C
100
AcDbEntity
  8
DATA
  6
Continuous
 62
     7
100
AcDbLine
 10
-22.84999999999998
 20
150.5
 30
0.0
 11
-22.14999999999999
 21
150.5
 31
0.0
  0
LINE
  5
A7
330
37C
100
AcDbEntity
  8
DATA
  6
Continuous
 62
     7
100
AcDbLine
 10
-24.24999999999999
 20
148.5
 30
0.0
 11
-24.24999999999999
 21
150.5
 31
0.0
  0
LINE
  5
A8
330
37C
100
AcDbEntity
  8
DATA
  6
Continuous
 62
     7
100
AcDbLine
 10
-23.54999999999996
 20
150.5
 30
0.0
 11
-23.54999999999996
 21
148.5
 31
0.0
  0
LINE
  5
A9
330
37C
100
AcDbEntity
  8
DATA
  6
Continuous
 62
     7
100
AcDbLine
 10
-24.24999999999999
 20
150.5
 30
0.0
 11
-23.54999999999996
 21
150.5
 31
0.0
  0
LINE
  5
AA
330
37C
100
AcDbEntity
  8
DATA
  6
Continuous
 62
     7
100
AcDbLine
 10
-14.44999999999997
 20
148.5
 30
0.0
 11
-14.44999999999997
 21
150.5
 31
0.0
  0
LINE
  5
AB
330
37C
100
AcDbEntity
  8
DATA
  6
Continuous
 62
     7
100
AcDbLine
 10
-13.74999999999998
 20
150.5
 30
0.0
 11
-13.74999999999998
 21
148.5
 31
0.0
  0
LINE
  5
AC
330
37C
100
AcDbEntity
  8
DATA
  6
Continuous
 62
     7
100
AcDbLine
 10
-14.44999999999997
 20
150.5
 30
0.0
 11
-13.74999999999998
 21
150.5
 31
0.0
  0
LINE
  5
AD
330
37C
100
AcDbEntity
  8
DATA
  6
Continuous
 62
     7
100
AcDbLine
 10
-13.04999999999998
 20
148.5
 30
0.0
 11
-13.04999999999998
 21
150.5
 31
0.0
  0
LINE
  5
AE
330
37C
100
AcDbEntity
  8
DATA
  6
Continuous
 62
     7
100
AcDbLine
 10
-12.34999999999998
 20
150.5
 30
0.0
 11
-12.34999999999998
 21
148.5
 31
0.0
  0
LINE
  5
AF
330
37C
100
AcDbEntity
  8
DATA
  6
Continuous
 62
     7
100
AcDbLine
 10
-13.04999999999998
 20
150.5
 30
0.0
 11
-12.34999999999998
 21
150.5
 31
0.0
  0
LINE
  5
B0
330
37C
100
AcDbEntity
  8
DATA
  6
Continuous
 62
     7
100
AcDbLine
 10
-11.64999999999997
 20
148.5
 30
0.0
 11
-11.64999999999997
 21
150.5
 31
0.0
  0
LINE
  5
B1
330
37C
100
AcDbEntity
  8
DATA
  6
Continuous
 62
     7
100
AcDbLine
 10
-10.94999999999997
 20
150.5
 30
0.0
 11
-10.94999999999997
 21
148.5
 31
0.0
  0
LINE
  5
B2
330
37C
100
AcDbEntity
  8
DATA
  6
Continuous
 62
     7
100
AcDbLine
 10
-11.64999999999997
 20
150.5
 30
0.0
 11
-10.94999999999997
 21
150.5
 31
0.0
  0
LINE
  5
B3
330
37C
100
AcDbEntity
  8
DATA
  6
Continuous
 62
     7
100
AcDbLine
 10
-10.24999999999999
 20
148.5
 30
0.0
 11
-10.24999999999999
 21
150.5
 31
0.0
  0
LINE
  5
B4
330
37C
100
AcDbEntity
  8
DATA
  6
Continuous
 62
     7
100
AcDbLine
 10
-9.549999999999984
 20
150.5
 30
0.0
 11
-9.549999999999984
 21
148.5
 31
0.0
  0
LINE
  5
B5
330
37C
100
AcDbEntity
  8
DATA
  6
Continuous
 62
     7
100
AcDbLine
 10
-10.24999999999999
 20
150.5
 30
0.0
 11
-9.549999999999984
 21
150.5
 31
0.0
  0
LINE
  5
B6
330
37C
100
AcDbEntity
  8
DATA
  6
Continuous
 62
     7
100
AcDbLine
 10
-8.84999999999998
 20
148.5
 30
0.0
 11
-8.84999999999998
 21
150.5
 31
0.0
  0
LINE
  5
B7
330
37C
100
AcDbEntity
  8
DATA
  6
Continuous
 62
     7
100
AcDbLine
 10
-8.149999999999977
 20
150.5
 30
0.0
 11
-8.149999999999977
 21
148.5
 31
0.0
  0
LINE
  5
B8
330
37C
100
AcDbEntity
  8
DATA
  6
Continuous
 62
     7
100
AcDbLine
 10
-8.84999999999998
 20
150.5
 30
0.0
 11
-8.149999999999977
 21
150.5
 31
0.0
  0
LINE
  5
B9
330
37C
100
AcDbEntity
  8
DATA
  6
Continuous
 62
     7
100
AcDbLine
 10
-7.449999999999986
 20
148.5
 30
0.0
 11
-7.449999999999986
 21
150.5
 31
0.0
  0
LINE
  5
BA
330
37C
100
AcDbEntity
  8
DATA
  6
Continuous
 62
     7
100
AcDbLine
 10
-6.749999999999985
 20
150.5
 30
0.0
 11
-6.749999999999985
 21
148.5
 31
0.0
  0
LINE
  5
BB
330
37C
100
AcDbEntity
  8
DATA
  6
Continuous
 62
     7
100
AcDbLine
 10
-7.449999999999986
 20
150.5
 30
0.0
 11
-6.749999999999985
 21
150.5
 31
0.0
  0
LINE
  5
BC
330
37C
100
AcDbEntity
  8
DATA
  6
Continuous
 62
     7
100
AcDbLine
 10
-23.54999999999996
 20
148.5
 30
0.0
 11
-22.84999999999998
 21
148.5
 31
0.0
  0
LINE
  5
BD
330
37C
100
AcDbEntity
  8
DATA
  6
Continuous
 62
     7
100
AcDbLine
 10
-22.14999999999999
 20
148.5
 30
0.0
 11
-21.44999999999997
 21
148.5
 31
0.0
  0
LINE
  5
BE
330
37C
100
AcDbEntity
  8
DATA
  6
Continuous
 62
     7
100
AcDbLine
 10
-20.74999999999998
 20
148.5
 30
0.0
 11
-20.04999999999997
 21
148.5
 31
0.0
  0
LINE
  5
BF
330
37C
100
AcDbEntity
  8
DATA
  6
Continuous
 62
     7
100
AcDbLine
 10
-19.34999999999998
 20
148.5
 30
0.0
 11
-18.64999999999999
 21
148.5
 31
0.0
  0
LINE
  5
C0
330
37C
100
AcDbEntity
  8
DATA
  6
Continuous
 62
     7
100
AcDbLine
 10
-17.94999999999997
 20
148.5
 30
0.0
 11
-17.24999999999998
 21
148.5
 31
0.0
  0
LINE
  5
C1
330
37C
100
AcDbEntity
  8
DATA
  6
Continuous
 62
     7
100
AcDbLine
 10
-16.54999999999996
 20
148.5
 30
0.0
 11
-15.84999999999998
 21
148.5
 31
0.0
  0
LINE
  5
C2
330
37C
100
AcDbEntity
  8
DATA
  6
Continuous
 62
     7
100
AcDbLine
 10
-15.14999999999997
 20
148.5
 30
0.0
 11
-14.44999999999997
 21
148.5
 31
0.0
  0
LINE
  5
C3
330
37C
100
AcDbEntity
  8
DATA
  6
Continuous
 62
     7
100
AcDbLine
 10
-13.74999999999998
 20
148.5
 30
0.0
 11
-13.04999999999998
 21
148.5
 31
0.0
  0
LINE
  5
C4
330
37C
100
AcDbEntity
  8
DATA
  6
Continuous
 62
     7
100
AcDbLine
 10
-12.34999999999998
 20
148.5
 30
0.0
 11
-11.64999999999997
 21
148.5
 31
0.0
  0
LINE
  5
C5
330
37C
100
AcDbEntity
  8
DATA
  6
Continuous
 62
     7
100
AcDbLine
 10
-10.94999999999997
 20
148.5
 30
0.0
 11
-10.24999999999999
 21
148.5
 31
0.0
  0
LINE
  5
C6
330
37C
100
AcDbEntity
  8
DATA
  6
Continuous
 62
     7
100
AcDbLine
 10
-9.549999999999984
 20
148.5
 30
0.0
 11
-8.84999999999998
 21
148.5
 31
0.0
  0
LINE
  5
C7
330
37C
100
AcDbEntity
  8
DATA
  6
Continuous
 62
     7
100
AcDbLine
 10
-8.149999999999977
 20
148.5
 30
0.0
 11
-7.449999999999986
 21
148.5
 31
0.0
  0
LINE
  5
C8
330
37C
100
AcDbEntity
  8
DATA
  6
Continuous
 62
     7
100
AcDbLine
 10
-6.749999999999985
 20
148.5
 30
0.0
 11
-5.999999999999985
 21
148.5
 31
0.0
  0
LINE
  5
C9
330
37C
100
AcDbEntity
  8
DATA
  6
Continuous
 62
     7
100
AcDbLine
 10
-25.0
 20
143.5
 30
0.0
 11
-5.999999999999985
 21
143.5
 31
0.0
  0
LWPOLYLINE
  5
CA
330
37C
100
AcDbEntity
  8
DATA
  6
Continuous
 62
     7
100
AcDbPolyline
 90
        4
 70
     1
 43
0.0
 10
-22.84999999999998
 20
137.4083410861505
 10
-22.14999999999997
 20
137.4083410861505
 10
-22.14999999999997
 20
123.4083410861505
 10
-22.84999999999998
 20
123.4083410861505
  0
LWPOLYLINE
  5
D1
330
37C
100
AcDbEntity
  8
DATA
  6
Continuous
 62
     7
100
AcDbPolyline
 90
        4
 70
     1
 43
0.0
 10
-21.44999999999999
 20
137.4083410861505
 10
-20.74999999999997
 20
137.4083410861505
 10
-20.74999999999997
 20
123.4083410861505
 10
-21.44999999999999
 20
123.4083410861505
  0
LWPOLYLINE
  5
D8
330
37C
100
AcDbEntity
  8
DATA
  6
Continuous
 62
     7
100
AcDbPolyline
 90
        4
 70
     1
 43
0.0
 10
-20.04999999999999
 20
137.4083410861505
 10
-19.34999999999997
 20
137.4083410861505
 10
-19.34999999999997
 20
123.4083410861505
 10
-20.04999999999999
 20
123.4083410861505
  0
LWPOLYLINE
  5
DF
330
37C
100
AcDbEntity
  8
DATA
  6
Continuous
 62
     7
100
AcDbPolyline
 90
        4
 70
     1
 43
0.0
 10
-18.64999999999999
 20
137.4083410861505
 10
-17.94999999999997
 20
137.4083410861505
 10
-17.94999999999997
 20
123.4083410861505
 10
-18.64999999999999
 20
123.4083410861505
  0
LWPOLYLINE
  5
E6
330
37C
100
AcDbEntity
  8
DATA
  6
Continuous
 62
     7
100
AcDbPolyline
 90
        4
 70
     1
 43
0.0
 10
-17.24999999999998
 20
137.4083410861505
 10
-16.54999999999996
 20
137.4083410861505
 10
-16.54999999999996
 20
123.4083410861505
 10
-17.24999999999998
 20
123.4083410861505
  0
LWPOLYLINE
  5
ED
330
37C
100
AcDbEntity
  8
DATA
  6
Continuous
 62
     7
100
AcDbPolyline
 90
        4
 70
     1
 43
0.0
 10
-15.84999999999998
 20
137.4083410861505
 10
-15.14999999999996
 20
137.4083410861505
 10
-15.14999999999996
 20
123.4083410861505
 10
-15.84999999999998
 20
123.4083410861505
  0
LWPOLYLINE
  5
F4
330
37C
100
AcDbEntity
  8
DATA
  6
Continuous
 62
     7
100
AcDbPolyline
 90
        4
 70
     1
 43
0.0
 10
-14.44999999999999
 20
137.4083410861505
 10
-13.74999999999997
 20
137.4083410861505
 10
-13.74999999999997
 20
123.4083410861505
 10
-14.44999999999999
 20
123.4083410861505
  0
LWPOLYLINE
  5
FB
330
37C
100
AcDbEntity
  8
DATA
  6
Continuous
 62
     7
100
AcDbPolyline
 90
        4
 70
     1
 43
0.0
 10
-13.04999999999998
 20
137.4083410861505
 10
-12.34999999999996
 20
137.4083410861505
 10
-12.34999999999996
 20
123.4083410861505
 10
-13.04999999999998
 20
123.4083410861505
  0
LWPOLYLINE
  5
102
330
37C
100
AcDbEntity
  8
DATA
  6
Continuous
 62
     7
100
AcDbPolyline
 90
        4
 70
     1
 43
0.0
 10
-11.64999999999999
 20
137.4083410861505
 10
-10.94999999999997
 20
137.4083410861505
 10
-10.94999999999997
 20
123.4083410861505
 10
-11.64999999999999
 20
123.4083410861505
  0
LWPOLYLINE
  5
109
330
37C
100
AcDbEntity
  8
DATA
  6
Continuous
 62
     7
100
AcDbPolyline
 90
        4
 70
     1
 43
0.0
 10
-10.24999999999999
 20
137.4083410861505
 10
-9.549999999999968
 20
137.4083410861505
 10
-9.549999999999968
 20
123.4083410861505
 10
-10.24999999999999
 20
123.4083410861505
  0
LWPOLYLINE
  5
110
330
37C
100
AcDbEntity
  8
DATA
  6
Continuous
 62
     7
100
AcDbPolyline
 90
        4
 70
     1
 43
0.0
 10
-8.84999999999998
 20
137.4083410861505
 10
-8.149999999999963
 20
137.4083410861505
 10
-8.149999999999963
 20
123.4083410861505
 10
-8.84999999999998
 20
123.4083410861505
  0
LWPOLYLINE
  5
117
330
37C
100
AcDbEntity
  8
DATA
  6
Continuous
 62
     7
100
AcDbPolyline
 90
        4
 70
     1
 43
0.0
 10
-7.449999999999986
 20
137.4083410861505
 10
-6.749999999999971
 20
137.4083410861505
 10
-6.749999999999971
 20
123.4083410861505
 10
-7.449999999999986
 20
123.4083410861505
  0
LWPOLYLINE
  5
11E
330
37C
100
AcDbEntity
  8
DATA
  6
Continuous
 62
     7
100
AcDbPolyline
 90
        4
 70
     1
 43
0.0
 10
-24.24999999999999
 20
121.4083410861505
 10
-23.54999999999996
 20
121.4083410861505
 10
-23.54999999999996
 20
107.4083410861505
 10
-24.24999999999999
 20
107.4083410861505
  0
LWPOLYLINE
  5
125
330
37C
100
AcDbEntity
  8
DATA
  6
Continuous
 62
     7
100
AcDbPolyline
 90
        4
 70
     1
 43
0.0
 10
-22.84999999999998
 20
121.4083410861505
 10
-22.14999999999997
 20
121.4083410861505
 10
-22.14999999999997
 20
107.4083410861505
 10
-22.84999999999998
 20
107.4083410861505
  0
LWPOLYLINE
  5
12C
330
37C
100
AcDbEntity
  8
DATA
  6
Continuous
 62
     7
100
AcDbPolyline
 90
        4
 70
     1
 43
0.0
 10
-21.44999999999999
 20
121.4083410861505
 10
-20.74999999999997
 20
121.4083410861505
 10
-20.74999999999997
 20
107.4083410861505
 10
-21.44999999999999
 20
107.4083410861505
  0
LWPOLYLINE
  5
133
330
37C
100
AcDbEntity
  8
DATA
  6
Continuous
 62
     7
100
AcDbPolyline
 90
        4
 70
     1
 43
0.0
 10
-20.04999999999999
 20
121.4083410861505
 10
-19.34999999999997
 20
121.4083410861505
 10
-19.34999999999997
 20
107.4083410861505
 10
-20.04999999999999
 20
107.4083410861505
  0
LWPOLYLINE
  5
13A
330
37C
100
AcDbEntity
  8
DATA
  6
Continuous
 62
     7
100
AcDbPolyline
 90
        4
 70
     1
 43
0.0
 10
-18.64999999999999
 20
121.4083410861505
 10
-17.94999999999997
 20
121.4083410861505
 10
-17.94999999999997
 20
107.4083410861505
 10
-18.64999999999999
 20
107.4083410861505
  0
LWPOLYLINE
  5
141
330
37C
100
AcDbEntity
  8
DATA
  6
Continuous
 62
     7
100
AcDbPolyline
 90
        4
 70
     1
 43
0.0
 10
-17.24999999999998
 20
121.4083410861505
 10
-16.54999999999996
 20
121.4083410861505
 10
-16.54999999999996
 20
107.4083410861505
 10
-17.24999999999998
 20
107.4083410861505
  0
LWPOLYLINE
  5
148
330
37C
100
AcDbEntity
  8
DATA
  6
Continuous
 62
     7
100
AcDbPolyline
 90
        4
 70
     1
 43
0.0
 10
-15.84999999999998
 20
121.4083410861505
 10
-15.14999999999996
 20
121.4083410861505
 10
-15.14999999999996
 20
107.4083410861505
 10
-15.84999999999998
 20
107.4083410861505
  0
LWPOLYLINE
  5
14F
330
37C
100
AcDbEntity
  8
DATA
  6
Continuous
 62
     7
100
AcDbPolyline
 90
        4
 70
     1
 43
0.0
 10
-14.44999999999999
 20
121.4083410861505
 10
-13.74999999999997
 20
121.4083410861505
 10
-13.74999999999997
 20
107.4083410861505
 10
-14.44999999999999
 20
107.4083410861505
  0
LWPOLYLINE
  5
156
330
37C
100
AcDbEntity
  8
DATA
  6
Continuous
 62
     7
100
AcDbPolyline
 90
        4
 70
     1
 43
0.0
 10
-13.04999999999998
 20
121.4083410861505
 10
-12.34999999999996
 20
121.4083410861505
 10
-12.34999999999996
 20
107.4083410861505
 10
-13.04999999999998
 20
107.4083410861505
  0
LWPOLYLINE
  5
15D
330
37C
100
AcDbEntity
  8
DATA
  6
Continuous
 62
     7
100
AcDbPolyline
 90
        4
 70
     1
 43
0.0
 10
-11.64999999999999
 20
121.4083410861505
 10
-10.94999999999997
 20
121.4083410861505
 10
-10.94999999999997
 20
107.4083410861505
 10
-11.64999999999999
 20
107.4083410861505
  0
LWPOLYLINE
  5
164
330
37C
100
AcDbEntity
  8
DATA
  6
Continuous
 62
     7
100
AcDbPolyline
 90
        4
 70
     1
 43
0.0
 10
-10.24999999999999
 20
121.4083410861505
 10
-9.549999999999968
 20
121.4083410861505
 10
-9.549999999999968
 20
107.4083410861505
 10
-10.24999999999999
 20
107.4083410861505
  0
LWPOLYLINE
  5
16B
330
37C
100
AcDbEntity
  8
DATA
  6
Continuous
 62
     7
100
AcDbPolyline
 90
        4
 70
     1
 43
0.0
 10
-8.84999999999998
 20
121.4083410861505
 10
-8.149999999999963
 20
121.4083410861505
 10
-8.149999999999963
 20
107.4083410861505
 10
-8.84999999999998
 20
107.4083410861505
  0
LWPOLYLINE
  5
172
330
37C
100
AcDbEntity
  8
DATA
  6
Continuous
 62
     7
100
AcDbPolyline
 90
        4
 70
     1
 43
0.0
 10
-7.449999999999986
 20
121.4083410861505
 10
-6.749999999999971
 20
121.4083410861505
 10
-6.749999999999971
 20
107.4083410861505
 10
-7.449999999999986
 20
107.4083410861505
  0
LWPOLYLINE
  5
179
330
37C
100
AcDbEntity
  8
DATA
  6
Continuous
 62
     7
100
AcDbPolyline
 90
        4
 70
     1
 43
0.0
 10
-24.24999999999999
 20
105.4083410861505
 10
-23.54999999999996
 20
105.4083410861505
 10
-23.54999999999996
 20
91.40834108615056
 10
-24.24999999999999
 20
91.40834108615056
  0
LWPOLYLINE
  5
180
330
37C
100
AcDbEntity
  8
DATA
  6
Continuous
 62
     7
100
AcDbPolyline
 90
        4
 70
     1
 43
0.0
 10
-22.84999999999998
 20
105.4083410861505
 10
-22.14999999999997
 20
105.4083410861505
 10
-22.14999999999997
 20
91.40834108615056
 10
-22.84999999999998
 20
91.40834108615056
  0
LWPOLYLINE
  5
187
330
37C
100
AcDbEntity
  8
DATA
  6
Continuous
 62
     7
100
AcDbPolyline
 90
        4
 70
     1
 43
0.0
 10
-21.44999999999999
 20
105.4083410861505
 10
-20.74999999999997
 20
105.4083410861505
 10
-20.74999999999997
 20
91.40834108615056
 10
-21.44999999999999
 20
91.40834108615056
  0
LWPOLYLINE
  5
18E
330
37C
100
AcDbEntity
  8
DATA
  6
Continuous
 62
     7
100
AcDbPolyline
 90
        4
 70
     1
 43
0.0
 10
-20.04999999999999
 20
105.4083410861505
 10
-19.34999999999997
 20
105.4083410861505
 10
-19.34999999999997
 20
91.40834108615056
 10
-20.04999999999999
 20
91.40834108615056
  0
LWPOLYLINE
  5
195
330
37C
100
AcDbEntity
  8
DATA
  6
Continuous
 62
     7
100
AcDbPolyline
 90
        4
 70
     1
 43
0.0
 10
-18.64999999999999
 20
105.4083410861505
 10
-17.94999999999997
 20
105.4083410861505
 10
-17.94999999999997
 20
91.40834108615056
 10
-18.64999999999999
 20
91.40834108615056
  0
LWPOLYLINE
  5
19C
330
37C
100
AcDbEntity
  8
DATA
  6
Continuous
 62
     7
100
AcDbPolyline
 90
        4
 70
     1
 43
0.0
 10
-17.24999999999998
 20
105.4083410861505
 10
-16.54999999999996
 20
105.4083410861505
 10
-16.54999999999996
 20
91.40834108615056
 10
-17.24999999999998
 20
91.40834108615056
  0
LWPOLYLINE
  5
1A3
330
37C
100
AcDbEntity
  8
DATA
  6
Continuous
 62
     7
100
AcDbPolyline
 90
        4
 70
     1
 43
0.0
 10
-15.84999999999998
 20
105.4083410861505
 10
-15.14999999999996
 20
105.4083410861505
 10
-15.14999999999996
 20
91.40834108615056
 10
-15.84999999999998
 20
91.40834108615056
  0
LWPOLYLINE
  5
1AA
330
37C
100
AcDbEntity
  8
DATA
  6
Continuous
 62
     7
100
AcDbPolyline
 90
        4
 70
     1
 43
0.0
 10
-14.44999999999999
 20
105.4083410861505
 10
-13.74999999999997
 20
105.4083410861505
 10
-13.74999999999997
 20
91.40834108615056
 10
-14.44999999999999
 20
91.40834108615056
  0
LWPOLYLINE
  5
1B1
330
37C
100
AcDbEntity
  8
DATA
  6
Continuous
 62
     7
100
AcDbPolyline
 90
        4
 70
     1
 43
0.0
 10
-13.04999999999998
 20
105.4083410861505
 10
-12.34999999999996
 20
105.4083410861505
 10
-12.34999999999996
 20
91.40834108615056
 10
-13.04999999999998
 20
91.40834108615056
  0
LWPOLYLINE
  5
1B8
330
37C
100
AcDbEntity
  8
DATA
  6
Continuous
 62
     7
100
AcDbPolyline
 90
        4
 70
     1
 43
0.0
 10
-11.64999999999999
 20
105.4083410861505
 10
-10.94999999999997
 20
105.4083410861505
 10
-10.94999999999997
 20
91.40834108615056
 10
-11.64999999999999
 20
91.40834108615056
  0
LWPOLYLINE
  5
1BF
330
37C
100
AcDbEntity
  8
DATA
  6
Continuous
 62
     7
100
AcDbPolyline
 90
        4
 70
     1
 43
0.0
 10
-10.24999999999999
 20
105.4083410861505
 10
-9.549999999999968
 20
105.4083410861505
 10
-9.549999999999968
 20
91.40834108615056
 10
-10.24999999999999
 20
91.40834108615056
  0
LWPOLYLINE
  5
1C6
330
37C
100
AcDbEntity
  8
DATA
  6
Continuous
 62
     7
100
AcDbPolyline
 90
        4
 70
     1
 43
0.0
 10
-8.84999999999998
 20
105.4083410861505
 10
-8.149999999999963
 20
105.4083410861505
 10
-8.149999999999963
 20
91.40834108615056
 10
-8.84999999999998
 20
91.40834108615056
  0
LWPOLYLINE
  5
1CD
330
37C
100
AcDbEntity
  8
DATA
  6
Continuous
 62
     7
100
AcDbPolyline
 90
        4
 70
     1
 43
0.0
 10
-7.449999999999986
 20
105.4083410861505
 10
-6.749999999999971
 20
105.4083410861505
 10
-6.749999999999971
 20
91.40834108615056
 10
-7.449999999999986
 20
91.40834108615056
  0
LWPOLYLINE
  5
1D4
330
37C
100
AcDbEntity
  8
DATA
  6
Continuous
 62
     7
100
AcDbPolyline
 90
        4
 70
     1
 43
0.0
 10
-24.24999999999999
 20
89.40834108615055
 10
-23.54999999999996
 20
89.40834108615055
 10
-23.54999999999996
 20
75.40834108615055
 10
-24.24999999999999
 20
75.40834108615055
  0
LWPOLYLINE
  5
1DB
330
37C
100
AcDbEntity
  8
DATA
  6
Continuous
 62
     7
100
AcDbPolyline
 90
        4
 70
     1
 43
0.0
 10
-22.84999999999998
 20
89.40834108615055
 10
-22.14999999999997
 20
89.40834108615055
 10
-22.14999999999997
 20
75.40834108615055
 10
-22.84999999999998
 20
75.40834108615055
  0
LWPOLYLINE
  5
1E2
330
37C
100
AcDbEntity
  8
DATA
  6
Continuous
 62
     7
100
AcDbPolyline
 90
        4
 70
     1
 43
0.0
 10
-21.44999999999999
 20
89.40834108615055
 10
-20.74999999999997
 20
89.40834108615055
 10
-20.74999999999997
 20
75.40834108615055
 10
-21.44999999999999
 20
75.40834108615055
  0
LWPOLYLINE
  5
1E9
330
37C
100
AcDbEntity
  8
DATA
  6
Continuous
 62
     7
100
AcDbPolyline
 90
        4
 70
     1
 43
0.0
 10
-20.04999999999999
 20
89.40834108615055
 10
-19.34999999999997
 20
89.40834108615055
 10
-19.34999999999997
 20
75.40834108615055
 10
-20.04999999999999
 20
75.40834108615055
  0
LWPOLYLINE
  5
1F0
330
37C
100
AcDbEntity
  8
DATA
  6
Continuous
 62
     7
100
AcDbPolyline
 90
        4
 70
     1
 43
0.0
 10
-18.64999999999999
 20
89.40834108615055
 10
-17.94999999999997
 20
89.40834108615055
 10
-17.94999999999997
 20
75.40834108615055
 10
-18.64999999999999
 20
75.40834108615055
  0
LWPOLYLINE
  5
1F7
330
37C
100
AcDbEntity
  8
DATA
  6
Continuous
 62
     7
100
AcDbPolyline
 90
        4
 70
     1
 43
0.0
 10
-17.24999999999998
 20
89.40834108615055
 10
-16.54999999999996
 20
89.40834108615055
 10
-16.54999999999996
 20
75.40834108615055
 10
-17.24999999999998
 20
75.40834108615055
  0
LWPOLYLINE
  5
1FE
330
37C
100
AcDbEntity
  8
DATA
  6
Continuous
 62
     7
100
AcDbPolyline
 90
        4
 70
     1
 43
0.0
 10
-15.84999999999998
 20
89.40834108615055
 10
-15.14999999999996
 20
89.40834108615055
 10
-15.14999999999996
 20
75.40834108615055
 10
-15.84999999999998
 20
75.40834108615055
  0
LWPOLYLINE
  5
205
330
37C
100
AcDbEntity
  8
DATA
  6
Continuous
 62
     7
100
AcDbPolyline
 90
        4
 70
     1
 43
0.0
 10
-14.44999999999999
 20
89.40834108615055
 10
-13.74999999999997
 20
89.40834108615055
 10
-13.74999999999997
 20
75.40834108615055
 10
-14.44999999999999
 20
75.40834108615055
  0
LWPOLYLINE
  5
20C
330
37C
100
AcDbEntity
  8
DATA
  6
Continuous
 62
     7
100
AcDbPolyline
 90
        4
 70
     1
 43
0.0
 10
-13.04999999999998
 20
89.40834108615055
 10
-12.34999999999996
 20
89.40834108615055
 10
-12.34999999999996
 20
75.40834108615055
 10
-13.04999999999998
 20
75.40834108615055
  0
LWPOLYLINE
  5
213
330
37C
100
AcDbEntity
  8
DATA
  6
Continuous
 62
     7
100
AcDbPolyline
 90
        4
 70
     1
 43
0.0
 10
-11.64999999999999
 20
89.40834108615055
 10
-10.94999999999997
 20
89.40834108615055
 10
-10.94999999999997
 20
75.40834108615055
 10
-11.64999999999999
 20
75.40834108615055
  0
LWPOLYLINE
  5
21A
330
37C
100
AcDbEntity
  8
DATA
  6
Continuous
 62
     7
100
AcDbPolyline
 90
        4
 70
     1
 43
0.0
 10
-10.24999999999999
 20
89.40834108615055
 10
-9.549999999999968
 20
89.40834108615055
 10
-9.549999999999968
 20
75.40834108615055
 10
-10.24999999999999
 20
75.40834108615055
  0
LWPOLYLINE
  5
221
330
37C
100
AcDbEntity
  8
DATA
  6
Continuous
 62
     7
100
AcDbPolyline
 90
        4
 70
     1
 43
0.0
 10
-8.84999999999998
 20
89.40834108615055
 10
-8.149999999999963
 20
89.40834108615055
 10
-8.149999999999963
 20
75.40834108615055
 10
-8.84999999999998
 20
75.40834108615055
  0
LWPOLYLINE
  5
228
330
37C
100
AcDbEntity
  8
DATA
  6
Continuous
 62
     7
100
AcDbPolyline
 90
        4
 70
     1
 43
0.0
 10
-7.449999999999986
 20
89.40834108615055
 10
-6.749999999999971
 20
89.40834108615055
 10
-6.749999999999971
 20
75.40834108615055
 10
-7.449999999999986
 20
75.40834108615055
  0
LWPOLYLINE
  5
22F
330
37C
100
AcDbEntity
  8
DATA
  6
Continuous
 62
     7
100
AcDbPolyline
 90
        4
 70
     1
 43
0.0
 10
-24.24999999999999
 20
73.40834108615055
 10
-23.54999999999996
 20
73.40834108615055
 10
-23.54999999999996
 20
59.40834108615053
 10
-24.24999999999999
 20
59.40834108615053
  0
LWPOLYLINE
  5
236
330
37C
100
AcDbEntity
  8
DATA
  6
Continuous
 62
     7
100
AcDbPolyline
 90
        4
 70
     1
 43
0.0
 10
-22.84999999999998
 20
73.40834108615055
 10
-22.14999999999997
 20
73.40834108615055
 10
-22.14999999999997
 20
59.40834108615053
 10
-22.84999999999998
 20
59.40834108615053
  0
LWPOLYLINE
  5
23D
330
37C
100
AcDbEntity
  8
DATA
  6
Continuous
 62
     7
100
AcDbPolyline
 90
        4
 70
     1
 43
0.0
 10
-21.44999999999999
 20
73.40834108615055
 10
-20.74999999999997
 20
73.40834108615055
 10
-20.74999999999997
 20
59.40834108615053
 10
-21.44999999999999
 20
59.40834108615053
  0
LWPOLYLINE
  5
244
330
37C
100
AcDbEntity
  8
DATA
  6
Continuous
 62
     7
100
AcDbPolyline
 90
        4
 70
     1
 43
0.0
 10
-20.04999999999999
 20
73.40834108615055
 10
-19.34999999999997
 20
73.40834108615055
 10
-19.34999999999997
 20
59.40834108615053
 10
-20.04999999999999
 20
59.40834108615053
  0
LWPOLYLINE
  5
24B
330
37C
100
AcDbEntity
  8
DATA
  6
Continuous
 62
     7
100
AcDbPolyline
 90
        4
 70
     1
 43
0.0
 10
-18.64999999999999
 20
73.40834108615055
 10
-17.94999999999997
 20
73.40834108615055
 10
-17.94999999999997
 20
59.40834108615053
 10
-18.64999999999999
 20
59.40834108615053
  0
LWPOLYLINE
  5
252
330
37C
100
AcDbEntity
  8
DATA
  6
Continuous
 62
     7
100
AcDbPolyline
 90
        4
 70
     1
 43
0.0
 10
-17.24999999999998
 20
73.40834108615055
 10
-16.54999999999996
 20
73.40834108615055
 10
-16.54999999999996
 20
59.40834108615053
 10
-17.24999999999998
 20
59.40834108615053
  0
LWPOLYLINE
  5
259
330
37C
100
AcDbEntity
  8
DATA
  6
Continuous
 62
     7
100
AcDbPolyline
 90
        4
 70
     1
 43
0.0
 10
-15.84999999999998
 20
73.40834108615055
 10
-15.14999999999996
 20
73.40834108615055
 10
-15.14999999999996
 20
59.40834108615053
 10
-15.84999999999998
 20
59.40834108615053
  0
LWPOLYLINE
  5
260
330
37C
100
AcDbEntity
  8
DATA
  6
Continuous
 62
     7
100
AcDbPolyline
 90
        4
 70
     1
 43
0.0
 10
-14.44999999999999
 20
73.40834108615055
 10
-13.74999999999997
 20
73.40834108615055
 10
-13.74999999999997
 20
59.40834108615053
 10
-14.44999999999999
 20
59.40834108615053
  0
LWPOLYLINE
  5
267
330
37C
100
AcDbEntity
  8
DATA
  6
Continuous
 62
     7
100
AcDbPolyline
 90
        4
 70
     1
 43
0.0
 10
-13.04999999999998
 20
73.40834108615055
 10
-12.34999999999996
 20
73.40834108615055
 10
-12.34999999999996
 20
59.40834108615053
 10
-13.04999999999998
 20
59.40834108615053
  0
LWPOLYLINE
  5
26E
330
37C
100
AcDbEntity
  8
DATA
  6
Continuous
 62
     7
100
AcDbPolyline
 90
        4
 70
     1
 43
0.0
 10
-11.64999999999999
 20
73.40834108615055
 10
-10.94999999999997
 20
73.40834108615055
 10
-10.94999999999997
 20
59.40834108615053
 10
-11.64999999999999
 20
59.40834108615053
  0
LWPOLYLINE
  5
275
330
37C
100
AcDbEntity
  8
DATA
  6
Continuous
 62
     7
100
AcDbPolyline
 90
        4
 70
     1
 43
0.0
 10
-10.24999999999999
 20
73.40834108615055
 10
-9.549999999999968
 20
73.40834108615055
 10
-9.549999999999968
 20
59.40834108615053
 10
-10.24999999999999
 20
59.40834108615053
  0
LWPOLYLINE
  5
27C
330
37C
100
AcDbEntity
  8
DATA
  6
Continuous
 62
     7
100
AcDbPolyline
 90
        4
 70
     1
 43
0.0
 10
-8.84999999999998
 20
73.40834108615055
 10
-8.149999999999963
 20
73.40834108615055
 10
-8.149999999999963
 20
59.40834108615053
 10
-8.84999999999998
 20
59.40834108615053
  0
LWPOLYLINE
  5
283
330
37C
100
AcDbEntity
  8
DATA
  6
Continuous
 62
     7
100
AcDbPolyline
 90
        4
 70
     1
 43
0.0
 10
-7.449999999999986
 20
73.40834108615055
 10
-6.749999999999971
 20
73.40834108615055
 10
-6.749999999999971
 20
59.40834108615053
 10
-7.449999999999986
 20
59.40834108615053
  0
LWPOLYLINE
  5
28A
330
37C
100
AcDbEntity
  8
DATA
  6
Continuous
 62
     7
100
AcDbPolyline
 90
        4
 70
     1
 43
0.0
 10
-24.24999999999999
 20
53.40834108615053
 10
-23.54999999999996
 20
53.40834108615053
 10
-23.54999999999996
 20
45.40834108615053
 10
-24.24999999999999
 20
45.40834108615053
  0
LWPOLYLINE
  5
291
330
37C
100
AcDbEntity
  8
DATA
  6
Continuous
 62
     7
100
AcDbPolyline
 90
        4
 70
     1
 43
0.0
 10
-22.84999999999998
 20
53.40834108615053
 10
-22.14999999999997
 20
53.40834108615053
 10
-22.14999999999997
 20
45.40834108615053
 10
-22.84999999999998
 20
45.40834108615053
  0
LWPOLYLINE
  5
298
330
37C
100
AcDbEntity
  8
DATA
  6
Continuous
 62
     7
100
AcDbPolyline
 90
        4
 70
     1
 43
0.0
 10
-21.44999999999999
 20
53.40834108615053
 10
-20.74999999999997
 20
53.40834108615053
 10
-20.74999999999997
 20
45.40834108615053
 10
-21.44999999999999
 20
45.40834108615053
  0
LWPOLYLINE
  5
29F
330
37C
100
AcDbEntity
  8
DATA
  6
Continuous
 62
     7
100
AcDbPolyline
 90
        4
 70
     1
 43
0.0
 10
-20.04999999999999
 20
53.40834108615053
 10
-19.34999999999997
 20
53.40834108615053
 10
-19.34999999999997
 20
45.40834108615053
 10
-20.04999999999999
 20
45.40834108615053
  0
LWPOLYLINE
  5
2A6
330
37C
100
AcDbEntity
  8
DATA
  6
Continuous
 62
     7
100
AcDbPolyline
 90
        4
 70
     1
 43
0.0
 10
-18.64999999999999
 20
53.40834108615053
 10
-17.94999999999997
 20
53.40834108615053
 10
-17.94999999999997
 20
45.40834108615053
 10
-18.64999999999999
 20
45.40834108615053
  0
LWPOLYLINE
  5
2AD
330
37C
100
AcDbEntity
  8
DATA
  6
Continuous
 62
     7
100
AcDbPolyline
 90
        4
 70
     1
 43
0.0
 10
-17.24999999999998
 20
53.40834108615053
 10
-16.54999999999996
 20
53.40834108615053
 10
-16.54999999999996
 20
45.40834108615053
 10
-17.24999999999998
 20
45.40834108615053
  0
LWPOLYLINE
  5
2B4
330
37C
100
AcDbEntity
  8
DATA
  6
Continuous
 62
     7
100
AcDbPolyline
 90
        4
 70
     1
 43
0.0
 10
-15.84999999999998
 20
53.40834108615053
 10
-15.14999999999996
 20
53.40834108615053
 10
-15.14999999999996
 20
45.40834108615053
 10
-15.84999999999998
 20
45.40834108615053
  0
LWPOLYLINE
  5
2BB
330
37C
100
AcDbEntity
  8
DATA
  6
Continuous
 62
     7
100
AcDbPolyline
 90
        4
 70
     1
 43
0.0
 10
-14.44999999999999
 20
53.40834108615053
 10
-13.74999999999997
 20
53.40834108615053
 10
-13.74999999999997
 20
45.40834108615053
 10
-14.44999999999999
 20
45.40834108615053
  0
LWPOLYLINE
  5
2C2
330
37C
100
AcDbEntity
  8
DATA
  6
Continuous
 62
     7
100
AcDbPolyline
 90
        4
 70
     1
 43
0.0
 10
-13.04999999999998
 20
53.40834108615053
 10
-12.34999999999996
 20
53.40834108615053
 10
-12.34999999999996
 20
45.40834108615053
 10
-13.04999999999998
 20
45.40834108615053
  0
LWPOLYLINE
  5
2C9
330
37C
100
AcDbEntity
  8
DATA
  6
Continuous
 62
     7
100
AcDbPolyline
 90
        4
 70
     1
 43
0.0
 10
-11.64999999999999
 20
53.40834108615053
 10
-10.94999999999997
 20
53.40834108615053
 10
-10.94999999999997
 20
45.40834108615053
 10
-11.64999999999999
 20
45.40834108615053
  0
LWPOLYLINE
  5
2D0
330
37C
100
AcDbEntity
  8
DATA
  6
Continuous
 62
     7
100
AcDbPolyline
 90
        4
 70
     1
 43
0.0
 10
-10.24999999999999
 20
53.40834108615053
 10
-9.549999999999968
 20
53.40834108615053
 10
-9.549999999999968
 20
45.40834108615053
 10
-10.24999999999999
 20
45.40834108615053
  0
LWPOLYLINE
  5
2D7
330
37C
100
AcDbEntity
  8
DATA
  6
Continuous
 62
     7
100
AcDbPolyline
 90
        4
 70
     1
 43
0.0
 10
-8.84999999999998
 20
53.40834108615053
 10
-8.149999999999963
 20
53.40834108615053
 10
-8.149999999999963
 20
45.40834108615053
 10
-8.84999999999998
 20
45.40834108615053
  0
LWPOLYLINE
  5
2DE
330
37C
100
AcDbEntity
  8
DATA
  6
Continuous
 62
     7
100
AcDbPolyline
 90
        4
 70
     1
 43
0.0
 10
-7.449999999999986
 20
53.40834108615053
 10
-6.749999999999971
 20
53.40834108615053
 10
-6.749999999999971
 20
45.40834108615053
 10
-7.449999999999986
 20
45.40834108615053
  0
ARC
  5
2E5
330
37C
100
AcDbEntity
  8
DATA
  6
Continuous
 62
     7
100
AcDbCircle
 10
-15.49999999999997
 20
156.25
 30
0.0
 40
21.63761261088134
100
AcDbArc
 50
243.956698674712
 51
296.0433013252879
  0
CIRCLE
  5
2E6
330
37C
100
AcDbEntity
  8
DATA
  6
Continuous
 62
     7
100
AcDbCircle
 10
-15.42783682680795
 20
243.75
 30
0.0
 40
3.800000000000011
  0
ARC
  5
2E7
330
37C
100
AcDbEntity
  8
DATA
  6
Continuous
 62
     7
100
AcDbCircle
 10
-15.42783682680795
 20
243.75
 30
0.0
 40
9.5
100
AcDbArc
 50
90.00000000000774
 51
109.9999999999999
  0
ARC
  5
2E8
330
37C
100
AcDbEntity
  8
DATA
  6
Continuous
 62
     7
100
AcDbCircle
 10
-15.42783682680795
 20
243.75
 30
0.0
 40
9.500000000000008
100
AcDbArc
 50
129.9999999999998
 51
149.9999999999997
  0
ARC
  5
2E9
330
37C
100
AcDbEntity
  8
DATA
  6
Continuous
 62
     7
100
AcDbCircle
 10
-15.42783682680795
 20
243.75
 30
0.0
 40
9.500000000000014
100
AcDbArc
 50
169.9999999999996
 51
189.9999999999995
  0
ARC
  5
2EA
330
37C
100
AcDbEntity
  8
DATA
  6
Continuous
 62
     7
100
AcDbCircle
 10
-15.42783682680795
 20
243.75
 30
0.0
 40
9.500000000000003
100
AcDbArc
 50
209.9999999999994
 51
229.9999999999994
  0
ARC
  5
2EB
330
37C
100
AcDbEntity
  8
DATA
  6
Continuous
 62
     7
100
AcDbCircle
 10
-15.42783682680795
 20
243.75
 30
0.0
 40
9.500000000000012
100
AcDbArc
 50
249.9999999999996
 51
270.0000000000077
  0
ARC
  5
2EC
330
37C
100
AcDbEntity
  8
DATA
  6
Continuous
 62
     7
100
AcDbCircle
 10
-15.42783682680795
 20
243.75
 30
0.0
 40
9.500000000000008
100
AcDbArc
 50
289.9999999999997
 51
309.9999999999996
  0
ARC
  5
2ED
330
37C
100
AcDbEntity
  8
DATA
  6
Continuous
 62
     7
100
AcDbCircle
 10
-15.42783682680795
 20
243.75
 30
0.0
 40
9.500000000000019
100
AcDbArc
 50
329.9999999999997
 51
349.9999999999998
  0
ARC
  5
2EE
330
37C
100
AcDbEntity
  8
DATA
  6
Continuous
 62
     7
100
AcDbCircle
 10
-15.42783682680795
 20
243.75
 30
0.0
 40
9.5
100
AcDbArc
 50
9.999999999999928
 51
29.99999999999994
  0
ARC
  5
2EF
330
37C
100
AcDbEntity
  8
DATA
  6
Continuous
 62
     7
100
AcDbCircle
 10
-15.42783682680795
 20
243.75
 30
0.0
 40
9.499999999999996
100
AcDbArc
 50
50.0
 51
70.0
  0
CIRCLE
  5
2F0
330
37C
100
AcDbEntity
  8
DATA
  6
Continuous
 62
     7
100
AcDbCircle
 10
-15.42783682680795
 20
243.75
 30
0.0
 40
1.0
  0
ARC
  5
2F1
330
37C
100
AcDbEntity
  8
DATA
  6
Continuous
 62
     7
100
AcDbCircle
 10
-15.42783682680792
 20
243.75
 30
0.0
 40
9.249999999999971
100
AcDbArc
 50
70.00712512773198
 51
90.00712512772292
  0
ARC
  5
2F2
330
37C
100
AcDbEntity
  8
DATA
  6
Continuous
 62
     7
100
AcDbCircle
 10
-15.42783682680792
 20
243.75
 30
0.0
 40
9.249999999999975
100
AcDbArc
 50
110.007125127732
 51
130.0071251277321
  0
ARC
  5
2F3
330
37C
100
AcDbEntity
  8
DATA
  6
Continuous
 62
     7
100
AcDbCircle
 10
-15.42783682680792
 20
243.75
 30
0.0
 40
9.249999999999976
100
AcDbArc
 50
150.0071251277318
 51
170.0071251277318
  0
ARC
  5
2F4
330
37C
100
AcDbEntity
  8
DATA
  6
Continuous
 62
     7
100
AcDbCircle
 10
-15.42783682680792
 20
243.75
 30
0.0
 40
9.249999999999982
100
AcDbArc
 50
190.0071251277315
 51
210.0071251277316
  0
ARC
  5
2F5
330
37C
100
AcDbEntity
  8
DATA
  6
Continuous
 62
     7
100
AcDbCircle
 10
-15.42783682680792
 20
243.75
 30
0.0
 40
9.249999999999984
100
AcDbArc
 50
230.0071251277314
 51
250.0071251277313
  0
ARC
  5
2F6
330
37C
100
AcDbEntity
  8
DATA
  6
Continuous
 62
     7
100
AcDbCircle
 10
-15.42783682680792
 20
243.75
 30
0.0
 40
9.249999999999984
100
AcDbArc
 50
270.0071251277226
 51
290.0071251277314
  0
ARC
  5
2F7
330
37C
100
AcDbEntity
  8
DATA
  6
Continuous
 62
     7
100
AcDbCircle
 10
-15.42783682680792
 20
243.75
 30
0.0
 40
9.249999999999984
100
AcDbArc
 50
310.0071251277313
 51
330.0071251277314
  0
ARC
  5
2F8
330
37C
100
AcDbEntity
  8
DATA
  6
Continuous
 62
     7
100
AcDbCircle
 10
-15.42783682680792
 20
243.75
 30
0.0
 40
9.249999999999984
100
AcDbArc
 50
350.0071251277316
 51
10.00712598150511
  0
ARC
  5
2F9
330
37C
100
AcDbEntity
  8
DATA
  6
Continuous
 62
     7
100
AcDbCircle
 10
-15.42783682680792
 20
243.75
 30
0.0
 40
9.249999999999987
100
AcDbArc
 50
30.00712512773172
 51
50.00712512773195
  0
LINE
  5
2FA
330
37C
100
AcDbEntity
  8
DATA
  6
Continuous
 62
     7
100
AcDbLine
 10
-15.45406411403331
 20
247.5499094896333
 30
0.0
 11
-15.42783682680795
 21
253.25
 31
0.0
  0
LINE
  5
2FB
330
37C
100
AcDbEntity
  8
DATA
  6
Continuous
 62
     7
100
AcDbLine
 10
-14.15283682680794
 20
247.3297171675986
 30
0.0
 11
-12.17864546521409
 21
252.6770798974661
 31
0.0
  0
LINE
  5
2FC
330
37C
100
AcDbEntity
  8
DATA
  6
Continuous
 62
     7
100
AcDbLine
 10
-13.00539335657848
 20
246.6777581241528
 30
0.0
 11
-9.321354534785823
 21
251.0274222096303
 31
0.0
  0
LINE
  5
2FD
330
37C
100
AcDbEntity
  8
DATA
  6
Continuous
 62
     7
100
AcDbLine
 10
-12.15013232031668
 20
245.6726682418262
 30
0.0
 11
-7.200595490855789
 21
248.5
 31
0.0
  0
LINE
  5
2FE
330
37C
100
AcDbEntity
  8
DATA
  6
Continuous
 62
     7
100
AcDbLine
 10
-11.6902108213043
 20
244.4356761939741
 30
0.0
 11
-6.072163173191995
 21
245.3996576878358
 31
0.0
  0
LINE
  5
2FF
330
37C
100
AcDbEntity
  8
DATA
  6
Continuous
 62
     7
100
AcDbLine
 10
-11.68110218004062
 20
243.1159814776259
 30
0.0
 11
-6.072163173192023
 21
242.1003423121641
 31
0.0
  0
LINE
  5
300
330
37C
100
AcDbEntity
  8
DATA
  6
Continuous
 62
     7
100
AcDbLine
 10
-12.12390503309132
 20
241.8727587521929
 30
0.0
 11
-7.200595490855847
 21
239.0
 31
0.0
  0
LINE
  5
301
330
37C
100
AcDbEntity
  8
DATA
  6
Continuous
 62
     7
100
AcDbLine
 10
-12.96521082130431
 20
240.8559590263756
 30
0.0
 11
-9.321354534785912
 21
236.4725777903697
 31
0.0
  0
LINE
  5
302
330
37C
100
AcDbEntity
  8
DATA
  6
Continuous
 62
     7
100
AcDbLine
 10
-14.10354565027009
 20
240.1882233534732
 30
0.0
 11
-12.17864546521417
 21
234.8229201025339
 31
0.0
  0
LINE
  5
303
330
37C
100
AcDbEntity
  8
DATA
  6
Continuous
 62
     7
100
AcDbLine
 10
-15.40160953958255
 20
239.9500905103668
 30
0.0
 11
-15.42783682680795
 21
234.25
 31
0.0
  0
LINE
  5
304
330
37C
100
AcDbEntity
  8
DATA
  6
Continuous
 62
     7
100
AcDbLine
 10
-16.70283682680795
 20
240.1702828324014
 30
0.0
 11
-18.67702818840188
 21
234.8229201025339
 31
0.0
  0
LINE
  5
305
330
37C
100
AcDbEntity
  8
DATA
  6
Continuous
 62
     7
100
AcDbLine
 10
-17.85028029703739
 20
240.8222418758473
 30
0.0
 11
-21.53431911883012
 21
236.4725777903698
 31
0.0
  0
LINE
  5
306
330
37C
100
AcDbEntity
  8
DATA
  6
Continuous
 62
     7
100
AcDbLine
 10
-18.70554133329919
 20
241.8273317581739
 30
0.0
 11
-23.65507816276016
 21
239.0000000000001
 31
0.0
  0
LINE
  5
307
330
37C
100
AcDbEntity
  8
DATA
  6
Continuous
 62
     7
100
AcDbLine
 10
-19.16546283231159
 20
243.0643238060259
 30
0.0
 11
-24.78351048042396
 21
242.1003423121643
 31
0.0
  0
LINE
  5
308
330
37C
100
AcDbEntity
  8
DATA
  6
Continuous
 62
     7
100
AcDbLine
 10
-19.17457147357524
 20
244.3840185223741
 30
0.0
 11
-24.78351048042393
 21
245.3996576878359
 31
0.0
  0
LINE
  5
309
330
37C
100
AcDbEntity
  8
DATA
  6
Continuous
 62
     7
100
AcDbLine
 10
-18.73176862052457
 20
245.6272412478071
 30
0.0
 11
-23.65507816276011
 21
248.5000000000001
 31
0.0
  0
LINE
  5
30A
330
37C
100
AcDbEntity
  8
DATA
  6
Continuous
 62
     7
100
AcDbLine
 10
-17.89046283231157
 20
246.6440409736244
 30
0.0
 11
-21.53431911883007
 21
251.0274222096304
 31
0.0
  0
LINE
  5
30B
330
37C
100
AcDbEntity
  8
DATA
  6
Continuous
 62
     7
100
AcDbLine
 10
-16.75212800334579
 20
247.3117766465268
 30
0.0
 11
-18.67702818840179
 21
252.6770798974661
 31
0.0
  0
LINE
  5
30C
330
37C
100
AcDbEntity
  8
DATA
  6
Continuous
 62
     7
100
AcDbLine
 10
-25.0
 20
37.5
 30
0.0
 11
-24.99999999999999
 21
150.5
 31
0.0
  0
LINE
  5
30D
330
37C
100
AcDbEntity
  8
DATA
  6
Continuous
 62
     7
100
AcDbLine
 10
-5.999999999999985
 20
150.5
 30
0.0
 11
-6.0
 21
37.5
 31
0.0
  0
LINE
  5
30E
330
37C
100
AcDbEntity
  8
DATA
  6
Continuous
 62
     7
100
AcDbLine
 10
-6.0
 20
37.5
 30
0.0
 11
-25.0
 21
37.5
 31
0.0
  0
LINE
  5
30F
330
37C
100
AcDbEntity
  8
DATA
  6
Continuous
 62
     7
100
AcDbLine
 10
-6.0
 20
37.80000000000001
 30
0.0
 11
-25.0
 21
37.80000000000001
 31
0.0
  0
ENDSEC
  0
SECTION
  2
OBJECTS
  0
DICTIONARY
  5
31D
330
0
100
AcDbDictionary
281
     1
  3
ACAD_COLOR
350
373
  3
ACAD_GROUP
350
31E
  3
ACAD_LAYOUT
350
372
  3
ACAD_MATERIAL
350
321
  3
ACAD_MLEADERSTYLE
350
376
  3
ACAD_MLINESTYLE
350
36F
  3
ACAD_PLOTSETTINGS
350
371
  3
ACAD_PLOTSTYLENAME
350
31F
  3
ACAD_SCALELIST
350
353
  3
ACAD_TABLESTYLE
350
374
  3
ACAD_VISUALSTYLE
350
33A
  3
ACDB_RECOMPOSE_DATA
350
3A8
  3
AcDbVariableDictionary
350
39E
  3
DWGPROPS
350
3A9
  0
DICTIONARY
  5
394
330
365
100
AcDbDictionary
280
     1
281
     1
  3
ADSK_XREC_LAYER_RECONCILED
360
395
  0
DICTIONARY
  5
396
330
380
100
AcDbDictionary
280
     1
281
     1
  3
ADSK_XREC_LAYER_RECONCILED
360
397
  0
DICTIONARY
  5
398
330
38C
100
AcDbDictionary
280
     1
281
     1
  3
ADSK_XREC_LAYER_RECONCILED
360
399
  0
DICTIONARY
  5
39A
330
38D
100
AcDbDictionary
280
     1
281
     1
  3
ADSK_XREC_LAYER_RECONCILED
360
39B
  0
DICTIONARY
  5
39C
330
38E
100
AcDbDictionary
280
     1
281
     1
  3
ADSK_XREC_LAYER_RECONCILED
360
39D
  0
DICTIONARY
  5
373
102
{ACAD_REACTORS
330
31D
102
}
330
31D
100
AcDbDictionary
281
     1
  0
DICTIONARY
  5
31E
102
{ACAD_REACTORS
330
31D
102
}
330
31D
100
AcDbDictionary
281
     1
  0
DICTIONARY
  5
372
102
{ACAD_REACTORS
330
31D
102
}
330
31D
100
AcDbDictionary
281
     1
  3
Model
350
37F
  3
レイアウト1
350
37B
  0
DICTIONARY
  5
321
102
{ACAD_REACTORS
330
31D
102
}
330
31D
100
AcDbDictionary
281
     1
  3
ByBlock
350
32A
  3
ByLayer
350
322
  3
Global
350
332
  0
DICTIONARY
  5
376
102
{ACAD_REACTORS
330
31D
102
}
330
31D
100
AcDbDictionary
281
     1
  3
Standard
350
377
  0
DICTIONARY
  5
36F
102
{ACAD_REACTORS
330
31D
102
}
330
31D
100
AcDbDictionary
281
     1
  3
Standard
350
370
  0
DICTIONARY
  5
371
102
{ACAD_REACTORS
330
31D
102
}
330
31D
100
AcDbDictionary
281
     1
  0
ACDBDICTIONARYWDFLT
  5
31F
102
{ACAD_REACTORS
330
31D
102
}
330
31D
100
AcDbDictionary
281
     1
  3
Normal
350
320
100
AcDbDictionaryWithDefault
340
320
  0
DICTIONARY
  5
353
102
{ACAD_REACTORS
330
31D
102
}
330
31D
100
AcDbDictionary
281
     1
  3
A0
350
354
  3
A1
350
355
  3
A2
350
356
  3
A3
350
357
  3
A4
350
358
  3
A5
350
359
  3
A6
350
35A
  3
A7
350
35B
  3
A8
350
35C
  3
A9
350
35D
  3
B0
350
35E
  3
B1
350
35F
  3
B2
350
360
  3
B3
350
361
  3
B4
350
362
  3
B5
350
363
  3
B6
350
364
  0
DICTIONARY
  5
374
102
{ACAD_REACTORS
330
31D
102
}
330
31D
100
AcDbDictionary
281
     1
  3
Standard
350
375
  0
DICTIONARY
  5
33A
102
{ACAD_REACTORS
330
31D
102
}
330
31D
100
AcDbDictionary
281
     1
  3
2dWireframe
350
340
  3
Basic
350
33F
  3
Brighten
350
346
  3
ColorChange
350
34A
  3
Conceptual
350
343
  3
Dim
350
345
  3
EdgeColorOff
350
352
  3
Facepattern
350
349
  3
Flat
350
33B
  3
FlatWithEdges
350
33C
  3
Gouraud
350
33D
  3
GouraudWithEdges
350
33E
  3
Hidden
350
342
  3
JitterOff
350
350
  3
Linepattern
350
348
  3
OverhangOff
350
351
  3
Realistic
350
344
  3
Shaded
350
34F
  3
Shaded with edges
350
34E
  3
Shades of Gray
350
34B
  3
Sketchy
350
34C
  3
Thicken
350
347
  3
Wireframe
350
341
  3
X-Ray
350
34D
  0
XRECORD
  5
3A8
102
{ACAD_REACTORS
330
31D
102
}
330
31D
100
AcDbXrecord
280
     1
 90
        1
330
375
  0
DICTIONARY
  5
39E
102
{ACAD_REACTORS
330
31D
102
}
330
31D
100
AcDbDictionary
281
     1
  3
CANNOSCALE
350
3A1
  3
CMLEADERSTYLE
350
3A0
  3
CTABLESTYLE
350
39F
  3
DIMASSOC
350
3A4
  3
INDEXCTL
350
3A3
  3
SORTENTS
350
3A2
  3
XCLIPFRAME
350
3A5
  0
XRECORD
  5
3A9
102
{ACAD_REACTORS
330
31D
102
}
330
31D
100
AcDbXrecord
280
     1
  1
DWGPROPS COOKIE
  2

  3

  4

  6

  7

  8
sasaki_n
  9

300
=
301
=
302
=
303
=
304
=
305
=
306
=
307
=
308
=
309
=
 40
0.0002771412037037
 41
2455618.598564815
 42
2455618.617016273
  1

 90
        0
  0
XRECORD
  5
395
102
{ACAD_REACTORS
330
394
102
}
330
394
100
AcDbXrecord
280
     1
290
     1
  0
XRECORD
  5
397
102
{ACAD_REACTORS
330
396
102
}
330
396
100
AcDbXrecord
280
     1
290
     1
  0
XRECORD
  5
399
102
{ACAD_REACTORS
330
398
102
}
330
398
100
AcDbXrecord
280
     1
290
     1
  0
XRECORD
  5
39B
102
{ACAD_REACTORS
330
39A
102
}
330
39A
100
AcDbXrecord
280
     1
290
     1
  0
XRECORD
  5
39D
102
{ACAD_REACTORS
330
39C
102
}
330
39C
100
AcDbXrecord
280
     1
290
     1
  0
LAYOUT
  5
37F
102
{ACAD_XDICTIONARY
360
3E1
102
}
102
{ACAD_REACTORS
330
372
102
}
330
372
100
AcDbPlotSettings
  1

  2
Microsoft XPS Document Writer
  4

  6

 40
0.0
 41
0.0
 42
0.0
 43
0.0
 44
0.0
 45
0.0
 46
0.0
 47
0.0
 48
0.0
 49
0.0
140
0.0
141
0.0
142
1.0
143
1.0
 70
  1712
 72
     0
 73
     0
 74
     0
  7

 75
     0
147
1.0
148
0.0
149
0.0
100
AcDbLayout
  1
Model
 70
     1
 71
     0
 10
0.0
 20
0.0
 11
12.0
 21
9.0
 12
0.0
 22
0.0
 32
0.0
 14
0.0
 24
0.0
 34
0.0
 15
0.0
 25
0.0
 35
0.0
146
0.0
 13
0.0
 23
0.0
 33
0.0
 16
1.0
 26
0.0
 36
0.0
 17
0.0
 27
1.0
 37
0.0
 76
     0
330
37C
331
381
  0
LAYOUT
  5
37B
102
{ACAD_XDICTIONARY
360
3DF
102
}
102
{ACAD_REACTORS
330
372
102
}
330
372
100
AcDbPlotSettings
  1

  2
Microsoft XPS Document Writer
  4

  6

 40
0.0
 41
0.0
 42
0.0
 43
0.0
 44
0.0
 45
0.0
 46
0.0
 47
0.0
 48
0.0
 49
0.0
140
0.0
141
0.0
142
1.0
143
1.0
 70
   688
 72
     0
 73
     0
 74
     5
  7

 75
    16
147
1.0
148
0.0
149
0.0
100
AcDbLayout
  1
レイアウト1
 70
     0
 71
     1
 10
0.0
 20
0.0
 11
12.0
 21
9.0
 12
0.0
 22
0.0
 32
0.0
 14
1.000000000000000E+20
 24
1.000000000000000E+20
 34
1.000000000000000E+20
 15
-1.000000000000000E+20
 25
-1.000000000000000E+20
 35
-1.000000000000000E+20
146
0.0
 13
0.0
 23
0.0
 33
0.0
 16
1.0
 26
0.0
 36
0.0
 17
0.0
 27
1.0
 37
0.0
 76
     0
330
378
  0
MATERIAL
  5
32A
102
{ACAD_XDICTIONARY
360
32B
102
}
102
{ACAD_REACTORS
330
321
102
}
330
321
100
AcDbMaterial
  1
ByBlock
 72
     0
 43
0.0208333333333333
 43
0.0
 43
0.0
 43
0.0
 43
0.0
 43
0.0208333333333333
 43
0.0
 43
0.0
 43
0.0
 43
0.0
 43
1.0
 43
0.0
 43
0.0
 43
0.0
 43
0.0
 43
1.0
 77
     0
 47
0.0208333333333333
 47
0.0
 47
0.0
 47
0.0
 47
0.0
 47
0.0208333333333333
 47
0.0
 47
0.0
 47
0.0
 47
0.0
 47
1.0
 47
0.0
 47
0.0
 47
0.0
 47
0.0
 47
1.0
171
     0
 49
0.0208333333333333
 49
0.0
 49
0.0
 49
0.0
 49
0.0
 49
0.0208333333333333
 49
0.0
 49
0.0
 49
0.0
 49
0.0
 49
1.0
 49
0.0
 49
0.0
 49
0.0
 49
0.0
 49
1.0
175
     0
142
0.0208333333333333
142
0.0
142
0.0
142
0.0
142
0.0
142
0.0208333333333333
142
0.0
142
0.0
142
0.0
142
0.0
142
1.0
142
0.0
142
0.0
142
0.0
142
0.0
142
1.0
179
     0
144
0.0208333333333333
144
0.0
144
0.0
144
0.0
144
0.0
144
0.0208333333333333
144
0.0
144
0.0
144
0.0
144
0.0
144
1.0
144
0.0
144
0.0
144
0.0
144
0.0
144
1.0
147
0.0208333333333333
147
0.0
147
0.0
147
0.0
147
0.0
147
0.0208333333333333
147
0.0
147
0.0
147
0.0
147
0.0
147
1.0
147
0.0
147
0.0
147
0.0
147
0.0
147
1.0
  0
MATERIAL
  5
322
102
{ACAD_XDICTIONARY
360
323
102
}
102
{ACAD_REACTORS
330
321
102
}
330
321
100
AcDbMaterial
  1
ByLayer
 72
     0
 43
0.0208333333333333
 43
0.0
 43
0.0
 43
0.0
 43
0.0
 43
0.0208333333333333
 43
0.0
 43
0.0
 43
0.0
 43
0.0
 43
1.0
 43
0.0
 43
0.0
 43
0.0
 43
0.0
 43
1.0
 77
     0
 47
0.0208333333333333
 47
0.0
 47
0.0
 47
0.0
 47
0.0
 47
0.0208333333333333
 47
0.0
 47
0.0
 47
0.0
 47
0.0
 47
1.0
 47
0.0
 47
0.0
 47
0.0
 47
0.0
 47
1.0
171
     0
 49
0.0208333333333333
 49
0.0
 49
0.0
 49
0.0
 49
0.0
 49
0.0208333333333333
 49
0.0
 49
0.0
 49
0.0
 49
0.0
 49
1.0
 49
0.0
 49
0.0
 49
0.0
 49
0.0
 49
1.0
175
     0
142
0.0208333333333333
142
0.0
142
0.0
142
0.0
142
0.0
142
0.0208333333333333
142
0.0
142
0.0
142
0.0
142
0.0
142
1.0
142
0.0
142
0.0
142
0.0
142
0.0
142
1.0
179
     0
144
0.0208333333333333
144
0.0
144
0.0
144
0.0
144
0.0
144
0.0208333333333333
144
0.0
144
0.0
144
0.0
144
0.0
144
1.0
144
0.0
144
0.0
144
0.0
144
0.0
144
1.0
147
0.0208333333333333
147
0.0
147
0.0
147
0.0
147
0.0
147
0.0208333333333333
147
0.0
147
0.0
147
0.0
147
0.0
147
1.0
147
0.0
147
0.0
147
0.0
147
0.0
147
1.0
  0
MATERIAL
  5
332
102
{ACAD_XDICTIONARY
360
333
102
}
102
{ACAD_REACTORS
330
321
102
}
330
321
100
AcDbMaterial
  1
Global
 72
     0
 43
0.0208333333333333
 43
0.0
 43
0.0
 43
0.0
 43
0.0
 43
0.0208333333333333
 43
0.0
 43
0.0
 43
0.0
 43
0.0
 43
1.0
 43
0.0
 43
0.0
 43
0.0
 43
0.0
 43
1.0
 77
     0
 47
0.0208333333333333
 47
0.0
 47
0.0
 47
0.0
 47
0.0
 47
0.0208333333333333
 47
0.0
 47
0.0
 47
0.0
 47
0.0
 47
1.0
 47
0.0
 47
0.0
 47
0.0
 47
0.0
 47
1.0
171
     0
 49
0.0208333333333333
 49
0.0
 49
0.0
 49
0.0
 49
0.0
 49
0.0208333333333333
 49
0.0
 49
0.0
 49
0.0
 49
0.0
 49
1.0
 49
0.0
 49
0.0
 49
0.0
 49
0.0
 49
1.0
175
     0
142
0.0208333333333333
142
0.0
142
0.0
142
0.0
142
0.0
142
0.0208333333333333
142
0.0
142
0.0
142
0.0
142
0.0
142
1.0
142
0.0
142
0.0
142
0.0
142
0.0
142
1.0
179
     0
144
0.0208333333333333
144
0.0
144
0.0
144
0.0
144
0.0
144
0.0208333333333333
144
0.0
144
0.0
144
0.0
144
0.0
144
1.0
144
0.0
144
0.0
144
0.0
144
0.0
144
1.0
147
0.0208333333333333
147
0.0
147
0.0
147
0.0
147
0.0
147
0.0208333333333333
147
0.0
147
0.0
147
0.0
147
0.0
147
1.0
147
0.0
147
0.0
147
0.0
147
0.0
147
1.0
  0
MLEADERSTYLE
  5
377
102
{ACAD_REACTORS
330
376
102
}
330
376
100
AcDbMLeaderStyle
170
     2
171
     1
172
     0
 90
        2
 40
0.0
 41
0.0
173
     1
 91
-1056964608
340
36B
 92
       -2
290
     1
 42
0.09
291
     1
 43
0.36
  3
Standard
 44
0.18
300

342
366
174
     1
178
     6
175
     1
176
     0
 93
-1056964608
 45
0.18
292
     0
297
     0
 46
0.18
 94
-1056964608
 47
1.0
 49
1.0
140
1.0
293
     1
141
0.0
294
     1
177
     0
142
1.0
295
     0
296
     0
143
0.125
1001
ACAD_MLEADERVER
1070
     2
  0
MLINESTYLE
  5
370
102
{ACAD_REACTORS
330
36F
102
}
330
36F
100
AcDbMlineStyle
  2
STANDARD
 70
     0
  3

 62
   256
 51
90.0
 52
90.0
 71
     2
 49
0.5
 62
   256
  6
BYLAYER
 49
-0.5
 62
   256
  6
BYLAYER
  0
ACDBPLACEHOLDER
  5
320
102
{ACAD_REACTORS
330
31F
102
}
330
31F
  0
SCALE
  5
354
102
{ACAD_REACTORS
330
353
102
}
330
353
100
AcDbScale
 70
     0
300
1:1
140
1.0
141
1.0
290
     1
  0
SCALE
  5
355
102
{ACAD_REACTORS
330
353
102
}
330
353
100
AcDbScale
 70
     0
300
1/128" = 1'-0"
140
0.0078125
141
12.0
290
     0
  0
SCALE
  5
356
102
{ACAD_REACTORS
330
353
102
}
330
353
100
AcDbScale
 70
     0
300
1/64" = 1'-0"
140
0.015625
141
12.0
290
     0
  0
SCALE
  5
357
102
{ACAD_REACTORS
330
353
102
}
330
353
100
AcDbScale
 70
     0
300
1/32" = 1'-0"
140
0.03125
141
12.0
290
     0
  0
SCALE
  5
358
102
{ACAD_REACTORS
330
353
102
}
330
353
100
AcDbScale
 70
     0
300
1/16" = 1'-0"
140
0.0625
141
12.0
290
     0
  0
SCALE
  5
359
102
{ACAD_REACTORS
330
353
102
}
330
353
100
AcDbScale
 70
     0
300
3/32" = 1'-0"
140
0.09375
141
12.0
290
     0
  0
SCALE
  5
35A
102
{ACAD_REACTORS
330
353
102
}
330
353
100
AcDbScale
 70
     0
300
1/8" = 1'-0"
140
0.125
141
12.0
290
     0
  0
SCALE
  5
35B
102
{ACAD_REACTORS
330
353
102
}
330
353
100
AcDbScale
 70
     0
300
3/16" = 1'-0"
140
0.1875
141
12.0
290
     0
  0
SCALE
  5
35C
102
{ACAD_REACTORS
330
353
102
}
330
353
100
AcDbScale
 70
     0
300
1/4" = 1'-0"
140
0.25
141
12.0
290
     0
  0
SCALE
  5
35D
102
{ACAD_REACTORS
330
353
102
}
330
353
100
AcDbScale
 70
     0
300
3/8" = 1'-0"
140
0.375
141
12.0
290
     0
  0
SCALE
  5
35E
102
{ACAD_REACTORS
330
353
102
}
330
353
100
AcDbScale
 70
     0
300
1/2" = 1'-0"
140
0.5
141
12.0
290
     0
  0
SCALE
  5
35F
102
{ACAD_REACTORS
330
353
102
}
330
353
100
AcDbScale
 70
     0
300
3/4" = 1'-0"
140
0.75
141
12.0
290
     0
  0
SCALE
  5
360
102
{ACAD_REACTORS
330
353
102
}
330
353
100
AcDbScale
 70
     0
300
1" = 1'-0"
140
1.0
141
12.0
290
     0
  0
SCALE
  5
361
102
{ACAD_REACTORS
330
353
102
}
330
353
100
AcDbScale
 70
     0
300
1-1/2" = 1'-0"
140
1.5
141
12.0
290
     0
  0
SCALE
  5
362
102
{ACAD_REACTORS
330
353
102
}
330
353
100
AcDbScale
 70
     0
300
3" = 1'-0"
140
3.0
141
12.0
290
     0
  0
SCALE
  5
363
102
{ACAD_REACTORS
330
353
102
}
330
353
100
AcDbScale
 70
     0
300
6" = 1'-0"
140
6.0
141
12.0
290
     0
  0
SCALE
  5
364
102
{ACAD_REACTORS
330
353
102
}
330
353
100
AcDbScale
 70
     0
300
1'-0" = 1'-0"
140
12.0
141
12.0
290
     0
  0
TABLESTYLE
  5
375
102
{ACAD_XDICTIONARY
360
3A6
102
}
102
{ACAD_REACTORS
330
374
102
}
330
374
100
AcDbTableStyle
  3
Standard
 70
     0
 71
     0
 40
0.06
 41
0.06
280
     0
281
     0
  7
STANDARD
140
0.18
170
     2
 62
     0
 63
     7
283
     0
274
    -2
284
     1
 64
     0
275
    -2
285
     1
 65
     0
276
    -2
286
     1
 66
     0
277
    -2
287
     1
 67
     0
278
    -2
288
     1
 68
     0
279
    -2
289
     1
 69
     0
  7
STANDARD
140
0.25
170
     5
 62
     0
 63
     7
283
     0
274
    -2
284
     1
 64
     0
275
    -2
285
     1
 65
     0
276
    -2
286
     1
 66
     0
277
    -2
287
     1
 67
     0
278
    -2
288
     1
 68
     0
279
    -2
289
     1
 69
     0
  7
STANDARD
140
0.18
170
     5
 62
     0
 63
     7
283
     0
274
    -2
284
     1
 64
     0
275
    -2
285
     1
 65
     0
276
    -2
286
     1
 66
     0
277
    -2
287
     1
 67
     0
278
    -2
288
     1
 68
     0
279
    -2
289
     1
 69
     0
  0
VISUALSTYLE
  5
340
102
{ACAD_XDICTIONARY
360
3B7
102
}
102
{ACAD_REACTORS
330
33A
102
}
330
33A
100
AcDbVisualStyle
  2
2dWireframe
 70
     4
 71
     0
 72
     2
 73
     0
 90
        0
 40
-0.6
 41
-30.0
 62
     5
 63
     7
 74
     1
 91
        4
 64
     7
 65
   257
 75
     1
175
     1
 42
1.0
 92
        0
 66
   257
 43
1.0
 76
     1
 77
     6
 78
     2
 67
     7
 79
     5
170
     0
171
     0
290
     0
174
     0
 93
        1
 44
0.0
173
     0
291
     0
 45
0.0
1001
ACAD
1000
AcDbSavedByObjectVersion
1070
     0
  0
VISUALSTYLE
  5
33F
102
{ACAD_XDICTIONARY
360
3B5
102
}
102
{ACAD_REACTORS
330
33A
102
}
330
33A
100
AcDbVisualStyle
  2
Basic
 70
     7
 71
     1
 72
     0
 73
     1
 90
        0
 40
-0.6
 41
-30.0
 62
     5
 63
     7
 74
     0
 91
        4
 64
     7
 65
   257
 75
     1
175
     1
 42
1.0
 92
        8
 66
     7
 43
1.0
 76
     1
 77
     6
 78
     2
 67
     7
 79
     5
170
     0
171
     0
290
     0
174
     0
 93
        1
 44
0.0
173
     0
291
     1
 45
0.0
1001
ACAD
1000
AcDbSavedByObjectVersion
1070
     0
  0
VISUALSTYLE
  5
346
102
{ACAD_XDICTIONARY
360
3C3
102
}
102
{ACAD_REACTORS
330
33A
102
}
330
33A
100
AcDbVisualStyle
  2
Brighten
 70
    12
 71
     2
 72
     2
 73
     0
 90
        0
 40
-0.6
 41
-30.0
 62
     5
 63
     7
 74
     1
 91
        4
 64
     7
 65
   257
 75
     1
175
     1
 42
1.0
 92
        8
 66
     7
 43
1.0
 76
     1
 77
     6
 78
     2
 67
     7
 79
     5
170
     0
171
     0
290
     0
174
     0
 93
        1
 44
50.0
173
     0
291
     1
 45
0.0
1001
ACAD
1000
AcDbSavedByObjectVersion
1070
     0
  0
VISUALSTYLE
  5
34A
102
{ACAD_XDICTIONARY
360
3CB
102
}
102
{ACAD_REACTORS
330
33A
102
}
330
33A
100
AcDbVisualStyle
  2
ColorChange
 70
    16
 71
     2
 72
     2
 73
     3
 90
        0
 40
-0.6
 41
-30.0
 62
     5
 63
     8
 74
     1
 91
        4
 64
     7
 65
   257
 75
     1
175
     1
 42
1.0
 92
        8
 66
     8
 43
1.0
 76
     1
 77
     6
 78
     2
 67
     7
 79
     5
170
     0
171
     0
290
     0
174
     0
 93
        1
 44
0.0
173
     0
291
     1
 45
0.0
1001
ACAD
1000
AcDbSavedByObjectVersion
1070
     0
  0
VISUALSTYLE
  5
343
102
{ACAD_XDICTIONARY
360
3BD
102
}
102
{ACAD_REACTORS
330
33A
102
}
330
33A
100
AcDbVisualStyle
  2
Conceptual
 70
     9
 71
     3
 72
     2
 73
     0
 90
        0
 40
-0.6
 41
-30.0
 62
     5
 63
     7
 74
     2
 91
        2
 64
     7
 65
   257
 75
     1
175
     1
 42
179.0
 92
        8
 66
     7
 43
1.0
 76
     1
 77
     6
 78
     2
 67
     7
 79
     3
170
     0
171
     0
290
     0
174
     0
 93
        1
 44
0.0
173
     0
291
     0
 45
0.0
1001
ACAD
1000
AcDbSavedByObjectVersion
1070
     0
  0
VISUALSTYLE
  5
345
102
{ACAD_XDICTIONARY
360
3C1
102
}
102
{ACAD_REACTORS
330
33A
102
}
330
33A
100
AcDbVisualStyle
  2
Dim
 70
    11
 71
     2
 72
     2
 73
     0
 90
        0
 40
-0.6
 41
-30.0
 62
     5
 63
     7
 74
     1
 91
        4
 64
     7
 65
   257
 75
     1
175
     1
 42
1.0
 92
        8
 66
     7
 43
1.0
 76
     1
 77
     6
 78
     2
 67
     7
 79
     5
170
     0
171
     0
290
     0
174
     0
 93
        1
 44
-50.0
173
     0
291
     1
 45
0.0
1001
ACAD
1000
AcDbSavedByObjectVersion
1070
     0
  0
VISUALSTYLE
  5
352
102
{ACAD_XDICTIONARY
360
3DB
102
}
102
{ACAD_REACTORS
330
33A
102
}
330
33A
100
AcDbVisualStyle
  2
EdgeColorOff
 70
    22
 71
     2
 72
     2
 73
     0
 90
        0
 40
-0.6
 41
-30.0
 62
     5
 63
     7
 74
     1
 91
        4
 64
     7
 65
   257
 75
     1
175
     1
 42
1.0
 92
        8
 66
     7
 43
1.0
 76
     1
 77
     6
 78
     2
 67
     7
 79
     5
170
     0
171
     0
290
     0
174
     0
 93
        1
 44
0.0
173
     0
291
     1
 45
0.0
1001
ACAD
1000
AcDbSavedByObjectVersion
1070
     0
  0
VISUALSTYLE
  5
349
102
{ACAD_XDICTIONARY
360
3C9
102
}
102
{ACAD_REACTORS
330
33A
102
}
330
33A
100
AcDbVisualStyle
  2
Facepattern
 70
    15
 71
     2
 72
     2
 73
     0
 90
        0
 40
-0.6
 41
-30.0
 62
     5
 63
     7
 74
     1
 91
        4
 64
     7
 65
   257
 75
     1
175
     1
 42
1.0
 92
        8
 66
     7
 43
1.0
 76
     1
 77
     6
 78
     2
 67
     7
 79
     5
170
     0
171
     0
290
     0
174
     0
 93
        1
 44
0.0
173
     0
291
     1
 45
0.0
1001
ACAD
1000
AcDbSavedByObjectVersion
1070
     0
  0
VISUALSTYLE
  5
33B
102
{ACAD_XDICTIONARY
360
3AD
102
}
102
{ACAD_REACTORS
330
33A
102
}
330
33A
100
AcDbVisualStyle
  2
Flat
 70
     0
 71
     2
 72
     1
 73
     1
 90
        2
 40
-0.6
 41
30.0
 62
     5
 63
     7
 74
     0
 91
        0
 64
     7
 65
   257
 75
     1
175
     1
 42
1.0
 92
        8
 66
     7
 43
1.0
 76
     1
 77
     6
 78
     2
 67
     7
 79
     5
170
     0
171
     0
290
     0
174
     0
 93
       13
 44
0.0
173
     0
291
     1
 45
0.0
1001
ACAD
1000
AcDbSavedByObjectVersion
1070
     0
  0
VISUALSTYLE
  5
33C
102
{ACAD_XDICTIONARY
360
3AF
102
}
102
{ACAD_REACTORS
330
33A
102
}
330
33A
100
AcDbVisualStyle
  2
FlatWithEdges
 70
     1
 71
     2
 72
     1
 73
     1
 90
        2
 40
-0.6
 41
30.0
 62
     5
 63
     7
 74
     1
 91
        0
 64
     7
 65
   257
 75
     1
175
     1
 42
1.0
 92
        0
 66
   257
 43
1.0
 76
     1
 77
     6
 78
     2
 67
     7
 79
     5
170
     0
171
     0
290
     0
174
     0
 93
       13
 44
0.0
173
     0
291
     1
 45
0.0
1001
ACAD
1000
AcDbSavedByObjectVersion
1070
     0
  0
VISUALSTYLE
  5
33D
102
{ACAD_XDICTIONARY
360
3B1
102
}
102
{ACAD_REACTORS
330
33A
102
}
330
33A
100
AcDbVisualStyle
  2
Gouraud
 70
     2
 71
     2
 72
     2
 73
     1
 90
        2
 40
-0.6
 41
30.0
 62
     5
 63
     7
 74
     0
 91
        0
 64
     7
 65
   257
 75
     1
175
     1
 42
1.0
 92
        0
 66
     7
 43
1.0
 76
     1
 77
     6
 78
     2
 67
     7
 79
     5
170
     0
171
     0
290
     0
174
     0
 93
       13
 44
0.0
173
     0
291
     1
 45
0.0
1001
ACAD
1000
AcDbSavedByObjectVersion
1070
     0
  0
VISUALSTYLE
  5
33E
102
{ACAD_XDICTIONARY
360
3B3
102
}
102
{ACAD_REACTORS
330
33A
102
}
330
33A
100
AcDbVisualStyle
  2
GouraudWithEdges
 70
     3
 71
     2
 72
     2
 73
     1
 90
        2
 40
-0.6
 41
30.0
 62
     5
 63
     7
 74
     1
 91
        0
 64
     7
 65
   257
 75
     1
175
     1
 42
1.0
 92
        0
 66
   257
 43
1.0
 76
     1
 77
     6
 78
     2
 67
     7
 79
     5
170
     0
171
     0
290
     0
174
     0
 93
       13
 44
0.0
173
     0
291
     1
 45
0.0
1001
ACAD
1000
AcDbSavedByObjectVersion
1070
     0
  0
VISUALSTYLE
  5
342
102
{ACAD_XDICTIONARY
360
3BB
102
}
102
{ACAD_REACTORS
330
33A
102
}
330
33A
100
AcDbVisualStyle
  2
Hidden
 70
     6
 71
     1
 72
     2
 73
     2
 90
        0
 40
-0.6
 41
-30.0
 62
     5
 63
     7
 74
     2
 91
        2
 64
     7
 65
   257
 75
     2
175
     1
 42
40.0
 92
        0
 66
   257
 43
1.0
 76
     1
 77
     6
 78
     2
 67
     7
 79
     3
170
     0
171
     0
290
     0
174
     0
 93
        1
 44
0.0
173
     0
291
     0
 45
0.0
1001
ACAD
1000
AcDbSavedByObjectVersion
1070
     0
  0
VISUALSTYLE
  5
350
102
{ACAD_XDICTIONARY
360
3D7
102
}
102
{ACAD_REACTORS
330
33A
102
}
330
33A
100
AcDbVisualStyle
  2
JitterOff
 70
    20
 71
     2
 72
     2
 73
     0
 90
        0
 40
-0.6
 41
-30.0
 62
     5
 63
     7
 74
     1
 91
        4
 64
     7
 65
   257
 75
     1
175
     1
 42
1.0
 92
       10
 66
     7
 43
1.0
 76
     1
 77
     6
 78
     2
 67
     7
 79
     5
170
     0
171
     0
290
     0
174
     0
 93
        1
 44
0.0
173
     0
291
     1
 45
0.0
1001
ACAD
1000
AcDbSavedByObjectVersion
1070
     0
  0
VISUALSTYLE
  5
348
102
{ACAD_XDICTIONARY
360
3C7
102
}
102
{ACAD_REACTORS
330
33A
102
}
330
33A
100
AcDbVisualStyle
  2
Linepattern
 70
    14
 71
     2
 72
     2
 73
     0
 90
        0
 40
-0.6
 41
-30.0
 62
     5
 63
     7
 74
     1
 91
        4
 64
     7
 65
   257
 75
     7
175
     7
 42
1.0
 92
        8
 66
     7
 43
1.0
 76
     1
 77
     6
 78
     2
 67
     7
 79
     5
170
     0
171
     0
290
     0
174
     0
 93
        1
 44
0.0
173
     0
291
     1
 45
0.0
1001
ACAD
1000
AcDbSavedByObjectVersion
1070
     0
  0
VISUALSTYLE
  5
351
102
{ACAD_XDICTIONARY
360
3D9
102
}
102
{ACAD_REACTORS
330
33A
102
}
330
33A
100
AcDbVisualStyle
  2
OverhangOff
 70
    21
 71
     2
 72
     2
 73
     0
 90
        0
 40
-0.6
 41
-30.0
 62
     5
 63
     7
 74
     1
 91
        4
 64
     7
 65
   257
 75
     1
175
     1
 42
1.0
 92
        9
 66
     7
 43
1.0
 76
     1
 77
     6
 78
     2
 67
     7
 79
     5
170
     0
171
     0
290
     0
174
     0
 93
        1
 44
0.0
173
     0
291
     1
 45
0.0
1001
ACAD
1000
AcDbSavedByObjectVersion
1070
     0
  0
VISUALSTYLE
  5
344
102
{ACAD_XDICTIONARY
360
3BF
102
}
102
{ACAD_REACTORS
330
33A
102
}
330
33A
100
AcDbVisualStyle
  2
Realistic
 70
     8
 71
     2
 72
     3
 73
     0
 90
        2
 40
-0.6
 41
30.0
 62
     5
 63
     7
 74
     0
 91
        0
 64
     7
 65
   257
 75
     1
175
     1
 42
1.0
 92
        8
 66
   257
 43
1.0
 76
     1
 77
     6
 78
     2
 67
     7
 79
     3
170
     0
171
     0
290
     0
174
     0
 93
       13
 44
0.0
173
     0
291
     0
 45
0.0
1001
ACAD
1000
AcDbSavedByObjectVersion
1070
     0
  0
VISUALSTYLE
  5
34F
102
{ACAD_XDICTIONARY
360
3D5
102
}
102
{ACAD_REACTORS
330
33A
102
}
330
33A
100
AcDbVisualStyle
  2
Shaded
 70
    27
 71
     2
 72
     2
 73
     1
 90
        2
 40
-0.6
 41
30.0
 62
     5
 63
     7
 74
     0
 91
        4
 64
     7
 65
   257
 75
     1
175
     1
 42
1.0
 92
        8
 66
   257
 43
1.0
 76
     1
 77
     6
 78
     2
 67
     8
 79
     3
170
     0
171
     0
290
     0
174
     0
 93
        5
 44
0.0
173
     0
291
     0
 45
0.0
1001
ACAD
1000
AcDbSavedByObjectVersion
1070
     0
  0
VISUALSTYLE
  5
34E
102
{ACAD_XDICTIONARY
360
3D3
102
}
102
{ACAD_REACTORS
330
33A
102
}
330
33A
100
AcDbVisualStyle
  2
Shaded with edges
 70
    26
 71
     2
 72
     2
 73
     1
 90
        2
 40
-0.6
 41
30.0
 62
     5
 63
     7
 74
     1
 91
       10
 64
     7
 65
   257
 75
     2
175
     1
 42
1.0
 92
        8
 66
   257
 43
1.0
 76
     1
 77
     6
 78
     2
 67
     7
 79
     3
170
     0
171
     0
290
     0
174
     0
 93
        5
 44
0.0
173
     0
291
     0
 45
0.0
1001
ACAD
1000
AcDbSavedByObjectVersion
1070
     0
  0
VISUALSTYLE
  5
34B
102
{ACAD_XDICTIONARY
360
3CD
102
}
102
{ACAD_REACTORS
330
33A
102
}
330
33A
100
AcDbVisualStyle
  2
Shades of Gray
 70
    23
 71
     2
 72
     2
 73
     3
 90
        0
 40
-0.6
 41
-30.0
 62
     5
 63
     7
 74
     2
 91
        2
 64
     7
 65
     7
 75
     1
175
     1
 42
40.0
 92
        8
 66
     7
 43
1.0
 76
     1
 77
     6
 78
     2
 67
     7
 79
     3
170
     0
171
     0
290
     0
174
     0
 93
        1
 44
0.0
173
     0
291
     0
 45
0.0
1001
ACAD
1000
AcDbSavedByObjectVersion
1070
     0
  0
VISUALSTYLE
  5
34C
102
{ACAD_XDICTIONARY
360
3CF
102
}
102
{ACAD_REACTORS
330
33A
102
}
330
33A
100
AcDbVisualStyle
  2
Sketchy
 70
    24
 71
     1
 72
     2
 73
     2
 90
        0
 40
-0.6
 41
-30.0
 62
     5
 63
     7
 74
     2
 91
        2
 64
     7
 65
     7
 75
     1
175
     1
 42
40.0
 92
       11
 66
     7
 43
1.0
 76
     1
 77
     6
 78
     2
 67
     7
 79
     6
170
     0
171
     0
290
     0
174
     0
 93
        1
 44
0.0
173
     0
291
     0
 45
0.0
1001
ACAD
1000
AcDbSavedByObjectVersion
1070
     0
  0
VISUALSTYLE
  5
347
102
{ACAD_XDICTIONARY
360
3C5
102
}
102
{ACAD_REACTORS
330
33A
102
}
330
33A
100
AcDbVisualStyle
  2
Thicken
 70
    13
 71
     2
 72
     2
 73
     0
 90
        0
 40
-0.6
 41
-30.0
 62
     5
 63
     7
 74
     1
 91
        4
 64
     7
 65
   257
 75
     1
175
     1
 42
1.0
 92
       12
 66
     7
 43
1.0
 76
     1
 77
     6
 78
     2
 67
     7
 79
     5
170
     0
171
     0
290
     0
174
     0
 93
        1
 44
0.0
173
     0
291
     1
 45
0.0
1001
ACAD
1000
AcDbSavedByObjectVersion
1070
     0
  0
VISUALSTYLE
  5
341
102
{ACAD_XDICTIONARY
360
3B9
102
}
102
{ACAD_REACTORS
330
33A
102
}
330
33A
100
AcDbVisualStyle
  2
Wireframe
 70
     5
 71
     0
 72
     2
 73
     0
 90
        0
 40
-0.6
 41
-30.0
 62
     5
 63
     7
 74
     1
 91
        4
 64
     7
 65
   257
 75
     1
175
     1
 42
1.0
 92
        0
 66
   257
 43
1.0
 76
     1
 77
     6
 78
     2
 67
     7
 79
     3
170
     0
171
     0
290
     0
174
     0
 93
        1
 44
0.0
173
     0
291
     0
 45
0.0
1001
ACAD
1000
AcDbSavedByObjectVersion
1070
     0
  0
VISUALSTYLE
  5
34D
102
{ACAD_XDICTIONARY
360
3D1
102
}
102
{ACAD_REACTORS
330
33A
102
}
330
33A
100
AcDbVisualStyle
  2
X-Ray
 70
    25
 71
     2
 72
     2
 73
     1
 90
        1
 40
0.5
 41
-30.0
 62
     5
 63
     7
 74
     1
 91
        0
 64
     7
 65
   257
 75
     1
175
     1
 42
1.0
 92
        8
 66
     7
 43
1.0
 76
     1
 77
     6
 78
     2
 67
     7
 79
     3
170
     0
171
     0
290
     0
174
     0
 93
       13
 44
0.0
173
     0
291
     0
 45
0.0
1001
ACAD
1000
AcDbSavedByObjectVersion
1070
     0
  0
DICTIONARYVAR
  5
3A1
102
{ACAD_REACTORS
330
39E
102
}
330
39E
100
DictionaryVariables
280
     0
  1
1:1
  0
DICTIONARYVAR
  5
3A0
102
{ACAD_REACTORS
330
39E
102
}
330
39E
100
DictionaryVariables
280
     0
  1
STANDARD
  0
DICTIONARYVAR
  5
39F
102
{ACAD_REACTORS
330
39E
102
}
330
39E
100
DictionaryVariables
280
     0
  1
STANDARD
  0
DICTIONARYVAR
  5
3A4
102
{ACAD_REACTORS
330
39E
102
}
330
39E
100
DictionaryVariables
280
     0
  1
1
  0
DICTIONARYVAR
  5
3A3
102
{ACAD_REACTORS
330
39E
102
}
330
39E
100
DictionaryVariables
280
     0
  1
0
  0
DICTIONARYVAR
  5
3A2
102
{ACAD_REACTORS
330
39E
102
}
330
39E
100
DictionaryVariables
280
     0
  1
127
  0
DICTIONARYVAR
  5
3A5
102
{ACAD_REACTORS
330
39E
102
}
330
39E
100
DictionaryVariables
280
     0
  1
2
  0
DICTIONARY
  5
3E1
330
37F
100
AcDbDictionary
280
     1
281
     1
  3
ACAD_XREC_ROUNDTRIP
360
3E2
  0
DICTIONARY
  5
3DF
330
37B
100
AcDbDictionary
280
     1
281
     1
  3
ACAD_XREC_ROUNDTRIP
360
3E0
  0
DICTIONARY
  5
32B
330
32A
100
AcDbDictionary
280
     1
281
     1
  3
ACAD_XREC_ROUNDTRIP
360
3AB
  3
BUMPTILE
360
32D
  3
DIFFUSETILE
360
32C
  3
OPACITYTILE
360
330
  3
REFLECTIONTILE
360
32F
  3
REFRACTIONTILE
360
331
  3
SPECULARTILE
360
32E
  0
DICTIONARY
  5
323
330
322
100
AcDbDictionary
280
     1
281
     1
  3
ACAD_XREC_ROUNDTRIP
360
3AA
  3
BUMPTILE
360
325
  3
DIFFUSETILE
360
324
  3
OPACITYTILE
360
328
  3
REFLECTIONTILE
360
327
  3
REFRACTIONTILE
360
329
  3
SPECULARTILE
360
326
  0
DICTIONARY
  5
333
330
332
100
AcDbDictionary
280
     1
281
     1
  3
ACAD_XREC_ROUNDTRIP
360
3AC
  3
BUMPTILE
360
335
  3
DIFFUSETILE
360
334
  3
OPACITYTILE
360
338
  3
REFLECTIONTILE
360
337
  3
REFRACTIONTILE
360
339
  3
SPECULARTILE
360
336
  0
DICTIONARY
  5
3A6
330
375
100
AcDbDictionary
280
     1
281
     1
  3
ACAD_ROUNDTRIP_2008_TABLESTYLE_CELLSTYLEMAP
360
3A7
  3
ACAD_XREC_ROUNDTRIP
360
3DD
  0
DICTIONARY
  5
3B7
330
340
100
AcDbDictionary
280
     1
281
     1
  3
ACAD_XREC_ROUNDTRIP
360
3B8
  0
DICTIONARY
  5
3B5
330
33F
100
AcDbDictionary
280
     1
281
     1
  3
ACAD_XREC_ROUNDTRIP
360
3B6
  0
DICTIONARY
  5
3C3
330
346
100
AcDbDictionary
280
     1
281
     1
  3
ACAD_XREC_ROUNDTRIP
360
3C4
  0
DICTIONARY
  5
3CB
330
34A
100
AcDbDictionary
280
     1
281
     1
  3
ACAD_XREC_ROUNDTRIP
360
3CC
  0
DICTIONARY
  5
3BD
330
343
100
AcDbDictionary
280
     1
281
     1
  3
ACAD_XREC_ROUNDTRIP
360
3BE
  0
DICTIONARY
  5
3C1
330
345
100
AcDbDictionary
280
     1
281
     1
  3
ACAD_XREC_ROUNDTRIP
360
3C2
  0
DICTIONARY
  5
3DB
330
352
100
AcDbDictionary
280
     1
281
     1
  3
ACAD_XREC_ROUNDTRIP
360
3DC
  0
DICTIONARY
  5
3C9
330
349
100
AcDbDictionary
280
     1
281
     1
  3
ACAD_XREC_ROUNDTRIP
360
3CA
  0
DICTIONARY
  5
3AD
330
33B
100
AcDbDictionary
280
     1
281
     1
  3
ACAD_XREC_ROUNDTRIP
360
3AE
  0
DICTIONARY
  5
3AF
330
33C
100
AcDbDictionary
280
     1
281
     1
  3
ACAD_XREC_ROUNDTRIP
360
3B0
  0
DICTIONARY
  5
3B1
330
33D
100
AcDbDictionary
280
     1
281
     1
  3
ACAD_XREC_ROUNDTRIP
360
3B2
  0
DICTIONARY
  5
3B3
330
33E
100
AcDbDictionary
280
     1
281
     1
  3
ACAD_XREC_ROUNDTRIP
360
3B4
  0
DICTIONARY
  5
3BB
330
342
100
AcDbDictionary
280
     1
281
     1
  3
ACAD_XREC_ROUNDTRIP
360
3BC
  0
DICTIONARY
  5
3D7
330
350
100
AcDbDictionary
280
     1
281
     1
  3
ACAD_XREC_ROUNDTRIP
360
3D8
  0
DICTIONARY
  5
3C7
330
348
100
AcDbDictionary
280
     1
281
     1
  3
ACAD_XREC_ROUNDTRIP
360
3C8
  0
DICTIONARY
  5
3D9
330
351
100
AcDbDictionary
280
     1
281
     1
  3
ACAD_XREC_ROUNDTRIP
360
3DA
  0
DICTIONARY
  5
3BF
330
344
100
AcDbDictionary
280
     1
281
     1
  3
ACAD_XREC_ROUNDTRIP
360
3C0
  0
DICTIONARY
  5
3D5
330
34F
100
AcDbDictionary
280
     1
281
     1
  3
ACAD_XREC_ROUNDTRIP
360
3D6
  0
DICTIONARY
  5
3D3
330
34E
100
AcDbDictionary
280
     1
281
     1
  3
ACAD_XREC_ROUNDTRIP
360
3D4
  0
DICTIONARY
  5
3CD
330
34B
100
AcDbDictionary
280
     1
281
     1
  3
ACAD_XREC_ROUNDTRIP
360
3CE
  0
DICTIONARY
  5
3CF
330
34C
100
AcDbDictionary
280
     1
281
     1
  3
ACAD_XREC_ROUNDTRIP
360
3D0
  0
DICTIONARY
  5
3C5
330
347
100
AcDbDictionary
280
     1
281
     1
  3
ACAD_XREC_ROUNDTRIP
360
3C6
  0
DICTIONARY
  5
3B9
330
341
100
AcDbDictionary
280
     1
281
     1
  3
ACAD_XREC_ROUNDTRIP
360
3BA
  0
DICTIONARY
  5
3D1
330
34D
100
AcDbDictionary
280
     1
281
     1
  3
ACAD_XREC_ROUNDTRIP
360
3D2
  0
XRECORD
  5
3E2
102
{ACAD_REACTORS
330
3E1
102
}
330
3E1
100
AcDbXrecord
280
     1
102
SHADEPLOT
 70
     0
102
SHADEPLOTRESLEVEL
 70
     2
102
SHADEPLOTCUSTOMDPI
 70
   300
  0
XRECORD
  5
3E0
102
{ACAD_REACTORS
330
3DF
102
}
330
3DF
100
AcDbXrecord
280
     1
102
SHADEPLOT
 70
     0
102
SHADEPLOTRESLEVEL
 70
     2
102
SHADEPLOTCUSTOMDPI
 70
   300
  0
XRECORD
  5
3AB
102
{ACAD_REACTORS
330
32B
102
}
330
32B
100
AcDbXrecord
280
     1
102
MATERIAL
148
0.0
149
0.0
149
0.0
 93
        0
 94
      127
282
     0
 72
     0
 77
     0
171
     0
175
     0
179
     0
273
     0
  0
XRECORD
  5
32D
102
{ACAD_REACTORS
330
32B
102
}
330
32B
100
AcDbXrecord
280
     1
270
     1
271
     1
  0
XRECORD
  5
32C
102
{ACAD_REACTORS
330
32B
102
}
330
32B
100
AcDbXrecord
280
     1
270
     1
271
     1
  0
XRECORD
  5
330
102
{ACAD_REACTORS
330
32B
102
}
330
32B
100
AcDbXrecord
280
     1
270
     1
271
     1
  0
XRECORD
  5
32F
102
{ACAD_REACTORS
330
32B
102
}
330
32B
100
AcDbXrecord
280
     1
270
     1
271
     1
  0
XRECORD
  5
331
102
{ACAD_REACTORS
330
32B
102
}
330
32B
100
AcDbXrecord
280
     1
270
     1
271
     1
  0
XRECORD
  5
32E
102
{ACAD_REACTORS
330
32B
102
}
330
32B
100
AcDbXrecord
280
     1
270
     1
271
     1
  0
XRECORD
  5
3AA
102
{ACAD_REACTORS
330
323
102
}
330
323
100
AcDbXrecord
280
     1
102
MATERIAL
148
0.0
149
0.0
149
0.0
 93
        0
 94
      127
282
     0
 72
     0
 77
     0
171
     0
175
     0
179
     0
273
     0
  0
XRECORD
  5
325
102
{ACAD_REACTORS
330
323
102
}
330
323
100
AcDbXrecord
280
     1
270
     1
271
     1
  0
XRECORD
  5
324
102
{ACAD_REACTORS
330
323
102
}
330
323
100
AcDbXrecord
280
     1
270
     1
271
     1
  0
XRECORD
  5
328
102
{ACAD_REACTORS
330
323
102
}
330
323
100
AcDbXrecord
280
     1
270
     1
271
     1
  0
XRECORD
  5
327
102
{ACAD_REACTORS
330
323
102
}
330
323
100
AcDbXrecord
280
     1
270
     1
271
     1
  0
XRECORD
  5
329
102
{ACAD_REACTORS
330
323
102
}
330
323
100
AcDbXrecord
280
     1
270
     1
271
     1
  0
XRECORD
  5
326
102
{ACAD_REACTORS
330
323
102
}
330
323
100
AcDbXrecord
280
     1
270
     1
271
     1
  0
XRECORD
  5
3AC
102
{ACAD_REACTORS
330
333
102
}
330
333
100
AcDbXrecord
280
     1
102
MATERIAL
148
0.0
149
0.0
149
0.0
 93
        0
 94
      127
282
     0
 72
     0
 77
     0
171
     0
175
     0
179
     0
273
     0
  0
XRECORD
  5
335
102
{ACAD_REACTORS
330
333
102
}
330
333
100
AcDbXrecord
280
     1
270
     1
271
     1
  0
XRECORD
  5
334
102
{ACAD_REACTORS
330
333
102
}
330
333
100
AcDbXrecord
280
     1
270
     1
271
     1
  0
XRECORD
  5
338
102
{ACAD_REACTORS
330
333
102
}
330
333
100
AcDbXrecord
280
     1
270
     1
271
     1
  0
XRECORD
  5
337
102
{ACAD_REACTORS
330
333
102
}
330
333
100
AcDbXrecord
280
     1
270
     1
271
     1
  0
XRECORD
  5
339
102
{ACAD_REACTORS
330
333
102
}
330
333
100
AcDbXrecord
280
     1
270
     1
271
     1
  0
XRECORD
  5
336
102
{ACAD_REACTORS
330
333
102
}
330
333
100
AcDbXrecord
280
     1
270
     1
271
     1
  0
CELLSTYLEMAP
  5
3A7
102
{ACAD_REACTORS
330
3A6
102
}
330
3A6
100
AcDbCellStyleMap
 90
        3
300
CELLSTYLE
  1
TABLEFORMAT_BEGIN
 90
        5
170
     1
 91
        0
 92
    32768
 62
   257
 93
        1
300
CONTENTFORMAT
  1
CONTENTFORMAT_BEGIN
 90
        0
 91
        0
 92
      512
 93
        0
300

 40
0.0
140
1.0
 94
        5
 62
     0
340
366
144
0.25
309
CONTENTFORMAT_END
171
     0
 94
        0
309
TABLEFORMAT_END
  1
CELLSTYLE_BEGIN
 90
        1
 91
        1
300
_TITLE
309
CELLSTYLE_END
300
CELLSTYLE
  1
TABLEFORMAT_BEGIN
 90
        5
170
     1
 91
        0
 92
        0
 62
   257
 93
        1
300
CONTENTFORMAT
  1
CONTENTFORMAT_BEGIN
 90
        0
 91
        0
 92
      512
 93
        0
300

 40
0.0
140
1.0
 94
        5
 62
     0
340
366
144
0.18
309
CONTENTFORMAT_END
171
     0
 94
        0
309
TABLEFORMAT_END
  1
CELLSTYLE_BEGIN
 90
        2
 91
        1
300
_HEADER
309
CELLSTYLE_END
300
CELLSTYLE
  1
TABLEFORMAT_BEGIN
 90
        5
170
     1
 91
        0
 92
        0
 62
   257
 93
        1
300
CONTENTFORMAT
  1
CONTENTFORMAT_BEGIN
 90
        0
 91
        0
 92
      512
 93
        0
300

 40
0.0
140
1.0
 94
        2
 62
     0
340
366
144
0.18
309
CONTENTFORMAT_END
171
     0
 94
        0
309
TABLEFORMAT_END
  1
CELLSTYLE_BEGIN
 90
        3
 91
        2
300
_DATA
309
CELLSTYLE_END
  0
XRECORD
  5
3DD
102
{ACAD_REACTORS
330
3A6
102
}
330
3A6
100
AcDbXrecord
280
     1
102
ACAD_ROUNDTRIP_PRE2007_TABLESTYLE
 90
      512
 91
        0
  1

 92
      512
 93
        0
  2

 94
      512
 95
        0
  3

  0
XRECORD
  5
3B8
102
{ACAD_REACTORS
330
3B7
102
}
330
3B7
100
AcDbXrecord
280
     1
102
RTVSPropertyOp0
 70
     1
102
RTVSPropertyOp1
 70
     1
102
RTVSPropertyOp2
 70
     1
102
RTVSPropertyOp3
 70
     1
102
RTVSPropertyOp4
 70
     1
102
RTVSPropertyOp5
 70
     1
102
RTVSPropertyOp6
 70
     1
102
RTVSPropertyOp7
 70
     1
102
RTVSPropertyOp8
 70
     1
102
RTVSPropertyOp9
 70
     1
102
RTVSPropertyOp10
 70
     1
102
RTVSPropertyOp11
 70
     1
102
RTVSPropertyOp12
 70
     1
102
RTVSPropertyOp13
 70
     1
102
RTVSPropertyOp14
 70
     1
102
RTVSPropertyOp15
 70
     1
102
RTVSPropertyOp16
 70
     1
102
RTVSPropertyOp17
 70
     1
102
RTVSPropertyOp18
 70
     1
102
RTVSPropertyOp19
 70
     1
102
RTVSPropertyOp20
 70
     1
102
RTVSPropertyOp21
 70
     1
102
RTVSPropertyOp22
 70
     1
102
RTVSPropertyOp23
 70
     1
102
RTVSPropertyOp24
 70
     1
102
RTVSPropertyOp25
 70
     1
102
RTVSPropertyOp26
 70
     1
102
RTVSPropertyOp27
 70
     1
102
RTVSPropertyOp28
 70
     1
102
RTVSPropertyOp29
 70
     1
102
RTVSPropertyOp30
 70
     1
102
RTVSPropertyOp31
 70
     1
102
RTVSPropertyOp32
 70
     1
  0
XRECORD
  5
3B6
102
{ACAD_REACTORS
330
3B5
102
}
330
3B5
100
AcDbXrecord
280
     1
102
RTVSPropertyOp0
 70
     1
102
RTVSPropertyOp1
 70
     1
102
RTVSPropertyOp2
 70
     1
102
RTVSPropertyOp3
 70
     1
102
RTVSPropertyOp4
 70
     1
102
RTVSPropertyOp5
 70
     1
102
RTVSPropertyOp6
 70
     1
102
RTVSPropertyOp7
 70
     1
102
RTVSPropertyOp8
 70
     1
102
RTVSPropertyOp9
 70
     1
102
RTVSPropertyOp10
 70
     1
102
RTVSPropertyOp11
 70
     1
102
RTVSPropertyOp12
 70
     1
102
RTVSPropertyOp13
 70
     1
102
RTVSPropertyOp14
 70
     1
102
RTVSPropertyOp15
 70
     1
102
RTVSPropertyOp16
 70
     1
102
RTVSPropertyOp17
 70
     1
102
RTVSPropertyOp18
 70
     1
102
RTVSPropertyOp19
 70
     1
102
RTVSPropertyOp20
 70
     1
102
RTVSPropertyOp21
 70
     1
102
RTVSPropertyOp22
 70
     1
102
RTVSPropertyOp23
 70
     1
102
RTVSPropertyOp24
 70
     1
102
RTVSPropertyOp25
 70
     1
102
RTVSPropertyOp26
 70
     1
102
RTVSPropertyOp27
 70
     1
102
RTVSPropertyOp28
 70
     1
102
RTVSPropertyOp29
 70
     1
102
RTVSPropertyOp30
 70
     1
102
RTVSPropertyOp31
 70
     1
102
RTVSPropertyOp32
 70
     1
  0
XRECORD
  5
3C4
102
{ACAD_REACTORS
330
3C3
102
}
330
3C3
100
AcDbXrecord
280
     1
102
RTVSPropertyOp0
 70
     1
102
RTVSPropertyOp1
 70
     1
102
RTVSPropertyOp2
 70
     1
102
RTVSPropertyOp3
 70
     1
102
RTVSPropertyOp4
 70
     1
102
RTVSPropertyOp5
 70
     1
102
RTVSPropertyOp6
 70
     1
102
RTVSPropertyOp7
 70
     1
102
RTVSPropertyOp8
 70
     1
102
RTVSPropertyOp9
 70
     1
102
RTVSPropertyOp10
 70
     1
102
RTVSPropertyOp11
 70
     1
102
RTVSPropertyOp12
 70
     1
102
RTVSPropertyOp13
 70
     1
102
RTVSPropertyOp14
 70
     1
102
RTVSPropertyOp15
 70
     1
102
RTVSPropertyOp16
 70
     1
102
RTVSPropertyOp17
 70
     1
102
RTVSPropertyOp18
 70
     1
102
RTVSPropertyOp19
 70
     1
102
RTVSPropertyOp20
 70
     1
102
RTVSPropertyOp21
 70
     1
102
RTVSPropertyOp22
 70
     1
102
RTVSPropertyOp23
 70
     1
102
RTVSPropertyOp24
 70
     1
102
RTVSPropertyOp25
 70
     1
102
RTVSPropertyOp26
 70
     1
102
RTVSPropertyOp27
 70
     1
102
RTVSPropertyOp28
 70
     1
102
RTVSPropertyOp29
 70
     1
102
RTVSPropertyOp30
 70
     1
102
RTVSPropertyOp31
 70
     1
102
RTVSPropertyOp32
 70
     1
  0
XRECORD
  5
3CC
102
{ACAD_REACTORS
330
3CB
102
}
330
3CB
100
AcDbXrecord
280
     1
102
RTVSPropertyOp0
 70
     1
102
RTVSPropertyOp1
 70
     1
102
RTVSPropertyOp2
 70
     1
102
RTVSPropertyOp3
 70
     1
102
RTVSPropertyOp4
 70
     1
102
RTVSPropertyOp5
 70
     1
102
RTVSPropertyOp6
 70
     1
102
RTVSPropertyOp7
 70
     1
102
RTVSPropertyOp8
 70
     1
102
RTVSPropertyOp9
 70
     1
102
RTVSPropertyOp10
 70
     1
102
RTVSPropertyOp11
 70
     1
102
RTVSPropertyOp12
 70
     1
102
RTVSPropertyOp13
 70
     1
102
RTVSPropertyOp14
 70
     1
102
RTVSPropertyOp15
 70
     1
102
RTVSPropertyOp16
 70
     1
102
RTVSPropertyOp17
 70
     1
102
RTVSPropertyOp18
 70
     1
102
RTVSPropertyOp19
 70
     1
102
RTVSPropertyOp20
 70
     1
102
RTVSPropertyOp21
 70
     1
102
RTVSPropertyOp22
 70
     1
102
RTVSPropertyOp23
 70
     1
102
RTVSPropertyOp24
 70
     1
102
RTVSPropertyOp25
 70
     1
102
RTVSPropertyOp26
 70
     1
102
RTVSPropertyOp27
 70
     1
102
RTVSPropertyOp28
 70
     1
102
RTVSPropertyOp29
 70
     1
102
RTVSPropertyOp30
 70
     1
102
RTVSPropertyOp31
 70
     1
102
RTVSPropertyOp32
 70
     1
  0
XRECORD
  5
3BE
102
{ACAD_REACTORS
330
3BD
102
}
330
3BD
100
AcDbXrecord
280
     1
102
RTVSPropertyOp0
 70
     1
102
RTVSPropertyOp1
 70
     1
102
RTVSPropertyOp2
 70
     1
102
RTVSPropertyOp3
 70
     1
102
RTVSPropertyOp4
 70
     1
102
RTVSPropertyOp5
 70
     1
102
RTVSPropertyOp6
 70
     1
102
RTVSPropertyOp7
 70
     1
102
RTVSPropertyOp8
 70
     1
102
RTVSPropertyOp9
 70
     1
102
RTVSPropertyOp10
 70
     1
102
RTVSPropertyOp11
 70
     1
102
RTVSPropertyOp12
 70
     1
102
RTVSPropertyOp13
 70
     1
102
RTVSPropertyOp14
 70
     1
102
RTVSPropertyOp15
 70
     1
102
RTVSPropertyOp16
 70
     1
102
RTVSPropertyOp17
 70
     1
102
RTVSPropertyOp18
 70
     1
102
RTVSPropertyOp19
 70
     1
102
RTVSPropertyOp20
 70
     1
102
RTVSPropertyOp21
 70
     1
102
RTVSPropertyOp22
 70
     1
102
RTVSPropertyOp23
 70
     1
102
RTVSPropertyOp24
 70
     1
102
RTVSPropertyOp25
 70
     1
102
RTVSPropertyOp26
 70
     1
102
RTVSPropertyOp27
 70
     1
102
RTVSPropertyOp28
 70
     1
102
RTVSPropertyOp29
 70
     1
102
RTVSPropertyOp30
 70
     1
102
RTVSPropertyOp31
 70
     1
102
RTVSPropertyOp32
 70
     1
  0
XRECORD
  5
3C2
102
{ACAD_REACTORS
330
3C1
102
}
330
3C1
100
AcDbXrecord
280
     1
102
RTVSPropertyOp0
 70
     1
102
RTVSPropertyOp1
 70
     1
102
RTVSPropertyOp2
 70
     1
102
RTVSPropertyOp3
 70
     1
102
RTVSPropertyOp4
 70
     1
102
RTVSPropertyOp5
 70
     1
102
RTVSPropertyOp6
 70
     1
102
RTVSPropertyOp7
 70
     1
102
RTVSPropertyOp8
 70
     1
102
RTVSPropertyOp9
 70
     1
102
RTVSPropertyOp10
 70
     1
102
RTVSPropertyOp11
 70
     1
102
RTVSPropertyOp12
 70
     1
102
RTVSPropertyOp13
 70
     1
102
RTVSPropertyOp14
 70
     1
102
RTVSPropertyOp15
 70
     1
102
RTVSPropertyOp16
 70
     1
102
RTVSPropertyOp17
 70
     1
102
RTVSPropertyOp18
 70
     1
102
RTVSPropertyOp19
 70
     1
102
RTVSPropertyOp20
 70
     1
102
RTVSPropertyOp21
 70
     1
102
RTVSPropertyOp22
 70
     1
102
RTVSPropertyOp23
 70
     1
102
RTVSPropertyOp24
 70
     1
102
RTVSPropertyOp25
 70
     1
102
RTVSPropertyOp26
 70
     1
102
RTVSPropertyOp27
 70
     1
102
RTVSPropertyOp28
 70
     1
102
RTVSPropertyOp29
 70
     1
102
RTVSPropertyOp30
 70
     1
102
RTVSPropertyOp31
 70
     1
102
RTVSPropertyOp32
 70
     1
  0
XRECORD
  5
3DC
102
{ACAD_REACTORS
330
3DB
102
}
330
3DB
100
AcDbXrecord
280
     1
102
RTVSPropertyOp0
 70
     0
102
RTVSPropertyOp1
 70
     0
102
RTVSPropertyOp2
 70
     0
102
RTVSPropertyOp3
 70
     0
102
RTVSPropertyOp4
 70
     0
102
RTVSPropertyOp5
 70
     0
102
RTVSPropertyOp6
 70
     0
102
RTVSPropertyOp7
 70
     0
102
RTVSPropertyOp8
 70
     0
102
RTVSPropertyOp9
 70
     0
102
RTVSPropertyOp10
 70
     0
102
RTVSPropertyOp11
 70
     0
102
RTVSPropertyOp12
 70
     0
102
RTVSPropertyOp13
 70
     0
102
RTVSPropertyOp14
 70
     2
102
RTVSPropertyOp15
 70
     0
102
RTVSPropertyOp16
 70
     0
102
RTVSPropertyOp17
 70
     0
102
RTVSPropertyOp18
 70
     0
102
RTVSPropertyOp19
 70
     0
102
RTVSPropertyOp20
 70
     0
102
RTVSPropertyOp21
 70
     0
102
RTVSPropertyOp22
 70
     0
102
RTVSPropertyOp23
 70
     0
102
RTVSPropertyOp24
 70
     0
102
RTVSPropertyOp25
 70
     0
102
RTVSPropertyOp26
 70
     0
102
RTVSPropertyOp27
 70
     0
102
RTVSPropertyOp28
 70
     0
102
RTVSPropertyOp29
 70
     0
102
RTVSPropertyOp30
 70
     0
102
RTVSPropertyOp31
 70
     0
102
RTVSPropertyOp32
 70
     0
  0
XRECORD
  5
3CA
102
{ACAD_REACTORS
330
3C9
102
}
330
3C9
100
AcDbXrecord
280
     1
102
RTVSPropertyOp0
 70
     1
102
RTVSPropertyOp1
 70
     1
102
RTVSPropertyOp2
 70
     1
102
RTVSPropertyOp3
 70
     1
102
RTVSPropertyOp4
 70
     1
102
RTVSPropertyOp5
 70
     1
102
RTVSPropertyOp6
 70
     1
102
RTVSPropertyOp7
 70
     1
102
RTVSPropertyOp8
 70
     1
102
RTVSPropertyOp9
 70
     1
102
RTVSPropertyOp10
 70
     1
102
RTVSPropertyOp11
 70
     1
102
RTVSPropertyOp12
 70
     1
102
RTVSPropertyOp13
 70
     1
102
RTVSPropertyOp14
 70
     1
102
RTVSPropertyOp15
 70
     1
102
RTVSPropertyOp16
 70
     1
102
RTVSPropertyOp17
 70
     1
102
RTVSPropertyOp18
 70
     1
102
RTVSPropertyOp19
 70
     1
102
RTVSPropertyOp20
 70
     1
102
RTVSPropertyOp21
 70
     1
102
RTVSPropertyOp22
 70
     1
102
RTVSPropertyOp23
 70
     1
102
RTVSPropertyOp24
 70
     1
102
RTVSPropertyOp25
 70
     1
102
RTVSPropertyOp26
 70
     1
102
RTVSPropertyOp27
 70
     1
102
RTVSPropertyOp28
 70
     1
102
RTVSPropertyOp29
 70
     1
102
RTVSPropertyOp30
 70
     1
102
RTVSPropertyOp31
 70
     1
102
RTVSPropertyOp32
 70
     1
  0
XRECORD
  5
3AE
102
{ACAD_REACTORS
330
3AD
102
}
330
3AD
100
AcDbXrecord
280
     1
102
RTVSPropertyOp0
 70
     1
102
RTVSPropertyOp1
 70
     1
102
RTVSPropertyOp2
 70
     1
102
RTVSPropertyOp3
 70
     1
102
RTVSPropertyOp4
 70
     1
102
RTVSPropertyOp5
 70
     1
102
RTVSPropertyOp6
 70
     1
102
RTVSPropertyOp7
 70
     1
102
RTVSPropertyOp8
 70
     1
102
RTVSPropertyOp9
 70
     1
102
RTVSPropertyOp10
 70
     1
102
RTVSPropertyOp11
 70
     1
102
RTVSPropertyOp12
 70
     1
102
RTVSPropertyOp13
 70
     1
102
RTVSPropertyOp14
 70
     1
102
RTVSPropertyOp15
 70
     1
102
RTVSPropertyOp16
 70
     1
102
RTVSPropertyOp17
 70
     1
102
RTVSPropertyOp18
 70
     1
102
RTVSPropertyOp19
 70
     1
102
RTVSPropertyOp20
 70
     1
102
RTVSPropertyOp21
 70
     1
102
RTVSPropertyOp22
 70
     1
102
RTVSPropertyOp23
 70
     1
102
RTVSPropertyOp24
 70
     1
102
RTVSPropertyOp25
 70
     1
102
RTVSPropertyOp26
 70
     1
102
RTVSPropertyOp27
 70
     1
102
RTVSPropertyOp28
 70
     1
102
RTVSPropertyOp29
 70
     1
102
RTVSPropertyOp30
 70
     1
102
RTVSPropertyOp31
 70
     1
102
RTVSPropertyOp32
 70
     1
  0
XRECORD
  5
3B0
102
{ACAD_REACTORS
330
3AF
102
}
330
3AF
100
AcDbXrecord
280
     1
102
RTVSPropertyOp0
 70
     1
102
RTVSPropertyOp1
 70
     1
102
RTVSPropertyOp2
 70
     1
102
RTVSPropertyOp3
 70
     1
102
RTVSPropertyOp4
 70
     1
102
RTVSPropertyOp5
 70
     1
102
RTVSPropertyOp6
 70
     1
102
RTVSPropertyOp7
 70
     1
102
RTVSPropertyOp8
 70
     1
102
RTVSPropertyOp9
 70
     1
102
RTVSPropertyOp10
 70
     1
102
RTVSPropertyOp11
 70
     1
102
RTVSPropertyOp12
 70
     1
102
RTVSPropertyOp13
 70
     1
102
RTVSPropertyOp14
 70
     1
102
RTVSPropertyOp15
 70
     1
102
RTVSPropertyOp16
 70
     1
102
RTVSPropertyOp17
 70
     1
102
RTVSPropertyOp18
 70
     1
102
RTVSPropertyOp19
 70
     1
102
RTVSPropertyOp20
 70
     1
102
RTVSPropertyOp21
 70
     1
102
RTVSPropertyOp22
 70
     1
102
RTVSPropertyOp23
 70
     1
102
RTVSPropertyOp24
 70
     1
102
RTVSPropertyOp25
 70
     1
102
RTVSPropertyOp26
 70
     1
102
RTVSPropertyOp27
 70
     1
102
RTVSPropertyOp28
 70
     1
102
RTVSPropertyOp29
 70
     1
102
RTVSPropertyOp30
 70
     1
102
RTVSPropertyOp31
 70
     1
102
RTVSPropertyOp32
 70
     1
  0
XRECORD
  5
3B2
102
{ACAD_REACTORS
330
3B1
102
}
330
3B1
100
AcDbXrecord
280
     1
102
RTVSPropertyOp0
 70
     1
102
RTVSPropertyOp1
 70
     1
102
RTVSPropertyOp2
 70
     1
102
RTVSPropertyOp3
 70
     1
102
RTVSPropertyOp4
 70
     1
102
RTVSPropertyOp5
 70
     1
102
RTVSPropertyOp6
 70
     1
102
RTVSPropertyOp7
 70
     1
102
RTVSPropertyOp8
 70
     1
102
RTVSPropertyOp9
 70
     1
102
RTVSPropertyOp10
 70
     1
102
RTVSPropertyOp11
 70
     1
102
RTVSPropertyOp12
 70
     1
102
RTVSPropertyOp13
 70
     1
102
RTVSPropertyOp14
 70
     1
102
RTVSPropertyOp15
 70
     1
102
RTVSPropertyOp16
 70
     1
102
RTVSPropertyOp17
 70
     1
102
RTVSPropertyOp18
 70
     1
102
RTVSPropertyOp19
 70
     1
102
RTVSPropertyOp20
 70
     1
102
RTVSPropertyOp21
 70
     1
102
RTVSPropertyOp22
 70
     1
102
RTVSPropertyOp23
 70
     1
102
RTVSPropertyOp24
 70
     1
102
RTVSPropertyOp25
 70
     1
102
RTVSPropertyOp26
 70
     1
102
RTVSPropertyOp27
 70
     1
102
RTVSPropertyOp28
 70
     1
102
RTVSPropertyOp29
 70
     1
102
RTVSPropertyOp30
 70
     1
102
RTVSPropertyOp31
 70
     1
102
RTVSPropertyOp32
 70
     1
  0
XRECORD
  5
3B4
102
{ACAD_REACTORS
330
3B3
102
}
330
3B3
100
AcDbXrecord
280
     1
102
RTVSPropertyOp0
 70
     1
102
RTVSPropertyOp1
 70
     1
102
RTVSPropertyOp2
 70
     1
102
RTVSPropertyOp3
 70
     1
102
RTVSPropertyOp4
 70
     1
102
RTVSPropertyOp5
 70
     1
102
RTVSPropertyOp6
 70
     1
102
RTVSPropertyOp7
 70
     1
102
RTVSPropertyOp8
 70
     1
102
RTVSPropertyOp9
 70
     1
102
RTVSPropertyOp10
 70
     1
102
RTVSPropertyOp11
 70
     1
102
RTVSPropertyOp12
 70
     1
102
RTVSPropertyOp13
 70
     1
102
RTVSPropertyOp14
 70
     1
102
RTVSPropertyOp15
 70
     1
102
RTVSPropertyOp16
 70
     1
102
RTVSPropertyOp17
 70
     1
102
RTVSPropertyOp18
 70
     1
102
RTVSPropertyOp19
 70
     1
102
RTVSPropertyOp20
 70
     1
102
RTVSPropertyOp21
 70
     1
102
RTVSPropertyOp22
 70
     1
102
RTVSPropertyOp23
 70
     1
102
RTVSPropertyOp24
 70
     1
102
RTVSPropertyOp25
 70
     1
102
RTVSPropertyOp26
 70
     1
102
RTVSPropertyOp27
 70
     1
102
RTVSPropertyOp28
 70
     1
102
RTVSPropertyOp29
 70
     1
102
RTVSPropertyOp30
 70
     1
102
RTVSPropertyOp31
 70
     1
102
RTVSPropertyOp32
 70
     1
  0
XRECORD
  5
3BC
102
{ACAD_REACTORS
330
3BB
102
}
330
3BB
100
AcDbXrecord
280
     1
102
RTVSPropertyOp0
 70
     1
102
RTVSPropertyOp1
 70
     1
102
RTVSPropertyOp2
 70
     1
102
RTVSPropertyOp3
 70
     1
102
RTVSPropertyOp4
 70
     1
102
RTVSPropertyOp5
 70
     1
102
RTVSPropertyOp6
 70
     1
102
RTVSPropertyOp7
 70
     1
102
RTVSPropertyOp8
 70
     1
102
RTVSPropertyOp9
 70
     1
102
RTVSPropertyOp10
 70
     1
102
RTVSPropertyOp11
 70
     1
102
RTVSPropertyOp12
 70
     1
102
RTVSPropertyOp13
 70
     1
102
RTVSPropertyOp14
 70
     1
102
RTVSPropertyOp15
 70
     1
102
RTVSPropertyOp16
 70
     1
102
RTVSPropertyOp17
 70
     1
102
RTVSPropertyOp18
 70
     1
102
RTVSPropertyOp19
 70
     1
102
RTVSPropertyOp20
 70
     1
102
RTVSPropertyOp21
 70
     1
102
RTVSPropertyOp22
 70
     1
102
RTVSPropertyOp23
 70
     1
102
RTVSPropertyOp24
 70
     1
102
RTVSPropertyOp25
 70
     1
102
RTVSPropertyOp26
 70
     1
102
RTVSPropertyOp27
 70
     1
102
RTVSPropertyOp28
 70
     1
102
RTVSPropertyOp29
 70
     1
102
RTVSPropertyOp30
 70
     1
102
RTVSPropertyOp31
 70
     1
102
RTVSPropertyOp32
 70
     1
  0
XRECORD
  5
3D8
102
{ACAD_REACTORS
330
3D7
102
}
330
3D7
100
AcDbXrecord
280
     1
102
RTVSPropertyOp0
 70
     0
102
RTVSPropertyOp1
 70
     0
102
RTVSPropertyOp2
 70
     0
102
RTVSPropertyOp3
 70
     0
102
RTVSPropertyOp4
 70
     0
102
RTVSPropertyOp5
 70
     0
102
RTVSPropertyOp6
 70
     0
102
RTVSPropertyOp7
 70
     0
102
RTVSPropertyOp8
 70
     0
102
RTVSPropertyOp9
 70
     0
102
RTVSPropertyOp10
 70
     0
102
RTVSPropertyOp11
 70
     0
102
RTVSPropertyOp12
 70
     0
102
RTVSPropertyOp13
 70
     0
102
RTVSPropertyOp14
 70
     2
102
RTVSPropertyOp15
 70
     0
102
RTVSPropertyOp16
 70
     0
102
RTVSPropertyOp17
 70
     0
102
RTVSPropertyOp18
 70
     0
102
RTVSPropertyOp19
 70
     0
102
RTVSPropertyOp20
 70
     0
102
RTVSPropertyOp21
 70
     0
102
RTVSPropertyOp22
 70
     0
102
RTVSPropertyOp23
 70
     0
102
RTVSPropertyOp24
 70
     0
102
RTVSPropertyOp25
 70
     0
102
RTVSPropertyOp26
 70
     0
102
RTVSPropertyOp27
 70
     0
102
RTVSPropertyOp28
 70
     0
102
RTVSPropertyOp29
 70
     0
102
RTVSPropertyOp30
 70
     0
102
RTVSPropertyOp31
 70
     0
102
RTVSPropertyOp32
 70
     0
  0
XRECORD
  5
3C8
102
{ACAD_REACTORS
330
3C7
102
}
330
3C7
100
AcDbXrecord
280
     1
102
RTVSPropertyOp0
 70
     1
102
RTVSPropertyOp1
 70
     1
102
RTVSPropertyOp2
 70
     1
102
RTVSPropertyOp3
 70
     1
102
RTVSPropertyOp4
 70
     1
102
RTVSPropertyOp5
 70
     1
102
RTVSPropertyOp6
 70
     1
102
RTVSPropertyOp7
 70
     1
102
RTVSPropertyOp8
 70
     1
102
RTVSPropertyOp9
 70
     1
102
RTVSPropertyOp10
 70
     1
102
RTVSPropertyOp11
 70
     1
102
RTVSPropertyOp12
 70
     1
102
RTVSPropertyOp13
 70
     1
102
RTVSPropertyOp14
 70
     1
102
RTVSPropertyOp15
 70
     1
102
RTVSPropertyOp16
 70
     1
102
RTVSPropertyOp17
 70
     1
102
RTVSPropertyOp18
 70
     1
102
RTVSPropertyOp19
 70
     1
102
RTVSPropertyOp20
 70
     1
102
RTVSPropertyOp21
 70
     1
102
RTVSPropertyOp22
 70
     1
102
RTVSPropertyOp23
 70
     1
102
RTVSPropertyOp24
 70
     1
102
RTVSPropertyOp25
 70
     1
102
RTVSPropertyOp26
 70
     1
102
RTVSPropertyOp27
 70
     1
102
RTVSPropertyOp28
 70
     1
102
RTVSPropertyOp29
 70
     1
102
RTVSPropertyOp30
 70
     1
102
RTVSPropertyOp31
 70
     1
102
RTVSPropertyOp32
 70
     1
  0
XRECORD
  5
3DA
102
{ACAD_REACTORS
330
3D9
102
}
330
3D9
100
AcDbXrecord
280
     1
102
RTVSPropertyOp0
 70
     0
102
RTVSPropertyOp1
 70
     0
102
RTVSPropertyOp2
 70
     0
102
RTVSPropertyOp3
 70
     0
102
RTVSPropertyOp4
 70
     0
102
RTVSPropertyOp5
 70
     0
102
RTVSPropertyOp6
 70
     0
102
RTVSPropertyOp7
 70
     0
102
RTVSPropertyOp8
 70
     0
102
RTVSPropertyOp9
 70
     0
102
RTVSPropertyOp10
 70
     0
102
RTVSPropertyOp11
 70
     0
102
RTVSPropertyOp12
 70
     0
102
RTVSPropertyOp13
 70
     0
102
RTVSPropertyOp14
 70
     2
102
RTVSPropertyOp15
 70
     0
102
RTVSPropertyOp16
 70
     0
102
RTVSPropertyOp17
 70
     0
102
RTVSPropertyOp18
 70
     0
102
RTVSPropertyOp19
 70
     0
102
RTVSPropertyOp20
 70
     0
102
RTVSPropertyOp21
 70
     0
102
RTVSPropertyOp22
 70
     0
102
RTVSPropertyOp23
 70
     0
102
RTVSPropertyOp24
 70
     0
102
RTVSPropertyOp25
 70
     0
102
RTVSPropertyOp26
 70
     0
102
RTVSPropertyOp27
 70
     0
102
RTVSPropertyOp28
 70
     0
102
RTVSPropertyOp29
 70
     0
102
RTVSPropertyOp30
 70
     0
102
RTVSPropertyOp31
 70
     0
102
RTVSPropertyOp32
 70
     0
  0
XRECORD
  5
3C0
102
{ACAD_REACTORS
330
3BF
102
}
330
3BF
100
AcDbXrecord
280
     1
102
RTVSPropertyOp0
 70
     1
102
RTVSPropertyOp1
 70
     1
102
RTVSPropertyOp2
 70
     1
102
RTVSPropertyOp3
 70
     1
102
RTVSPropertyOp4
 70
     1
102
RTVSPropertyOp5
 70
     1
102
RTVSPropertyOp6
 70
     1
102
RTVSPropertyOp7
 70
     1
102
RTVSPropertyOp8
 70
     1
102
RTVSPropertyOp9
 70
     1
102
RTVSPropertyOp10
 70
     1
102
RTVSPropertyOp11
 70
     1
102
RTVSPropertyOp12
 70
     1
102
RTVSPropertyOp13
 70
     1
102
RTVSPropertyOp14
 70
     1
102
RTVSPropertyOp15
 70
     1
102
RTVSPropertyOp16
 70
     1
102
RTVSPropertyOp17
 70
     1
102
RTVSPropertyOp18
 70
     1
102
RTVSPropertyOp19
 70
     1
102
RTVSPropertyOp20
 70
     1
102
RTVSPropertyOp21
 70
     1
102
RTVSPropertyOp22
 70
     1
102
RTVSPropertyOp23
 70
     1
102
RTVSPropertyOp24
 70
     1
102
RTVSPropertyOp25
 70
     1
102
RTVSPropertyOp26
 70
     1
102
RTVSPropertyOp27
 70
     1
102
RTVSPropertyOp28
 70
     1
102
RTVSPropertyOp29
 70
     1
102
RTVSPropertyOp30
 70
     1
102
RTVSPropertyOp31
 70
     1
102
RTVSPropertyOp32
 70
     1
  0
XRECORD
  5
3D6
102
{ACAD_REACTORS
330
3D5
102
}
330
3D5
100
AcDbXrecord
280
     1
102
RTVSPropertyOp0
 70
     1
102
RTVSPropertyOp1
 70
     1
102
RTVSPropertyOp2
 70
     1
102
RTVSPropertyOp3
 70
     1
102
RTVSPropertyOp4
 70
     1
102
RTVSPropertyOp5
 70
     1
102
RTVSPropertyOp6
 70
     1
102
RTVSPropertyOp7
 70
     1
102
RTVSPropertyOp8
 70
     1
102
RTVSPropertyOp9
 70
     1
102
RTVSPropertyOp10
 70
     1
102
RTVSPropertyOp11
 70
     1
102
RTVSPropertyOp12
 70
     1
102
RTVSPropertyOp13
 70
     1
102
RTVSPropertyOp14
 70
     1
102
RTVSPropertyOp15
 70
     1
102
RTVSPropertyOp16
 70
     1
102
RTVSPropertyOp17
 70
     1
102
RTVSPropertyOp18
 70
     1
102
RTVSPropertyOp19
 70
     1
102
RTVSPropertyOp20
 70
     1
102
RTVSPropertyOp21
 70
     1
102
RTVSPropertyOp22
 70
     1
102
RTVSPropertyOp23
 70
     1
102
RTVSPropertyOp24
 70
     1
102
RTVSPropertyOp25
 70
     1
102
RTVSPropertyOp26
 70
     1
102
RTVSPropertyOp27
 70
     1
102
RTVSPropertyOp28
 70
     1
102
RTVSPropertyOp29
 70
     1
102
RTVSPropertyOp30
 70
     1
102
RTVSPropertyOp31
 70
     1
102
RTVSPropertyOp32
 70
     1
  0
XRECORD
  5
3D4
102
{ACAD_REACTORS
330
3D3
102
}
330
3D3
100
AcDbXrecord
280
     1
102
RTVSPropertyOp0
 70
     1
102
RTVSPropertyOp1
 70
     1
102
RTVSPropertyOp2
 70
     1
102
RTVSPropertyOp3
 70
     1
102
RTVSPropertyOp4
 70
     1
102
RTVSPropertyOp5
 70
     1
102
RTVSPropertyOp6
 70
     1
102
RTVSPropertyOp7
 70
     1
102
RTVSPropertyOp8
 70
     1
102
RTVSPropertyOp9
 70
     1
102
RTVSPropertyOp10
 70
     1
102
RTVSPropertyOp11
 70
     1
102
RTVSPropertyOp12
 70
     1
102
RTVSPropertyOp13
 70
     1
102
RTVSPropertyOp14
 70
     1
102
RTVSPropertyOp15
 70
     1
102
RTVSPropertyOp16
 70
     1
102
RTVSPropertyOp17
 70
     1
102
RTVSPropertyOp18
 70
     1
102
RTVSPropertyOp19
 70
     1
102
RTVSPropertyOp20
 70
     1
102
RTVSPropertyOp21
 70
     1
102
RTVSPropertyOp22
 70
     1
102
RTVSPropertyOp23
 70
     1
102
RTVSPropertyOp24
 70
     1
102
RTVSPropertyOp25
 70
     1
102
RTVSPropertyOp26
 70
     1
102
RTVSPropertyOp27
 70
     1
102
RTVSPropertyOp28
 70
     1
102
RTVSPropertyOp29
 70
     1
102
RTVSPropertyOp30
 70
     1
102
RTVSPropertyOp31
 70
     1
102
RTVSPropertyOp32
 70
     1
  0
XRECORD
  5
3CE
102
{ACAD_REACTORS
330
3CD
102
}
330
3CD
100
AcDbXrecord
280
     1
102
RTVSPropertyOp0
 70
     1
102
RTVSPropertyOp1
 70
     1
102
RTVSPropertyOp2
 70
     1
102
RTVSPropertyOp3
 70
     1
102
RTVSPropertyOp4
 70
     1
102
RTVSPropertyOp5
 70
     1
102
RTVSPropertyOp6
 70
     1
102
RTVSPropertyOp7
 70
     1
102
RTVSPropertyOp8
 70
     1
102
RTVSPropertyOp9
 70
     1
102
RTVSPropertyOp10
 70
     1
102
RTVSPropertyOp11
 70
     1
102
RTVSPropertyOp12
 70
     1
102
RTVSPropertyOp13
 70
     1
102
RTVSPropertyOp14
 70
     1
102
RTVSPropertyOp15
 70
     1
102
RTVSPropertyOp16
 70
     1
102
RTVSPropertyOp17
 70
     1
102
RTVSPropertyOp18
 70
     1
102
RTVSPropertyOp19
 70
     1
102
RTVSPropertyOp20
 70
     1
102
RTVSPropertyOp21
 70
     1
102
RTVSPropertyOp22
 70
     1
102
RTVSPropertyOp23
 70
     1
102
RTVSPropertyOp24
 70
     1
102
RTVSPropertyOp25
 70
     1
102
RTVSPropertyOp26
 70
     1
102
RTVSPropertyOp27
 70
     1
102
RTVSPropertyOp28
 70
     1
102
RTVSPropertyOp29
 70
     1
102
RTVSPropertyOp30
 70
     1
102
RTVSPropertyOp31
 70
     1
102
RTVSPropertyOp32
 70
     1
  0
XRECORD
  5
3D0
102
{ACAD_REACTORS
330
3CF
102
}
330
3CF
100
AcDbXrecord
280
     1
102
RTVSPropertyOp0
 70
     1
102
RTVSPropertyOp1
 70
     1
102
RTVSPropertyOp2
 70
     1
102
RTVSPropertyOp3
 70
     1
102
RTVSPropertyOp4
 70
     1
102
RTVSPropertyOp5
 70
     1
102
RTVSPropertyOp6
 70
     1
102
RTVSPropertyOp7
 70
     1
102
RTVSPropertyOp8
 70
     1
102
RTVSPropertyOp9
 70
     1
102
RTVSPropertyOp10
 70
     1
102
RTVSPropertyOp11
 70
     1
102
RTVSPropertyOp12
 70
     1
102
RTVSPropertyOp13
 70
     1
102
RTVSPropertyOp14
 70
     1
102
RTVSPropertyOp15
 70
     1
102
RTVSPropertyOp16
 70
     1
102
RTVSPropertyOp17
 70
     1
102
RTVSPropertyOp18
 70
     1
102
RTVSPropertyOp19
 70
     1
102
RTVSPropertyOp20
 70
     1
102
RTVSPropertyOp21
 70
     1
102
RTVSPropertyOp22
 70
     1
102
RTVSPropertyOp23
 70
     1
102
RTVSPropertyOp24
 70
     1
102
RTVSPropertyOp25
 70
     1
102
RTVSPropertyOp26
 70
     1
102
RTVSPropertyOp27
 70
     1
102
RTVSPropertyOp28
 70
     1
102
RTVSPropertyOp29
 70
     1
102
RTVSPropertyOp30
 70
     1
102
RTVSPropertyOp31
 70
     1
102
RTVSPropertyOp32
 70
     1
  0
XRECORD
  5
3C6
102
{ACAD_REACTORS
330
3C5
102
}
330
3C5
100
AcDbXrecord
280
     1
102
RTVSPropertyOp0
 70
     1
102
RTVSPropertyOp1
 70
     1
102
RTVSPropertyOp2
 70
     1
102
RTVSPropertyOp3
 70
     1
102
RTVSPropertyOp4
 70
     1
102
RTVSPropertyOp5
 70
     1
102
RTVSPropertyOp6
 70
     1
102
RTVSPropertyOp7
 70
     1
102
RTVSPropertyOp8
 70
     1
102
RTVSPropertyOp9
 70
     1
102
RTVSPropertyOp10
 70
     1
102
RTVSPropertyOp11
 70
     1
102
RTVSPropertyOp12
 70
     1
102
RTVSPropertyOp13
 70
     1
102
RTVSPropertyOp14
 70
     1
102
RTVSPropertyOp15
 70
     1
102
RTVSPropertyOp16
 70
     1
102
RTVSPropertyOp17
 70
     1
102
RTVSPropertyOp18
 70
     1
102
RTVSPropertyOp19
 70
     1
102
RTVSPropertyOp20
 70
     1
102
RTVSPropertyOp21
 70
     1
102
RTVSPropertyOp22
 70
     1
102
RTVSPropertyOp23
 70
     1
102
RTVSPropertyOp24
 70
     1
102
RTVSPropertyOp25
 70
     1
102
RTVSPropertyOp26
 70
     1
102
RTVSPropertyOp27
 70
     1
102
RTVSPropertyOp28
 70
     1
102
RTVSPropertyOp29
 70
     1
102
RTVSPropertyOp30
 70
     1
102
RTVSPropertyOp31
 70
     1
102
RTVSPropertyOp32
 70
     1
  0
XRECORD
  5
3BA
102
{ACAD_REACTORS
330
3B9
102
}
330
3B9
100
AcDbXrecord
280
     1
102
RTVSPropertyOp0
 70
     1
102
RTVSPropertyOp1
 70
     1
102
RTVSPropertyOp2
 70
     1
102
RTVSPropertyOp3
 70
     1
102
RTVSPropertyOp4
 70
     1
102
RTVSPropertyOp5
 70
     1
102
RTVSPropertyOp6
 70
     1
102
RTVSPropertyOp7
 70
     1
102
RTVSPropertyOp8
 70
     1
102
RTVSPropertyOp9
 70
     1
102
RTVSPropertyOp10
 70
     1
102
RTVSPropertyOp11
 70
     1
102
RTVSPropertyOp12
 70
     1
102
RTVSPropertyOp13
 70
     1
102
RTVSPropertyOp14
 70
     1
102
RTVSPropertyOp15
 70
     1
102
RTVSPropertyOp16
 70
     1
102
RTVSPropertyOp17
 70
     1
102
RTVSPropertyOp18
 70
     1
102
RTVSPropertyOp19
 70
     1
102
RTVSPropertyOp20
 70
     1
102
RTVSPropertyOp21
 70
     1
102
RTVSPropertyOp22
 70
     1
102
RTVSPropertyOp23
 70
     1
102
RTVSPropertyOp24
 70
     1
102
RTVSPropertyOp25
 70
     1
102
RTVSPropertyOp26
 70
     1
102
RTVSPropertyOp27
 70
     1
102
RTVSPropertyOp28
 70
     1
102
RTVSPropertyOp29
 70
     1
102
RTVSPropertyOp30
 70
     1
102
RTVSPropertyOp31
 70
     1
102
RTVSPropertyOp32
 70
     1
  0
XRECORD
  5
3D2
102
{ACAD_REACTORS
330
3D1
102
}
330
3D1
100
AcDbXrecord
280
     1
102
RTVSPropertyOp0
 70
     1
102
RTVSPropertyOp1
 70
     1
102
RTVSPropertyOp2
 70
     1
102
RTVSPropertyOp3
 70
     1
102
RTVSPropertyOp4
 70
     1
102
RTVSPropertyOp5
 70
     1
102
RTVSPropertyOp6
 70
     1
102
RTVSPropertyOp7
 70
     1
102
RTVSPropertyOp8
 70
     1
102
RTVSPropertyOp9
 70
     1
102
RTVSPropertyOp10
 70
     1
102
RTVSPropertyOp11
 70
     1
102
RTVSPropertyOp12
 70
     1
102
RTVSPropertyOp13
 70
     1
102
RTVSPropertyOp14
 70
     1
102
RTVSPropertyOp15
 70
     1
102
RTVSPropertyOp16
 70
     1
102
RTVSPropertyOp17
 70
     1
102
RTVSPropertyOp18
 70
     1
102
RTVSPropertyOp19
 70
     1
102
RTVSPropertyOp20
 70
     1
102
RTVSPropertyOp21
 70
     1
102
RTVSPropertyOp22
 70
     1
102
RTVSPropertyOp23
 70
     1
102
RTVSPropertyOp24
 70
     1
102
RTVSPropertyOp25
 70
     1
102
RTVSPropertyOp26
 70
     1
102
RTVSPropertyOp27
 70
     1
102
RTVSPropertyOp28
 70
     1
102
RTVSPropertyOp29
 70
     1
102
RTVSPropertyOp30
 70
     1
102
RTVSPropertyOp31
 70
     1
102
RTVSPropertyOp32
 70
     1
  0
ENDSEC
  0
EOF
