  0
SECTION
  2
HEADER
  9
$ACADVER
  1
AC1009
  9
$INSBASE
 10
0.0
 20
0.0
 30
0.0
  9
$EXTMIN
 10
-1250.0823911746049
 20
-1874.553312064382
 30
-0.0015258207003583
  9
$EXTMAX
 10
1450.0824037474611
 20
2139.5933335614391
 30
0.0000000349246037
  9
$LIMMIN
 10
0.0
 20
0.0
  9
$LIMMAX
 10
0.0
 20
0.0
  9
$ORTHOMODE
 70
     0
  9
$REGENMODE
 70
     1
  9
$FILLMODE
 70
     1
  9
$QTEXTMODE
 70
     0
  9
$MIRRTEXT
 70
     1
  9
$DRAGMODE
 70
     2
  9
$LTSCALE
 40
76.200000000000003
  9
$OSMODE
 70
   231
  9
$ATTMODE
 70
     1
  9
$TEXTSIZE
 40
0.0
  9
$TRACEWID
 40
1.0
  9
$TEXTSTYLE
  7
STANDARD
  9
$CLAYER
  8
DATA
  9
$CELTYPE
  6
BYLAYER
  9
$CECOLOR
 62
   256
  9
$DIMSCALE
 40
1.0
  9
$DIMASZ
 40
0.18
  9
$DIMEXO
 40
0.0625
  9
$DIMDLI
 40
0.38
  9
$DIMRND
 40
0.0
  9
$DIMDLE
 40
0.0
  9
$DIMEXE
 40
0.18
  9
$DIMTP
 40
0.0
  9
$DIMTM
 40
0.0
  9
$DIMTXT
 40
0.18
  9
$DIMCEN
 40
0.09
  9
$DIMTSZ
 40
0.0
  9
$DIMTOL
 70
     0
  9
$DIMLIM
 70
     0
  9
$DIMTIH
 70
     1
  9
$DIMTOH
 70
     1
  9
$DIMSE1
 70
     0
  9
$DIMSE2
 70
     0
  9
$DIMTAD
 70
     0
  9
$DIMZIN
 70
     0
  9
$DIMBLK
  1

  9
$DIMASO
 70
     1
  9
$DIMSHO
 70
     1
  9
$DIMPOST
  1

  9
$DIMAPOST
  1

  9
$DIMALT
 70
     0
  9
$DIMALTD
 70
     2
  9
$DIMALTF
 40
25.399999999999999
  9
$DIMLFAC
 40
1.0
  9
$DIMTOFL
 70
     0
  9
$DIMTVP
 40
0.0
  9
$DIMTIX
 70
     0
  9
$DIMSOXD
 70
     0
  9
$DIMSAH
 70
     0
  9
$DIMBLK1
  1

  9
$DIMBLK2
  1

  9
$DIMSTYLE
  2
STANDARD
  9
$DIMCLRD
 70
     0
  9
$DIMCLRE
 70
     0
  9
$DIMCLRT
 70
     0
  9
$DIMTFAC
 40
1.0
  9
$DIMGAP
 40
0.09
  9
$LUNITS
 70
     2
  9
$LUPREC
 70
     4
  9
$SKETCHINC
 40
0.1
  9
$FILLETRAD
 40
0.0
  9
$AUNITS
 70
     0
  9
$AUPREC
 70
     0
  9
$MENU
  1
acad
  9
$ELEVATION
 40
0.0
  9
$PELEVATION
 40
0.0
  9
$THICKNESS
 40
0.0
  9
$LIMCHECK
 70
     0
  9
$BLIPMODE
 70
     0
  9
$CHAMFERA
 40
0.0
  9
$CHAMFERB
 40
0.0
  9
$SKPOLY
 70
     0
  9
$TDCREATE
 40
2456114.6303125001
  9
$TDUPDATE
 40
2456114.6309563308
  9
$TDINDWG
 40
0.0003201042
  9
$TDUSRTIMER
 40
0.0003199306
  9
$USRTIMER
 70
     1
  9
$ANGBASE
 50
0.0
  9
$ANGDIR
 70
     0
  9
$PDMODE
 70
     1
  9
$PDSIZE
 40
-2.0
  9
$PLINEWID
 40
0.0
  9
$COORDS
 70
     2
  9
$SPLFRAME
 70
     0
  9
$SPLINETYPE
 70
     6
  9
$SPLINESEGS
 70
     8
  9
$ATTDIA
 70
     0
  9
$ATTREQ
 70
     1
  9
$HANDLING
 70
     1
  9
$HANDSEED
  5
65C
  9
$SURFTAB1
 70
     6
  9
$SURFTAB2
 70
     6
  9
$SURFTYPE
 70
     6
  9
$SURFU
 70
     6
  9
$SURFV
 70
     6
  9
$UCSNAME
  2

  9
$UCSORG
 10
0.0
 20
0.0
 30
0.0
  9
$UCSXDIR
 10
1.0
 20
0.0
 30
0.0
  9
$UCSYDIR
 10
0.0
 20
1.0
 30
0.0
  9
$PUCSNAME
  2

  9
$PUCSORG
 10
0.0
 20
0.0
 30
0.0
  9
$PUCSXDIR
 10
1.0
 20
0.0
 30
0.0
  9
$PUCSYDIR
 10
0.0
 20
1.0
 30
0.0
  9
$USERI1
 70
     0
  9
$USERI2
 70
     0
  9
$USERI3
 70
     0
  9
$USERI4
 70
     0
  9
$USERI5
 70
     0
  9
$USERR1
 40
0.0
  9
$USERR2
 40
0.0
  9
$USERR3
 40
0.0
  9
$USERR4
 40
0.0
  9
$USERR5
 40
0.0
  9
$WORLDVIEW
 70
     1
  9
$SHADEDGE
 70
     3
  9
$SHADEDIF
 70
    70
  9
$TILEMODE
 70
     1
  9
$MAXACTVP
 70
    64
  9
$PLIMCHECK
 70
     0
  9
$PEXTMIN
 10
1.0000000000000000E+020
 20
1.0000000000000000E+020
 30
1.0000000000000000E+020
  9
$PEXTMAX
 10
-1.0000000000000000E+020
 20
-1.0000000000000000E+020
 30
-1.0000000000000000E+020
  9
$PLIMMIN
 10
0.0
 20
0.0
  9
$PLIMMAX
 10
12.0
 20
9.0
  9
$UNITMODE
 70
     0
  9
$VISRETAIN
 70
     0
  9
$PLINEGEN
 70
     1
  9
$PSLTSCALE
 70
     0
  0
ENDSEC
  0
SECTION
  2
TABLES
  0
TABLE
  2
VPORT
 70
     1
  0
VPORT
  2
*ACTIVE
 70
     0
 10
0.0
 20
0.0
 11
1.0
 21
1.0
 12
100.0000062864278
 22
136.46636143234969
 13
0.0
 23
0.0
 14
1.0
 24
1.0
 15
0.0
 25
0.0
 16
0.0
 26
0.0
 36
1.0
 17
0.0
 27
0.0
 37
0.0
 40
4037.3906329441229
 41
2.172503242542152
 42
50.0
 43
0.0
 44
0.0
 50
0.0
 51
0.0
 71
     0
 72
  2000
 73
     1
 74
     1
 75
     0
 76
     0
 77
     0
 78
     0
  0
ENDTAB
  0
TABLE
  2
LTYPE
 70
    12
  0
LTYPE
  2
CONTINUOUS
 70
     0
  3
Solid line
 72
    65
 73
     0
 40
0.0
  0
LTYPE
  2
PHANTOM2
 70
     0
  3
___ _ _ ___ _ _ ___ _ _ ___ _ _
 72
    65
 73
     6
 40
1.25
 49
0.625
 49
-0.125
 49
0.125
 49
-0.125
 49
0.125
 49
-0.125
  0
ENDTAB
  0
TABLE
  2
LAYER
 70
     5
  0
LAYER
  2
0
 70
     0
 62
     7
  6
CONTINUOUS
  0
LAYER
  2
DATA
 70
     0
 62
     7
  6
CONTINUOUS
  0
LAYER
  2
HIBINO-BASE
 70
     0
 62
     7
  6
CONTINUOUS
  0
LAYER
  2
SPEC
 70
     0
 62
     7
  6
CONTINUOUS
  0
LAYER
  2
DIMNSIONS
 70
     0
 62
     7
  6
CONTINUOUS
  0
ENDTAB
  0
TABLE
  2
STYLE
 70
     3
  0
STYLE
  2
STANDARD
 70
     0
 40
0.0
 41
1.0
 50
0.0
 71
     0
 42
0.0
  3
txt
  4
BIGFONT.SHX
  0
ENDTAB
  0
TABLE
  2
VIEW
 70
     0
  0
ENDTAB
  0
TABLE
  2
UCS
 70
     0
  0
ENDTAB
  0
TABLE
  2
APPID
 70
     4
  0
APPID
  2
ACAD
 70
     0
  0
APPID
  2
ACADANNOTATIVE
 70
     0
  0
APPID
  2
ACAD_NAV_VCDISPLAY
 70
     0
  0
APPID
  2
ACAD_MLEADERVER
 70
     0
  0
ENDTAB
  0
TABLE
  2
DIMSTYLE
 70
     2
  0
DIMSTYLE
  2
STANDARD
 70
     0
  3

  4

  5

  6

  7

 40
1.0
 41
0.18
 42
0.0625
 43
0.38
 44
0.18
 45
0.0
 46
0.0
 47
0.0
 48
0.0
140
0.18
141
0.09
142
0.0
143
25.399999999999999
144
1.0
145
0.0
146
1.0
147
0.09
 71
     0
 72
     0
 73
     1
 74
     1
 75
     0
 76
     0
 77
     0
 78
     0
170
     0
171
     2
172
     0
173
     0
174
     0
175
     0
176
     0
177
     0
178
     0
  0
ENDTAB
  0
ENDSEC
  0
SECTION
  2
BLOCKS
  0
BLOCK
  8
0
  2
$MODEL_SPACE
 70
     0
 10
0.0
 20
0.0
 30
0.0
  3
$MODEL_SPACE
  1

  0
ENDBLK
  5
5EF
  8
0
  0
BLOCK
 67
     1
  8
0
  2
$PAPER_SPACE
 70
     0
 10
0.0
 20
0.0
 30
0.0
  3
$PAPER_SPACE
  1

  0
ENDBLK
  5
5EB
 67
     1
  8
0
  0
ENDSEC
  0
SECTION
  2
ENTITIES
  0
LINE
  5
2C
  8
HIBINO-BASE
  6
CONTINUOUS
 62
     7
 10
-1250.0
 20
2139.4710705281232
 30
0.0
 11
1450.0
 21
2139.4710705281232
 31
0.0
  0
LINE
  5
2D
  8
HIBINO-BASE
  6
CONTINUOUS
 62
     7
 10
1450.0
 20
-1760.5289294718771
 30
0.0
 11
-1250.0
 21
-1760.5289294718771
 31
0.0
  0
LINE
  5
2E
  8
HIBINO-BASE
  6
CONTINUOUS
 62
     7
 10
-1250.0
 20
-1760.5289294718771
 30
0.0
 11
-1250.0
 21
2139.4710705281232
 31
0.0
  0
LINE
  5
2F
  8
HIBINO-BASE
  6
CONTINUOUS
 62
     7
 10
1450.0
 20
2139.4710705281232
 30
0.0
 11
1450.0
 21
-1760.5289294718771
 31
0.0
  0
LINE
  5
30
  8
HIBINO-BASE
  6
CONTINUOUS
 62
     7
 10
100.0
 20
-1423.0289294718771
 30
0.0
 11
1450.0
 21
-1423.0289294718771
 31
0.0
  0
LINE
  5
31
  8
HIBINO-BASE
  6
CONTINUOUS
 62
     7
 10
100.0
 20
-1760.5289294718771
 30
0.0
 11
100.0
 21
-1423.0289294718771
 31
0.0
  0
TEXT
  5
32
  8
HIBINO-BASE
 62
     7
 10
113.5
 20
-1460.6593294718771
 30
0.0
 40
24.4326171875
  1
NOTE
 41
0.7
 11
113.5
 21
-1436.2267122843771
 31
0.0
 73
     3
  0
LINE
  5
33
  8
HIBINO-BASE
  6
CONTINUOUS
 62
     7
 10
625.0
 20
-1760.5289294718771
 30
0.0
 11
625.0
 21
-1423.0289294718771
 31
0.0
  0
TEXT
  5
34
  8
HIBINO-BASE
 62
     7
 10
638.49999999999989
 20
-1460.6593294718771
 30
0.0
 40
24.4326171875
  1
TITLE
 41
0.7
 11
638.49999999999989
 21
-1436.2267122843771
 31
0.0
 73
     3
  0
LINE
  5
35
  8
HIBINO-BASE
  6
CONTINUOUS
 62
     7
 10
100.0
 20
-1610.5289294718771
 30
0.0
 11
1450.0
 21
-1610.5289294718771
 31
0.0
  0
TEXT
  5
36
  8
HIBINO-BASE
 62
     7
 10
826.0
 20
-1647.314529471877
 30
0.0
 40
24.4326171875
  1
DRAWN
 41
0.7
 11
826.0
 21
-1622.881912284377
 31
0.0
 73
     3
  0
TEXT
  5
37
  8
HIBINO-BASE
 62
     7
 10
451.0
 20
-1647.314529471877
 30
0.0
 40
24.4326171875
  1
DATE
 41
0.7
 11
451.0
 21
-1622.881912284377
 31
0.0
 73
     3
  0
TEXT
  5
38
  8
HIBINO-BASE
 62
     7
 10
300.99999999999989
 20
-1647.314529471877
 30
0.0
 40
24.4326171875
  1
SCALE
 41
0.7
 11
300.99999999999989
 21
-1622.881912284377
 31
0.0
 73
     3
  0
TEXT
  5
39
  8
HIBINO-BASE
 62
     7
 10
638.49999999999989
 20
-1647.314529471877
 30
0.0
 40
24.4326171875
  1
DESIGN
 41
0.7
 11
638.49999999999989
 21
-1622.881912284377
 31
0.0
 73
     3
  0
TEXT
  5
3A
  8
HIBINO-BASE
 62
     7
 10
1201.0
 20
-1647.314529471877
 30
0.0
 40
24.4326171875
  1
DRAWING NO.
 41
0.7
 11
1201.0
 21
-1622.881912284377
 31
0.0
 73
     3
  0
TEXT
  5
3B
  8
HIBINO-BASE
 62
     7
 10
1013.5
 20
-1647.314529471877
 30
0.0
 40
24.4326171875
  1
CHECK
 41
0.7
 11
1013.5
 21
-1622.881912284377
 31
0.0
 73
     3
  0
LINE
  5
3C
  8
HIBINO-BASE
  6
CONTINUOUS
 62
     7
 10
315.625
 20
-1741.7789294718771
 30
0.0
 11
371.875
 21
-1685.5289294718771
 31
0.0
  0
TEXT
  5
3D
  8
HIBINO-BASE
 62
     7
 10
306.25
 20
-1702.1630794718769
 30
0.0
 40
24.4326171875
  1
1
 41
0.7
 11
306.25
 21
-1677.7304622843769
 31
0.0
 73
     3
  0
LINE
  5
3E
  8
HIBINO-BASE
  6
CONTINUOUS
 62
     7
 10
287.5
 20
-1760.5289294718771
 30
0.0
 11
287.5
 21
-1610.5289294718771
 31
0.0
  0
LINE
  5
3F
  8
HIBINO-BASE
  6
CONTINUOUS
 62
     7
 10
437.5
 20
-1760.5289294718771
 30
0.0
 11
437.5
 21
-1610.5289294718771
 31
0.0
  0
LINE
  5
40
  8
HIBINO-BASE
  6
CONTINUOUS
 62
     7
 10
812.5
 20
-1610.5289294718771
 30
0.0
 11
812.5
 21
-1760.5289294718771
 31
0.0
  0
LINE
  5
41
  8
HIBINO-BASE
  6
CONTINUOUS
 62
     7
 10
1187.5
 20
-1610.5289294718771
 30
0.0
 11
1187.5
 21
-1760.5289294718771
 31
0.0
  0
LINE
  5
42
  8
HIBINO-BASE
  6
CONTINUOUS
 62
     7
 10
1000.0
 20
-1760.5289294718771
 30
0.0
 11
1000.0
 21
-1610.5289294718771
 31
0.0
  0
TEXT
  5
43
  8
HIBINO-BASE
 62
     7
 10
450.34809999999987
 20
-1717.5742294718771
 30
0.0
 40
24.4326171875
  1
'11.05.
 41
0.7
 11
450.34809999999987
 21
-1693.1416122843771
 31
0.0
 73
     3
  0
TEXT
  5
44
  8
HIBINO-BASE
 62
     7
 10
362.5
 20
-1730.2880794718769
 30
0.0
 40
24.4326171875
  1
15
 41
0.7
 11
362.5
 21
-1705.8554622843769
 31
0.0
 73
     3
  0
TEXT
  5
45
  8
HIBINO-BASE
 62
     7
 10
835.08715016551946
 20
-1717.5742294718771
 30
0.0
 40
24.4326171875
  1
T.Ootake
 41
0.7
 11
835.08715016551946
 21
-1693.1416122843771
 31
0.0
 73
     3
  0
TEXT
  5
46
  8
HIBINO-BASE
 62
     7
 10
158.2500000000002
 20
-1730.888929471877
 30
0.0
 40
48.865234374999993
  1
A4
 41
0.7
 11
158.2500000000002
 21
-1682.023695096877
 31
0.0
 73
     3
  0
TEXT
  5
47
  8
HIBINO-BASE
 62
     7
 10
114.3749999999999
 20
-1649.8207544718771
 30
0.0
 40
24.4326171875
  1
PAPER SIZE
 41
0.7
 11
114.3749999999999
 21
-1625.3881372843771
 31
0.0
 73
     3
  0
TEXT
  5
48
  8
HIBINO-BASE
 62
     7
 10
-1208.605471146647
 20
-1856.9075329845209
 30
0.0
 40
52.937337239583321
  1
Hibino-Intersound Corporation
 41
0.7
 11
-1208.605471146647
 21
-1803.970195744937
 31
0.0
 73
     3
  0
TEXT
  5
49
  8
HIBINO-BASE
 62
     7
 10
402.70914520320849
 20
-1851.6412091851801
 30
0.0
 40
52.937337239583321
  1
ヒビノインターサウンド株式会社
 41
0.7
 11
402.70914520320849
 21
-1798.703871945597
 31
0.0
 73
     3
  0
TEXT
  5
4A
  8
SPEC
 62
     7
 10
-1118.75
 20
2010.3701205281229
 30
0.0
 40
36.64892578125
  1
仕様
 41
0.7
 11
-1118.75
 21
2047.0190463093729
 31
0.0
 73
     3
  0
LINE
  5
4B
  8
SPEC
  6
CONTINUOUS
 62
     7
 10
-1137.5
 20
1989.471070528122
 30
0.0
 11
1075.0
 21
1989.471070528122
 31
0.0
  0
LINE
  5
4C
  8
SPEC
  6
CONTINUOUS
 62
     7
 10
-1137.5
 20
1933.221070528122
 30
0.0
 11
1075.0
 21
1933.221070528122
 31
0.0
  0
LINE
  5
4D
  8
SPEC
  6
CONTINUOUS
 62
     7
 10
-1137.5
 20
1820.721070528122
 30
0.0
 11
1075.0
 21
1820.721070528122
 31
0.0
  0
LINE
  5
4E
  8
SPEC
  6
CONTINUOUS
 62
     7
 10
-1137.5
 20
1708.221070528122
 30
0.0
 11
1075.0
 21
1708.221070528122
 31
0.0
  0
LINE
  5
4F
  8
SPEC
  6
CONTINUOUS
 62
     7
 10
-1137.5
 20
1764.471070528122
 30
0.0
 11
1075.0
 21
1764.471070528122
 31
0.0
  0
LINE
  5
50
  8
SPEC
  6
CONTINUOUS
 62
     7
 10
-1137.5
 20
1989.471070528122
 30
0.0
 11
-1137.5
 21
1033.221070528122
 31
0.0
  0
LINE
  5
51
  8
SPEC
  6
CONTINUOUS
 62
     7
 10
-649.99999999999989
 20
1989.471070528122
 30
0.0
 11
-650.0
 21
1033.221070528122
 31
0.0
  0
LINE
  5
52
  8
SPEC
  6
CONTINUOUS
 62
     7
 10
1075.0
 20
1989.471070528122
 30
0.0
 11
1075.0
 21
1033.221070528122
 31
0.0
  0
LINE
  5
53
  8
SPEC
  6
CONTINUOUS
 62
     7
 10
-1137.5
 20
1651.971070528122
 30
0.0
 11
1075.0
 21
1651.971070528122
 31
0.0
  0
LINE
  5
54
  8
SPEC
  6
CONTINUOUS
 62
     7
 10
-1137.5
 20
1595.721070528122
 30
0.0
 11
1075.0
 21
1595.721070528122
 31
0.0
  0
LINE
  5
55
  8
SPEC
  6
CONTINUOUS
 62
     7
 10
-1137.5
 20
1539.471070528122
 30
0.0
 11
1075.0
 21
1539.471070528122
 31
0.0
  0
LINE
  5
56
  8
SPEC
  6
CONTINUOUS
 62
     7
 10
-649.99999999999989
 20
1483.221070528122
 30
0.0
 11
1075.0
 21
1483.221070528122
 31
0.0
  0
LINE
  5
57
  8
SPEC
  6
CONTINUOUS
 62
     7
 10
-1137.5
 20
1426.971070528122
 30
0.0
 11
1075.0
 21
1426.971070528122
 31
0.0
  0
LINE
  5
58
  8
SPEC
  6
CONTINUOUS
 62
     7
 10
-1137.5
 20
1370.721070528122
 30
0.0
 11
1075.0
 21
1370.721070528122
 31
0.0
  0
LINE
  5
59
  8
SPEC
  6
CONTINUOUS
 62
     7
 10
-1137.5
 20
1314.471070528122
 30
0.0
 11
1075.0
 21
1314.471070528122
 31
0.0
  0
LINE
  5
5A
  8
SPEC
  6
CONTINUOUS
 62
     7
 10
-1137.5
 20
1258.221070528122
 30
0.0
 11
1075.0
 21
1258.221070528122
 31
0.0
  0
LINE
  5
5B
  8
SPEC
  6
CONTINUOUS
 62
     7
 10
-1137.5
 20
1201.971070528122
 30
0.0
 11
1075.0
 21
1201.971070528122
 31
0.0
  0
LINE
  5
5C
  8
SPEC
  6
CONTINUOUS
 62
     7
 10
-1137.5
 20
1145.721070528122
 30
0.0
 11
1075.0
 21
1145.721070528122
 31
0.0
  0
TEXT
  5
5D
  8
SPEC
 62
     7
 10
-1125.669045814177
 20
1216.954772264771
 30
0.0
 40
28.504720052083329
  1
エンクロージャー
 41
0.7
 11
-1125.669045814177
 21
1245.459492316854
 31
0.0
 73
     3
  0
TEXT
  5
5E
  8
SPEC
 62
     7
 10
-635.67086744805556
 20
1102.757669798365
 30
0.0
 40
28.504720052083329
  1
348(W)\U+00D7630(H)\U+00D7320(D)mm(突起部含まず）
 41
0.7
 11
-635.67086744805556
 21
1131.262389850448
 31
0.0
 73
     3
  0
TEXT
  5
5F
  8
SPEC
 62
     7
 10
-637.02083333333303
 20
1160.0705715598531
 30
0.0
 40
28.504720052083329
  1
黒
 41
0.7
 11
-637.02083333333303
 21
1188.5752916119361
 31
0.0
 73
     3
  0
TEXT
  5
60
  8
SPEC
 62
     7
 10
-1124.1042327804989
 20
1161.303402156831
 30
0.0
 40
28.504720052083329
  1
仕上げ
 41
0.7
 11
-1124.1042327804989
 21
1189.808122208914
 31
0.0
 73
     3
  0
TEXT
  5
61
  8
SPEC
 62
     7
 10
-1124.601519865879
 20
1329.9155472687271
 30
0.0
 40
28.504720052083329
  1
入力コネクター
 41
0.7
 11
-1124.601519865879
 21
1358.4202673208099
 31
0.0
 73
     3
  0
TEXT
  5
62
  8
SPEC
 62
     7
 10
-636.18981026699521
 20
1327.1295708012969
 30
0.0
 40
28.504720052083329
  1
2\U+00D7Neutrik NL4MP
 41
0.7
 11
-636.18981026699521
 21
1355.63429085338
 31
0.0
 73
     3
  0
TEXT
  5
63
  8
SPEC
 62
     7
 10
-1124.6613089117029
 20
1272.5116799327591
 30
0.0
 40
28.504720052083329
  1
公称インピーダンス
 41
0.7
 11
-1124.6613089117029
 21
1301.0163999848421
 31
0.0
 73
     3
  0
TEXT
  5
64
  8
SPEC
 62
     7
 10
-636.31755831573355
 20
1270.520726466114
 30
0.0
 40
28.504720052083329
  1
8\U+03A9
 41
0.7
 11
-636.31755831573355
 21
1299.025446518197
 31
0.0
 73
     3
  0
TEXT
  5
65
  8
SPEC
 62
     7
 10
-1125.0126584846871
 20
1890.9076287395769
 30
0.0
 40
28.504720052083329
  1
形式
 41
0.7
 11
-1125.0126584846871
 21
1919.41234879166
 31
0.0
 73
     3
  0
TEXT
  5
66
  8
SPEC
 62
     7
 10
-636.48192368489993
 20
1890.5538809044481
 30
0.0
 40
28.504720052083329
  1
3-Way フルレンジ・スピーカーシステム
 41
0.7
 11
-636.48192368489993
 21
1919.058600956532
 31
0.0
 73
     3
  0
TEXT
  5
67
  8
SPEC
 62
     7
 10
-1124.4746630620009
 20
1779.332740697929
 30
0.0
 40
28.504720052083329
  1
周波数特性
 41
0.7
 11
-1124.4746630620009
 21
1807.837460750013
 31
0.0
 73
     3
  0
TEXT
  5
68
  8
SPEC
 62
     7
 10
-1124.6851515934679
 20
1723.739878204555
 30
0.0
 40
28.504720052083329
  1
許容入力(AES/ピーク）
 41
0.7
 11
-1124.6851515934679
 21
1752.244598256638
 31
0.0
 73
     3
  0
TEXT
  5
69
  8
SPEC
 62
     7
 10
-1124.95100959824
 20
1666.3367903705989
 30
0.0
 40
28.504720052083329
  1
感度
 41
0.7
 11
-1124.95100959824
 21
1694.8415104226819
 31
0.0
 73
     3
  0
TEXT
  5
6A
  8
SPEC
 62
     7
 10
-1124.061759013279
 20
1609.5275216887619
 30
0.0
 40
28.504720052083329
  1
最大音圧
 41
0.7
 11
-1124.061759013279
 21
1638.0322417408461
 31
0.0
 73
     3
  0
TEXT
  5
6B
  8
SPEC
 62
     7
 10
-1126.9238918044341
 20
1554.163628456623
 30
0.0
 40
28.504720052083329
  1
カバレージ角
 41
0.7
 11
-1126.9238918044341
 21
1582.668348508706
 31
0.0
 73
     3
  0
TEXT
  5
6C
  8
SPEC
 62
     7
 10
-1135.8775726487941
 20
1498.4671996116849
 30
0.0
 40
28.504720052083329
  1
ドライバー構成
 41
0.7
 11
-1135.8775726487941
 21
1526.9719196637679
 31
0.0
 73
     3
  0
TEXT
  5
6D
  8
SPEC
 62
     7
 10
-1126.471587995183
 20
1385.1089504469739
 30
0.0
 40
28.504720052083329
  1
クロスオーバー
 41
0.7
 11
-1126.471587995183
 21
1413.6136704990579
 31
0.0
 73
     3
  0
TEXT
  5
6E
  8
SPEC
 62
     7
 10
-1125.1979001382081
 20
1104.820407312362
 30
0.0
 40
28.504720052083329
  1
寸法
 41
0.7
 11
-1125.1979001382081
 21
1133.3251273644451
 31
0.0
 73
     3
  0
TEXT
  5
6F
  8
SPEC
 62
     7
 10
-636.83241855456731
 20
1046.6946491523031
 30
0.0
 40
28.504720052083329
  1
約21.5kg
 41
0.7
 11
-636.83241855456731
 21
1075.1993692043859
 31
0.0
 73
     3
  0
TEXT
  5
70
  8
SPEC
 62
     7
 10
-1125.0646197390081
 20
1048.2160900059289
 30
0.0
 40
28.504720052083329
  1
重量
 41
0.7
 11
-1125.0646197390081
 21
1076.7208100580119
 31
0.0
 73
     3
  0
TEXT
  5
71
  8
SPEC
 62
     7
 10
-636.18228146724869
 20
1776.97278617098
 30
0.0
 40
28.504720052083329
  1
60Hz～21kHz(-3dB)
 41
0.7
 11
-636.18228146724869
 21
1805.477506223064
 31
0.0
 73
     3
  0
TEXT
  5
72
  8
SPEC
 62
     7
 10
-638.73948746270059
 20
1720.7516091398429
 30
0.0
 40
28.504720052083329
  1
1000W/4000W
 41
0.7
 11
-638.73948746270059
 21
1749.2563291919271
 31
0.0
 73
     3
  0
TEXT
  5
73
  8
SPEC
 62
     7
 10
-635.81151909252526
 20
1665.04588544485
 30
0.0
 40
28.504720052083329
  1
98dB
 41
0.7
 11
-635.81151909252526
 21
1693.550605496933
 31
0.0
 73
     3
  0
TEXT
  5
74
  8
SPEC
 62
     7
 10
-638.73793878201752
 20
1608.1137952398369
 30
0.0
 40
28.504720052083329
  1
134dB
 41
0.7
 11
-638.73793878201752
 21
1636.6185152919199
 31
0.0
 73
     3
  0
TEXT
  5
75
  8
SPEC
 62
     7
 10
-636.77926249873042
 20
1552.898307078344
 30
0.0
 40
28.504720052083329
  1
90\U+00B0\U+00D760\U+00B0
 41
0.7
 11
-636.77926249873042
 21
1581.403027130428
 31
0.0
 73
     3
  0
TEXT
  5
76
  8
SPEC
 62
     7
 10
-636.64192804436641
 20
1496.7384147240871
 30
0.0
 40
28.504720052083329
  1
低域：1\U+00D712インチネオジム磁石採用、4インチボイスコイル
 41
0.7
 11
-636.64192804436641
 21
1525.2431347761701
 31
0.0
 73
     3
  0
TEXT
  5
77
  8
SPEC
 62
     7
 10
-639.32149895591465
 20
1441.2617640738149
 30
0.0
 40
28.504720052083329
  1
中高域：1.4インチネオジム磁石採用コアキシャルドライバー、3.5インチ+1.75インチボイスコイル 
 41
0.7
 11
-639.32149895591465
 21
1469.7664841258991
 31
0.0
 73
     3
  0
TEXT
  5
78
  8
SPEC
 62
     7
 10
-637.19891253044682
 20
1384.952332946538
 30
0.0
 40
28.504720052083329
  1
バッシブ：750Hz、6.3kHz
 41
0.7
 11
-637.19891253044682
 21
1413.4570529986211
 31
0.0
 73
     3
  0
TEXT
  5
79
  8
SPEC
 62
     7
 10
-637.35697357009121
 20
1216.030147331476
 30
0.0
 40
28.504720052083329
  1
合板
 41
0.7
 11
-637.35697357009121
 21
1244.534867383559
 31
0.0
 73
     3
  0
LINE
  5
7A
  8
SPEC
  6
CONTINUOUS
 62
     7
 10
-1137.5
 20
1089.471070528122
 30
0.0
 11
1075.0
 21
1089.471070528122
 31
0.0
  0
LINE
  5
7B
  8
SPEC
  6
CONTINUOUS
 62
     7
 10
-1137.5
 20
1033.221070528122
 30
0.0
 11
1075.0
 21
1033.221070528122
 31
0.0
  0
LINE
  5
7C
  8
SPEC
  6
CONTINUOUS
 62
     7
 10
-649.99999999999989
 20
1876.971070528122
 30
0.0
 11
1075.0
 21
1876.971070528122
 31
0.0
  0
LINE
  5
7D
  8
SPEC
  6
CONTINUOUS
 62
     7
 10
300.0
 20
1989.471070528122
 30
0.0
 11
300.0
 21
1933.221070528122
 31
0.0
  0
LINE
  5
7E
  8
SPEC
  6
CONTINUOUS
 62
     7
 10
300.0
 20
1876.971070528122
 30
0.0
 11
300.0
 21
1820.721070528122
 31
0.0
  0
TEXT
  5
7F
  8
SPEC
 62
     7
 10
-636.18228146724869
 20
1833.222786170981
 30
0.0
 40
28.504720052083329
  1
L仕様
 41
0.7
 11
-636.18228146724869
 21
1861.727506223064
 31
0.0
 73
     3
  0
TEXT
  5
80
  8
SPEC
 62
     7
 10
-383.34375
 20
1946.803880904449
 30
0.0
 40
28.504720052083329
  1
G712-96-L
 41
0.7
 11
-383.34375
 21
1975.308600956532
 31
0.0
 73
     3
  0
TEXT
  5
81
  8
SPEC
 62
     7
 10
466.65625
 20
1946.803880904449
 30
0.0
 40
28.504720052083329
  1
G712-96-R
 41
0.7
 11
466.65625
 21
1975.308600956532
 31
0.0
 73
     3
  0
TEXT
  5
82
  8
SPEC
 62
     7
 10
313.81771853275092
 20
1833.222786170981
 30
0.0
 40
28.504720052083329
  1
R仕様
 41
0.7
 11
313.81771853275092
 21
1861.727506223064
 31
0.0
 73
     3
  0
TEXT
  5
83
  8
DIMNSIONS
 62
     7
 10
-200.0
 20
-1576.4865794718769
 30
0.0
 40
36.64892578125
  1
(単位：mm)
 41
0.7
 11
-200.0
 21
-1539.8376536906269
 31
0.0
 73
     3
  0
LINE
  5
84
  8
DIMNSIONS
  6
CONTINUOUS
 62
     7
 10
-200.0
 20
-630.0
 30
0.0
 11
-200.0
 21
-780.00000000013142
 31
0.0
  0
LINE
  5
85
  8
DIMNSIONS
  6
CONTINUOUS
 62
     7
 10
148.0000000000008
 20
-629.99999999999739
 30
0.0
 11
148.0000000000008
 21
-780.00000000013142
 31
0.0
  0
LINE
  5
86
  8
DIMNSIONS
  6
CONTINUOUS
 62
     7
 10
-200.0
 20
-750.00000000013142
 30
0.0
 11
148.0000000000008
 21
-750.00000000013142
 31
0.0
  0
LINE
  5
87
  8
DIMNSIONS
  6
CONTINUOUS
 62
     7
 10
-200.0
 20
-750.00000000013142
 30
0.0
 11
-162.49066162109369
 21
-739.94940307287766
 31
0.0
  0
LINE
  5
88
  8
DIMNSIONS
  6
CONTINUOUS
 62
     7
 10
-200.0
 20
-750.00000000013142
 30
0.0
 11
-162.49066162109369
 21
-760.05059692738485
 31
0.0
  0
LINE
  5
89
  8
DIMNSIONS
  6
CONTINUOUS
 62
     7
 10
148.0000000000008
 20
-750.00000000013142
 30
0.0
 11
110.4906616210946
 21
-760.05059692738485
 31
0.0
  0
LINE
  5
8A
  8
DIMNSIONS
  6
CONTINUOUS
 62
     7
 10
148.0000000000008
 20
-750.00000000013142
 30
0.0
 11
110.4906616210946
 21
-739.94940307287766
 31
0.0
  0
TEXT
  5
8B
  8
DIMNSIONS
 62
     7
 10
-65.687499999999574
 20
-735.09166666679823
 30
0.0
 40
40.721028645833343
  1
348
 41
0.7
 11
-65.687499999999574
 21
-694.37063802096475
 31
0.0
 73
     3
  0
LINE
  5
8C
  8
DIMNSIONS
  6
CONTINUOUS
 62
     7
 10
-230.0
 20
-600.0
 30
0.0
 11
-380.00000000022931
 21
-600.0
 31
0.0
  0
LINE
  5
8D
  8
DIMNSIONS
  6
CONTINUOUS
 62
     7
 10
-230.0000000000073
 20
30.000000000000249
 30
0.0
 11
-380.00000000022931
 21
30.000000000000249
 31
0.0
  0
LINE
  5
8E
  8
DIMNSIONS
  6
CONTINUOUS
 62
     7
 10
-350.00000000022942
 20
-600.0
 30
0.0
 11
-350.00000000022942
 21
30.000000000000249
 31
0.0
  0
LINE
  5
8F
  8
DIMNSIONS
  6
CONTINUOUS
 62
     7
 10
-350.00000000022942
 20
-600.0
 30
0.0
 11
-360.05059692748301
 21
-562.49066162109375
 31
0.0
  0
LINE
  5
90
  8
DIMNSIONS
  6
CONTINUOUS
 62
     7
 10
-350.00000000022942
 20
-600.0
 30
0.0
 11
-339.94940307297571
 21
-562.49066162109375
 31
0.0
  0
LINE
  5
91
  8
DIMNSIONS
  6
CONTINUOUS
 62
     7
 10
-350.00000000022942
 20
30.000000000000249
 30
0.0
 11
-339.94940307297571
 21
-7.5093383789059933
 31
0.0
  0
LINE
  5
92
  8
DIMNSIONS
  6
CONTINUOUS
 62
     7
 10
-350.00000000022942
 20
30.000000000000249
 30
0.0
 11
-360.05059692748301
 21
-7.5093383789059933
 31
0.0
  0
TEXT
  5
93
  8
DIMNSIONS
 62
     7
 10
-364.90833333356261
 20
-324.68749999999989
 30
0.0
 40
40.721028645833343
  1
630
 50
90.0
 41
0.7
 11
-405.62936197939598
 21
-324.68749999999989
 31
0.0
 73
     3
  0
LINE
  5
94
  8
DIMNSIONS
  6
CONTINUOUS
 62
     7
 10
-116.00000000022941
 20
200.0014423493383
 30
0.0
 11
-380.00000000022931
 21
200.0014423493383
 31
0.0
  0
LINE
  5
95
  8
DIMNSIONS
  6
CONTINUOUS
 62
     7
 10
-129.00000000022931
 20
520.00000000000011
 30
0.0
 11
-380.00000000022931
 21
520.00000000000011
 31
0.0
  0
LINE
  5
96
  8
DIMNSIONS
  6
CONTINUOUS
 62
     7
 10
-350.00000000022942
 20
200.0014423493383
 30
0.0
 11
-350.00000000022942
 21
520.00000000000011
 31
0.0
  0
LINE
  5
97
  8
DIMNSIONS
  6
CONTINUOUS
 62
     7
 10
-350.00000000022942
 20
200.0014423493383
 30
0.0
 11
-360.05059692748301
 21
237.5107807282445
 31
0.0
  0
LINE
  5
98
  8
DIMNSIONS
  6
CONTINUOUS
 62
     7
 10
-350.00000000022942
 20
200.0014423493383
 30
0.0
 11
-339.94940307297571
 21
237.5107807282445
 31
0.0
  0
LINE
  5
99
  8
DIMNSIONS
  6
CONTINUOUS
 62
     7
 10
-350.00000000022942
 20
520.00000000000011
 30
0.0
 11
-339.94940307297571
 21
482.49066162109392
 31
0.0
  0
LINE
  5
9A
  8
DIMNSIONS
  6
CONTINUOUS
 62
     7
 10
-350.00000000022942
 20
520.00000000000011
 30
0.0
 11
-360.05059692748301
 21
482.49066162109392
 31
0.0
  0
TEXT
  5
9B
  8
DIMNSIONS
 62
     7
 10
-364.90833333356261
 20
320.31322117466931
 30
0.0
 40
40.721028645833343
  1
320
 50
90.0
 41
0.7
 11
-405.62936197939598
 21
320.31322117466931
 31
0.0
 73
     3
  0
LINE
  5
9C
  8
DIMNSIONS
  6
CONTINUOUS
 62
     7
 10
147.99986635394339
 20
430.60881211689588
 30
0.0
 11
147.99986635394339
 21
576.7319329919045
 31
0.0
  0
ARC
  5
9D
  8
DIMNSIONS
  6
CONTINUOUS
 62
     7
 10
147.99986635394339
 20
380.60881211689588
 30
0.0
 40
166.1231208750086
 50
90.0
 51
144.99998250212349
  0
LINE
  5
9E
  8
DIMNSIONS
  6
CONTINUOUS
 62
     7
 10
11.91980138492336
 20
475.89316134214903
 30
0.0
 11
25.836133589531691
 21
512.14644618902025
 31
0.0
  0
LINE
  5
9F
  8
DIMNSIONS
  6
CONTINUOUS
 62
     7
 10
11.91980138492336
 20
475.89316134214903
 30
0.0
 11
42.098341025053337
 21
500.33126088786889
 31
0.0
  0
LINE
  5
A0
  8
DIMNSIONS
  6
CONTINUOUS
 62
     7
 10
147.99986635394339
 20
546.73193299190439
 30
0.0
 11
110.4905279750372
 21
536.68133606465085
 31
0.0
  0
LINE
  5
A1
  8
DIMNSIONS
  6
CONTINUOUS
 62
     7
 10
147.99986635394339
 20
546.73193299190439
 30
0.0
 11
110.4905279750372
 21
556.78252991915815
 31
0.0
  0
TEXT
  5
A2
  8
DIMNSIONS
 62
     7
 10
28.97260681701778
 20
526.91355018287845
 30
0.0
 40
40.721046849555528
  1
55\U+00B0
 50
22.836332814062679
 41
0.7
 11
13.168764990831029
 21
564.44276866736834
 31
0.0
 73
     3
  0
LINE
  5
A3
  8
DIMNSIONS
  6
CONTINUOUS
 62
     7
 10
-199.9999448185437
 20
447.91227891377088
 30
0.0
 11
-199.9999448185437
 21
636.09354967481454
 31
0.0
  0
LINE
  5
A4
  8
DIMNSIONS
  6
CONTINUOUS
 62
     7
 10
-107.8278589638884
 20
529.5477893127196
 30
0.0
 11
-63.384870658000217
 21
593.01901701744248
 31
0.0
  0
ARC
  5
A5
  8
DIMNSIONS
  6
CONTINUOUS
 62
     7
 10
-199.9999448185437
 20
397.91227891377088
 30
0.0
 40
208.18127076104361
 50
55.000026526105927
 51
90.0
  0
LINE
  5
A6
  8
DIMNSIONS
  6
CONTINUOUS
 62
     7
 10
-199.9999448185437
 20
606.09354967481454
 30
0.0
 11
-162.49060643963739
 21
616.14414660206796
 31
0.0
  0
LINE
  5
A7
  8
DIMNSIONS
  6
CONTINUOUS
 62
     7
 10
-199.9999448185437
 20
606.09354967481454
 30
0.0
 11
-162.49060643963739
 21
596.04295274756066
 31
0.0
  0
LINE
  5
A8
  8
DIMNSIONS
  6
CONTINUOUS
 62
     7
 10
-80.592152371297018
 20
568.44444772235147
 30
0.0
 11
-117.08278915304049
 21
581.7259533403253
 31
0.0
  0
LINE
  5
A9
  8
DIMNSIONS
  6
CONTINUOUS
 62
     7
 10
-80.592152371297018
 20
568.44444772235147
 30
0.0
 11
-105.55321801557059
 21
598.19188737889453
 31
0.0
  0
TEXT
  5
AA
  8
DIMNSIONS
 62
     7
 10
-158.04471856842341
 20
623.32059332231574
 30
0.0
 40
40.721046849555528
  1
35\U+00B0
 50
336.11229180130198
 41
0.7
 11
-141.55491632002659
 21
660.55350991949445
 31
0.0
 73
     3
  0
TEXT
  5
AB
  8
DATA
 62
     7
 10
850.0
 20
-1594.2840396041599
 30
0.0
 40
36.64892578125
  1
G712-96
 41
0.7
 11
850.0
 21
-1557.6351138229099
 31
0.0
 73
     3
  0
TEXT
  5
AC
  8
DATA
 62
     7
 10
850.0
 20
-1478.7703774465151
 30
0.0
 40
36.64892578125
  1
CODA
 41
0.7
 11
850.0
 21
-1442.1214516652651
 31
0.0
 73
     3
  0
TEXT
  5
AD
  8
DATA
 62
     7
 10
-1100.0
 20
-1696.9589294718769
 30
0.0
 40
24.4326171875
  1
仕様および外観は予告なく変更されることがありますので、ご了承ください。
 41
0.7
 11
-1100.0
 21
-1672.5263122843769
 31
0.0
 73
     3
  0
TEXT
  5
AE
  8
DATA
 62
     7
 10
818.01865503068882
 20
-1535.533541380654
 30
0.0
 40
24.4326171875
  1
3Way-フルレンジ・スピーカー
 41
0.7
 11
818.01865503068882
 21
-1511.100924193154
 31
0.0
 73
     3
  0
LINE
  5
AF
  8
DATA
  6
CONTINUOUS
 62
     7
 10
147.99986690214789
 20
-1080.608812116895
 30
0.0
 11
-29.610798905661699
 21
-1204.9732200175949
 31
0.0
  0
ARC
  5
B0
  8
DATA
  6
CONTINUOUS
 62
     7
 10
121.9999795746908
 20
-940.66786895199368
 30
0.0
 40
26.000000000011831
 50
0.0
 51
78.680114483260283
  0
LINE
  5
B1
  8
DATA
  6
CONTINUOUS
 62
     7
 10
-125.035140128978
 20
-1204.973220017629
 30
0.0
 11
-199.99994427033729
 21
-1097.91227891377
 31
0.0
  0
ARC
  5
B2
  8
DATA
  6
CONTINUOUS
 62
     7
 10
-174.0000204252909
 20
-940.66786895199164
 30
0.0
 40
26.000000000008878
 50
101.31988551673879
 51
180.0
  0
LINE
  5
B3
  8
DATA
  6
CONTINUOUS
 62
     7
 10
-199.99994427033729
 20
-1097.91227891377
 30
0.0
 11
-200.00002042529999
 21
-940.66786895199095
 31
0.0
  0
CIRCLE
  5
B4
  8
DATA
  6
CONTINUOUS
 62
     7
 10
-26.000020425301852
 20
-1054.9122756467709
 30
0.0
 40
21.0
  0
CIRCLE
  5
B5
  8
DATA
  6
CONTINUOUS
 62
     7
 10
-26.000020425301852
 20
-1054.9122756467709
 30
0.0
 40
53.5
  0
ARC
  5
B6
  8
DATA
  6
CONTINUOUS
 62
     7
 10
-77.322969517343068
 20
-1136.74013514379
 30
0.0
 40
83.259864856208935
 50
235.03672521798509
 51
304.96327478203011
  0
ARC
  5
B7
  8
DATA
  6
CONTINUOUS
 62
     7
 10
-105.5532283232413
 20
-1183.801553833456
 30
0.0
 40
9.9999999999972236
 50
183.26588377230919
 51
246.868638335323
  0
ARC
  5
B8
  8
DATA
  6
CONTINUOUS
 62
     7
 10
-105.55322832324769
 20
-1184.9409451063659
 30
0.0
 40
10.000000000000449
 50
90.0
 51
176.73411622683571
  0
LINE
  5
B9
  8
DATA
  6
CONTINUOUS
 62
     7
 10
-45.553228323245897
 20
-1174.9409451063659
 30
0.0
 11
-105.55322832324769
 21
-1174.9409451063659
 31
0.0
  0
ARC
  5
BA
  8
DATA
  6
CONTINUOUS
 62
     7
 10
-75.553228323247694
 20
-1113.5740804191059
 30
0.0
 40
86.366864687260787
 50
246.86863833532431
 51
293.13136166467581
  0
ARC
  5
BB
  8
DATA
  6
CONTINUOUS
 62
     7
 10
-45.553228323250451
 20
-1183.801553833456
 30
0.0
 40
9.9999999999968328
 50
293.13136166467751
 51
356.73411622763581
  0
ARC
  5
BC
  8
DATA
  6
CONTINUOUS
 62
     7
 10
-45.553228323245897
 20
-1184.9409451063659
 30
0.0
 40
10.000000000000661
 50
3.2658837731119559
 51
89.999999999999986
  0
CIRCLE
  5
BD
  8
DATA
  6
CONTINUOUS
 62
     7
 10
-66.000020425301855
 20
-1054.912275646773
 30
0.0
 40
3.9999999999990901
  0
CIRCLE
  5
BE
  8
DATA
  6
CONTINUOUS
 62
     7
 10
-26.000020425301852
 20
-1094.912275646773
 30
0.0
 40
3.9999999999990901
  0
CIRCLE
  5
BF
  8
DATA
  6
CONTINUOUS
 62
     7
 10
-26.000020425301852
 20
-1014.9122756467719
 30
0.0
 40
3.9999999999990901
  0
CIRCLE
  5
C0
  8
DATA
  6
CONTINUOUS
 62
     7
 10
13.999979574698139
 20
-1054.912275646773
 30
0.0
 40
4.0
  0
ARC
  5
C1
  8
DATA
  6
CONTINUOUS
 62
     7
 10
-26.00002042529913
 20
-1680.0000000000441
 30
0.0
 40
780.000000000044
 50
78.68011448326034
 51
101.3198855167395
  0
LINE
  5
C2
  8
DATA
  6
CONTINUOUS
 62
     7
 10
147.9999795747008
 20
-940.66786895199323
 30
0.0
 11
147.99986690214789
 21
-1080.608812116895
 31
0.0
  0
ARC
  5
C3
  8
DATA
  6
CONTINUOUS
 62
     7
 10
121.99997902648531
 20
240.66786895199391
 30
0.0
 40
26.000000000011731
 50
281.31988551673959
 51
0.0
  0
LINE
  5
C4
  8
DATA
  6
CONTINUOUS
 62
     7
 10
-29.61079945387441
 20
504.97322001760222
 30
0.0
 11
147.99986635394339
 21
380.60881211689588
 31
0.0
  0
LINE
  5
C5
  8
DATA
  6
CONTINUOUS
 62
     7
 10
144.0000000000027
 20
-572.99999999999636
 30
0.0
 11
126.31830238725971
 21
-572.99999999999636
 31
0.0
  0
LINE
  5
C6
  8
DATA
  6
CONTINUOUS
 62
     7
 10
127.10344827585401
 20
-599.9999999999975
 30
0.0
 11
148.0000000000008
 21
-599.9999999999975
 31
0.0
  0
LINE
  5
C7
  8
DATA
  6
CONTINUOUS
 62
     7
 10
148.0000000000008
 20
-584.99999999999739
 30
0.0
 11
127.10344827585401
 21
-584.99999999999761
 31
0.0
  0
LINE
  5
C8
  8
DATA
  6
CONTINUOUS
 62
     7
 10
127.10344827584861
 20
15.000000000002469
 30
0.0
 11
147.99999999999631
 21
15.00000000000276
 31
0.0
  0
LINE
  5
C9
  8
DATA
  6
CONTINUOUS
 62
     7
 10
147.9999999999954
 20
30.00000000000248
 30
0.0
 11
127.10344827584861
 21
30.00000000000248
 31
0.0
  0
LINE
  5
CA
  8
DATA
  6
CONTINUOUS
 62
     7
 10
132.99978242326949
 20
-294.99999368156892
 30
0.0
 11
97.999935011161114
 21
-294.99999368156898
 31
0.0
  0
ARC
  5
CB
  8
DATA
  6
CONTINUOUS
 62
     7
 10
130.9999999999981
 20
-392.93489099974482
 30
0.0
 40
2.0000000000002749
 50
192.79846756443251
 51
0.0
  0
ARC
  5
CC
  8
DATA
  6
CONTINUOUS
 62
     7
 10
130.9999999999981
 20
-464.26510900025318
 30
0.0
 40
2.0
 50
0.0000000000260551
 51
167.2015324355707
  0
LINE
  5
CD
  8
DATA
  6
CONTINUOUS
 62
     7
 10
121.00017533708611
 20
9.0000263455917491
 30
0.0
 11
132.99978242326861
 21
9.0000263455917491
 31
0.0
  0
LINE
  5
CE
  8
DATA
  6
CONTINUOUS
 62
     7
 10
132.99978242326861
 20
-21.000004648823531
 30
0.0
 11
121.00017533708611
 21
-21.000004648823531
 31
0.0
  0
LINE
  5
CF
  8
DATA
  6
CONTINUOUS
 62
     7
 10
121.0001753370879
 20
-269.99998772110439
 30
0.0
 11
132.99978242326949
 21
-269.99998772110439
 31
0.0
  0
LINE
  5
D0
  8
DATA
  6
CONTINUOUS
 62
     7
 10
-199.9999448185437
 20
397.91227891377088
 30
0.0
 11
-125.0351406771853
 21
504.97322001762842
 31
0.0
  0
ARC
  5
D1
  8
DATA
  6
CONTINUOUS
 62
     7
 10
-174.00002097349909
 20
240.66786895199201
 30
0.0
 40
26.000000000010012
 50
180.0
 51
258.6801144832595
  0
LINE
  5
D2
  8
DATA
  6
CONTINUOUS
 62
     7
 10
-200.0000209735073
 20
240.66786895199201
 30
0.0
 11
-199.9999448185437
 21
397.91227891377088
 31
0.0
  0
ARC
  5
D3
  8
DATA
  6
CONTINUOUS
 62
     7
 10
-26.000020973505471
 20
980.00000000004457
 30
0.0
 40
780.00000000004445
 50
258.68011448326041
 51
281.31988551673959
  0
ARC
  5
D4
  8
DATA
  6
CONTINUOUS
 62
     7
 10
-77.322970065549399
 20
436.74013514379112
 30
0.0
 40
83.25986485620912
 50
55.036725217973711
 51
124.96327478201491
  0
CIRCLE
  5
D5
  8
DATA
  6
CONTINUOUS
 62
     7
 10
-26.000020973506381
 20
314.91227564677263
 30
0.0
 40
6.500000000021827
  0
CIRCLE
  5
D6
  8
DATA
  6
CONTINUOUS
 62
     7
 10
-26.000020973506381
 20
394.91227564677348
 30
0.0
 40
6.500000000021827
  0
ARC
  5
D7
  8
DATA
  6
CONTINUOUS
 62
     7
 10
-105.5532288714531
 20
484.9409451063666
 30
0.0
 40
10.00000000000027
 50
183.26588377316421
 51
270.0
  0
ARC
  5
D8
  8
DATA
  6
CONTINUOUS
 62
     7
 10
-105.5532288714477
 20
483.80155383345658
 30
0.0
 40
9.9999999999969376
 50
113.1313616646772
 51
176.73411622769069
  0
ARC
  5
D9
  8
DATA
  6
CONTINUOUS
 62
     7
 10
-75.553228871451324
 20
413.57408041910639
 30
0.0
 40
86.366864687261014
 50
66.868638335324334
 51
113.13136166467559
  0
LINE
  5
DA
  8
DATA
  6
CONTINUOUS
 62
     7
 10
-105.5532288714531
 20
474.94094510636671
 30
0.0
 11
-45.553228871450422
 21
474.94094510636671
 31
0.0
  0
ARC
  5
DB
  8
DATA
  6
CONTINUOUS
 62
     7
 10
-45.553228871454969
 20
483.80155383345618
 30
0.0
 40
9.9999999999953033
 50
3.2658837723908078
 51
66.868638335319972
  0
ARC
  5
DC
  8
DATA
  6
CONTINUOUS
 62
     7
 10
-45.553228871452248
 20
484.94094510636597
 30
0.0
 40
9.9999999999995435
 50
270.0
 51
356.73411622691378
  0
CIRCLE
  5
DD
  8
DATA
  6
CONTINUOUS
 62
     7
 10
-26.000020973506381
 20
314.91227564677263
 30
0.0
 40
3.4999999999790812
  0
CIRCLE
  5
DE
  8
DATA
  6
CONTINUOUS
 62
     7
 10
-26.000020973506381
 20
394.91227564677348
 30
0.0
 40
3.4999999999790812
  0
LINE
  5
DF
  8
DATA
  6
CONTINUOUS
 62
     7
 10
-178.31830238725789
 20
-572.99999999999841
 30
0.0
 11
-196.00000000000449
 21
-572.99999999999852
 31
0.0
  0
LINE
  5
E0
  8
DATA
  6
CONTINUOUS
 62
     7
 10
-200.0
 20
-600.0
 30
0.0
 11
-179.10344827585499
 21
-599.99999999999955
 31
0.0
  0
LINE
  5
E1
  8
DATA
  6
CONTINUOUS
 62
     7
 10
-179.10344827585499
 20
-584.99999999999966
 30
0.0
 11
-200.00000000000361
 21
-585.0
 31
0.0
  0
LINE
  5
E2
  8
DATA
  6
CONTINUOUS
 62
     7
 10
-196.0000000000081
 20
2.9999999999995728
 30
0.0
 11
-178.3183023872634
 21
2.9999999999997722
 31
0.0
  0
LINE
  5
E3
  8
DATA
  6
CONTINUOUS
 62
     7
 10
-200.0000000000073
 20
15.00000000000025
 30
0.0
 11
-179.10344827586039
 21
15.000000000000449
 31
0.0
  0
LINE
  5
E4
  8
DATA
  6
CONTINUOUS
 62
     7
 10
-179.10344827586039
 20
30.00000000000043
 30
0.0
 11
-200.0000000000073
 21
30.000000000000249
 31
0.0
  0
LINE
  5
E5
  8
DATA
  6
CONTINUOUS
 62
     7
 10
-200.00000000000361
 20
-585.0
 30
0.0
 11
-200.0000000000073
 21
15.00000000000025
 31
0.0
  0
LINE
  5
E6
  8
DATA
  6
CONTINUOUS
 62
     7
 10
-196.0000000000081
 20
2.9999999999995728
 30
0.0
 11
-196.00000000000449
 21
-572.99999999999852
 31
0.0
  0
LINE
  5
E7
  8
DATA
  6
CONTINUOUS
 62
     7
 10
-196.00000000000449
 20
-572.99999999999852
 30
0.0
 11
-196.0002137620294
 21
-585.00000023808195
 31
0.0
  0
LINE
  5
E8
  8
DATA
  6
CONTINUOUS
 62
     7
 10
-200.0
 20
-600.0
 30
0.0
 11
-200.00000000000361
 21
-585.0
 31
0.0
  0
LINE
  5
E9
  8
DATA
  6
CONTINUOUS
 62
     7
 10
-196.00021376203489
 20
15.00000870261465
 30
0.0
 11
-196.0000000000081
 21
2.9999999999995728
 31
0.0
  0
LINE
  5
EA
  8
DATA
  6
CONTINUOUS
 62
     7
 10
-200.0000000000073
 20
30.000000000000249
 30
0.0
 11
-200.0000000000073
 21
15.00000000000025
 31
0.0
  0
LINE
  5
EB
  8
DATA
  6
CONTINUOUS
 62
     7
 10
-185.000057359447
 20
2.999984383919553
 30
0.0
 11
-185.0000573594416
 21
-573.00000572170927
 31
0.0
  0
ARC
  5
EC
  8
DATA
  6
CONTINUOUS
 62
     7
 10
-26.00000000000184
 20
-428.5999999999994
 30
0.0
 40
150.20000000000019
 50
46.239852310357932
 51
87.07949988589192
  0
ARC
  5
ED
  8
DATA
  6
CONTINUOUS
 62
     7
 10
-26.00000000000184
 20
-428.5999999999994
 30
0.0
 40
150.2000000000001
 50
92.920500114108137
 51
133.760147689642
  0
LINE
  5
EE
  8
DATA
  6
CONTINUOUS
 62
     7
 10
-32.062168260324157
 20
-274.34999430145831
 30
0.0
 11
-34.083004136789
 21
-277.85000884499152
 31
0.0
  0
LINE
  5
EF
  8
DATA
  6
CONTINUOUS
 62
     7
 10
-17.91727079938666
 20
-277.85000884499141
 30
0.0
 11
-19.937629838693301
 21
-274.34999430145808
 31
0.0
  0
CIRCLE
  5
F0
  8
DATA
  6
CONTINUOUS
 62
     7
 10
-26.000000000005471
 20
-277.84999999999968
 30
0.0
 40
1.6000000000003629
  0
CIRCLE
  5
F1
  8
DATA
  6
CONTINUOUS
 62
     7
 10
-26.000000000005471
 20
-277.84999999999968
 30
0.0
 40
7.0
  0
CIRCLE
  5
F2
  8
DATA
  6
CONTINUOUS
 62
     7
 10
-26.000000000005471
 20
-277.84999999999968
 30
0.0
 40
4.5999999999748971
  0
LINE
  5
F3
  8
DATA
  6
CONTINUOUS
 62
     7
 10
97.999935011161114
 20
-294.99999368156898
 30
0.0
 11
97.999999999995467
 21
-167.1945909944622
 31
0.0
  0
LINE
  5
F4
  8
DATA
  6
CONTINUOUS
 62
     7
 10
-185.00000000000449
 20
-167.19459099446431
 30
0.0
 11
-185.00000000000179
 21
-392.934890999738
 31
0.0
  0
ARC
  5
F5
  8
DATA
  6
CONTINUOUS
 62
     7
 10
-26.00000000000184
 20
-428.5999999999994
 30
0.0
 40
159.0000000000006
 50
12.79846756443566
 51
167.20153243555799
  0
LINE
  5
F6
  8
DATA
  6
CONTINUOUS
 62
     7
 10
121.0001753370879
 20
-294.99999368156892
 30
0.0
 11
121.0001753370879
 21
-269.99998772110439
 31
0.0
  0
LINE
  5
F7
  8
DATA
  6
CONTINUOUS
 62
     7
 10
-19.000000000000011
 20
-583.49999999999716
 30
0.0
 11
-33.000000000000007
 21
-583.49999999999716
 31
0.0
  0
LINE
  5
F8
  8
DATA
  6
CONTINUOUS
 62
     7
 10
-179.10344827585499
 20
-599.99999999999955
 30
0.0
 11
127.10344827585401
 21
-599.9999999999975
 31
0.0
  0
LINE
  5
F9
  8
DATA
  6
CONTINUOUS
 62
     7
 10
127.10344827585401
 20
-584.99999999999761
 30
0.0
 11
-179.10344827585499
 21
-584.99999999999966
 31
0.0
  0
CIRCLE
  5
FA
  8
DATA
  6
CONTINUOUS
 62
     7
 10
-26.00000000000184
 20
-428.5999999999994
 30
0.0
 40
39.250000000000909
  0
CIRCLE
  5
FB
  8
DATA
  6
CONTINUOUS
 62
     7
 10
-26.00000000000184
 20
-428.5999999999994
 30
0.0
 40
122.6099999999997
  0
ARC
  5
FC
  8
DATA
  6
CONTINUOUS
 62
     7
 10
-26.00000000000184
 20
-428.5999999999994
 30
0.0
 40
150.20000000000019
 50
267.3287897138548
 51
268.76014768965319
  0
LINE
  5
FD
  8
DATA
  6
CONTINUOUS
 62
     7
 10
-32.062168260324157
 20
-281.34999358620257
 30
0.0
 11
-30.04133238385932
 21
-284.8500081297359
 31
0.0
  0
ARC
  5
FE
  8
DATA
  6
CONTINUOUS
 62
     7
 10
-26.00000000000184
 20
-428.5999999999994
 30
0.0
 40
150.2000000000005
 50
181.2398523103528
 51
223.76014768966471
  0
LINE
  5
FF
  8
DATA
  6
CONTINUOUS
 62
     7
 10
-185.0000573594416
 20
-573.00000572170927
 30
0.0
 11
-185.00000000000179
 21
-464.26510900025551
 31
0.0
  0
ARC
  5
100
  8
DATA
  6
CONTINUOUS
 62
     7
 10
-26.00000000000184
 20
-428.5999999999994
 30
0.0
 40
159.0
 50
192.79846756444201
 51
245.25450659013859
  0
LINE
  5
101
  8
DATA
  6
CONTINUOUS
 62
     7
 10
-33.000000000000007
 20
-572.99999999999739
 30
0.0
 11
-178.31830238725789
 21
-572.99999999999841
 31
0.0
  0
ARC
  5
102
  8
DATA
  6
CONTINUOUS
 62
     7
 10
-26.00000000000184
 20
-428.5999999999994
 30
0.0
 40
150.2000000000001
 50
226.23985231035789
 51
254.02561338732369
  0
LINE
  5
103
  8
DATA
  6
CONTINUOUS
 62
     7
 10
-178.31813826154121
 20
-585.00000023808195
 30
0.0
 11
-178.31830238725789
 21
-572.99999999999841
 31
0.0
  0
LINE
  5
104
  8
DATA
  6
CONTINUOUS
 62
     7
 10
-179.10344827585499
 20
-584.99999999999966
 30
0.0
 11
-179.10344827585499
 21
-599.99999999999955
 31
0.0
  0
ARC
  5
105
  8
DATA
  6
CONTINUOUS
 62
     7
 10
-131.53568709209591
 20
-534.13568709209164
 30
0.0
 40
3.25000000000087
 50
315.00000000000568
 51
135.0000000000085
  0
ARC
  5
106
  8
DATA
  6
CONTINUOUS
 62
     7
 10
-132.59634726387321
 20
-535.19634726387255
 30
0.0
 40
4.0000000000004112
 50
126.3431595135084
 51
323.65684048653139
  0
LINE
  5
107
  8
DATA
  6
CONTINUOUS
 62
     7
 10
-133.8337841309521
 20
-531.837590053236
 30
0.0
 11
-134.48066976150579
 21
-532.48447568378879
 31
0.0
  0
ARC
  5
108
  8
DATA
  6
CONTINUOUS
 62
     7
 10
-132.59634726387321
 20
-535.19634726387255
 30
0.0
 40
4.0000000000002274
 50
90.0
 51
95.161852191563383
  0
LINE
  5
109
  8
DATA
  6
CONTINUOUS
 62
     7
 10
-129.88447568379249
 20
-537.08066976150144
 30
0.0
 11
-129.23759005323791
 21
-536.43378413094865
 31
0.0
  0
LINE
  5
10A
  8
DATA
  6
CONTINUOUS
 62
     7
 10
-33.000000000000007
 20
-583.49999999999716
 30
0.0
 11
-33.000000000000007
 21
-572.99999999999739
 31
0.0
  0
ARC
  5
10B
  8
DATA
  6
CONTINUOUS
 62
     7
 10
-26.00000000000184
 20
-428.5999999999994
 30
0.0
 40
150.19999999999999
 50
136.2398523103351
 51
178.76014768964711
  0
ARC
  5
10C
  8
DATA
  6
CONTINUOUS
 62
     7
 10
-175.25000000000361
 20
-428.59999999999877
 30
0.0
 40
3.25
 50
270.0
 51
90.0
  0
LINE
  5
10D
  8
DATA
  6
CONTINUOUS
 62
     7
 10
-175.25000000000361
 20
-425.34999999999911
 30
0.0
 11
-176.1648344320356
 21
-425.34999999999911
 31
0.0
  0
LINE
  5
10E
  8
DATA
  6
CONTINUOUS
 62
     7
 10
-176.16483443203651
 20
-431.84999999999877
 30
0.0
 11
-175.25000000000361
 21
-431.84999999999877
 31
0.0
  0
ARC
  5
10F
  8
DATA
  6
CONTINUOUS
 62
     7
 10
-176.75
 20
-428.60000000000099
 30
0.0
 40
4.0000000000003411
 50
90.0
 51
278.65684049174001
  0
ARC
  5
110
  8
DATA
  6
CONTINUOUS
 62
     7
 10
-176.75
 20
-428.60000000000099
 30
0.0
 40
4.0000000000000568
 50
81.343159508259475
 51
90.0
  0
ARC
  5
111
  8
DATA
  6
CONTINUOUS
 62
     7
 10
-183.00000000000179
 20
-464.26510900025551
 30
0.0
 40
2.000000000000326
 50
12.798467564438811
 51
180.0
  0
ARC
  5
112
  8
DATA
  6
CONTINUOUS
 62
     7
 10
-183.00000000000179
 20
-392.934890999738
 30
0.0
 40
2.0000000000009091
 50
180.0
 51
347.20153243555478
  0
LINE
  5
113
  8
DATA
  6
CONTINUOUS
 62
     7
 10
-134.480669761504
 20
-324.71552431620933
 30
0.0
 11
-133.83378413095031
 21
-325.36240994676331
 31
0.0
  0
ARC
  5
114
  8
DATA
  6
CONTINUOUS
 62
     7
 10
-132.5963472638787
 20
-322.00365273612761
 30
0.0
 40
4.0
 50
270.0
 51
5.1645029199109436
  0
ARC
  5
115
  8
DATA
  6
CONTINUOUS
 62
     7
 10
-132.5963472638787
 20
-322.00365273612761
 30
0.0
 40
3.9999999999998441
 50
36.343159514250267
 51
233.65684048572439
  0
ARC
  5
116
  8
DATA
  6
CONTINUOUS
 62
     7
 10
-132.5963472638787
 20
-322.00365273612761
 30
0.0
 40
4.0000000000000657
 50
264.8354910786345
 51
270.0
  0
LINE
  5
117
  8
DATA
  6
CONTINUOUS
 62
     7
 10
-129.23759005323791
 20
-320.7662158690498
 30
0.0
 11
-129.88447568379161
 21
-320.1193302384969
 31
0.0
  0
LINE
  5
118
  8
DATA
  6
CONTINUOUS
 62
     7
 10
-34.083004136789
 20
-277.85000884499152
 30
0.0
 11
-32.062168260324157
 21
-281.34999358620257
 31
0.0
  0
ARC
  5
119
  8
DATA
  6
CONTINUOUS
 62
     7
 10
-26.00000000000184
 20
-428.5999999999994
 30
0.0
 40
150.1999999999997
 50
316.23985231033521
 51
358.76014768965348
  0
ARC
  5
11A
  8
DATA
  6
CONTINUOUS
 62
     7
 10
-26.00000000000184
 20
-428.5999999999994
 30
0.0
 40
159.00000000000011
 50
294.74549340986141
 51
347.20153243556427
  0
LINE
  5
11B
  8
DATA
  6
CONTINUOUS
 62
     7
 10
126.31830238725971
 20
-572.99999999999636
 30
0.0
 11
-19.000000000000011
 21
-572.99999999999739
 31
0.0
  0
ARC
  5
11C
  8
DATA
  6
CONTINUOUS
 62
     7
 10
-26.00000000000184
 20
-428.5999999999994
 30
0.0
 40
150.2000000000005
 50
285.97438661267631
 51
313.76014768964188
  0
LINE
  5
11D
  8
DATA
  6
CONTINUOUS
 62
     7
 10
-19.000000000000011
 20
-572.99999999999739
 30
0.0
 11
-19.000000000000011
 21
-583.49999999999716
 31
0.0
  0
LINE
  5
11E
  8
DATA
  6
CONTINUOUS
 62
     7
 10
-29.25000000000184
 20
-577.84999999999945
 30
0.0
 11
-29.25000000000184
 21
-578.76483443203301
 31
0.0
  0
LINE
  5
11F
  8
DATA
  6
CONTINUOUS
 62
     7
 10
-22.75000000000184
 20
-578.76483443203301
 30
0.0
 11
-22.75000000000184
 21
-577.84999999999945
 31
0.0
  0
ARC
  5
120
  8
DATA
  6
CONTINUOUS
 62
     7
 10
-26.00000000000184
 20
-577.84999999999945
 30
0.0
 40
3.25
 50
0.0
 51
179.9999999999919
  0
ARC
  5
121
  8
DATA
  6
CONTINUOUS
 62
     7
 10
-26.00000000000184
 20
-428.5999999999994
 30
0.0
 40
150.20000000000019
 50
271.23985231034669
 51
272.67121028614531
  0
ARC
  5
122
  8
DATA
  6
CONTINUOUS
 62
     7
 10
-25.999999999999108
 20
-579.34999999999945
 30
0.0
 40
3.9999999999998881
 50
171.34315950877311
 51
8.6568404912269443
  0
LINE
  5
123
  8
DATA
  6
CONTINUOUS
 62
     7
 10
126.318340162531
 20
-585.00000023807979
 30
0.0
 11
126.31830238725971
 21
-572.99999999999636
 31
0.0
  0
LINE
  5
124
  8
DATA
  6
CONTINUOUS
 62
     7
 10
127.10344827585401
 20
-584.99999999999761
 30
0.0
 11
127.10344827585401
 21
-599.9999999999975
 31
0.0
  0
LINE
  5
125
  8
DATA
  6
CONTINUOUS
 62
     7
 10
77.237590053235166
 20
-536.43378413094842
 30
0.0
 11
77.884475683787954
 21
-537.08066976150144
 31
0.0
  0
LINE
  5
126
  8
DATA
  6
CONTINUOUS
 62
     7
 10
82.480669761498547
 20
-532.48447568378879
 30
0.0
 11
81.833784130945773
 21
-531.8375900532352
 31
0.0
  0
ARC
  5
127
  8
DATA
  6
CONTINUOUS
 62
     7
 10
79.535687092087741
 20
-534.13568709209153
 30
0.0
 40
3.2500000000003881
 50
44.999999999985832
 51
225.0000000000511
  0
ARC
  5
128
  8
DATA
  6
CONTINUOUS
 62
     7
 10
80.59634726387047
 20
-535.19634726387085
 30
0.0
 40
4.0
 50
270.0
 51
53.656840493476011
  0
ARC
  5
129
  8
DATA
  6
CONTINUOUS
 62
     7
 10
80.59634726387047
 20
-535.19634726387085
 30
0.0
 40
4.0000000000002132
 50
216.3431595065195
 51
270.0
  0
LINE
  5
12A
  8
DATA
  6
CONTINUOUS
 62
     7
 10
-21.958465715158141
 20
-284.85000812973573
 30
0.0
 11
-19.937629838693301
 21
-281.3499935862024
 31
0.0
  0
LINE
  5
12B
  8
DATA
  6
CONTINUOUS
 62
     7
 10
-26.000137468086919
 20
-284.85000812973573
 30
0.0
 11
-21.958465715158141
 21
-284.85000812973573
 31
0.0
  0
LINE
  5
12C
  8
DATA
  6
CONTINUOUS
 62
     7
 10
-30.04133238385932
 20
-284.8500081297359
 30
0.0
 11
-26.000137468086919
 21
-284.85000812973573
 31
0.0
  0
LINE
  5
12D
  8
DATA
  6
CONTINUOUS
 62
     7
 10
-19.937629838693301
 20
-281.3499935862024
 30
0.0
 11
-17.91727079938666
 21
-277.85000884499141
 31
0.0
  0
ARC
  5
12E
  8
DATA
  6
CONTINUOUS
 62
     7
 10
-26.00000000000184
 20
-428.5999999999994
 30
0.0
 40
150.19999999999959
 50
1.2398523103529
 51
43.760147689664791
  0
LINE
  5
12F
  8
DATA
  6
CONTINUOUS
 62
     7
 10
124.164834432031
 20
-425.34999999999872
 30
0.0
 11
123.24999999999901
 21
-425.34999999999872
 31
0.0
  0
LINE
  5
130
  8
DATA
  6
CONTINUOUS
 62
     7
 10
123.24999999999901
 20
-431.84999999999872
 30
0.0
 11
124.164834432031
 21
-431.84999999999872
 31
0.0
  0
ARC
  5
131
  8
DATA
  6
CONTINUOUS
 62
     7
 10
123.24999999999631
 20
-428.59999999999877
 30
0.0
 40
3.25
 50
90.0
 51
270.0
  0
ARC
  5
132
  8
DATA
  6
CONTINUOUS
 62
     7
 10
124.74999999999621
 20
-428.59999999999877
 30
0.0
 40
4.0000000000001128
 50
270.0
 51
98.656840491687745
  0
ARC
  5
133
  8
DATA
  6
CONTINUOUS
 62
     7
 10
124.74999999999621
 20
-428.59999999999877
 30
0.0
 40
4.0000000000001839
 50
261.3431595083124
 51
270.0
  0
LINE
  5
134
  8
DATA
  6
CONTINUOUS
 62
     7
 10
81.833784130945773
 20
-325.3624099467628
 30
0.0
 11
82.480669761498547
 21
-324.71552431620893
 31
0.0
  0
ARC
  5
135
  8
DATA
  6
CONTINUOUS
 62
     7
 10
79.53568709208956
 20
-323.06431290790653
 30
0.0
 40
3.250000000000548
 50
135.00000000001131
 51
315.00000000000978
  0
ARC
  5
136
  8
DATA
  6
CONTINUOUS
 62
     7
 10
80.596347263865923
 20
-322.00365273612738
 30
0.0
 40
3.9999999999998139
 50
306.34315950083459
 51
143.6568404991998
  0
ARC
  5
137
  8
DATA
  6
CONTINUOUS
 62
     7
 10
80.596347263865923
 20
-322.00365273612738
 30
0.0
 40
4.0
 50
270.0
 51
275.16090289739088
  0
LINE
  5
138
  8
DATA
  6
CONTINUOUS
 62
     7
 10
77.884475683787045
 20
-320.1193302384969
 30
0.0
 11
77.237590053233333
 21
-320.76621586905048
 31
0.0
  0
LINE
  5
139
  8
DATA
  6
CONTINUOUS
 62
     7
 10
-178.3183023872634
 20
2.9999999999997722
 30
0.0
 11
88.624836601305091
 21
3.0000000000015632
 31
0.0
  0
LINE
  5
13A
  8
DATA
  6
CONTINUOUS
 62
     7
 10
-179.10344827586039
 20
15.000000000000449
 30
0.0
 11
127.10344827584861
 21
15.000000000002469
 31
0.0
  0
LINE
  5
13B
  8
DATA
  6
CONTINUOUS
 62
     7
 10
127.10344827584861
 20
30.00000000000248
 30
0.0
 11
-179.10344827586039
 21
30.00000000000043
 31
0.0
  0
LINE
  5
13C
  8
DATA
  6
CONTINUOUS
 62
     7
 10
-30.04133238385932
 20
-270.85000956024737
 30
0.0
 11
-32.062168260324157
 21
-274.34999430145831
 31
0.0
  0
ARC
  5
13D
  8
DATA
  6
CONTINUOUS
 62
     7
 10
-43.500000000006381
 20
12.40000000000415
 30
0.0
 40
278.60000000000332
 50
247.4064683256791
 51
292.59353167432062
  0
ARC
  5
13E
  8
DATA
  6
CONTINUOUS
 62
     7
 10
94.500000000076369
 20
-125.5999999999994
 30
0.0
 40
278.60000000008642
 50
188.52462508463481
 51
202.5935316743234
  0
ARC
  5
13F
  8
DATA
  6
CONTINUOUS
 62
     7
 10
-141.85292050036509
 20
-223.9529205003594
 30
0.0
 40
22.600000000000549
 50
202.59353167432991
 51
247.40646832567899
  0
CIRCLE
  5
140
  8
DATA
  6
CONTINUOUS
 62
     7
 10
-148.85891039680149
 20
-230.9589103967956
 30
0.0
 40
3.25
  0
ARC
  5
141
  8
DATA
  6
CONTINUOUS
 62
     7
 10
-183.00000000001731
 20
-167.19459099446431
 30
0.0
 40
2.000000000000242
 50
8.5246250846405527
 51
180.0
  0
LINE
  5
142
  8
DATA
  6
CONTINUOUS
 62
     7
 10
-178.31813826154749
 20
15.000008702614849
 30
0.0
 11
-178.3183023872634
 21
2.9999999999997722
 31
0.0
  0
ARC
  5
143
  8
DATA
  6
CONTINUOUS
 62
     7
 10
-141.85292050037151
 20
-27.24707949963295
 30
0.0
 40
22.599999999994122
 50
112.5935316743207
 51
157.406468325677
  0
LINE
  5
144
  8
DATA
  6
CONTINUOUS
 62
     7
 10
-185.000057359447
 20
2.999984383919553
 30
0.0
 11
-185.00000000000449
 21
-84.005409005544578
 31
0.0
  0
ARC
  5
145
  8
DATA
  6
CONTINUOUS
 62
     7
 10
94.500000000076369
 20
-125.5999999999994
 30
0.0
 40
278.60000000008017
 50
157.40646832567651
 51
171.47537491536519
  0
ARC
  5
146
  8
DATA
  6
CONTINUOUS
 62
     7
 10
-183.0000000000181
 20
-84.005409005544578
 30
0.0
 40
2.0000000000054561
 50
180.0
 51
351.4753749153731
  0
ARC
  5
147
  8
DATA
  6
CONTINUOUS
 62
     7
 10
-43.500000000004562
 20
-263.60000000000559
 30
0.0
 40
278.60000000000639
 50
106.877534367791
 51
112.5935316743208
  0
CIRCLE
  5
148
  8
DATA
  6
CONTINUOUS
 62
     7
 10
-148.85891039680331
 20
-20.24108960320445
 30
0.0
 40
3.25
  0
LINE
  5
149
  8
DATA
  6
CONTINUOUS
 62
     7
 10
-179.10344827586039
 20
15.000000000000449
 30
0.0
 11
-179.10344827586039
 21
30.00000000000043
 31
0.0
  0
LINE
  5
14A
  8
DATA
  6
CONTINUOUS
 62
     7
 10
97.999999999995467
 20
-167.1945909944622
 30
0.0
 11
97.999999999994543
 21
-84.005409005542518
 31
0.0
  0
LINE
  5
14B
  8
DATA
  6
CONTINUOUS
 62
     7
 10
-26.000137468086919
 20
-270.8500095602472
 30
0.0
 11
-30.04133238385932
 21
-270.85000956024737
 31
0.0
  0
LINE
  5
14C
  8
DATA
  6
CONTINUOUS
 62
     7
 10
-19.937629838693301
 20
-274.34999430145808
 30
0.0
 11
-21.958465715158141
 21
-270.8500095602472
 31
0.0
  0
LINE
  5
14D
  8
DATA
  6
CONTINUOUS
 62
     7
 10
-21.958465715158141
 20
-270.8500095602472
 30
0.0
 11
-26.000137468086919
 21
-270.8500095602472
 31
0.0
  0
ARC
  5
14E
  8
DATA
  6
CONTINUOUS
 62
     7
 10
-181.4999999999882
 20
-125.6000000000008
 30
0.0
 40
278.59999999998792
 50
337.40646832567052
 51
351.47537491535883
  0
CIRCLE
  5
14F
  8
DATA
  6
CONTINUOUS
 62
     7
 10
61.85891039679062
 20
-230.95891039679401
 30
0.0
 40
3.25
  0
ARC
  5
150
  8
DATA
  6
CONTINUOUS
 62
     7
 10
54.852920500351487
 20
-223.9529205003544
 30
0.0
 40
22.600000000005728
 50
292.59353167432101
 51
337.40646832567018
  0
ARC
  5
151
  8
DATA
  6
CONTINUOUS
 62
     7
 10
96.000000000005443
 20
-167.1945909944622
 30
0.0
 40
2.0000000000018181
 50
0.0000000000195413
 51
171.47537491535269
  0
ARC
  5
152
  8
DATA
  6
CONTINUOUS
 62
     7
 10
-43.500000000004562
 20
-263.60000000000559
 30
0.0
 40
278.60000000000628
 50
67.406468325679185
 51
73.122465632209
  0
LINE
  5
153
  8
DATA
  6
CONTINUOUS
 62
     7
 10
97.999999999999105
 20
3.0000000000015632
 30
0.0
 11
97.999935011157504
 21
15.00000870261667
 31
0.0
  0
LINE
  5
154
  8
DATA
  6
CONTINUOUS
 62
     7
 10
88.624839643725835
 20
15.00000870261667
 30
0.0
 11
88.624836601305091
 21
3.0000000000015632
 31
0.0
  0
LINE
  5
155
  8
DATA
  6
CONTINUOUS
 62
     7
 10
121.00017533708611
 20
-21.000004648823531
 30
0.0
 11
121.00017533708611
 21
9.0000263455917491
 31
0.0
  0
LINE
  5
156
  8
DATA
  6
CONTINUOUS
 62
     7
 10
88.624836601305091
 20
3.0000000000015632
 30
0.0
 11
97.999999999999105
 21
3.0000000000015632
 31
0.0
  0
ARC
  5
157
  8
DATA
  6
CONTINUOUS
 62
     7
 10
-181.4999999999882
 20
-125.6000000000008
 30
0.0
 40
278.59999999998621
 50
8.5246250846411975
 51
22.59353167432943
  0
ARC
  5
158
  8
DATA
  6
CONTINUOUS
 62
     7
 10
54.852920500355133
 20
-27.247079499637241
 30
0.0
 40
22.599999999999529
 50
22.593531674329689
 51
67.406468325680095
  0
CIRCLE
  5
159
  8
DATA
  6
CONTINUOUS
 62
     7
 10
61.858910396788801
 20
-20.241089603203129
 30
0.0
 40
3.25
  0
LINE
  5
15A
  8
DATA
  6
CONTINUOUS
 62
     7
 10
97.999999999994543
 20
-84.005409005542518
 30
0.0
 11
97.999999999999105
 21
3.0000000000015632
 31
0.0
  0
ARC
  5
15B
  8
DATA
  6
CONTINUOUS
 62
     7
 10
96.000000000005443
 20
-84.005409005542518
 30
0.0
 40
2.0000000000020788
 50
188.52462508464009
 51
0.0
  0
LINE
  5
15C
  8
DATA
  6
CONTINUOUS
 62
     7
 10
127.10344827584861
 20
15.000000000002469
 30
0.0
 11
127.10344827584861
 21
30.00000000000248
 31
0.0
  0
LINE
  5
15D
  8
DATA
  6
CONTINUOUS
 62
     7
 10
147.99986635394339
 20
380.60881211689588
 30
0.0
 11
147.9999790264954
 21
240.66786895199331
 31
0.0
  0
LINE
  5
15E
  8
DATA
  6
CONTINUOUS
 62
     7
 10
-777.9122789137698
 20
15.000008702613741
 30
0.0
 11
-663.91227140358558
 21
15.000008702613741
 31
0.0
  0
LINE
  5
15F
  8
DATA
  6
CONTINUOUS
 62
     7
 10
-777.9122789137698
 20
-585.00000023808275
 30
0.0
 11
-663.91227140358558
 21
-585.00000023808275
 31
0.0
  0
LINE
  5
160
  8
DATA
  6
CONTINUOUS
 62
     7
 10
-777.9122789137698
 20
-600.00000083412954
 30
0.0
 11
-620.66786895199232
 21
-600.00000000000068
 31
0.0
  0
LINE
  5
161
  8
DATA
  6
CONTINUOUS
 62
     7
 10
-620.66786895199232
 20
-585.00000000000068
 30
0.0
 11
-777.9122789137698
 21
-585.00000023808275
 31
0.0
  0
LINE
  5
162
  8
DATA
  6
CONTINUOUS
 62
     7
 10
-620.66786895199232
 20
29.999999999999339
 30
0.0
 11
-777.9122789137698
 21
29.99999439749897
 31
0.0
  0
LINE
  5
163
  8
DATA
  6
CONTINUOUS
 62
     7
 10
-777.9122789137698
 20
15.000008702613741
 30
0.0
 11
-620.66786895199232
 21
14.999999999999339
 31
0.0
  0
LINE
  5
164
  8
DATA
  6
CONTINUOUS
 62
     7
 10
-884.9732200176303
 20
-572.99999999999955
 30
0.0
 11
-884.9732200176303
 21
2.9999999999995448
 31
0.0
  0
LINE
  5
165
  8
DATA
  6
CONTINUOUS
 62
     7
 10
-777.9122789137698
 20
-585.00000023808275
 30
0.0
 11
-777.9122789137698
 21
15.000008702613741
 31
0.0
  0
LINE
  5
166
  8
DATA
  6
CONTINUOUS
 62
     7
 10
-884.97321984997882
 20
15.00000870261414
 30
0.0
 11
-884.97321984997882
 21
-585.00000023808241
 31
0.0
  0
LINE
  5
167
  8
DATA
  6
CONTINUOUS
 62
     7
 10
-777.9122789137698
 20
-585.00000023808275
 30
0.0
 11
-777.9122789137698
 21
15.000008702613741
 31
0.0
  0
LINE
  5
168
  8
DATA
  6
CONTINUOUS
 62
     7
 10
147.99999999999631
 20
15.00000000000276
 30
0.0
 11
148.0000000000008
 21
-584.99999999999739
 31
0.0
  0
LINE
  5
169
  8
DATA
  6
CONTINUOUS
 62
     7
 10
132.99978242326861
 20
15.000008702616951
 30
0.0
 11
132.9997824232741
 21
-573.00000572170711
 31
0.0
  0
LINE
  5
16A
  8
DATA
  6
CONTINUOUS
 62
     7
 10
144.0000000000027
 20
-572.99999999999636
 30
0.0
 11
143.9999388258565
 21
15.00000870261715
 31
0.0
  0
LINE
  5
16B
  8
DATA
  6
CONTINUOUS
 62
     7
 10
132.9999999999981
 20
-464.26510900025318
 30
0.0
 11
132.9997824232741
 21
-573.00000572170711
 31
0.0
  0
LINE
  5
16C
  8
DATA
  6
CONTINUOUS
 62
     7
 10
143.99993882586111
 20
-585.00000023807945
 30
0.0
 11
144.0000000000027
 21
-572.99999999999636
 31
0.0
  0
LINE
  5
16D
  8
DATA
  6
CONTINUOUS
 62
     7
 10
148.0000000000008
 20
-584.99999999999739
 30
0.0
 11
148.0000000000008
 21
-599.9999999999975
 31
0.0
  0
LINE
  5
16E
  8
DATA
  6
CONTINUOUS
 62
     7
 10
132.9999999999954
 20
-392.93489099974482
 30
0.0
 11
132.99978242326949
 21
-294.99999368156892
 31
0.0
  0
LINE
  5
16F
  8
DATA
  6
CONTINUOUS
 62
     7
 10
-884.97321984997882
 20
-585.00000023808241
 30
0.0
 11
-777.9122789137698
 21
-585.00000023808275
 31
0.0
  0
LINE
  5
170
  8
DATA
  6
CONTINUOUS
 62
     7
 10
-884.9732200176303
 20
-600.0
 30
0.0
 11
-777.9122789137698
 21
-600.00000083412954
 31
0.0
  0
LINE
  5
171
  8
DATA
  6
CONTINUOUS
 62
     7
 10
-777.9122789137698
 20
-585.00000023808275
 30
0.0
 11
-884.97321984997882
 21
-585.00000023808241
 31
0.0
  0
LINE
  5
172
  8
DATA
  6
CONTINUOUS
 62
     7
 10
-900.0
 20
-600.0
 30
0.0
 11
-884.9732200176303
 21
-600.0
 31
0.0
  0
LINE
  5
173
  8
DATA
  6
CONTINUOUS
 62
     7
 10
-884.9732200176303
 20
-572.99999999999955
 30
0.0
 11
-900.0
 21
-572.9999999999992
 31
0.0
  0
LINE
  5
174
  8
DATA
  6
CONTINUOUS
 62
     7
 10
-884.97321984997882
 20
-585.00000023808241
 30
0.0
 11
-884.9732200176303
 21
-572.99999999999955
 31
0.0
  0
LINE
  5
175
  8
DATA
  6
CONTINUOUS
 62
     7
 10
-884.97321984997882
 20
-585.00000023808241
 30
0.0
 11
-884.9732200176303
 21
-600.0
 31
0.0
  0
LINE
  5
176
  8
DATA
  6
CONTINUOUS
 62
     7
 10
-900.0
 20
-572.9999999999992
 30
0.0
 11
-900.0
 21
-600.0
 31
0.0
  0
LINE
  5
177
  8
DATA
  6
CONTINUOUS
 62
     7
 10
-777.9122789137698
 20
-585.00000023808275
 30
0.0
 11
-777.9122789137698
 21
-600.00000083412954
 31
0.0
  0
LINE
  5
178
  8
DATA
  6
CONTINUOUS
 62
     7
 10
147.99999999999631
 20
15.00000000000276
 30
0.0
 11
147.9999999999954
 21
30.00000000000248
 31
0.0
  0
LINE
  5
179
  8
DATA
  6
CONTINUOUS
 62
     7
 10
-777.9122789137698
 20
15.000008702613741
 30
0.0
 11
-884.97321984997882
 21
15.00000870261414
 31
0.0
  0
LINE
  5
17A
  8
DATA
  6
CONTINUOUS
 62
     7
 10
-777.9122789137698
 20
29.99999439749897
 30
0.0
 11
-884.97322001762848
 21
29.999999999999918
 31
0.0
  0
LINE
  5
17B
  8
DATA
  6
CONTINUOUS
 62
     7
 10
-884.97321984997882
 20
15.00000870261414
 30
0.0
 11
-777.9122789137698
 21
15.000008702613741
 31
0.0
  0
LINE
  5
17C
  8
DATA
  6
CONTINUOUS
 62
     7
 10
-884.9732200176303
 20
2.9999999999995448
 30
0.0
 11
-884.97321984997882
 21
15.00000870261414
 31
0.0
  0
LINE
  5
17D
  8
DATA
  6
CONTINUOUS
 62
     7
 10
-900.0
 20
30.000000000000249
 30
0.0
 11
-900.0
 21
2.9999999999995448
 31
0.0
  0
LINE
  5
17E
  8
DATA
  6
CONTINUOUS
 62
     7
 10
-900.0
 20
2.9999999999995448
 30
0.0
 11
-884.9732200176303
 21
2.9999999999995448
 31
0.0
  0
LINE
  5
17F
  8
DATA
  6
CONTINUOUS
 62
     7
 10
-884.97322001762848
 20
29.999999999999918
 30
0.0
 11
-900.0
 21
30.000000000000249
 31
0.0
  0
LINE
  5
180
  8
DATA
  6
CONTINUOUS
 62
     7
 10
-884.97321984997882
 20
15.00000870261414
 30
0.0
 11
-884.97322001762848
 21
29.999999999999918
 31
0.0
  0
LINE
  5
181
  8
DATA
  6
CONTINUOUS
 62
     7
 10
-777.9122789137698
 20
15.000008702613741
 30
0.0
 11
-777.9122789137698
 21
29.99999439749897
 31
0.0
  0
LINE
  5
182
  8
DATA
  6
CONTINUOUS
 62
     7
 10
-585.61227564677301
 20
-277.85000000000059
 30
0.0
 11
-585.61227564677301
 21
-270.85000000000082
 31
0.0
  0
LINE
  5
183
  8
DATA
  6
CONTINUOUS
 62
     7
 10
-621.91227569511909
 20
15.000008702613741
 30
0.0
 11
-621.91227569511909
 21
-585.00000023808275
 31
0.0
  0
LINE
  5
184
  8
DATA
  6
CONTINUOUS
 62
     7
 10
-663.91227140358558
 20
-585.00000023808275
 30
0.0
 11
-663.91227140358558
 21
15.000008702613741
 31
0.0
  0
LINE
  5
185
  8
DATA
  6
CONTINUOUS
 62
     7
 10
-619.4122756467749
 20
-272.85000000000042
 30
0.0
 11
-619.4122756467749
 21
-277.85000000000059
 31
0.0
  0
LINE
  5
186
  8
DATA
  6
CONTINUOUS
 62
     7
 10
-589.61228027275865
 20
-274.34999430145922
 30
0.0
 11
-589.61228027275865
 21
-277.85000884499237
 31
0.0
  0
LINE
  5
187
  8
DATA
  6
CONTINUOUS
 62
     7
 10
-612.41227879456346
 20
-270.85000956024828
 30
0.0
 11
-612.41227879456346
 21
-277.85000884499237
 31
0.0
  0
LINE
  5
188
  8
DATA
  6
CONTINUOUS
 62
     7
 10
-599.09584390814052
 20
-572.9999999999992
 30
0.0
 11
-620.66786895199755
 21
-572.99999999999955
 31
0.0
  0
LINE
  5
189
  8
DATA
  6
CONTINUOUS
 62
     7
 10
-620.66786895199232
 20
-600.00000000000068
 30
0.0
 11
-595.17365753653394
 21
-600.00000000000057
 31
0.0
  0
LINE
  5
18A
  8
DATA
  6
CONTINUOUS
 62
     7
 10
-595.17365753653394
 20
-585.00000000000068
 30
0.0
 11
-620.66786895199232
 21
-585.00000000000068
 31
0.0
  0
LINE
  5
18B
  8
DATA
  6
CONTINUOUS
 62
     7
 10
-612.41227879456346
 20
-284.85000812973681
 30
0.0
 11
-589.61228027275865
 21
-284.85000812973681
 31
0.0
  0
LINE
  5
18C
  8
DATA
  6
CONTINUOUS
 62
     7
 10
-612.41227879456346
 20
-277.85000884499237
 30
0.0
 11
-589.61228027275865
 21
-277.85000884499237
 31
0.0
  0
CIRCLE
  5
18D
  8
DATA
  6
CONTINUOUS
 62
     7
 10
-650.91227564677502
 20
-564.00000000000148
 30
0.0
 40
4.0
  0
LINE
  5
18E
  8
DATA
  6
CONTINUOUS
 62
     7
 10
-621.91227569511909
 20
-585.00000023808275
 30
0.0
 11
-621.91227569511909
 21
-573.00000572171041
 31
0.0
  0
LINE
  5
18F
  8
DATA
  6
CONTINUOUS
 62
     7
 10
-621.91227569511909
 20
-573.00000572171041
 30
0.0
 11
-620.66786895199755
 21
-572.99999999999955
 31
0.0
  0
LINE
  5
190
  8
DATA
  6
CONTINUOUS
 62
     7
 10
-620.66786895199755
 20
-572.99999999999955
 30
0.0
 11
-620.66786895199232
 21
-585.00000000000068
 31
0.0
  0
LINE
  5
191
  8
DATA
  6
CONTINUOUS
 62
     7
 10
-620.66786895199232
 20
-600.00000000000068
 30
0.0
 11
-620.66786895199232
 21
-585.00000000000068
 31
0.0
  0
CIRCLE
  5
192
  8
DATA
  6
CONTINUOUS
 62
     7
 10
-734.91227564677502
 20
-285.00000000000068
 30
0.0
 40
6.5000000000463842
  0
CIRCLE
  5
193
  8
DATA
  6
CONTINUOUS
 62
     7
 10
-734.91227564677502
 20
-285.00000000000068
 30
0.0
 40
3.5
  0
CIRCLE
  5
194
  8
DATA
  6
CONTINUOUS
 62
     7
 10
-650.91227564677502
 20
-285.00000000000068
 30
0.0
 40
4.0
  0
LINE
  5
195
  8
DATA
  6
CONTINUOUS
 62
     7
 10
-619.4122756467749
 20
-282.85000000000031
 30
0.0
 11
-612.41227879456346
 21
-282.85000407662062
 31
0.0
  0
LINE
  5
196
  8
DATA
  6
CONTINUOUS
 62
     7
 10
-619.4122756467749
 20
-277.85000000000059
 30
0.0
 11
-619.4122756467749
 21
-282.85000000000031
 31
0.0
  0
LINE
  5
197
  8
DATA
  6
CONTINUOUS
 62
     7
 10
-621.91227569512102
 20
-280.85000002350489
 30
0.0
 11
-619.41227807930761
 21
-280.85000002350489
 31
0.0
  0
LINE
  5
198
  8
DATA
  6
CONTINUOUS
 62
     7
 10
-612.41227879456346
 20
-277.85000884499237
 30
0.0
 11
-612.41227879456346
 21
-284.85000812973681
 31
0.0
  0
LINE
  5
199
  8
DATA
  6
CONTINUOUS
 62
     7
 10
-584.03157280724463
 20
-572.99999999999841
 30
0.0
 11
-599.09584390814052
 21
-572.9999999999992
 31
0.0
  0
LINE
  5
19A
  8
DATA
  6
CONTINUOUS
 62
     7
 10
-584.00000000000068
 20
-583.49999999999795
 30
0.0
 11
-584.03157280724463
 21
-583.49999999999795
 31
0.0
  0
LINE
  5
19B
  8
DATA
  6
CONTINUOUS
 62
     7
 10
-584.03157280724463
 20
-583.49999999999795
 30
0.0
 11
-584.03157280724463
 21
-572.99999999999841
 31
0.0
  0
LINE
  5
19C
  8
DATA
  6
CONTINUOUS
 62
     7
 10
-595.17365753653394
 20
-600.00000000000057
 30
0.0
 11
-580.0
 21
-599.99999999999955
 31
0.0
  0
LINE
  5
19D
  8
DATA
  6
CONTINUOUS
 62
     7
 10
-580.0
 20
-584.99999999999955
 30
0.0
 11
-595.17365753653394
 21
-585.00000000000068
 31
0.0
  0
LINE
  5
19E
  8
DATA
  6
CONTINUOUS
 62
     7
 10
-599.09585609367957
 20
-585.00000023808275
 30
0.0
 11
-599.09584390814052
 21
-572.9999999999992
 31
0.0
  0
LINE
  5
19F
  8
DATA
  6
CONTINUOUS
 62
     7
 10
-595.17365753653394
 20
-585.00000000000068
 30
0.0
 11
-595.17365753653394
 21
-600.00000000000057
 31
0.0
  0
LINE
  5
1A0
  8
DATA
  6
CONTINUOUS
 62
     7
 10
-583.99999632767413
 20
-585.00000023808161
 30
0.0
 11
-584.00000000000068
 21
-583.49999999999795
 31
0.0
  0
LINE
  5
1A1
  8
DATA
  6
CONTINUOUS
 62
     7
 10
-580.0
 20
-599.99999999999955
 30
0.0
 11
-580.0
 21
-584.99999999999955
 31
0.0
  0
LINE
  5
1A2
  8
DATA
  6
CONTINUOUS
 62
     7
 10
-585.61227564677301
 20
-284.85000000000042
 30
0.0
 11
-585.61227564677301
 21
-277.85000000000059
 31
0.0
  0
POLYLINE
  5
1A3
  8
DATA
  6
CONTINUOUS
 62
     7
 66
     1
 10
0.0
 20
0.0
 30
0.0
 70
     8
  0
VERTEX
  5
1A4
  8
DATA
  6
CONTINUOUS
 62
     7
 10
-584.61259221282853
 20
-283.8504156258806
 30
0.0
 70
    32
  0
VERTEX
  5
1A5
  8
DATA
  6
CONTINUOUS
 62
     7
 10
-584.61259221282853
 20
-283.84641562588052
 30
0.0
 70
    32
  0
VERTEX
  5
1A6
  8
DATA
  6
CONTINUOUS
 62
     7
 10
-584.61259221282853
 20
-283.84341562588048
 30
0.0
 70
    32
  0
VERTEX
  5
1A7
  8
DATA
  6
CONTINUOUS
 62
     7
 10
-584.61259221282853
 20
-283.83941562588052
 30
0.0
 70
    32
  0
VERTEX
  5
1A8
  8
DATA
  6
CONTINUOUS
 62
     7
 10
-584.61259221282853
 20
-283.83641562588048
 30
0.0
 70
    32
  0
VERTEX
  5
1A9
  8
DATA
  6
CONTINUOUS
 62
     7
 10
-584.61259221282853
 20
-283.83241562588063
 30
0.0
 70
    32
  0
VERTEX
  5
1AA
  8
DATA
  6
CONTINUOUS
 62
     7
 10
-584.61259221282853
 20
-283.8284156258805
 30
0.0
 70
    32
  0
VERTEX
  5
1AB
  8
DATA
  6
CONTINUOUS
 62
     7
 10
-584.61259221282853
 20
-283.82541562588051
 30
0.0
 70
    32
  0
VERTEX
  5
1AC
  8
DATA
  6
CONTINUOUS
 62
     7
 10
-584.61259221282853
 20
-283.8214156258806
 30
0.0
 70
    32
  0
VERTEX
  5
1AD
  8
DATA
  6
CONTINUOUS
 62
     7
 10
-584.61259221282853
 20
-283.8184156258805
 30
0.0
 70
    32
  0
VERTEX
  5
1AE
  8
DATA
  6
CONTINUOUS
 62
     7
 10
-584.61259221282853
 20
-283.81441562588049
 30
0.0
 70
    32
  0
VERTEX
  5
1AF
  8
DATA
  6
CONTINUOUS
 62
     7
 10
-584.61259221282853
 20
-283.81041562588052
 30
0.0
 70
    32
  0
VERTEX
  5
1B0
  8
DATA
  6
CONTINUOUS
 62
     7
 10
-584.61259221282853
 20
-283.80741562588048
 30
0.0
 70
    32
  0
VERTEX
  5
1B1
  8
DATA
  6
CONTINUOUS
 62
     7
 10
-584.61259221282853
 20
-283.80341562588052
 30
0.0
 70
    32
  0
VERTEX
  5
1B2
  8
DATA
  6
CONTINUOUS
 62
     7
 10
-584.61259221282853
 20
-283.79941562588061
 30
0.0
 70
    32
  0
VERTEX
  5
1B3
  8
DATA
  6
CONTINUOUS
 62
     7
 10
-584.61259221282853
 20
-283.79541562588048
 30
0.0
 70
    32
  0
VERTEX
  5
1B4
  8
DATA
  6
CONTINUOUS
 62
     7
 10
-584.61259221282853
 20
-283.79141562588052
 30
0.0
 70
    32
  0
VERTEX
  5
1B5
  8
DATA
  6
CONTINUOUS
 62
     7
 10
-584.61259221282853
 20
-283.78741562588061
 30
0.0
 70
    32
  0
VERTEX
  5
1B6
  8
DATA
  6
CONTINUOUS
 62
     7
 10
-584.61259221282853
 20
-283.78341562588048
 30
0.0
 70
    32
  0
VERTEX
  5
1B7
  8
DATA
  6
CONTINUOUS
 62
     7
 10
-584.61259221282853
 20
-283.77941562588052
 30
0.0
 70
    32
  0
VERTEX
  5
1B8
  8
DATA
  6
CONTINUOUS
 62
     7
 10
-584.61259221282853
 20
-283.77541562588061
 30
0.0
 70
    32
  0
VERTEX
  5
1B9
  8
DATA
  6
CONTINUOUS
 62
     7
 10
-584.61259221282853
 20
-283.77141562588048
 30
0.0
 70
    32
  0
VERTEX
  5
1BA
  8
DATA
  6
CONTINUOUS
 62
     7
 10
-584.61259221282853
 20
-283.76741562588052
 30
0.0
 70
    32
  0
VERTEX
  5
1BB
  8
DATA
  6
CONTINUOUS
 62
     7
 10
-584.61259221282853
 20
-283.76241562588052
 30
0.0
 70
    32
  0
VERTEX
  5
1BC
  8
DATA
  6
CONTINUOUS
 62
     7
 10
-584.61259221282853
 20
-283.75841562588062
 30
0.0
 70
    32
  0
VERTEX
  5
1BD
  8
DATA
  6
CONTINUOUS
 62
     7
 10
-584.61259221282853
 20
-283.75341562588051
 30
0.0
 70
    32
  0
VERTEX
  5
1BE
  8
DATA
  6
CONTINUOUS
 62
     7
 10
-584.61259221282853
 20
-283.7494156258806
 30
0.0
 70
    32
  0
VERTEX
  5
1BF
  8
DATA
  6
CONTINUOUS
 62
     7
 10
-584.61259221282853
 20
-283.74441562588061
 30
0.0
 70
    32
  0
VERTEX
  5
1C0
  8
DATA
  6
CONTINUOUS
 62
     7
 10
-584.61259221282853
 20
-283.73941562588061
 30
0.0
 70
    32
  0
VERTEX
  5
1C1
  8
DATA
  6
CONTINUOUS
 62
     7
 10
-584.61259221282853
 20
-283.73441562588062
 30
0.0
 70
    32
  0
VERTEX
  5
1C2
  8
DATA
  6
CONTINUOUS
 62
     7
 10
-584.61259221282853
 20
-283.7304156258806
 30
0.0
 70
    32
  0
VERTEX
  5
1C3
  8
DATA
  6
CONTINUOUS
 62
     7
 10
-584.61259221282853
 20
-283.72441562588051
 30
0.0
 70
    32
  0
VERTEX
  5
1C4
  8
DATA
  6
CONTINUOUS
 62
     7
 10
-584.61259221282853
 20
-283.71941562588052
 30
0.0
 70
    32
  0
VERTEX
  5
1C5
  8
DATA
  6
CONTINUOUS
 62
     7
 10
-584.61259221282853
 20
-283.71441562588052
 30
0.0
 70
    32
  0
VERTEX
  5
1C6
  8
DATA
  6
CONTINUOUS
 62
     7
 10
-584.61259221282853
 20
-283.70941562588052
 30
0.0
 70
    32
  0
VERTEX
  5
1C7
  8
DATA
  6
CONTINUOUS
 62
     7
 10
-584.61259221282853
 20
-283.7034156258805
 30
0.0
 70
    32
  0
VERTEX
  5
1C8
  8
DATA
  6
CONTINUOUS
 62
     7
 10
-584.61259221282853
 20
-283.69841562588061
 30
0.0
 70
    32
  0
VERTEX
  5
1C9
  8
DATA
  6
CONTINUOUS
 62
     7
 10
-584.61259221282853
 20
-283.69241562588053
 30
0.0
 70
    32
  0
VERTEX
  5
1CA
  8
DATA
  6
CONTINUOUS
 62
     7
 10
-584.61259221282853
 20
-283.68641562588061
 30
0.0
 70
    32
  0
VERTEX
  5
1CB
  8
DATA
  6
CONTINUOUS
 62
     7
 10
-584.61259221282853
 20
-283.68041562588053
 30
0.0
 70
    32
  0
VERTEX
  5
1CC
  8
DATA
  6
CONTINUOUS
 62
     7
 10
-584.61259221282853
 20
-283.67441562588061
 30
0.0
 70
    32
  0
VERTEX
  5
1CD
  8
DATA
  6
CONTINUOUS
 62
     7
 10
-584.61259221282853
 20
-283.66841562588053
 30
0.0
 70
    32
  0
VERTEX
  5
1CE
  8
DATA
  6
CONTINUOUS
 62
     7
 10
-584.61259221282853
 20
-283.66141562588052
 30
0.0
 70
    32
  0
VERTEX
  5
1CF
  8
DATA
  6
CONTINUOUS
 62
     7
 10
-584.61259221282853
 20
-283.65541562588049
 30
0.0
 70
    32
  0
VERTEX
  5
1D0
  8
DATA
  6
CONTINUOUS
 62
     7
 10
-584.61259221282853
 20
-283.6484156258806
 30
0.0
 70
    32
  0
VERTEX
  5
1D1
  8
DATA
  6
CONTINUOUS
 62
     7
 10
-584.61259221282853
 20
-283.64141562588048
 30
0.0
 70
    32
  0
VERTEX
  5
1D2
  8
DATA
  6
CONTINUOUS
 62
     7
 10
-584.61259221282853
 20
-283.63441562588048
 30
0.0
 70
    32
  0
VERTEX
  5
1D3
  8
DATA
  6
CONTINUOUS
 62
     7
 10
-584.61259221282853
 20
-283.62741562588047
 30
0.0
 70
    32
  0
VERTEX
  5
1D4
  8
DATA
  6
CONTINUOUS
 62
     7
 10
-584.61259221282853
 20
-283.62041562588053
 30
0.0
 70
    32
  0
VERTEX
  5
1D5
  8
DATA
  6
CONTINUOUS
 62
     7
 10
-584.61259221282853
 20
-283.61341562588052
 30
0.0
 70
    32
  0
VERTEX
  5
1D6
  8
DATA
  6
CONTINUOUS
 62
     7
 10
-584.61259221282853
 20
-283.6054156258806
 30
0.0
 70
    32
  0
VERTEX
  5
1D7
  8
DATA
  6
CONTINUOUS
 62
     7
 10
-584.61259221282853
 20
-283.59741562588061
 30
0.0
 70
    32
  0
VERTEX
  5
1D8
  8
DATA
  6
CONTINUOUS
 62
     7
 10
-584.61259221282853
 20
-283.58941562588052
 30
0.0
 70
    32
  0
VERTEX
  5
1D9
  8
DATA
  6
CONTINUOUS
 62
     7
 10
-584.61259221282853
 20
-283.5814156258806
 30
0.0
 70
    32
  0
VERTEX
  5
1DA
  8
DATA
  6
CONTINUOUS
 62
     7
 10
-584.61259221282853
 20
-283.5734156258805
 30
0.0
 70
    32
  0
VERTEX
  5
1DB
  8
DATA
  6
CONTINUOUS
 62
     7
 10
-584.61259221282853
 20
-283.56441562588049
 30
0.0
 70
    32
  0
VERTEX
  5
1DC
  8
DATA
  6
CONTINUOUS
 62
     7
 10
-584.61259221282853
 20
-283.55641562588062
 30
0.0
 70
    32
  0
VERTEX
  5
1DD
  8
DATA
  6
CONTINUOUS
 62
     7
 10
-584.61259221282853
 20
-283.5474156258806
 30
0.0
 70
    32
  0
VERTEX
  5
1DE
  8
DATA
  6
CONTINUOUS
 62
     7
 10
-584.61259221282853
 20
-283.53841562588048
 30
0.0
 70
    32
  0
VERTEX
  5
1DF
  8
DATA
  6
CONTINUOUS
 62
     7
 10
-584.61259221282853
 20
-283.52941562588057
 30
0.0
 70
    32
  0
VERTEX
  5
1E0
  8
DATA
  6
CONTINUOUS
 62
     7
 10
-584.61259221282853
 20
-283.51941562588053
 30
0.0
 70
    32
  0
VERTEX
  5
1E1
  8
DATA
  6
CONTINUOUS
 62
     7
 10
-584.61259221282853
 20
-283.51041562588063
 30
0.0
 70
    32
  0
VERTEX
  5
1E2
  8
DATA
  6
CONTINUOUS
 62
     7
 10
-584.61259221282853
 20
-283.50041562588052
 30
0.0
 70
    32
  0
VERTEX
  5
1E3
  8
DATA
  6
CONTINUOUS
 62
     7
 10
-584.61259221282853
 20
-283.49041562588047
 30
0.0
 70
    32
  0
VERTEX
  5
1E4
  8
DATA
  6
CONTINUOUS
 62
     7
 10
-584.61259221282853
 20
-283.4804156258806
 30
0.0
 70
    32
  0
VERTEX
  5
1E5
  8
DATA
  6
CONTINUOUS
 62
     7
 10
-584.61259221282853
 20
-283.46941562588052
 30
0.0
 70
    32
  0
VERTEX
  5
1E6
  8
DATA
  6
CONTINUOUS
 62
     7
 10
-584.61259221282853
 20
-283.45841562588049
 30
0.0
 70
    32
  0
VERTEX
  5
1E7
  8
DATA
  6
CONTINUOUS
 62
     7
 10
-584.61259221282853
 20
-283.44841562588061
 30
0.0
 70
    32
  0
VERTEX
  5
1E8
  8
DATA
  6
CONTINUOUS
 62
     7
 10
-584.61259221282853
 20
-283.43641562588061
 30
0.0
 70
    32
  0
VERTEX
  5
1E9
  8
DATA
  6
CONTINUOUS
 62
     7
 10
-584.61259221282853
 20
-283.42541562588059
 30
0.0
 70
    32
  0
VERTEX
  5
1EA
  8
DATA
  6
CONTINUOUS
 62
     7
 10
-584.61259221282853
 20
-283.41341562588048
 30
0.0
 70
    32
  0
VERTEX
  5
1EB
  8
DATA
  6
CONTINUOUS
 62
     7
 10
-584.61259221282853
 20
-283.40241562588062
 30
0.0
 70
    32
  0
VERTEX
  5
1EC
  8
DATA
  6
CONTINUOUS
 62
     7
 10
-584.61259221282853
 20
-283.39041562588062
 30
0.0
 70
    32
  0
VERTEX
  5
1ED
  8
DATA
  6
CONTINUOUS
 62
     7
 10
-584.61259221282853
 20
-283.37741562588047
 30
0.0
 70
    32
  0
VERTEX
  5
1EE
  8
DATA
  6
CONTINUOUS
 62
     7
 10
-584.61259221282853
 20
-283.36541562588059
 30
0.0
 70
    32
  0
VERTEX
  5
1EF
  8
DATA
  6
CONTINUOUS
 62
     7
 10
-584.61259221282853
 20
-283.3524156258805
 30
0.0
 70
    32
  0
VERTEX
  5
1F0
  8
DATA
  6
CONTINUOUS
 62
     7
 10
-584.61259221282853
 20
-283.33941562588052
 30
0.0
 70
    32
  0
VERTEX
  5
1F1
  8
DATA
  6
CONTINUOUS
 62
     7
 10
-584.61259221282853
 20
-283.3264156258806
 30
0.0
 70
    32
  0
VERTEX
  5
1F2
  8
DATA
  6
CONTINUOUS
 62
     7
 10
-584.61259221282853
 20
-283.31341562588062
 30
0.0
 70
    32
  0
VERTEX
  5
1F3
  8
DATA
  6
CONTINUOUS
 62
     7
 10
-584.61259221282853
 20
-283.29941562588061
 30
0.0
 70
    32
  0
VERTEX
  5
1F4
  8
DATA
  6
CONTINUOUS
 62
     7
 10
-584.61259221282853
 20
-283.28641562588052
 30
0.0
 70
    32
  0
VERTEX
  5
1F5
  8
DATA
  6
CONTINUOUS
 62
     7
 10
-584.61259221282853
 20
-283.27241562588051
 30
0.0
 70
    32
  0
VERTEX
  5
1F6
  8
DATA
  6
CONTINUOUS
 62
     7
 10
-584.61259221282853
 20
-283.25841562588062
 30
0.0
 70
    32
  0
VERTEX
  5
1F7
  8
DATA
  6
CONTINUOUS
 62
     7
 10
-584.61259221282853
 20
-283.24341562588052
 30
0.0
 70
    32
  0
VERTEX
  5
1F8
  8
DATA
  6
CONTINUOUS
 62
     7
 10
-584.61259221282853
 20
-283.22941562588062
 30
0.0
 70
    32
  0
VERTEX
  5
1F9
  8
DATA
  6
CONTINUOUS
 62
     7
 10
-584.61259221282853
 20
-283.21441562588052
 30
0.0
 70
    32
  0
VERTEX
  5
1FA
  8
DATA
  6
CONTINUOUS
 62
     7
 10
-584.61259221282853
 20
-283.19941562588048
 30
0.0
 70
    32
  0
VERTEX
  5
1FB
  8
DATA
  6
CONTINUOUS
 62
     7
 10
-584.61259221282853
 20
-283.18441562588049
 30
0.0
 70
    32
  0
VERTEX
  5
1FC
  8
DATA
  6
CONTINUOUS
 62
     7
 10
-584.61259221282853
 20
-283.1694156258805
 30
0.0
 70
    32
  0
VERTEX
  5
1FD
  8
DATA
  6
CONTINUOUS
 62
     7
 10
-584.61259221282853
 20
-283.15441562588057
 30
0.0
 70
    32
  0
VERTEX
  5
1FE
  8
DATA
  6
CONTINUOUS
 62
     7
 10
-584.61259221282853
 20
-283.13841562588061
 30
0.0
 70
    32
  0
VERTEX
  5
1FF
  8
DATA
  6
CONTINUOUS
 62
     7
 10
-584.61259221282853
 20
-283.12241562588048
 30
0.0
 70
    32
  0
VERTEX
  5
200
  8
DATA
  6
CONTINUOUS
 62
     7
 10
-584.61259221282853
 20
-283.10641562588057
 30
0.0
 70
    32
  0
VERTEX
  5
201
  8
DATA
  6
CONTINUOUS
 62
     7
 10
-584.61259221282853
 20
-283.09041562588061
 30
0.0
 70
    32
  0
VERTEX
  5
202
  8
DATA
  6
CONTINUOUS
 62
     7
 10
-584.61259221282853
 20
-283.07441562588059
 30
0.0
 70
    32
  0
VERTEX
  5
203
  8
DATA
  6
CONTINUOUS
 62
     7
 10
-584.61259221282853
 20
-283.05741562588048
 30
0.0
 70
    32
  0
VERTEX
  5
204
  8
DATA
  6
CONTINUOUS
 62
     7
 10
-584.61259221282853
 20
-283.04141562588052
 30
0.0
 70
    32
  0
VERTEX
  5
205
  8
DATA
  6
CONTINUOUS
 62
     7
 10
-584.61259221282853
 20
-283.02441562588052
 30
0.0
 70
    32
  0
VERTEX
  5
206
  8
DATA
  6
CONTINUOUS
 62
     7
 10
-584.61259221282853
 20
-283.00741562588053
 30
0.0
 70
    32
  0
VERTEX
  5
207
  8
DATA
  6
CONTINUOUS
 62
     7
 10
-584.61259221282853
 20
-282.99041562588047
 30
0.0
 70
    32
  0
VERTEX
  5
208
  8
DATA
  6
CONTINUOUS
 62
     7
 10
-584.61259221282853
 20
-282.97341562588048
 30
0.0
 70
    32
  0
VERTEX
  5
209
  8
DATA
  6
CONTINUOUS
 62
     7
 10
-584.61259221282853
 20
-282.95541562588062
 30
0.0
 70
    32
  0
VERTEX
  5
20A
  8
DATA
  6
CONTINUOUS
 62
     7
 10
-584.61259221282853
 20
-282.93841562588062
 30
0.0
 70
    32
  0
VERTEX
  5
20B
  8
DATA
  6
CONTINUOUS
 62
     7
 10
-584.61259221282853
 20
-282.92041562588048
 30
0.0
 70
    32
  0
VERTEX
  5
20C
  8
DATA
  6
CONTINUOUS
 62
     7
 10
-584.61259221282853
 20
-282.90241562588062
 30
0.0
 70
    32
  0
VERTEX
  5
20D
  8
DATA
  6
CONTINUOUS
 62
     7
 10
-584.61259221282853
 20
-282.88441562588059
 30
0.0
 70
    32
  0
VERTEX
  5
20E
  8
DATA
  6
CONTINUOUS
 62
     7
 10
-584.61259221282853
 20
-282.86641562588062
 30
0.0
 70
    32
  0
VERTEX
  5
20F
  8
DATA
  6
CONTINUOUS
 62
     7
 10
-584.61259221282853
 20
-282.84841562588048
 30
0.0
 70
    32
  0
VERTEX
  5
210
  8
DATA
  6
CONTINUOUS
 62
     7
 10
-584.61259221282853
 20
-282.83041562588062
 30
0.0
 70
    32
  0
VERTEX
  5
211
  8
DATA
  6
CONTINUOUS
 62
     7
 10
-584.61259221282853
 20
-282.81141562588061
 30
0.0
 70
    32
  0
VERTEX
  5
212
  8
DATA
  6
CONTINUOUS
 62
     7
 10
-584.61259221282853
 20
-282.79341562588053
 30
0.0
 70
    32
  0
VERTEX
  5
213
  8
DATA
  6
CONTINUOUS
 62
     7
 10
-584.61259221282853
 20
-282.77441562588052
 30
0.0
 70
    32
  0
VERTEX
  5
214
  8
DATA
  6
CONTINUOUS
 62
     7
 10
-584.61259221282853
 20
-282.75541562588057
 30
0.0
 70
    32
  0
VERTEX
  5
215
  8
DATA
  6
CONTINUOUS
 62
     7
 10
-584.61259221282853
 20
-282.73641562588062
 30
0.0
 70
    32
  0
VERTEX
  5
216
  8
DATA
  6
CONTINUOUS
 62
     7
 10
-584.61259221282853
 20
-282.71741562588062
 30
0.0
 70
    32
  0
VERTEX
  5
217
  8
DATA
  6
CONTINUOUS
 62
     7
 10
-584.61259221282853
 20
-282.69841562588061
 30
0.0
 70
    32
  0
VERTEX
  5
218
  8
DATA
  6
CONTINUOUS
 62
     7
 10
-584.61259221282853
 20
-282.67841562588052
 30
0.0
 70
    32
  0
VERTEX
  5
219
  8
DATA
  6
CONTINUOUS
 62
     7
 10
-584.61259221282853
 20
-282.65941562588063
 30
0.0
 70
    32
  0
VERTEX
  5
21A
  8
DATA
  6
CONTINUOUS
 62
     7
 10
-584.61259221282853
 20
-282.63941562588047
 30
0.0
 70
    32
  0
VERTEX
  5
21B
  8
DATA
  6
CONTINUOUS
 62
     7
 10
-584.61259221282853
 20
-282.61941562588061
 30
0.0
 70
    32
  0
VERTEX
  5
21C
  8
DATA
  6
CONTINUOUS
 62
     7
 10
-584.61259221282853
 20
-282.59941562588062
 30
0.0
 70
    32
  0
VERTEX
  5
21D
  8
DATA
  6
CONTINUOUS
 62
     7
 10
-584.61259221282853
 20
-282.57941562588047
 30
0.0
 70
    32
  0
VERTEX
  5
21E
  8
DATA
  6
CONTINUOUS
 62
     7
 10
-584.61259221282853
 20
-282.55941562588049
 30
0.0
 70
    32
  0
VERTEX
  5
21F
  8
DATA
  6
CONTINUOUS
 62
     7
 10
-584.61259221282853
 20
-282.53841562588059
 30
0.0
 70
    32
  0
VERTEX
  5
220
  8
DATA
  6
CONTINUOUS
 62
     7
 10
-584.61259221282853
 20
-282.51841562588061
 30
0.0
 70
    32
  0
VERTEX
  5
221
  8
DATA
  6
CONTINUOUS
 62
     7
 10
-584.61259221282853
 20
-282.49741562588048
 30
0.0
 70
    32
  0
VERTEX
  5
222
  8
DATA
  6
CONTINUOUS
 62
     7
 10
-584.61259221282853
 20
-282.4774156258805
 30
0.0
 70
    32
  0
VERTEX
  5
223
  8
DATA
  6
CONTINUOUS
 62
     7
 10
-584.61259221282853
 20
-282.4564156258806
 30
0.0
 70
    32
  0
VERTEX
  5
224
  8
DATA
  6
CONTINUOUS
 62
     7
 10
-584.61259221282853
 20
-282.43541562588058
 30
0.0
 70
    32
  0
VERTEX
  5
225
  8
DATA
  6
CONTINUOUS
 62
     7
 10
-584.61259221282853
 20
-282.41441562588062
 30
0.0
 70
    32
  0
VERTEX
  5
226
  8
DATA
  6
CONTINUOUS
 62
     7
 10
-584.61259221282853
 20
-282.39241562588052
 30
0.0
 70
    32
  0
VERTEX
  5
227
  8
DATA
  6
CONTINUOUS
 62
     7
 10
-584.61259221282853
 20
-282.37141562588062
 30
0.0
 70
    32
  0
VERTEX
  5
228
  8
DATA
  6
CONTINUOUS
 62
     7
 10
-584.61259221282853
 20
-282.34941562588062
 30
0.0
 70
    32
  0
VERTEX
  5
229
  8
DATA
  6
CONTINUOUS
 62
     7
 10
-584.61259221282853
 20
-282.3284156258805
 30
0.0
 70
    32
  0
VERTEX
  5
22A
  8
DATA
  6
CONTINUOUS
 62
     7
 10
-584.61259221282853
 20
-282.30641562588062
 30
0.0
 70
    32
  0
VERTEX
  5
22B
  8
DATA
  6
CONTINUOUS
 62
     7
 10
-584.61259221282853
 20
-282.28441562588063
 30
0.0
 70
    32
  0
VERTEX
  5
22C
  8
DATA
  6
CONTINUOUS
 62
     7
 10
-584.61259221282853
 20
-282.26241562588052
 30
0.0
 70
    32
  0
VERTEX
  5
22D
  8
DATA
  6
CONTINUOUS
 62
     7
 10
-584.61259221282853
 20
-282.24041562588047
 30
0.0
 70
    32
  0
VERTEX
  5
22E
  8
DATA
  6
CONTINUOUS
 62
     7
 10
-584.61259221282853
 20
-282.21741562588062
 30
0.0
 70
    32
  0
VERTEX
  5
22F
  8
DATA
  6
CONTINUOUS
 62
     7
 10
-584.61259221282853
 20
-282.19541562588051
 30
0.0
 70
    32
  0
VERTEX
  5
230
  8
DATA
  6
CONTINUOUS
 62
     7
 10
-584.61259221282853
 20
-282.1724156258806
 30
0.0
 70
    32
  0
VERTEX
  5
231
  8
DATA
  6
CONTINUOUS
 62
     7
 10
-584.61259221282853
 20
-282.1504156258805
 30
0.0
 70
    32
  0
VERTEX
  5
232
  8
DATA
  6
CONTINUOUS
 62
     7
 10
-584.61259221282853
 20
-282.12741562588047
 30
0.0
 70
    32
  0
VERTEX
  5
233
  8
DATA
  6
CONTINUOUS
 62
     7
 10
-584.61259221282853
 20
-282.10441562588062
 30
0.0
 70
    32
  0
VERTEX
  5
234
  8
DATA
  6
CONTINUOUS
 62
     7
 10
-584.61259221282853
 20
-282.0814156258806
 30
0.0
 70
    32
  0
VERTEX
  5
235
  8
DATA
  6
CONTINUOUS
 62
     7
 10
-584.61259221282853
 20
-282.05741562588048
 30
0.0
 70
    32
  0
VERTEX
  5
236
  8
DATA
  6
CONTINUOUS
 62
     7
 10
-584.61259221282853
 20
-282.03441562588063
 30
0.0
 70
    32
  0
VERTEX
  5
237
  8
DATA
  6
CONTINUOUS
 62
     7
 10
-584.61259221282853
 20
-282.01041562588051
 30
0.0
 70
    32
  0
VERTEX
  5
238
  8
DATA
  6
CONTINUOUS
 62
     7
 10
-584.61259221282853
 20
-281.98741562588049
 30
0.0
 70
    32
  0
VERTEX
  5
239
  8
DATA
  6
CONTINUOUS
 62
     7
 10
-584.61259221282853
 20
-281.96341562588049
 30
0.0
 70
    32
  0
VERTEX
  5
23A
  8
DATA
  6
CONTINUOUS
 62
     7
 10
-584.61259221282853
 20
-281.93941562588049
 30
0.0
 70
    32
  0
VERTEX
  5
23B
  8
DATA
  6
CONTINUOUS
 62
     7
 10
-584.61259221282853
 20
-281.91541562588048
 30
0.0
 70
    32
  0
VERTEX
  5
23C
  8
DATA
  6
CONTINUOUS
 62
     7
 10
-584.61259221282853
 20
-281.89141562588048
 30
0.0
 70
    32
  0
VERTEX
  5
23D
  8
DATA
  6
CONTINUOUS
 62
     7
 10
-584.61259221282853
 20
-281.86741562588048
 30
0.0
 70
    32
  0
VERTEX
  5
23E
  8
DATA
  6
CONTINUOUS
 62
     7
 10
-584.61259221282853
 20
-281.84241562588062
 30
0.0
 70
    32
  0
VERTEX
  5
23F
  8
DATA
  6
CONTINUOUS
 62
     7
 10
-584.61259221282853
 20
-281.8184156258805
 30
0.0
 70
    32
  0
VERTEX
  5
240
  8
DATA
  6
CONTINUOUS
 62
     7
 10
-584.61259221282853
 20
-281.79341562588053
 30
0.0
 70
    32
  0
VERTEX
  5
241
  8
DATA
  6
CONTINUOUS
 62
     7
 10
-584.61259221282853
 20
-281.76841562588061
 30
0.0
 70
    32
  0
VERTEX
  5
242
  8
DATA
  6
CONTINUOUS
 62
     7
 10
-584.61259221282853
 20
-281.74341562588052
 30
0.0
 70
    32
  0
VERTEX
  5
243
  8
DATA
  6
CONTINUOUS
 62
     7
 10
-584.61259221282853
 20
-281.71841562588048
 30
0.0
 70
    32
  0
VERTEX
  5
244
  8
DATA
  6
CONTINUOUS
 62
     7
 10
-584.61259221282853
 20
-281.69341562588062
 30
0.0
 70
    32
  0
VERTEX
  5
245
  8
DATA
  6
CONTINUOUS
 62
     7
 10
-584.61259221282853
 20
-281.66841562588053
 30
0.0
 70
    32
  0
VERTEX
  5
246
  8
DATA
  6
CONTINUOUS
 62
     7
 10
-584.61259221282853
 20
-281.64341562588061
 30
0.0
 70
    32
  0
VERTEX
  5
247
  8
DATA
  6
CONTINUOUS
 62
     7
 10
-584.61259221282853
 20
-281.61741562588048
 30
0.0
 70
    32
  0
VERTEX
  5
248
  8
DATA
  6
CONTINUOUS
 62
     7
 10
-584.61259221282853
 20
-281.59241562588062
 30
0.0
 70
    32
  0
VERTEX
  5
249
  8
DATA
  6
CONTINUOUS
 62
     7
 10
-584.61259221282853
 20
-281.56641562588061
 30
0.0
 70
    32
  0
VERTEX
  5
24A
  8
DATA
  6
CONTINUOUS
 62
     7
 10
-584.61259221282853
 20
-281.54041562588048
 30
0.0
 70
    32
  0
VERTEX
  5
24B
  8
DATA
  6
CONTINUOUS
 62
     7
 10
-584.61259221282853
 20
-281.51441562588047
 30
0.0
 70
    32
  0
VERTEX
  5
24C
  8
DATA
  6
CONTINUOUS
 62
     7
 10
-584.61259221282853
 20
-281.48841562588052
 30
0.0
 70
    32
  0
VERTEX
  5
24D
  8
DATA
  6
CONTINUOUS
 62
     7
 10
-584.61259221282853
 20
-281.46241562588062
 30
0.0
 70
    32
  0
VERTEX
  5
24E
  8
DATA
  6
CONTINUOUS
 62
     7
 10
-584.61259221282853
 20
-281.43641562588061
 30
0.0
 70
    32
  0
VERTEX
  5
24F
  8
DATA
  6
CONTINUOUS
 62
     7
 10
-584.61259221282853
 20
-281.41041562588049
 30
0.0
 70
    32
  0
VERTEX
  5
250
  8
DATA
  6
CONTINUOUS
 62
     7
 10
-584.61259221282853
 20
-281.38341562588062
 30
0.0
 70
    32
  0
VERTEX
  5
251
  8
DATA
  6
CONTINUOUS
 62
     7
 10
-584.61259221282853
 20
-281.35741562588049
 30
0.0
 70
    32
  0
VERTEX
  5
252
  8
DATA
  6
CONTINUOUS
 62
     7
 10
-584.61259221282853
 20
-281.33041562588062
 30
0.0
 70
    32
  0
VERTEX
  5
253
  8
DATA
  6
CONTINUOUS
 62
     7
 10
-584.61259221282853
 20
-281.30341562588052
 30
0.0
 70
    32
  0
VERTEX
  5
254
  8
DATA
  6
CONTINUOUS
 62
     7
 10
-584.61259221282853
 20
-281.27641562588059
 30
0.0
 70
    32
  0
VERTEX
  5
255
  8
DATA
  6
CONTINUOUS
 62
     7
 10
-584.61259221282853
 20
-281.2494156258806
 30
0.0
 70
    32
  0
VERTEX
  5
256
  8
DATA
  6
CONTINUOUS
 62
     7
 10
-584.61259221282853
 20
-281.2224156258805
 30
0.0
 70
    32
  0
VERTEX
  5
257
  8
DATA
  6
CONTINUOUS
 62
     7
 10
-584.61259221282853
 20
-281.19541562588051
 30
0.0
 70
    32
  0
VERTEX
  5
258
  8
DATA
  6
CONTINUOUS
 62
     7
 10
-584.61259221282853
 20
-281.16841562588058
 30
0.0
 70
    32
  0
VERTEX
  5
259
  8
DATA
  6
CONTINUOUS
 62
     7
 10
-584.61259221282853
 20
-281.14141562588048
 30
0.0
 70
    32
  0
VERTEX
  5
25A
  8
DATA
  6
CONTINUOUS
 62
     7
 10
-584.61259221282853
 20
-281.11341562588052
 30
0.0
 70
    32
  0
VERTEX
  5
25B
  8
DATA
  6
CONTINUOUS
 62
     7
 10
-584.61259221282853
 20
-281.08641562588048
 30
0.0
 70
    32
  0
VERTEX
  5
25C
  8
DATA
  6
CONTINUOUS
 62
     7
 10
-584.61259221282853
 20
-281.05841562588063
 30
0.0
 70
    32
  0
VERTEX
  5
25D
  8
DATA
  6
CONTINUOUS
 62
     7
 10
-584.61259221282853
 20
-281.03041562588049
 30
0.0
 70
    32
  0
VERTEX
  5
25E
  8
DATA
  6
CONTINUOUS
 62
     7
 10
-584.61259221282853
 20
-281.00241562588047
 30
0.0
 70
    32
  0
VERTEX
  5
25F
  8
DATA
  6
CONTINUOUS
 62
     7
 10
-584.61259221282853
 20
-280.97441562588062
 30
0.0
 70
    32
  0
VERTEX
  5
260
  8
DATA
  6
CONTINUOUS
 62
     7
 10
-584.61259221282853
 20
-280.9464156258806
 30
0.0
 70
    32
  0
VERTEX
  5
261
  8
DATA
  6
CONTINUOUS
 62
     7
 10
-584.61259221282853
 20
-280.91841562588053
 30
0.0
 70
    32
  0
VERTEX
  5
262
  8
DATA
  6
CONTINUOUS
 62
     7
 10
-584.61259221282853
 20
-280.89041562588051
 30
0.0
 70
    32
  0
VERTEX
  5
263
  8
DATA
  6
CONTINUOUS
 62
     7
 10
-584.61259221282853
 20
-280.86241562588049
 30
0.0
 70
    32
  0
VERTEX
  5
264
  8
DATA
  6
CONTINUOUS
 62
     7
 10
-584.61259221282853
 20
-280.83341562588049
 30
0.0
 70
    32
  0
VERTEX
  5
265
  8
DATA
  6
CONTINUOUS
 62
     7
 10
-584.61259221282853
 20
-280.80541562588053
 30
0.0
 70
    32
  0
VERTEX
  5
266
  8
DATA
  6
CONTINUOUS
 62
     7
 10
-584.61259221282853
 20
-280.77641562588047
 30
0.0
 70
    32
  0
VERTEX
  5
267
  8
DATA
  6
CONTINUOUS
 62
     7
 10
-584.61259221282853
 20
-280.74841562588063
 30
0.0
 70
    32
  0
VERTEX
  5
268
  8
DATA
  6
CONTINUOUS
 62
     7
 10
-584.61259221282853
 20
-280.7194156258804
 30
0.0
 70
    32
  0
VERTEX
  5
269
  8
DATA
  6
CONTINUOUS
 62
     7
 10
-584.61259221282853
 20
-280.69041562588052
 30
0.0
 70
    32
  0
VERTEX
  5
26A
  8
DATA
  6
CONTINUOUS
 62
     7
 10
-584.61259221282853
 20
-280.66141562588052
 30
0.0
 70
    32
  0
VERTEX
  5
26B
  8
DATA
  6
CONTINUOUS
 62
     7
 10
-584.61259221282853
 20
-280.63241562588053
 30
0.0
 70
    32
  0
VERTEX
  5
26C
  8
DATA
  6
CONTINUOUS
 62
     7
 10
-584.61259221282853
 20
-280.60341562588047
 30
0.0
 70
    32
  0
VERTEX
  5
26D
  8
DATA
  6
CONTINUOUS
 62
     7
 10
-584.61259221282853
 20
-280.57441562588048
 30
0.0
 70
    32
  0
VERTEX
  5
26E
  8
DATA
  6
CONTINUOUS
 62
     7
 10
-584.61259221282853
 20
-280.54541562588059
 30
0.0
 70
    32
  0
VERTEX
  5
26F
  8
DATA
  6
CONTINUOUS
 62
     7
 10
-584.61259221282853
 20
-280.51641562588048
 30
0.0
 70
    32
  0
VERTEX
  5
270
  8
DATA
  6
CONTINUOUS
 62
     7
 10
-584.61259221282853
 20
-280.48641562588062
 30
0.0
 70
    32
  0
VERTEX
  5
271
  8
DATA
  6
CONTINUOUS
 62
     7
 10
-584.61259221282853
 20
-280.45741562588051
 30
0.0
 70
    32
  0
VERTEX
  5
272
  8
DATA
  6
CONTINUOUS
 62
     7
 10
-584.61259221282853
 20
-280.4274156258806
 30
0.0
 70
    32
  0
VERTEX
  5
273
  8
DATA
  6
CONTINUOUS
 62
     7
 10
-584.61259221282853
 20
-280.3984156258806
 30
0.0
 70
    32
  0
VERTEX
  5
274
  8
DATA
  6
CONTINUOUS
 62
     7
 10
-584.61259221282853
 20
-280.36841562588052
 30
0.0
 70
    32
  0
VERTEX
  5
275
  8
DATA
  6
CONTINUOUS
 62
     7
 10
-584.61259221282853
 20
-280.33841562588049
 30
0.0
 70
    32
  0
VERTEX
  5
276
  8
DATA
  6
CONTINUOUS
 62
     7
 10
-584.61259221282853
 20
-280.30841562588063
 30
0.0
 70
    32
  0
VERTEX
  5
277
  8
DATA
  6
CONTINUOUS
 62
     7
 10
-584.61259221282853
 20
-280.2784156258806
 30
0.0
 70
    32
  0
VERTEX
  5
278
  8
DATA
  6
CONTINUOUS
 62
     7
 10
-584.61259221282853
 20
-280.24841562588063
 30
0.0
 70
    32
  0
VERTEX
  5
279
  8
DATA
  6
CONTINUOUS
 62
     7
 10
-584.61259221282853
 20
-280.21841562588048
 30
0.0
 70
    32
  0
VERTEX
  5
27A
  8
DATA
  6
CONTINUOUS
 62
     7
 10
-584.61259221282853
 20
-280.18841562588062
 30
0.0
 70
    32
  0
VERTEX
  5
27B
  8
DATA
  6
CONTINUOUS
 62
     7
 10
-584.61259221282853
 20
-280.15841562588048
 30
0.0
 70
    32
  0
VERTEX
  5
27C
  8
DATA
  6
CONTINUOUS
 62
     7
 10
-584.61259221282853
 20
-280.12741562588047
 30
0.0
 70
    32
  0
VERTEX
  5
27D
  8
DATA
  6
CONTINUOUS
 62
     7
 10
-584.61259221282853
 20
-280.0974156258805
 30
0.0
 70
    32
  0
VERTEX
  5
27E
  8
DATA
  6
CONTINUOUS
 62
     7
 10
-584.61259221282853
 20
-280.06741562588053
 30
0.0
 70
    32
  0
VERTEX
  5
27F
  8
DATA
  6
CONTINUOUS
 62
     7
 10
-584.61259221282853
 20
-280.03641562588052
 30
0.0
 70
    32
  0
VERTEX
  5
280
  8
DATA
  6
CONTINUOUS
 62
     7
 10
-584.61259221282853
 20
-280.00541562588057
 30
0.0
 70
    32
  0
VERTEX
  5
281
  8
DATA
  6
CONTINUOUS
 62
     7
 10
-584.61259221282853
 20
-279.9754156258806
 30
0.0
 70
    32
  0
VERTEX
  5
282
  8
DATA
  6
CONTINUOUS
 62
     7
 10
-584.61259221282853
 20
-279.94441562588048
 30
0.0
 70
    32
  0
VERTEX
  5
283
  8
DATA
  6
CONTINUOUS
 62
     7
 10
-584.61259221282853
 20
-279.91341562588048
 30
0.0
 70
    32
  0
VERTEX
  5
284
  8
DATA
  6
CONTINUOUS
 62
     7
 10
-584.61259221282853
 20
-279.88241562588053
 30
0.0
 70
    32
  0
VERTEX
  5
285
  8
DATA
  6
CONTINUOUS
 62
     7
 10
-584.61259221282853
 20
-279.85141562588052
 30
0.0
 70
    32
  0
VERTEX
  5
286
  8
DATA
  6
CONTINUOUS
 62
     7
 10
-584.61259221282853
 20
-279.82041562588051
 30
0.0
 70
    32
  0
VERTEX
  5
287
  8
DATA
  6
CONTINUOUS
 62
     7
 10
-584.61259221282853
 20
-279.78941562588062
 30
0.0
 70
    32
  0
VERTEX
  5
288
  8
DATA
  6
CONTINUOUS
 62
     7
 10
-584.61259221282853
 20
-279.75841562588062
 30
0.0
 70
    32
  0
VERTEX
  5
289
  8
DATA
  6
CONTINUOUS
 62
     7
 10
-584.61259221282853
 20
-279.72741562588061
 30
0.0
 70
    32
  0
VERTEX
  5
28A
  8
DATA
  6
CONTINUOUS
 62
     7
 10
-584.61259221282853
 20
-279.6964156258806
 30
0.0
 70
    32
  0
VERTEX
  5
28B
  8
DATA
  6
CONTINUOUS
 62
     7
 10
-584.61259221282853
 20
-279.66441562588062
 30
0.0
 70
    32
  0
VERTEX
  5
28C
  8
DATA
  6
CONTINUOUS
 62
     7
 10
-584.61259221282853
 20
-279.63341562588062
 30
0.0
 70
    32
  0
VERTEX
  5
28D
  8
DATA
  6
CONTINUOUS
 62
     7
 10
-584.61259221282853
 20
-279.6024156258805
 30
0.0
 70
    32
  0
VERTEX
  5
28E
  8
DATA
  6
CONTINUOUS
 62
     7
 10
-584.61259221282853
 20
-279.57041562588051
 30
0.0
 70
    32
  0
VERTEX
  5
28F
  8
DATA
  6
CONTINUOUS
 62
     7
 10
-584.61259221282853
 20
-279.53941562588062
 30
0.0
 70
    32
  0
VERTEX
  5
290
  8
DATA
  6
CONTINUOUS
 62
     7
 10
-584.61259221282853
 20
-279.50741562588053
 30
0.0
 70
    32
  0
VERTEX
  5
291
  8
DATA
  6
CONTINUOUS
 62
     7
 10
-584.61259221282853
 20
-279.4754156258806
 30
0.0
 70
    32
  0
VERTEX
  5
292
  8
DATA
  6
CONTINUOUS
 62
     7
 10
-584.61259221282853
 20
-279.44441562588048
 30
0.0
 70
    32
  0
VERTEX
  5
293
  8
DATA
  6
CONTINUOUS
 62
     7
 10
-584.61259221282853
 20
-279.41241562588061
 30
0.0
 70
    32
  0
VERTEX
  5
294
  8
DATA
  6
CONTINUOUS
 62
     7
 10
-584.61259221282853
 20
-279.38041562588057
 30
0.0
 70
    32
  0
VERTEX
  5
295
  8
DATA
  6
CONTINUOUS
 62
     7
 10
-584.61259221282853
 20
-279.34841562588048
 30
0.0
 70
    32
  0
VERTEX
  5
296
  8
DATA
  6
CONTINUOUS
 62
     7
 10
-584.61259221282853
 20
-279.31741562588053
 30
0.0
 70
    32
  0
VERTEX
  5
297
  8
DATA
  6
CONTINUOUS
 62
     7
 10
-584.61259221282853
 20
-279.2854156258806
 30
0.0
 70
    32
  0
VERTEX
  5
298
  8
DATA
  6
CONTINUOUS
 62
     7
 10
-584.61259221282853
 20
-279.25341562588062
 30
0.0
 70
    32
  0
VERTEX
  5
299
  8
DATA
  6
CONTINUOUS
 62
     7
 10
-584.61259221282853
 20
-279.22141562588052
 30
0.0
 70
    32
  0
VERTEX
  5
29A
  8
DATA
  6
CONTINUOUS
 62
     7
 10
-584.61259221282853
 20
-279.18941562588049
 30
0.0
 70
    32
  0
VERTEX
  5
29B
  8
DATA
  6
CONTINUOUS
 62
     7
 10
-584.61259221282853
 20
-279.15641562588053
 30
0.0
 70
    32
  0
VERTEX
  5
29C
  8
DATA
  6
CONTINUOUS
 62
     7
 10
-584.61259221282853
 20
-279.1244156258806
 30
0.0
 70
    32
  0
VERTEX
  5
29D
  8
DATA
  6
CONTINUOUS
 62
     7
 10
-584.61259221282853
 20
-279.09241562588062
 30
0.0
 70
    32
  0
VERTEX
  5
29E
  8
DATA
  6
CONTINUOUS
 62
     7
 10
-584.61259221282853
 20
-279.06041562588052
 30
0.0
 70
    32
  0
VERTEX
  5
29F
  8
DATA
  6
CONTINUOUS
 62
     7
 10
-584.61259221282853
 20
-279.0284156258806
 30
0.0
 70
    32
  0
VERTEX
  5
2A0
  8
DATA
  6
CONTINUOUS
 62
     7
 10
-584.61259221282853
 20
-278.99541562588053
 30
0.0
 70
    32
  0
VERTEX
  5
2A1
  8
DATA
  6
CONTINUOUS
 62
     7
 10
-584.61259221282853
 20
-278.96341562588049
 30
0.0
 70
    32
  0
VERTEX
  5
2A2
  8
DATA
  6
CONTINUOUS
 62
     7
 10
-584.61259221282853
 20
-278.93141562588062
 30
0.0
 70
    32
  0
VERTEX
  5
2A3
  8
DATA
  6
CONTINUOUS
 62
     7
 10
-584.61259221282853
 20
-278.8984156258806
 30
0.0
 70
    32
  0
VERTEX
  5
2A4
  8
DATA
  6
CONTINUOUS
 62
     7
 10
-584.61259221282853
 20
-278.86641562588062
 30
0.0
 70
    32
  0
VERTEX
  5
2A5
  8
DATA
  6
CONTINUOUS
 62
     7
 10
-584.61259221282853
 20
-278.83341562588049
 30
0.0
 70
    32
  0
VERTEX
  5
2A6
  8
DATA
  6
CONTINUOUS
 62
     7
 10
-584.61259221282853
 20
-278.80141562588062
 30
0.0
 70
    32
  0
VERTEX
  5
2A7
  8
DATA
  6
CONTINUOUS
 62
     7
 10
-584.61259221282853
 20
-278.76841562588061
 30
0.0
 70
    32
  0
VERTEX
  5
2A8
  8
DATA
  6
CONTINUOUS
 62
     7
 10
-584.61259221282853
 20
-278.73641562588062
 30
0.0
 70
    32
  0
VERTEX
  5
2A9
  8
DATA
  6
CONTINUOUS
 62
     7
 10
-584.61259221282853
 20
-278.70341562588061
 30
0.0
 70
    32
  0
VERTEX
  5
2AA
  8
DATA
  6
CONTINUOUS
 62
     7
 10
-584.61259221282853
 20
-278.6714156258804
 30
0.0
 70
    32
  0
VERTEX
  5
2AB
  8
DATA
  6
CONTINUOUS
 62
     7
 10
-584.61259221282853
 20
-278.63841562588061
 30
0.0
 70
    32
  0
VERTEX
  5
2AC
  8
DATA
  6
CONTINUOUS
 62
     7
 10
-584.61259221282853
 20
-278.6054156258806
 30
0.0
 70
    32
  0
VERTEX
  5
2AD
  8
DATA
  6
CONTINUOUS
 62
     7
 10
-584.61259221282853
 20
-278.57341562588061
 30
0.0
 70
    32
  0
VERTEX
  5
2AE
  8
DATA
  6
CONTINUOUS
 62
     7
 10
-584.61259221282853
 20
-278.5404156258806
 30
0.0
 70
    32
  0
VERTEX
  5
2AF
  8
DATA
  6
CONTINUOUS
 62
     7
 10
-584.61259221282853
 20
-278.50741562588053
 30
0.0
 70
    32
  0
VERTEX
  5
2B0
  8
DATA
  6
CONTINUOUS
 62
     7
 10
-584.61259221282853
 20
-278.47441562588062
 30
0.0
 70
    32
  0
VERTEX
  5
2B1
  8
DATA
  6
CONTINUOUS
 62
     7
 10
-584.61259221282853
 20
-278.44241562588053
 30
0.0
 70
    32
  0
VERTEX
  5
2B2
  8
DATA
  6
CONTINUOUS
 62
     7
 10
-584.61259221282853
 20
-278.40941562588063
 30
0.0
 70
    32
  0
VERTEX
  5
2B3
  8
DATA
  6
CONTINUOUS
 62
     7
 10
-584.61259221282853
 20
-278.37641562588061
 30
0.0
 70
    32
  0
VERTEX
  5
2B4
  8
DATA
  6
CONTINUOUS
 62
     7
 10
-584.61259221282853
 20
-278.3434156258806
 30
0.0
 70
    32
  0
VERTEX
  5
2B5
  8
DATA
  6
CONTINUOUS
 62
     7
 10
-584.61259221282853
 20
-278.31041562588052
 30
0.0
 70
    32
  0
VERTEX
  5
2B6
  8
DATA
  6
CONTINUOUS
 62
     7
 10
-584.61259221282853
 20
-278.2784156258806
 30
0.0
 70
    32
  0
VERTEX
  5
2B7
  8
DATA
  6
CONTINUOUS
 62
     7
 10
-584.61259221282853
 20
-278.24541562588053
 30
0.0
 70
    32
  0
VERTEX
  5
2B8
  8
DATA
  6
CONTINUOUS
 62
     7
 10
-584.61259221282853
 20
-278.21241562588062
 30
0.0
 70
    32
  0
VERTEX
  5
2B9
  8
DATA
  6
CONTINUOUS
 62
     7
 10
-584.61259221282853
 20
-278.17941562588049
 30
0.0
 70
    32
  0
VERTEX
  5
2BA
  8
DATA
  6
CONTINUOUS
 62
     7
 10
-584.61259221282853
 20
-278.14641562588059
 30
0.0
 70
    32
  0
VERTEX
  5
2BB
  8
DATA
  6
CONTINUOUS
 62
     7
 10
-584.61259221282853
 20
-278.11341562588052
 30
0.0
 70
    32
  0
VERTEX
  5
2BC
  8
DATA
  6
CONTINUOUS
 62
     7
 10
-584.61259221282853
 20
-278.08041562588062
 30
0.0
 70
    32
  0
VERTEX
  5
2BD
  8
DATA
  6
CONTINUOUS
 62
     7
 10
-584.61259221282853
 20
-278.0474156258806
 30
0.0
 70
    32
  0
VERTEX
  5
2BE
  8
DATA
  6
CONTINUOUS
 62
     7
 10
-584.61259221282853
 20
-278.01441562588047
 30
0.0
 70
    32
  0
VERTEX
  5
2BF
  8
DATA
  6
CONTINUOUS
 62
     7
 10
-584.61259221282853
 20
-277.98141562588057
 30
0.0
 70
    32
  0
VERTEX
  5
2C0
  8
DATA
  6
CONTINUOUS
 62
     7
 10
-584.61259221282853
 20
-277.9484156258805
 30
0.0
 70
    32
  0
VERTEX
  5
2C1
  8
DATA
  6
CONTINUOUS
 62
     7
 10
-584.61259221282853
 20
-277.9154156258806
 30
0.0
 70
    32
  0
VERTEX
  5
2C2
  8
DATA
  6
CONTINUOUS
 62
     7
 10
-584.61259221282853
 20
-277.88341562588062
 30
0.0
 70
    32
  0
VERTEX
  5
2C3
  8
DATA
  6
CONTINUOUS
 62
     7
 10
-584.61259221282853
 20
-277.8504156258806
 30
0.0
 70
    32
  0
SEQEND
  5
2C4
  8
DATA
  6
CONTINUOUS
 62
     7
  0
LINE
  5
2C5
  8
DATA
  6
CONTINUOUS
 62
     7
 10
-589.61228027275865
 20
-281.34999358620348
 30
0.0
 11
-589.61228027275865
 21
-284.85000812973681
 31
0.0
  0
LINE
  5
2C6
  8
DATA
  6
CONTINUOUS
 62
     7
 10
-589.61228027275865
 20
-277.85000884499237
 30
0.0
 11
-589.61228027275865
 21
-281.34999358620348
 31
0.0
  0
LINE
  5
2C7
  8
DATA
  6
CONTINUOUS
 62
     7
 10
-589.61228027275865
 20
-284.85000812973658
 30
0.0
 11
-585.61227564677301
 21
-284.85000000000042
 31
0.0
  0
ARC
  5
2C8
  8
DATA
  6
CONTINUOUS
 62
     7
 10
-585.61227564677301
 20
-283.85000000000042
 30
0.0
 40
1.0
 50
270.0
 51
359.99999999997402
  0
LINE
  5
2C9
  8
DATA
  6
CONTINUOUS
 62
     7
 10
-620.66786895199857
 20
2.9999999999986642
 30
0.0
 11
-599.09584390814052
 21
2.9999999999988631
 31
0.0
  0
LINE
  5
2CA
  8
DATA
  6
CONTINUOUS
 62
     7
 10
-595.17365753653394
 20
29.99999999999952
 30
0.0
 11
-620.66786895199232
 21
29.999999999999339
 31
0.0
  0
LINE
  5
2CB
  8
DATA
  6
CONTINUOUS
 62
     7
 10
-620.66786895199232
 20
14.999999999999339
 30
0.0
 11
-595.17365753653394
 21
14.99999999999954
 31
0.0
  0
LINE
  5
2CC
  8
DATA
  6
CONTINUOUS
 62
     7
 10
-589.61228027275865
 20
-270.85000956024828
 30
0.0
 11
-612.41227879456346
 21
-270.85000956024828
 31
0.0
  0
LINE
  5
2CD
  8
DATA
  6
CONTINUOUS
 62
     7
 10
-612.41227879456346
 20
-272.8500136133639
 30
0.0
 11
-619.4122756467749
 21
-272.85000000000042
 31
0.0
  0
LINE
  5
2CE
  8
DATA
  6
CONTINUOUS
 62
     7
 10
-619.41227807930761
 20
-274.8499878641573
 30
0.0
 11
-621.91227569512102
 21
-274.8499878641573
 31
0.0
  0
LINE
  5
2CF
  8
DATA
  6
CONTINUOUS
 62
     7
 10
-621.91227569511909
 20
2.9999843839186431
 30
0.0
 11
-621.91227569511909
 21
15.000008702613741
 31
0.0
  0
LINE
  5
2D0
  8
DATA
  6
CONTINUOUS
 62
     7
 10
-620.66786895199232
 20
14.999999999999339
 30
0.0
 11
-620.66786895199857
 21
2.9999999999986642
 31
0.0
  0
CIRCLE
  5
2D1
  8
DATA
  6
CONTINUOUS
 62
     7
 10
-650.91227564677502
 20
-5.9999999999997442
 30
0.0
 40
4.0
  0
LINE
  5
2D2
  8
DATA
  6
CONTINUOUS
 62
     7
 10
-621.91227569511909
 20
2.9999843839186431
 30
0.0
 11
-620.66786895199857
 21
2.9999999999986642
 31
0.0
  0
LINE
  5
2D3
  8
DATA
  6
CONTINUOUS
 62
     7
 10
-620.66786895199232
 20
29.999999999999339
 30
0.0
 11
-620.66786895199232
 21
14.999999999999339
 31
0.0
  0
LINE
  5
2D4
  8
DATA
  6
CONTINUOUS
 62
     7
 10
-589.61228027275865
 20
-270.85000956024828
 30
0.0
 11
-589.61228027275865
 21
-274.34999430145922
 31
0.0
  0
LINE
  5
2D5
  8
DATA
  6
CONTINUOUS
 62
     7
 10
-585.61227564677301
 20
-270.85000000000082
 30
0.0
 11
-589.61228027275865
 21
-270.850009560248
 31
0.0
  0
ARC
  5
2D6
  8
DATA
  6
CONTINUOUS
 62
     7
 10
-585.61227564677301
 20
-271.84999999999991
 30
0.0
 40
1.0
 50
359.99999999997402
 51
90.0
  0
LINE
  5
2D7
  8
DATA
  6
CONTINUOUS
 62
     7
 10
-599.09585609367957
 20
15.00000870261394
 30
0.0
 11
-599.09584390814052
 21
2.9999999999988631
 31
0.0
  0
LINE
  5
2D8
  8
DATA
  6
CONTINUOUS
 62
     7
 10
-584.00000000000273
 20
2.9999999999997442
 30
0.0
 11
-583.99999632767413
 21
15.000008702614849
 31
0.0
  0
LINE
  5
2D9
  8
DATA
  6
CONTINUOUS
 62
     7
 10
-599.09584390814052
 20
2.9999999999988631
 30
0.0
 11
-584.00000000000273
 21
2.9999999999997442
 31
0.0
  0
LINE
  5
2DA
  8
DATA
  6
CONTINUOUS
 62
     7
 10
-580.0
 20
30.00000000000043
 30
0.0
 11
-595.17365753653394
 21
29.99999999999952
 31
0.0
  0
LINE
  5
2DB
  8
DATA
  6
CONTINUOUS
 62
     7
 10
-595.17365753653394
 20
14.99999999999954
 30
0.0
 11
-580.0
 21
15.000000000000449
 31
0.0
  0
LINE
  5
2DC
  8
DATA
  6
CONTINUOUS
 62
     7
 10
-595.17365753653394
 20
14.99999999999954
 30
0.0
 11
-595.17365753653394
 21
29.99999999999952
 31
0.0
  0
LINE
  5
2DD
  8
DATA
  6
CONTINUOUS
 62
     7
 10
-580.0
 20
15.000000000000449
 30
0.0
 11
-580.0
 21
30.00000000000043
 31
0.0
  0
LINE
  5
2DE
  8
DATA
  6
CONTINUOUS
 62
     7
 10
1073.0348110191501
 20
-584.99999940451335
 30
0.0
 11
1147.9998111717359
 21
-584.99999940451403
 31
0.0
  0
LINE
  5
2DF
  8
DATA
  6
CONTINUOUS
 62
     7
 10
1147.99981117174
 20
15.00000953618267
 30
0.0
 11
1073.034811019153
 21
15.00000953618315
 31
0.0
  0
LINE
  5
2E0
  8
DATA
  6
CONTINUOUS
 62
     7
 10
1073.035007030378
 20
-599.99999916643128
 30
0.0
 11
1147.9998111717359
 21
-600.00000000056048
 31
0.0
  0
LINE
  5
2E1
  8
DATA
  6
CONTINUOUS
 62
     7
 10
1147.9998111717359
 20
-584.99999940451403
 30
0.0
 11
1073.0348110191501
 21
-584.99999940451335
 31
0.0
  0
LINE
  5
2E2
  8
DATA
  6
CONTINUOUS
 62
     7
 10
1147.99981117174
 20
29.99999523106796
 30
0.0
 11
1073.0350070303839
 21
30.000000833568961
 31
0.0
  0
LINE
  5
2E3
  8
DATA
  6
CONTINUOUS
 62
     7
 10
1073.034811019153
 20
15.00000953618315
 30
0.0
 11
1147.99981117174
 21
15.00000953618267
 31
0.0
  0
LINE
  5
2E4
  8
DATA
  6
CONTINUOUS
 62
     7
 10
799.9999999992508
 20
-584.99999940451153
 30
0.0
 11
799.99999999925433
 21
15.00000953618517
 31
0.0
  0
LINE
  5
2E5
  8
DATA
  6
CONTINUOUS
 62
     7
 10
977.61066580711531
 20
3.0000008335687758
 30
0.0
 11
977.61066580710963
 21
-572.99999916642992
 31
0.0
  0
LINE
  5
2E6
  8
DATA
  6
CONTINUOUS
 62
     7
 10
1073.035007030375
 20
-572.9999991664306
 30
0.0
 11
1073.0350070303809
 21
3.0000008335684361
 31
0.0
  0
LINE
  5
2E7
  8
DATA
  6
CONTINUOUS
 62
     7
 10
1073.034811019153
 20
15.00000953618315
 30
0.0
 11
1073.0348110191501
 21
-584.99999940451335
 31
0.0
  0
LINE
  5
2E8
  8
DATA
  6
CONTINUOUS
 62
     7
 10
977.61063575669891
 20
-584.99999940451266
 30
0.0
 11
977.61063575670164
 21
15.000009536183869
 31
0.0
  0
LINE
  5
2E9
  8
DATA
  6
CONTINUOUS
 62
     7
 10
799.99999999925433
 20
15.00000953618517
 30
0.0
 11
799.9999999992508
 21
-584.99999940451153
 31
0.0
  0
LINE
  5
2EA
  8
DATA
  6
CONTINUOUS
 62
     7
 10
799.9999999992508
 20
-584.99999940451153
 30
0.0
 11
977.61063575669891
 21
-584.99999940451266
 31
0.0
  0
LINE
  5
2EB
  8
DATA
  6
CONTINUOUS
 62
     7
 10
799.9999999992508
 20
-600.00000000055786
 30
0.0
 11
977.61066580705949
 21
-599.9999991664306
 31
0.0
  0
LINE
  5
2EC
  8
DATA
  6
CONTINUOUS
 62
     7
 10
799.9999999992508
 20
-584.99999940451153
 30
0.0
 11
977.61063575669891
 21
-584.99999940451266
 31
0.0
  0
LINE
  5
2ED
  8
DATA
  6
CONTINUOUS
 62
     7
 10
799.9999999992508
 20
-600.00000000055786
 30
0.0
 11
799.9999999992508
 21
-584.99999940451153
 31
0.0
  0
CIRCLE
  5
2EE
  8
DATA
  6
CONTINUOUS
 62
     7
 10
1033.0530952246479
 20
-461.99999916643361
 30
0.0
 40
6.0
  0
ARC
  5
2EF
  8
DATA
  6
CONTINUOUS
 62
     7
 10
1033.0530952246479
 20
-461.99999916643361
 30
0.0
 40
9.0000000000003268
 50
196.12762021316459
 51
350.405931773144
  0
CIRCLE
  5
2F0
  8
DATA
  6
CONTINUOUS
 62
     7
 10
1033.069336068814
 20
-461.9999991664323
 30
0.0
 40
12.093386622446809
  0
ARC
  5
2F1
  8
DATA
  6
CONTINUOUS
 62
     7
 10
1113.143712135636
 20
-478.70290026436749
 30
0.0
 40
129.00000000000659
 50
159.06443109663411
 51
177.0099124229406
  0
ARC
  5
2F2
  8
DATA
  6
CONTINUOUS
 62
     7
 10
937.49496000198008
 20
-478.70290026433429
 30
0.0
 40
129.00000000001231
 50
2.9900875770463169
 51
20.93556890352427
  0
LINE
  5
2F3
  8
DATA
  6
CONTINUOUS
 62
     7
 10
1065.319108962264
 20
-551.9999921327468
 30
0.0
 11
985.31918525621052
 21
-551.99999213274623
 31
0.0
  0
LINE
  5
2F4
  8
DATA
  6
CONTINUOUS
 62
     7
 10
977.61066580705949
 20
-599.9999991664306
 30
0.0
 11
1073.035007030378
 21
-599.99999916643128
 31
0.0
  0
LINE
  5
2F5
  8
DATA
  6
CONTINUOUS
 62
     7
 10
1073.035007030375
 20
-572.9999991664306
 30
0.0
 11
977.61066580710963
 21
-572.99999916642992
 31
0.0
  0
LINE
  5
2F6
  8
DATA
  6
CONTINUOUS
 62
     7
 10
984.31925773545845
 20
-573.00000488813998
 30
0.0
 11
984.31933606881182
 21
-471.9738489943129
 31
0.0
  0
LINE
  5
2F7
  8
DATA
  6
CONTINUOUS
 62
     7
 10
977.61066580710963
 20
-572.99999916642992
 30
0.0
 11
977.61063575669891
 21
-584.99999940451266
 31
0.0
  0
LINE
  5
2F8
  8
DATA
  6
CONTINUOUS
 62
     7
 10
977.61063575669891
 20
-584.99999940451266
 30
0.0
 11
977.61066580705949
 21
-599.9999991664306
 31
0.0
  0
CIRCLE
  5
2F9
  8
DATA
  6
CONTINUOUS
 62
     7
 10
991.31933606881114
 20
-545.99999916643219
 30
0.0
 40
2.75
  0
CIRCLE
  5
2FA
  8
DATA
  6
CONTINUOUS
 62
     7
 10
991.31933606881114
 20
-471.99999916643202
 30
0.0
 40
2.75
  0
LINE
  5
2FB
  8
DATA
  6
CONTINUOUS
 62
     7
 10
1066.3193360688131
 20
-471.97384899431432
 30
0.0
 11
1066.3195133201741
 21
-573.00000488814078
 31
0.0
  0
LINE
  5
2FC
  8
DATA
  6
CONTINUOUS
 62
     7
 10
1073.0348110191501
 20
-584.99999940451335
 30
0.0
 11
1073.035007030378
 21
-599.99999916643128
 31
0.0
  0
LINE
  5
2FD
  8
DATA
  6
CONTINUOUS
 62
     7
 10
1073.0348110191501
 20
-584.99999940451335
 30
0.0
 11
1073.035007030375
 21
-572.9999991664306
 31
0.0
  0
CIRCLE
  5
2FE
  8
DATA
  6
CONTINUOUS
 62
     7
 10
1045.0693360688149
 20
-511.4999991664331
 30
0.0
 40
1.75
  0
CIRCLE
  5
2FF
  8
DATA
  6
CONTINUOUS
 62
     7
 10
1033.0693360688131
 20
-520.99999916643264
 30
0.0
 40
12.093386622446809
  0
ARC
  5
300
  8
DATA
  6
CONTINUOUS
 62
     7
 10
1033.0530952246479
 20
-520.9999991664331
 30
0.0
 40
9.0000000000000515
 50
9.5940682268560025
 51
163.8723797868353
  0
LINE
  5
301
  8
DATA
  6
CONTINUOUS
 62
     7
 10
1023.053216933456
 20
-518.50000619944262
 30
0.0
 11
1024.4072869917529
 21
-518.49999916643276
 31
0.0
  0
LINE
  5
302
  8
DATA
  6
CONTINUOUS
 62
     7
 10
1024.4072869917529
 20
-523.4999991664331
 30
0.0
 11
1023.053216933456
 21
-523.50000143107104
 31
0.0
  0
LINE
  5
303
  8
DATA
  6
CONTINUOUS
 62
     7
 10
1023.053216933456
 20
-518.50000619944262
 30
0.0
 11
1023.053216933456
 21
-523.50000143107104
 31
0.0
  0
CIRCLE
  5
304
  8
DATA
  6
CONTINUOUS
 62
     7
 10
1021.069336068815
 20
-530.49999916643196
 30
0.0
 40
1.75
  0
CIRCLE
  5
305
  8
DATA
  6
CONTINUOUS
 62
     7
 10
1033.0530952246479
 20
-520.9999991664331
 30
0.0
 40
6.0
  0
CIRCLE
  5
306
  8
DATA
  6
CONTINUOUS
 62
     7
 10
1033.0530952246479
 20
-520.9999991664331
 30
0.0
 40
2.75
  0
LINE
  5
307
  8
DATA
  6
CONTINUOUS
 62
     7
 10
1041.927214899298
 20
-519.49999916643321
 30
0.0
 11
1043.053197859969
 21
-519.49999332483958
 31
0.0
  0
LINE
  5
308
  8
DATA
  6
CONTINUOUS
 62
     7
 10
1043.053197859969
 20
-522.49999940451335
 30
0.0
 11
1043.053197859969
 21
-519.49999332483958
 31
0.0
  0
LINE
  5
309
  8
DATA
  6
CONTINUOUS
 62
     7
 10
1043.053197859969
 20
-522.49999940451335
 30
0.0
 11
1041.927214899298
 21
-522.49999916643355
 31
0.0
  0
ARC
  5
30A
  8
DATA
  6
CONTINUOUS
 62
     7
 10
1033.0530952246479
 20
-520.9999991664331
 30
0.0
 40
9.0000000000000409
 50
196.12762021315839
 51
350.405931773144
  0
CIRCLE
  5
30B
  8
DATA
  6
CONTINUOUS
 62
     7
 10
1021.069336068815
 20
-471.4999991664323
 30
0.0
 40
1.75
  0
CIRCLE
  5
30C
  8
DATA
  6
CONTINUOUS
 62
     7
 10
1059.319336068816
 20
-545.99999916643287
 30
0.0
 40
2.75
  0
CIRCLE
  5
30D
  8
DATA
  6
CONTINUOUS
 62
     7
 10
1059.319336068816
 20
-471.99999916643208
 30
0.0
 40
2.75
  0
ARC
  5
30E
  8
DATA
  6
CONTINUOUS
 62
     7
 10
1010.610665807111
 20
-374.99999916643139
 30
0.0
 40
6.5
 50
180.0
 51
270.0
  0
ARC
  5
30F
  8
DATA
  6
CONTINUOUS
 62
     7
 10
1010.610665807111
 20
-306.99999916643139
 30
0.0
 40
6.5
 50
90.0
 51
180.0
  0
ARC
  5
310
  8
DATA
  6
CONTINUOUS
 62
     7
 10
1042.484290736631
 20
-450.67911078987612
 30
0.0
 40
52.999999999999602
 50
129.76627983103771
 51
160.0653891967346
  0
CIRCLE
  5
311
  8
DATA
  6
CONTINUOUS
 62
     7
 10
992.61066580711247
 20
-378.99999916643202
 30
0.0
 40
3.4999999999918141
  0
CIRCLE
  5
312
  8
DATA
  6
CONTINUOUS
 62
     7
 10
992.61066580711247
 20
-378.99999916643202
 30
0.0
 40
6.5000000000027276
  0
CIRCLE
  5
313
  8
DATA
  6
CONTINUOUS
 62
     7
 10
992.61066580711247
 20
-302.99999916643168
 30
0.0
 40
3.499999999935425
  0
CIRCLE
  5
314
  8
DATA
  6
CONTINUOUS
 62
     7
 10
992.61066580711247
 20
-302.99999916643168
 30
0.0
 40
6.4999999999208731
  0
LINE
  5
315
  8
DATA
  6
CONTINUOUS
 62
     7
 10
1004.110665807112
 20
-374.99999916643168
 30
0.0
 11
1004.110665807112
 21
-306.99999916643139
 31
0.0
  0
LINE
  5
316
  8
DATA
  6
CONTINUOUS
 62
     7
 10
1065.1106658071101
 20
-306.99999916643219
 30
0.0
 11
1065.1106658071101
 21
-374.99999916643202
 31
0.0
  0
CIRCLE
  5
317
  8
DATA
  6
CONTINUOUS
 62
     7
 10
1045.0693360688149
 20
-452.49999916643219
 30
0.0
 40
1.75
  0
LINE
  5
318
  8
DATA
  6
CONTINUOUS
 62
     7
 10
1058.6106658071101
 20
-381.49999916643219
 30
0.0
 11
1010.610665807111
 21
-381.49999916643168
 31
0.0
  0
ARC
  5
319
  8
DATA
  6
CONTINUOUS
 62
     7
 10
1008.154381401053
 20
-450.6791107899615
 30
0.0
 40
52.999999999974911
 50
19.93461080380785
 51
50.233720168127462
  0
LINE
  5
31A
  8
DATA
  6
CONTINUOUS
 62
     7
 10
1023.053216933456
 20
-459.49999094065362
 30
0.0
 11
1024.4072869917529
 21
-459.49999916643281
 31
0.0
  0
LINE
  5
31B
  8
DATA
  6
CONTINUOUS
 62
     7
 10
1024.4072869917529
 20
-464.49999916643361
 30
0.0
 11
1023.053216933456
 21
-464.49998617228198
 31
0.0
  0
LINE
  5
31C
  8
DATA
  6
CONTINUOUS
 62
     7
 10
1023.053216933456
 20
-459.49999094065362
 30
0.0
 11
1023.053216933456
 21
-464.49998617228198
 31
0.0
  0
CIRCLE
  5
31D
  8
DATA
  6
CONTINUOUS
 62
     7
 10
1033.0530952246479
 20
-461.99999916643361
 30
0.0
 40
2.75
  0
ARC
  5
31E
  8
DATA
  6
CONTINUOUS
 62
     7
 10
1033.0530952246479
 20
-461.99999916643361
 30
0.0
 40
9.000000000000222
 50
9.5940682268624258
 51
163.8723797868353
  0
LINE
  5
31F
  8
DATA
  6
CONTINUOUS
 62
     7
 10
1041.927214899298
 20
-460.49999916643333
 30
0.0
 11
1043.053197859969
 21
-460.5000078683729
 31
0.0
  0
LINE
  5
320
  8
DATA
  6
CONTINUOUS
 62
     7
 10
1043.053197859969
 20
-463.49999904688548
 30
0.0
 11
1043.053197859969
 21
-460.5000078683729
 31
0.0
  0
LINE
  5
321
  8
DATA
  6
CONTINUOUS
 62
     7
 10
1043.053197859969
 20
-463.49999904688548
 30
0.0
 11
1041.927214899298
 21
-463.49999916643281
 31
0.0
  0
CIRCLE
  5
322
  8
DATA
  6
CONTINUOUS
 62
     7
 10
1025.3193360688131
 20
-412.41431583748738
 30
0.0
 40
2.75
  0
LINE
  5
323
  8
DATA
  6
CONTINUOUS
 62
     7
 10
1021.288330224466
 20
-405.414315837488
 30
0.0
 11
1029.350341913165
 21
-405.414315837488
 31
0.0
  0
ARC
  5
324
  8
DATA
  6
CONTINUOUS
 62
     7
 10
1021.608632433545
 20
-426.41187299293762
 30
0.0
 40
21.000000000036039
 50
90.873936970740203
 51
128.3376474729792
  0
ARC
  5
325
  8
DATA
  6
CONTINUOUS
 62
     7
 10
1029.0300397039709
 20
-426.41187299289851
 30
0.0
 40
20.99999999999886
 50
51.662352524289609
 51
89.126063028948039
  0
ARC
  5
326
  8
DATA
  6
CONTINUOUS
 62
     7
 10
1058.6106658071101
 20
-374.99999916643202
 30
0.0
 40
6.5000000000002274
 50
270.0
 51
0.0
  0
LINE
  5
327
  8
DATA
  6
CONTINUOUS
 62
     7
 10
1010.610665807111
 20
-300.49999916643139
 30
0.0
 11
1058.6106658071101
 21
-300.49999916643162
 31
0.0
  0
ARC
  5
328
  8
DATA
  6
CONTINUOUS
 62
     7
 10
1058.6106658071101
 20
-306.99999916643219
 30
0.0
 40
6.5
 50
0.0
 51
90.0
  0
LINE
  5
329
  8
DATA
  6
CONTINUOUS
 62
     7
 10
977.61063575670164
 20
15.000009536183869
 30
0.0
 11
799.99999999925433
 21
15.00000953618517
 31
0.0
  0
LINE
  5
32A
  8
DATA
  6
CONTINUOUS
 62
     7
 10
977.6106658070737
 20
30.000000833569359
 30
0.0
 11
799.99999999925433
 21
29.99999523107045
 31
0.0
  0
LINE
  5
32B
  8
DATA
  6
CONTINUOUS
 62
     7
 10
977.61063575670164
 20
15.000009536183869
 30
0.0
 11
799.99999999925433
 21
15.00000953618517
 31
0.0
  0
LINE
  5
32C
  8
DATA
  6
CONTINUOUS
 62
     7
 10
799.99999999925433
 20
15.00000953618517
 30
0.0
 11
799.99999999925433
 21
29.99999523107045
 31
0.0
  0
ARC
  5
32D
  8
DATA
  6
CONTINUOUS
 62
     7
 10
1025.323095224652
 20
27.000000833568251
 30
0.0
 40
69.999999999999773
 50
247.975687162957
 51
292.024312837043
  0
LINE
  5
32E
  8
DATA
  6
CONTINUOUS
 62
     7
 10
1073.0350070303839
 20
30.000000833568961
 30
0.0
 11
977.6106658070737
 21
30.000000833569359
 31
0.0
  0
LINE
  5
32F
  8
DATA
  6
CONTINUOUS
 62
     7
 10
977.61066580711531
 20
3.0000008335687758
 30
0.0
 11
1073.0350070303809
 21
3.0000008335684361
 31
0.0
  0
LINE
  5
330
  8
DATA
  6
CONTINUOUS
 62
     7
 10
977.61063575670164
 20
15.000009536183869
 30
0.0
 11
977.61066580711531
 21
3.0000008335687758
 31
0.0
  0
ARC
  5
331
  8
DATA
  6
CONTINUOUS
 62
     7
 10
1007.323095224652
 20
-17.49719008900524
 30
0.0
 40
22.000000000001819
 50
180.0
 51
247.97568716295731
  0
LINE
  5
332
  8
DATA
  6
CONTINUOUS
 62
     7
 10
985.32309522464959
 20
-17.497190089005009
 30
0.0
 11
985.32299995348023
 21
2.999985217488756
 31
0.0
  0
LINE
  5
333
  8
DATA
  6
CONTINUOUS
 62
     7
 10
977.6106658070737
 20
30.000000833569359
 30
0.0
 11
977.61063575670164
 21
15.000009536183869
 31
0.0
  0
LINE
  5
334
  8
DATA
  6
CONTINUOUS
 62
     7
 10
1073.0350070303809
 20
3.0000008335684361
 30
0.0
 11
1073.034811019153
 21
15.00000953618315
 31
0.0
  0
ARC
  5
335
  8
DATA
  6
CONTINUOUS
 62
     7
 10
1043.323095224652
 20
-17.497190089005532
 30
0.0
 40
21.999999999999542
 50
292.0243128370401
 51
0.0
  0
LINE
  5
336
  8
DATA
  6
CONTINUOUS
 62
     7
 10
1065.3229236595339
 20
2.999985217488244
 30
0.0
 11
1065.323095224652
 21
-17.497190089005748
 31
0.0
  0
LINE
  5
337
  8
DATA
  6
CONTINUOUS
 62
     7
 10
1073.034811019153
 20
15.00000953618315
 30
0.0
 11
1073.0350070303839
 21
30.000000833568961
 31
0.0
  0
LINE
  5
338
  8
DATA
  6
CONTINUOUS
 62
     7
 10
1147.9998111717359
 20
-584.99999940451403
 30
0.0
 11
1147.99981117174
 21
15.00000953618267
 31
0.0
  0
LINE
  5
339
  8
DATA
  6
CONTINUOUS
 62
     7
 10
1147.9998111717359
 20
-584.99999940451403
 30
0.0
 11
1147.99981117174
 21
15.00000953618267
 31
0.0
  0
LINE
  5
33A
  8
DATA
  6
CONTINUOUS
 62
     7
 10
1147.9998111717359
 20
-584.99999940451403
 30
0.0
 11
1147.9998111717359
 21
-600.00000000056048
 31
0.0
  0
LINE
  5
33B
  8
DATA
  6
CONTINUOUS
 62
     7
 10
1147.99981117174
 20
15.00000953618267
 30
0.0
 11
1147.99981117174
 21
29.99999523106796
 31
0.0
  0
CIRCLE
  5
33C
  8
DATA
  6
CONTINUOUS
 62
     7
 10
-43.465162896372043
 20
-125.4669440956679
 30
0.0
 40
12.69999999999982
  0
LINE
  5
33D
  8
DATA
  6
CONTINUOUS
 62
     7
 10
480.6088121168977
 20
15.000008702615901
 30
0.0
 11
383.91227140358751
 21
15.000008702615901
 31
0.0
  0
LINE
  5
33E
  8
DATA
  6
CONTINUOUS
 62
     7
 10
383.91227140358751
 20
-585.0000002380807
 30
0.0
 11
480.6088121168977
 21
-585.0000002380807
 31
0.0
  0
LINE
  5
33F
  8
DATA
  6
CONTINUOUS
 62
     7
 10
480.6088121168977
 20
-585.0000002380807
 30
0.0
 11
340.66786895201312
 21
-584.99999999999875
 31
0.0
  0
LINE
  5
340
  8
DATA
  6
CONTINUOUS
 62
     7
 10
340.66786895199311
 20
-599.99999999999875
 30
0.0
 11
480.6088121168977
 21
-600.00000083412715
 31
0.0
  0
LINE
  5
341
  8
DATA
  6
CONTINUOUS
 62
     7
 10
480.6088121168977
 20
29.99999439750118
 30
0.0
 11
340.66786895199311
 21
30.000000000001229
 31
0.0
  0
LINE
  5
342
  8
DATA
  6
CONTINUOUS
 62
     7
 10
340.66786895201312
 20
15.000000000001499
 30
0.0
 11
480.6088121168977
 21
15.000008702615901
 31
0.0
  0
LINE
  5
343
  8
DATA
  6
CONTINUOUS
 62
     7
 10
305.61227564677478
 20
-270.85000000000042
 30
0.0
 11
305.61227564677478
 21
-284.8500000000007
 31
0.0
  0
LINE
  5
344
  8
DATA
  6
CONTINUOUS
 62
     7
 10
341.91227569512108
 20
-585.0000002380807
 30
0.0
 11
341.91227569512108
 21
15.000008702615901
 31
0.0
  0
LINE
  5
345
  8
DATA
  6
CONTINUOUS
 62
     7
 10
383.91227140358751
 20
15.000008702615901
 30
0.0
 11
383.91227140358751
 21
-585.0000002380807
 31
0.0
  0
LINE
  5
346
  8
DATA
  6
CONTINUOUS
 62
     7
 10
339.41227564677507
 20
-282.8500000000007
 30
0.0
 11
339.41227564677507
 21
-272.8500000000007
 31
0.0
  0
POLYLINE
  5
347
  8
DATA
  6
CONTINUOUS
 62
     7
 66
     1
 10
0.0
 20
0.0
 30
0.0
 70
     8
  0
VERTEX
  5
348
  8
DATA
  6
CONTINUOUS
 62
     7
 10
304.61212700142818
 20
-271.85041562588088
 30
0.0
 70
    32
  0
VERTEX
  5
349
  8
DATA
  6
CONTINUOUS
 62
     7
 10
304.61212700142818
 20
-271.8544156258809
 30
0.0
 70
    32
  0
VERTEX
  5
34A
  8
DATA
  6
CONTINUOUS
 62
     7
 10
304.61212700142818
 20
-271.85841562588092
 30
0.0
 70
    32
  0
VERTEX
  5
34B
  8
DATA
  6
CONTINUOUS
 62
     7
 10
304.61212700142818
 20
-271.86241562588089
 30
0.0
 70
    32
  0
VERTEX
  5
34C
  8
DATA
  6
CONTINUOUS
 62
     7
 10
304.61212700142818
 20
-271.8664156258809
 30
0.0
 70
    32
  0
VERTEX
  5
34D
  8
DATA
  6
CONTINUOUS
 62
     7
 10
304.61212700142818
 20
-271.8714156258809
 30
0.0
 70
    32
  0
VERTEX
  5
34E
  8
DATA
  6
CONTINUOUS
 62
     7
 10
304.61212700142818
 20
-271.87541562588092
 30
0.0
 70
    32
  0
VERTEX
  5
34F
  8
DATA
  6
CONTINUOUS
 62
     7
 10
304.61212700142818
 20
-271.87941562588088
 30
0.0
 70
    32
  0
VERTEX
  5
350
  8
DATA
  6
CONTINUOUS
 62
     7
 10
304.61212700142818
 20
-271.88441562588088
 30
0.0
 70
    32
  0
VERTEX
  5
351
  8
DATA
  6
CONTINUOUS
 62
     7
 10
304.61212700142818
 20
-271.8884156258809
 30
0.0
 70
    32
  0
VERTEX
  5
352
  8
DATA
  6
CONTINUOUS
 62
     7
 10
304.61212700142818
 20
-271.89241562588091
 30
0.0
 70
    32
  0
VERTEX
  5
353
  8
DATA
  6
CONTINUOUS
 62
     7
 10
304.61212700142818
 20
-271.89741562588091
 30
0.0
 70
    32
  0
VERTEX
  5
354
  8
DATA
  6
CONTINUOUS
 62
     7
 10
304.61212700142818
 20
-271.90241562588091
 30
0.0
 70
    32
  0
VERTEX
  5
355
  8
DATA
  6
CONTINUOUS
 62
     7
 10
304.61212700142818
 20
-271.90641562588092
 30
0.0
 70
    32
  0
VERTEX
  5
356
  8
DATA
  6
CONTINUOUS
 62
     7
 10
304.61212700142818
 20
-271.91141562588092
 30
0.0
 70
    32
  0
VERTEX
  5
357
  8
DATA
  6
CONTINUOUS
 62
     7
 10
304.61212700142818
 20
-271.91641562588092
 30
0.0
 70
    32
  0
VERTEX
  5
358
  8
DATA
  6
CONTINUOUS
 62
     7
 10
304.61212700142818
 20
-271.92141562588091
 30
0.0
 70
    32
  0
VERTEX
  5
359
  8
DATA
  6
CONTINUOUS
 62
     7
 10
304.61212700142818
 20
-271.92641562588102
 30
0.0
 70
    32
  0
VERTEX
  5
35A
  8
DATA
  6
CONTINUOUS
 62
     7
 10
304.61212700142818
 20
-271.93141562588102
 30
0.0
 70
    32
  0
VERTEX
  5
35B
  8
DATA
  6
CONTINUOUS
 62
     7
 10
304.61212700142818
 20
-271.9364156258809
 30
0.0
 70
    32
  0
VERTEX
  5
35C
  8
DATA
  6
CONTINUOUS
 62
     7
 10
304.61212700142818
 20
-271.94141562588089
 30
0.0
 70
    32
  0
VERTEX
  5
35D
  8
DATA
  6
CONTINUOUS
 62
     7
 10
304.61212700142818
 20
-271.94741562588081
 30
0.0
 70
    32
  0
VERTEX
  5
35E
  8
DATA
  6
CONTINUOUS
 62
     7
 10
304.61212700142818
 20
-271.95241562588092
 30
0.0
 70
    32
  0
VERTEX
  5
35F
  8
DATA
  6
CONTINUOUS
 62
     7
 10
304.61212700142818
 20
-271.95841562588089
 30
0.0
 70
    32
  0
VERTEX
  5
360
  8
DATA
  6
CONTINUOUS
 62
     7
 10
304.61212700142818
 20
-271.96341562588088
 30
0.0
 70
    32
  0
VERTEX
  5
361
  8
DATA
  6
CONTINUOUS
 62
     7
 10
304.61212700142818
 20
-271.96941562588091
 30
0.0
 70
    32
  0
VERTEX
  5
362
  8
DATA
  6
CONTINUOUS
 62
     7
 10
304.61212700142818
 20
-271.97541562588088
 30
0.0
 70
    32
  0
VERTEX
  5
363
  8
DATA
  6
CONTINUOUS
 62
     7
 10
304.61212700142818
 20
-271.98241562588089
 30
0.0
 70
    32
  0
VERTEX
  5
364
  8
DATA
  6
CONTINUOUS
 62
     7
 10
304.61212700142818
 20
-271.9884156258808
 30
0.0
 70
    32
  0
VERTEX
  5
365
  8
DATA
  6
CONTINUOUS
 62
     7
 10
304.61212700142818
 20
-271.99541562588081
 30
0.0
 70
    32
  0
VERTEX
  5
366
  8
DATA
  6
CONTINUOUS
 62
     7
 10
304.61212700142818
 20
-272.0014156258809
 30
0.0
 70
    32
  0
VERTEX
  5
367
  8
DATA
  6
CONTINUOUS
 62
     7
 10
304.61212700142818
 20
-272.00841562588101
 30
0.0
 70
    32
  0
VERTEX
  5
368
  8
DATA
  6
CONTINUOUS
 62
     7
 10
304.61212700142818
 20
-272.01541562588091
 30
0.0
 70
    32
  0
VERTEX
  5
369
  8
DATA
  6
CONTINUOUS
 62
     7
 10
304.61212700142818
 20
-272.0224156258808
 30
0.0
 70
    32
  0
VERTEX
  5
36A
  8
DATA
  6
CONTINUOUS
 62
     7
 10
304.61212700142818
 20
-272.03041562588089
 30
0.0
 70
    32
  0
VERTEX
  5
36B
  8
DATA
  6
CONTINUOUS
 62
     7
 10
304.61212700142818
 20
-272.0374156258809
 30
0.0
 70
    32
  0
VERTEX
  5
36C
  8
DATA
  6
CONTINUOUS
 62
     7
 10
304.61212700142818
 20
-272.04541562588088
 30
0.0
 70
    32
  0
VERTEX
  5
36D
  8
DATA
  6
CONTINUOUS
 62
     7
 10
304.61212700142818
 20
-272.05341562588092
 30
0.0
 70
    32
  0
VERTEX
  5
36E
  8
DATA
  6
CONTINUOUS
 62
     7
 10
304.61212700142818
 20
-272.06241562588087
 30
0.0
 70
    32
  0
VERTEX
  5
36F
  8
DATA
  6
CONTINUOUS
 62
     7
 10
304.61212700142818
 20
-272.07041562588091
 30
0.0
 70
    32
  0
VERTEX
  5
370
  8
DATA
  6
CONTINUOUS
 62
     7
 10
304.61212700142818
 20
-272.07941562588093
 30
0.0
 70
    32
  0
VERTEX
  5
371
  8
DATA
  6
CONTINUOUS
 62
     7
 10
304.61212700142818
 20
-272.08841562588088
 30
0.0
 70
    32
  0
VERTEX
  5
372
  8
DATA
  6
CONTINUOUS
 62
     7
 10
304.61212700142818
 20
-272.0974156258809
 30
0.0
 70
    32
  0
VERTEX
  5
373
  8
DATA
  6
CONTINUOUS
 62
     7
 10
304.61212700142818
 20
-272.10641562588091
 30
0.0
 70
    32
  0
VERTEX
  5
374
  8
DATA
  6
CONTINUOUS
 62
     7
 10
304.61212700142818
 20
-272.1164156258809
 30
0.0
 70
    32
  0
VERTEX
  5
375
  8
DATA
  6
CONTINUOUS
 62
     7
 10
304.61212700142818
 20
-272.1264156258809
 30
0.0
 70
    32
  0
VERTEX
  5
376
  8
DATA
  6
CONTINUOUS
 62
     7
 10
304.61212700142818
 20
-272.13641562588089
 30
0.0
 70
    32
  0
VERTEX
  5
377
  8
DATA
  6
CONTINUOUS
 62
     7
 10
304.61212700142818
 20
-272.14641562588088
 30
0.0
 70
    32
  0
VERTEX
  5
378
  8
DATA
  6
CONTINUOUS
 62
     7
 10
304.61212700142818
 20
-272.15741562588101
 30
0.0
 70
    32
  0
VERTEX
  5
379
  8
DATA
  6
CONTINUOUS
 62
     7
 10
304.61212700142818
 20
-272.16841562588093
 30
0.0
 70
    32
  0
VERTEX
  5
37A
  8
DATA
  6
CONTINUOUS
 62
     7
 10
304.61212700142818
 20
-272.17941562588089
 30
0.0
 70
    32
  0
VERTEX
  5
37B
  8
DATA
  6
CONTINUOUS
 62
     7
 10
304.61212700142818
 20
-272.19141562588089
 30
0.0
 70
    32
  0
VERTEX
  5
37C
  8
DATA
  6
CONTINUOUS
 62
     7
 10
304.61212700142818
 20
-272.20241562588092
 30
0.0
 70
    32
  0
VERTEX
  5
37D
  8
DATA
  6
CONTINUOUS
 62
     7
 10
304.61212700142818
 20
-272.21441562588092
 30
0.0
 70
    32
  0
VERTEX
  5
37E
  8
DATA
  6
CONTINUOUS
 62
     7
 10
304.61212700142818
 20
-272.22741562588089
 30
0.0
 70
    32
  0
VERTEX
  5
37F
  8
DATA
  6
CONTINUOUS
 62
     7
 10
304.61212700142818
 20
-272.24041562588093
 30
0.0
 70
    32
  0
VERTEX
  5
380
  8
DATA
  6
CONTINUOUS
 62
     7
 10
304.61212700142818
 20
-272.2534156258809
 30
0.0
 70
    32
  0
VERTEX
  5
381
  8
DATA
  6
CONTINUOUS
 62
     7
 10
304.61212700142818
 20
-272.26641562588088
 30
0.0
 70
    32
  0
VERTEX
  5
382
  8
DATA
  6
CONTINUOUS
 62
     7
 10
304.61212700142818
 20
-272.28041562588089
 30
0.0
 70
    32
  0
VERTEX
  5
383
  8
DATA
  6
CONTINUOUS
 62
     7
 10
304.61212700142818
 20
-272.2944156258809
 30
0.0
 70
    32
  0
VERTEX
  5
384
  8
DATA
  6
CONTINUOUS
 62
     7
 10
304.61212700142818
 20
-272.30841562588091
 30
0.0
 70
    32
  0
VERTEX
  5
385
  8
DATA
  6
CONTINUOUS
 62
     7
 10
304.61212700142818
 20
-272.3234156258809
 30
0.0
 70
    32
  0
VERTEX
  5
386
  8
DATA
  6
CONTINUOUS
 62
     7
 10
304.61212700142818
 20
-272.33841562588088
 30
0.0
 70
    32
  0
VERTEX
  5
387
  8
DATA
  6
CONTINUOUS
 62
     7
 10
304.61212700142818
 20
-272.35341562588093
 30
0.0
 70
    32
  0
VERTEX
  5
388
  8
DATA
  6
CONTINUOUS
 62
     7
 10
304.61212700142818
 20
-272.36941562588089
 30
0.0
 70
    32
  0
VERTEX
  5
389
  8
DATA
  6
CONTINUOUS
 62
     7
 10
304.61212700142818
 20
-272.38541562588091
 30
0.0
 70
    32
  0
VERTEX
  5
38A
  8
DATA
  6
CONTINUOUS
 62
     7
 10
304.61212700142818
 20
-272.40141562588087
 30
0.0
 70
    32
  0
VERTEX
  5
38B
  8
DATA
  6
CONTINUOUS
 62
     7
 10
304.61212700142818
 20
-272.41741562588089
 30
0.0
 70
    32
  0
VERTEX
  5
38C
  8
DATA
  6
CONTINUOUS
 62
     7
 10
304.61212700142818
 20
-272.43441562588089
 30
0.0
 70
    32
  0
VERTEX
  5
38D
  8
DATA
  6
CONTINUOUS
 62
     7
 10
304.61212700142818
 20
-272.45141562588088
 30
0.0
 70
    32
  0
VERTEX
  5
38E
  8
DATA
  6
CONTINUOUS
 62
     7
 10
304.61212700142818
 20
-272.46841562588088
 30
0.0
 70
    32
  0
VERTEX
  5
38F
  8
DATA
  6
CONTINUOUS
 62
     7
 10
304.61212700142818
 20
-272.48641562588091
 30
0.0
 70
    32
  0
VERTEX
  5
390
  8
DATA
  6
CONTINUOUS
 62
     7
 10
304.61212700142818
 20
-272.50441562588088
 30
0.0
 70
    32
  0
VERTEX
  5
391
  8
DATA
  6
CONTINUOUS
 62
     7
 10
304.61212700142818
 20
-272.5224156258808
 30
0.0
 70
    32
  0
VERTEX
  5
392
  8
DATA
  6
CONTINUOUS
 62
     7
 10
304.61212700142818
 20
-272.54041562588088
 30
0.0
 70
    32
  0
VERTEX
  5
393
  8
DATA
  6
CONTINUOUS
 62
     7
 10
304.61212700142818
 20
-272.55941562588089
 30
0.0
 70
    32
  0
VERTEX
  5
394
  8
DATA
  6
CONTINUOUS
 62
     7
 10
304.61212700142818
 20
-272.57841562588089
 30
0.0
 70
    32
  0
VERTEX
  5
395
  8
DATA
  6
CONTINUOUS
 62
     7
 10
304.61212700142818
 20
-272.5974156258809
 30
0.0
 70
    32
  0
VERTEX
  5
396
  8
DATA
  6
CONTINUOUS
 62
     7
 10
304.61212700142818
 20
-272.6164156258809
 30
0.0
 70
    32
  0
VERTEX
  5
397
  8
DATA
  6
CONTINUOUS
 62
     7
 10
304.61212700142818
 20
-272.63641562588089
 30
0.0
 70
    32
  0
VERTEX
  5
398
  8
DATA
  6
CONTINUOUS
 62
     7
 10
304.61212700142818
 20
-272.65641562588092
 30
0.0
 70
    32
  0
VERTEX
  5
399
  8
DATA
  6
CONTINUOUS
 62
     7
 10
304.61212700142818
 20
-272.67641562588102
 30
0.0
 70
    32
  0
VERTEX
  5
39A
  8
DATA
  6
CONTINUOUS
 62
     7
 10
304.61212700142818
 20
-272.69641562588089
 30
0.0
 70
    32
  0
VERTEX
  5
39B
  8
DATA
  6
CONTINUOUS
 62
     7
 10
304.61212700142818
 20
-272.7174156258809
 30
0.0
 70
    32
  0
VERTEX
  5
39C
  8
DATA
  6
CONTINUOUS
 62
     7
 10
304.61212700142818
 20
-272.73841562588092
 30
0.0
 70
    32
  0
VERTEX
  5
39D
  8
DATA
  6
CONTINUOUS
 62
     7
 10
304.61212700142818
 20
-272.75941562588088
 30
0.0
 70
    32
  0
VERTEX
  5
39E
  8
DATA
  6
CONTINUOUS
 62
     7
 10
304.61212700142818
 20
-272.78041562588089
 30
0.0
 70
    32
  0
VERTEX
  5
39F
  8
DATA
  6
CONTINUOUS
 62
     7
 10
304.61212700142818
 20
-272.80141562588102
 30
0.0
 70
    32
  0
VERTEX
  5
3A0
  8
DATA
  6
CONTINUOUS
 62
     7
 10
304.61212700142818
 20
-272.8234156258809
 30
0.0
 70
    32
  0
VERTEX
  5
3A1
  8
DATA
  6
CONTINUOUS
 62
     7
 10
304.61212700142818
 20
-272.84441562588091
 30
0.0
 70
    32
  0
VERTEX
  5
3A2
  8
DATA
  6
CONTINUOUS
 62
     7
 10
304.61212700142818
 20
-272.8664156258809
 30
0.0
 70
    32
  0
VERTEX
  5
3A3
  8
DATA
  6
CONTINUOUS
 62
     7
 10
304.61212700142818
 20
-272.88941562588087
 30
0.0
 70
    32
  0
VERTEX
  5
3A4
  8
DATA
  6
CONTINUOUS
 62
     7
 10
304.61212700142818
 20
-272.91141562588092
 30
0.0
 70
    32
  0
VERTEX
  5
3A5
  8
DATA
  6
CONTINUOUS
 62
     7
 10
304.61212700142818
 20
-272.93341562588091
 30
0.0
 70
    32
  0
VERTEX
  5
3A6
  8
DATA
  6
CONTINUOUS
 62
     7
 10
304.61212700142818
 20
-272.95641562588088
 30
0.0
 70
    32
  0
VERTEX
  5
3A7
  8
DATA
  6
CONTINUOUS
 62
     7
 10
304.61212700142818
 20
-272.9794156258809
 30
0.0
 70
    32
  0
VERTEX
  5
3A8
  8
DATA
  6
CONTINUOUS
 62
     7
 10
304.61212700142818
 20
-273.00241562588087
 30
0.0
 70
    32
  0
VERTEX
  5
3A9
  8
DATA
  6
CONTINUOUS
 62
     7
 10
304.61212700142818
 20
-273.0254156258809
 30
0.0
 70
    32
  0
VERTEX
  5
3AA
  8
DATA
  6
CONTINUOUS
 62
     7
 10
304.61212700142818
 20
-273.0494156258809
 30
0.0
 70
    32
  0
VERTEX
  5
3AB
  8
DATA
  6
CONTINUOUS
 62
     7
 10
304.61212700142818
 20
-273.0734156258809
 30
0.0
 70
    32
  0
VERTEX
  5
3AC
  8
DATA
  6
CONTINUOUS
 62
     7
 10
304.61212700142818
 20
-273.09641562588092
 30
0.0
 70
    32
  0
VERTEX
  5
3AD
  8
DATA
  6
CONTINUOUS
 62
     7
 10
304.61212700142818
 20
-273.12041562588081
 30
0.0
 70
    32
  0
VERTEX
  5
3AE
  8
DATA
  6
CONTINUOUS
 62
     7
 10
304.61212700142818
 20
-273.1454156258809
 30
0.0
 70
    32
  0
VERTEX
  5
3AF
  8
DATA
  6
CONTINUOUS
 62
     7
 10
304.61212700142818
 20
-273.1694156258809
 30
0.0
 70
    32
  0
VERTEX
  5
3B0
  8
DATA
  6
CONTINUOUS
 62
     7
 10
304.61212700142818
 20
-273.19441562588088
 30
0.0
 70
    32
  0
VERTEX
  5
3B1
  8
DATA
  6
CONTINUOUS
 62
     7
 10
304.61212700142818
 20
-273.21941562588091
 30
0.0
 70
    32
  0
VERTEX
  5
3B2
  8
DATA
  6
CONTINUOUS
 62
     7
 10
304.61212700142818
 20
-273.24441562588089
 30
0.0
 70
    32
  0
VERTEX
  5
3B3
  8
DATA
  6
CONTINUOUS
 62
     7
 10
304.61212700142818
 20
-273.26941562588081
 30
0.0
 70
    32
  0
VERTEX
  5
3B4
  8
DATA
  6
CONTINUOUS
 62
     7
 10
304.61212700142818
 20
-273.2944156258809
 30
0.0
 70
    32
  0
VERTEX
  5
3B5
  8
DATA
  6
CONTINUOUS
 62
     7
 10
304.61212700142818
 20
-273.32041562588091
 30
0.0
 70
    32
  0
VERTEX
  5
3B6
  8
DATA
  6
CONTINUOUS
 62
     7
 10
304.61212700142818
 20
-273.34641562588092
 30
0.0
 70
    32
  0
VERTEX
  5
3B7
  8
DATA
  6
CONTINUOUS
 62
     7
 10
304.61212700142818
 20
-273.37241562588088
 30
0.0
 70
    32
  0
VERTEX
  5
3B8
  8
DATA
  6
CONTINUOUS
 62
     7
 10
304.61212700142818
 20
-273.39841562588089
 30
0.0
 70
    32
  0
VERTEX
  5
3B9
  8
DATA
  6
CONTINUOUS
 62
     7
 10
304.61212700142818
 20
-273.4244156258809
 30
0.0
 70
    32
  0
VERTEX
  5
3BA
  8
DATA
  6
CONTINUOUS
 62
     7
 10
304.61212700142818
 20
-273.45141562588088
 30
0.0
 70
    32
  0
VERTEX
  5
3BB
  8
DATA
  6
CONTINUOUS
 62
     7
 10
304.61212700142818
 20
-273.47741562588089
 30
0.0
 70
    32
  0
VERTEX
  5
3BC
  8
DATA
  6
CONTINUOUS
 62
     7
 10
304.61212700142818
 20
-273.50441562588088
 30
0.0
 70
    32
  0
VERTEX
  5
3BD
  8
DATA
  6
CONTINUOUS
 62
     7
 10
304.61212700142818
 20
-273.53141562588092
 30
0.0
 70
    32
  0
VERTEX
  5
3BE
  8
DATA
  6
CONTINUOUS
 62
     7
 10
304.61212700142818
 20
-273.55941562588089
 30
0.0
 70
    32
  0
VERTEX
  5
3BF
  8
DATA
  6
CONTINUOUS
 62
     7
 10
304.61212700142818
 20
-273.58641562588087
 30
0.0
 70
    32
  0
VERTEX
  5
3C0
  8
DATA
  6
CONTINUOUS
 62
     7
 10
304.61212700142818
 20
-273.61441562588089
 30
0.0
 70
    32
  0
VERTEX
  5
3C1
  8
DATA
  6
CONTINUOUS
 62
     7
 10
304.61212700142818
 20
-273.64241562588091
 30
0.0
 70
    32
  0
VERTEX
  5
3C2
  8
DATA
  6
CONTINUOUS
 62
     7
 10
304.61212700142818
 20
-273.67041562588088
 30
0.0
 70
    32
  0
VERTEX
  5
3C3
  8
DATA
  6
CONTINUOUS
 62
     7
 10
304.61212700142818
 20
-273.6984156258809
 30
0.0
 70
    32
  0
VERTEX
  5
3C4
  8
DATA
  6
CONTINUOUS
 62
     7
 10
304.61212700142818
 20
-273.72641562588092
 30
0.0
 70
    32
  0
VERTEX
  5
3C5
  8
DATA
  6
CONTINUOUS
 62
     7
 10
304.61212700142818
 20
-273.75541562588091
 30
0.0
 70
    32
  0
VERTEX
  5
3C6
  8
DATA
  6
CONTINUOUS
 62
     7
 10
304.61212700142818
 20
-273.78441562588091
 30
0.0
 70
    32
  0
VERTEX
  5
3C7
  8
DATA
  6
CONTINUOUS
 62
     7
 10
304.61212700142818
 20
-273.81341562588091
 30
0.0
 70
    32
  0
VERTEX
  5
3C8
  8
DATA
  6
CONTINUOUS
 62
     7
 10
304.61212700142818
 20
-273.8424156258809
 30
0.0
 70
    32
  0
VERTEX
  5
3C9
  8
DATA
  6
CONTINUOUS
 62
     7
 10
304.61212700142818
 20
-273.8714156258809
 30
0.0
 70
    32
  0
VERTEX
  5
3CA
  8
DATA
  6
CONTINUOUS
 62
     7
 10
304.61212700142818
 20
-273.90141562588087
 30
0.0
 70
    32
  0
VERTEX
  5
3CB
  8
DATA
  6
CONTINUOUS
 62
     7
 10
304.61212700142818
 20
-273.93041562588093
 30
0.0
 70
    32
  0
VERTEX
  5
3CC
  8
DATA
  6
CONTINUOUS
 62
     7
 10
304.61212700142818
 20
-273.96041562588101
 30
0.0
 70
    32
  0
VERTEX
  5
3CD
  8
DATA
  6
CONTINUOUS
 62
     7
 10
304.61212700142818
 20
-273.99041562588093
 30
0.0
 70
    32
  0
VERTEX
  5
3CE
  8
DATA
  6
CONTINUOUS
 62
     7
 10
304.61212700142818
 20
-274.0204156258809
 30
0.0
 70
    32
  0
VERTEX
  5
3CF
  8
DATA
  6
CONTINUOUS
 62
     7
 10
304.61212700142818
 20
-274.05141562588102
 30
0.0
 70
    32
  0
VERTEX
  5
3D0
  8
DATA
  6
CONTINUOUS
 62
     7
 10
304.61212700142818
 20
-274.08141562588088
 30
0.0
 70
    32
  0
VERTEX
  5
3D1
  8
DATA
  6
CONTINUOUS
 62
     7
 10
304.61212700142818
 20
-274.11241562588089
 30
0.0
 70
    32
  0
VERTEX
  5
3D2
  8
DATA
  6
CONTINUOUS
 62
     7
 10
304.61212700142818
 20
-274.14341562588089
 30
0.0
 70
    32
  0
VERTEX
  5
3D3
  8
DATA
  6
CONTINUOUS
 62
     7
 10
304.61212700142818
 20
-274.1744156258809
 30
0.0
 70
    32
  0
VERTEX
  5
3D4
  8
DATA
  6
CONTINUOUS
 62
     7
 10
304.61212700142818
 20
-274.2054156258809
 30
0.0
 70
    32
  0
VERTEX
  5
3D5
  8
DATA
  6
CONTINUOUS
 62
     7
 10
304.61212700142818
 20
-274.23641562588091
 30
0.0
 70
    32
  0
VERTEX
  5
3D6
  8
DATA
  6
CONTINUOUS
 62
     7
 10
304.61212700142818
 20
-274.26741562588091
 30
0.0
 70
    32
  0
VERTEX
  5
3D7
  8
DATA
  6
CONTINUOUS
 62
     7
 10
304.61212700142818
 20
-274.2994156258809
 30
0.0
 70
    32
  0
VERTEX
  5
3D8
  8
DATA
  6
CONTINUOUS
 62
     7
 10
304.61212700142818
 20
-274.33141562588088
 30
0.0
 70
    32
  0
VERTEX
  5
3D9
  8
DATA
  6
CONTINUOUS
 62
     7
 10
304.61212700142818
 20
-274.36341562588092
 30
0.0
 70
    32
  0
VERTEX
  5
3DA
  8
DATA
  6
CONTINUOUS
 62
     7
 10
304.61212700142818
 20
-274.3954156258809
 30
0.0
 70
    32
  0
VERTEX
  5
3DB
  8
DATA
  6
CONTINUOUS
 62
     7
 10
304.61212700142818
 20
-274.42741562588088
 30
0.0
 70
    32
  0
VERTEX
  5
3DC
  8
DATA
  6
CONTINUOUS
 62
     7
 10
304.61212700142818
 20
-274.45941562588092
 30
0.0
 70
    32
  0
VERTEX
  5
3DD
  8
DATA
  6
CONTINUOUS
 62
     7
 10
304.61212700142818
 20
-274.49241562588088
 30
0.0
 70
    32
  0
VERTEX
  5
3DE
  8
DATA
  6
CONTINUOUS
 62
     7
 10
304.61212700142818
 20
-274.52441562588092
 30
0.0
 70
    32
  0
VERTEX
  5
3DF
  8
DATA
  6
CONTINUOUS
 62
     7
 10
304.61212700142818
 20
-274.55741562588088
 30
0.0
 70
    32
  0
VERTEX
  5
3E0
  8
DATA
  6
CONTINUOUS
 62
     7
 10
304.61212700142818
 20
-274.59041562588089
 30
0.0
 70
    32
  0
VERTEX
  5
3E1
  8
DATA
  6
CONTINUOUS
 62
     7
 10
304.61212700142818
 20
-274.62341562588102
 30
0.0
 70
    32
  0
VERTEX
  5
3E2
  8
DATA
  6
CONTINUOUS
 62
     7
 10
304.61212700142818
 20
-274.65641562588092
 30
0.0
 70
    32
  0
VERTEX
  5
3E3
  8
DATA
  6
CONTINUOUS
 62
     7
 10
304.61212700142818
 20
-274.69041562588092
 30
0.0
 70
    32
  0
VERTEX
  5
3E4
  8
DATA
  6
CONTINUOUS
 62
     7
 10
304.61212700142818
 20
-274.72341562588088
 30
0.0
 70
    32
  0
VERTEX
  5
3E5
  8
DATA
  6
CONTINUOUS
 62
     7
 10
304.61212700142818
 20
-274.75741562588092
 30
0.0
 70
    32
  0
VERTEX
  5
3E6
  8
DATA
  6
CONTINUOUS
 62
     7
 10
304.61212700142818
 20
-274.79041562588088
 30
0.0
 70
    32
  0
VERTEX
  5
3E7
  8
DATA
  6
CONTINUOUS
 62
     7
 10
304.61212700142818
 20
-274.82441562588087
 30
0.0
 70
    32
  0
VERTEX
  5
3E8
  8
DATA
  6
CONTINUOUS
 62
     7
 10
304.61212700142818
 20
-274.85841562588092
 30
0.0
 70
    32
  0
VERTEX
  5
3E9
  8
DATA
  6
CONTINUOUS
 62
     7
 10
304.61212700142818
 20
-274.89241562588091
 30
0.0
 70
    32
  0
VERTEX
  5
3EA
  8
DATA
  6
CONTINUOUS
 62
     7
 10
304.61212700142818
 20
-274.92641562588102
 30
0.0
 70
    32
  0
VERTEX
  5
3EB
  8
DATA
  6
CONTINUOUS
 62
     7
 10
304.61212700142818
 20
-274.96141562588087
 30
0.0
 70
    32
  0
VERTEX
  5
3EC
  8
DATA
  6
CONTINUOUS
 62
     7
 10
304.61212700142818
 20
-274.99541562588092
 30
0.0
 70
    32
  0
VERTEX
  5
3ED
  8
DATA
  6
CONTINUOUS
 62
     7
 10
304.61212700142818
 20
-275.03041562588089
 30
0.0
 70
    32
  0
VERTEX
  5
3EE
  8
DATA
  6
CONTINUOUS
 62
     7
 10
304.61212700142818
 20
-275.06541562588092
 30
0.0
 70
    32
  0
VERTEX
  5
3EF
  8
DATA
  6
CONTINUOUS
 62
     7
 10
304.61212700142818
 20
-275.09941562588102
 30
0.0
 70
    32
  0
VERTEX
  5
3F0
  8
DATA
  6
CONTINUOUS
 62
     7
 10
304.61212700142818
 20
-275.13441562588088
 30
0.0
 70
    32
  0
VERTEX
  5
3F1
  8
DATA
  6
CONTINUOUS
 62
     7
 10
304.61212700142818
 20
-275.1694156258809
 30
0.0
 70
    32
  0
VERTEX
  5
3F2
  8
DATA
  6
CONTINUOUS
 62
     7
 10
304.61212700142818
 20
-275.20541562588102
 30
0.0
 70
    32
  0
VERTEX
  5
3F3
  8
DATA
  6
CONTINUOUS
 62
     7
 10
304.61212700142818
 20
-275.24041562588093
 30
0.0
 70
    32
  0
VERTEX
  5
3F4
  8
DATA
  6
CONTINUOUS
 62
     7
 10
304.61212700142818
 20
-275.2754156258809
 30
0.0
 70
    32
  0
VERTEX
  5
3F5
  8
DATA
  6
CONTINUOUS
 62
     7
 10
304.61212700142818
 20
-275.3114156258809
 30
0.0
 70
    32
  0
VERTEX
  5
3F6
  8
DATA
  6
CONTINUOUS
 62
     7
 10
304.61212700142818
 20
-275.34641562588092
 30
0.0
 70
    32
  0
VERTEX
  5
3F7
  8
DATA
  6
CONTINUOUS
 62
     7
 10
304.61212700142818
 20
-275.38241562588092
 30
0.0
 70
    32
  0
VERTEX
  5
3F8
  8
DATA
  6
CONTINUOUS
 62
     7
 10
304.61212700142818
 20
-275.41841562588081
 30
0.0
 70
    32
  0
VERTEX
  5
3F9
  8
DATA
  6
CONTINUOUS
 62
     7
 10
304.61212700142818
 20
-275.45441562588093
 30
0.0
 70
    32
  0
VERTEX
  5
3FA
  8
DATA
  6
CONTINUOUS
 62
     7
 10
304.61212700142818
 20
-275.49041562588093
 30
0.0
 70
    32
  0
VERTEX
  5
3FB
  8
DATA
  6
CONTINUOUS
 62
     7
 10
304.61212700142818
 20
-275.52641562588087
 30
0.0
 70
    32
  0
VERTEX
  5
3FC
  8
DATA
  6
CONTINUOUS
 62
     7
 10
304.61212700142818
 20
-275.56341562588091
 30
0.0
 70
    32
  0
VERTEX
  5
3FD
  8
DATA
  6
CONTINUOUS
 62
     7
 10
304.61212700142818
 20
-275.59941562588102
 30
0.0
 70
    32
  0
VERTEX
  5
3FE
  8
DATA
  6
CONTINUOUS
 62
     7
 10
304.61212700142818
 20
-275.63541562588091
 30
0.0
 70
    32
  0
VERTEX
  5
3FF
  8
DATA
  6
CONTINUOUS
 62
     7
 10
304.61212700142818
 20
-275.67241562588089
 30
0.0
 70
    32
  0
VERTEX
  5
400
  8
DATA
  6
CONTINUOUS
 62
     7
 10
304.61212700142818
 20
-275.70941562588081
 30
0.0
 70
    32
  0
VERTEX
  5
401
  8
DATA
  6
CONTINUOUS
 62
     7
 10
304.61212700142818
 20
-275.7464156258809
 30
0.0
 70
    32
  0
VERTEX
  5
402
  8
DATA
  6
CONTINUOUS
 62
     7
 10
304.61212700142818
 20
-275.78241562588101
 30
0.0
 70
    32
  0
VERTEX
  5
403
  8
DATA
  6
CONTINUOUS
 62
     7
 10
304.61212700142818
 20
-275.81941562588088
 30
0.0
 70
    32
  0
VERTEX
  5
404
  8
DATA
  6
CONTINUOUS
 62
     7
 10
304.61212700142818
 20
-275.85741562588089
 30
0.0
 70
    32
  0
VERTEX
  5
405
  8
DATA
  6
CONTINUOUS
 62
     7
 10
304.61212700142818
 20
-275.89441562588092
 30
0.0
 70
    32
  0
VERTEX
  5
406
  8
DATA
  6
CONTINUOUS
 62
     7
 10
304.61212700142818
 20
-275.93141562588102
 30
0.0
 70
    32
  0
VERTEX
  5
407
  8
DATA
  6
CONTINUOUS
 62
     7
 10
304.61212700142818
 20
-275.96841562588088
 30
0.0
 70
    32
  0
VERTEX
  5
408
  8
DATA
  6
CONTINUOUS
 62
     7
 10
304.61212700142818
 20
-276.00641562588089
 30
0.0
 70
    32
  0
VERTEX
  5
409
  8
DATA
  6
CONTINUOUS
 62
     7
 10
304.61212700142818
 20
-276.04341562588093
 30
0.0
 70
    32
  0
VERTEX
  5
40A
  8
DATA
  6
CONTINUOUS
 62
     7
 10
304.61212700142818
 20
-276.08141562588088
 30
0.0
 70
    32
  0
VERTEX
  5
40B
  8
DATA
  6
CONTINUOUS
 62
     7
 10
304.61212700142818
 20
-276.11941562588089
 30
0.0
 70
    32
  0
VERTEX
  5
40C
  8
DATA
  6
CONTINUOUS
 62
     7
 10
304.61212700142818
 20
-276.15641562588092
 30
0.0
 70
    32
  0
VERTEX
  5
40D
  8
DATA
  6
CONTINUOUS
 62
     7
 10
304.61212700142818
 20
-276.19441562588088
 30
0.0
 70
    32
  0
VERTEX
  5
40E
  8
DATA
  6
CONTINUOUS
 62
     7
 10
304.61212700142818
 20
-276.23241562588089
 30
0.0
 70
    32
  0
VERTEX
  5
40F
  8
DATA
  6
CONTINUOUS
 62
     7
 10
304.61212700142818
 20
-276.2704156258809
 30
0.0
 70
    32
  0
VERTEX
  5
410
  8
DATA
  6
CONTINUOUS
 62
     7
 10
304.61212700142818
 20
-276.30841562588091
 30
0.0
 70
    32
  0
VERTEX
  5
411
  8
DATA
  6
CONTINUOUS
 62
     7
 10
304.61212700142818
 20
-276.34641562588092
 30
0.0
 70
    32
  0
VERTEX
  5
412
  8
DATA
  6
CONTINUOUS
 62
     7
 10
304.61212700142818
 20
-276.38441562588088
 30
0.0
 70
    32
  0
VERTEX
  5
413
  8
DATA
  6
CONTINUOUS
 62
     7
 10
304.61212700142818
 20
-276.42341562588092
 30
0.0
 70
    32
  0
VERTEX
  5
414
  8
DATA
  6
CONTINUOUS
 62
     7
 10
304.61212700142818
 20
-276.46141562588087
 30
0.0
 70
    32
  0
VERTEX
  5
415
  8
DATA
  6
CONTINUOUS
 62
     7
 10
304.61212700142818
 20
-276.49941562588089
 30
0.0
 70
    32
  0
VERTEX
  5
416
  8
DATA
  6
CONTINUOUS
 62
     7
 10
304.61212700142818
 20
-276.53841562588087
 30
0.0
 70
    32
  0
VERTEX
  5
417
  8
DATA
  6
CONTINUOUS
 62
     7
 10
304.61212700142818
 20
-276.57641562588088
 30
0.0
 70
    32
  0
VERTEX
  5
418
  8
DATA
  6
CONTINUOUS
 62
     7
 10
304.61212700142818
 20
-276.61541562588093
 30
0.0
 70
    32
  0
VERTEX
  5
419
  8
DATA
  6
CONTINUOUS
 62
     7
 10
304.61212700142818
 20
-276.65441562588092
 30
0.0
 70
    32
  0
VERTEX
  5
41A
  8
DATA
  6
CONTINUOUS
 62
     7
 10
304.61212700142818
 20
-276.69241562588093
 30
0.0
 70
    32
  0
VERTEX
  5
41B
  8
DATA
  6
CONTINUOUS
 62
     7
 10
304.61212700142818
 20
-276.73141562588091
 30
0.0
 70
    32
  0
VERTEX
  5
41C
  8
DATA
  6
CONTINUOUS
 62
     7
 10
304.61212700142818
 20
-276.7704156258809
 30
0.0
 70
    32
  0
VERTEX
  5
41D
  8
DATA
  6
CONTINUOUS
 62
     7
 10
304.61212700142818
 20
-276.80941562588089
 30
0.0
 70
    32
  0
VERTEX
  5
41E
  8
DATA
  6
CONTINUOUS
 62
     7
 10
304.61212700142818
 20
-276.84841562588088
 30
0.0
 70
    32
  0
VERTEX
  5
41F
  8
DATA
  6
CONTINUOUS
 62
     7
 10
304.61212700142818
 20
-276.88741562588092
 30
0.0
 70
    32
  0
VERTEX
  5
420
  8
DATA
  6
CONTINUOUS
 62
     7
 10
304.61212700142818
 20
-276.92641562588102
 30
0.0
 70
    32
  0
VERTEX
  5
421
  8
DATA
  6
CONTINUOUS
 62
     7
 10
304.61212700142818
 20
-276.96541562588089
 30
0.0
 70
    32
  0
VERTEX
  5
422
  8
DATA
  6
CONTINUOUS
 62
     7
 10
304.61212700142818
 20
-277.00441562588088
 30
0.0
 70
    32
  0
VERTEX
  5
423
  8
DATA
  6
CONTINUOUS
 62
     7
 10
304.61212700142818
 20
-277.04341562588093
 30
0.0
 70
    32
  0
VERTEX
  5
424
  8
DATA
  6
CONTINUOUS
 62
     7
 10
304.61212700142818
 20
-277.08241562588091
 30
0.0
 70
    32
  0
VERTEX
  5
425
  8
DATA
  6
CONTINUOUS
 62
     7
 10
304.61212700142818
 20
-277.1214156258809
 30
0.0
 70
    32
  0
VERTEX
  5
426
  8
DATA
  6
CONTINUOUS
 62
     7
 10
304.61212700142818
 20
-277.16041562588089
 30
0.0
 70
    32
  0
VERTEX
  5
427
  8
DATA
  6
CONTINUOUS
 62
     7
 10
304.61212700142818
 20
-277.19941562588087
 30
0.0
 70
    32
  0
VERTEX
  5
428
  8
DATA
  6
CONTINUOUS
 62
     7
 10
304.61212700142818
 20
-277.23941562588089
 30
0.0
 70
    32
  0
VERTEX
  5
429
  8
DATA
  6
CONTINUOUS
 62
     7
 10
304.61212700142818
 20
-277.27841562588088
 30
0.0
 70
    32
  0
VERTEX
  5
42A
  8
DATA
  6
CONTINUOUS
 62
     7
 10
304.61212700142818
 20
-277.31741562588093
 30
0.0
 70
    32
  0
VERTEX
  5
42B
  8
DATA
  6
CONTINUOUS
 62
     7
 10
304.61212700142818
 20
-277.35741562588089
 30
0.0
 70
    32
  0
VERTEX
  5
42C
  8
DATA
  6
CONTINUOUS
 62
     7
 10
304.61212700142818
 20
-277.39641562588088
 30
0.0
 70
    32
  0
VERTEX
  5
42D
  8
DATA
  6
CONTINUOUS
 62
     7
 10
304.61212700142818
 20
-277.43541562588092
 30
0.0
 70
    32
  0
VERTEX
  5
42E
  8
DATA
  6
CONTINUOUS
 62
     7
 10
304.61212700142818
 20
-277.47541562588088
 30
0.0
 70
    32
  0
VERTEX
  5
42F
  8
DATA
  6
CONTINUOUS
 62
     7
 10
304.61212700142818
 20
-277.51441562588087
 30
0.0
 70
    32
  0
VERTEX
  5
430
  8
DATA
  6
CONTINUOUS
 62
     7
 10
304.61212700142818
 20
-277.55441562588089
 30
0.0
 70
    32
  0
VERTEX
  5
431
  8
DATA
  6
CONTINUOUS
 62
     7
 10
304.61212700142818
 20
-277.59341562588088
 30
0.0
 70
    32
  0
VERTEX
  5
432
  8
DATA
  6
CONTINUOUS
 62
     7
 10
304.61212700142818
 20
-277.63241562588092
 30
0.0
 70
    32
  0
VERTEX
  5
433
  8
DATA
  6
CONTINUOUS
 62
     7
 10
304.61212700142818
 20
-277.67241562588089
 30
0.0
 70
    32
  0
VERTEX
  5
434
  8
DATA
  6
CONTINUOUS
 62
     7
 10
304.61212700142818
 20
-277.71141562588087
 30
0.0
 70
    32
  0
VERTEX
  5
435
  8
DATA
  6
CONTINUOUS
 62
     7
 10
304.61212700142818
 20
-277.7514156258809
 30
0.0
 70
    32
  0
VERTEX
  5
436
  8
DATA
  6
CONTINUOUS
 62
     7
 10
304.61212700142818
 20
-277.79041562588088
 30
0.0
 70
    32
  0
VERTEX
  5
437
  8
DATA
  6
CONTINUOUS
 62
     7
 10
304.61212700142818
 20
-277.83041562588102
 30
0.0
 70
    32
  0
VERTEX
  5
438
  8
DATA
  6
CONTINUOUS
 62
     7
 10
304.61212700142818
 20
-277.86941562588089
 30
0.0
 70
    32
  0
VERTEX
  5
439
  8
DATA
  6
CONTINUOUS
 62
     7
 10
304.61212700142818
 20
-277.90941562588091
 30
0.0
 70
    32
  0
VERTEX
  5
43A
  8
DATA
  6
CONTINUOUS
 62
     7
 10
304.61212700142818
 20
-277.9484156258809
 30
0.0
 70
    32
  0
VERTEX
  5
43B
  8
DATA
  6
CONTINUOUS
 62
     7
 10
304.61212700142818
 20
-277.98841562588092
 30
0.0
 70
    32
  0
VERTEX
  5
43C
  8
DATA
  6
CONTINUOUS
 62
     7
 10
304.61212700142818
 20
-278.02741562588102
 30
0.0
 70
    32
  0
VERTEX
  5
43D
  8
DATA
  6
CONTINUOUS
 62
     7
 10
304.61212700142818
 20
-278.06741562588093
 30
0.0
 70
    32
  0
VERTEX
  5
43E
  8
DATA
  6
CONTINUOUS
 62
     7
 10
304.61212700142818
 20
-278.10641562588091
 30
0.0
 70
    32
  0
VERTEX
  5
43F
  8
DATA
  6
CONTINUOUS
 62
     7
 10
304.61212700142818
 20
-278.14641562588088
 30
0.0
 70
    32
  0
VERTEX
  5
440
  8
DATA
  6
CONTINUOUS
 62
     7
 10
304.61212700142818
 20
-278.18541562588092
 30
0.0
 70
    32
  0
VERTEX
  5
441
  8
DATA
  6
CONTINUOUS
 62
     7
 10
304.61212700142818
 20
-278.22441562588102
 30
0.0
 70
    32
  0
VERTEX
  5
442
  8
DATA
  6
CONTINUOUS
 62
     7
 10
304.61212700142818
 20
-278.26441562588087
 30
0.0
 70
    32
  0
VERTEX
  5
443
  8
DATA
  6
CONTINUOUS
 62
     7
 10
304.61212700142818
 20
-278.30341562588092
 30
0.0
 70
    32
  0
VERTEX
  5
444
  8
DATA
  6
CONTINUOUS
 62
     7
 10
304.61212700142818
 20
-278.34341562588088
 30
0.0
 70
    32
  0
VERTEX
  5
445
  8
DATA
  6
CONTINUOUS
 62
     7
 10
304.61212700142818
 20
-278.38241562588092
 30
0.0
 70
    32
  0
VERTEX
  5
446
  8
DATA
  6
CONTINUOUS
 62
     7
 10
304.61212700142818
 20
-278.4214156258808
 30
0.0
 70
    32
  0
VERTEX
  5
447
  8
DATA
  6
CONTINUOUS
 62
     7
 10
304.61212700142818
 20
-278.46141562588087
 30
0.0
 70
    32
  0
VERTEX
  5
448
  8
DATA
  6
CONTINUOUS
 62
     7
 10
304.61212700142818
 20
-278.50041562588092
 30
0.0
 70
    32
  0
VERTEX
  5
449
  8
DATA
  6
CONTINUOUS
 62
     7
 10
304.61212700142818
 20
-278.53941562588091
 30
0.0
 70
    32
  0
VERTEX
  5
44A
  8
DATA
  6
CONTINUOUS
 62
     7
 10
304.61212700142818
 20
-278.57841562588089
 30
0.0
 70
    32
  0
VERTEX
  5
44B
  8
DATA
  6
CONTINUOUS
 62
     7
 10
304.61212700142818
 20
-278.61741562588088
 30
0.0
 70
    32
  0
VERTEX
  5
44C
  8
DATA
  6
CONTINUOUS
 62
     7
 10
304.61212700142818
 20
-278.65641562588092
 30
0.0
 70
    32
  0
VERTEX
  5
44D
  8
DATA
  6
CONTINUOUS
 62
     7
 10
304.61212700142818
 20
-278.69641562588089
 30
0.0
 70
    32
  0
VERTEX
  5
44E
  8
DATA
  6
CONTINUOUS
 62
     7
 10
304.61212700142818
 20
-278.73541562588088
 30
0.0
 70
    32
  0
VERTEX
  5
44F
  8
DATA
  6
CONTINUOUS
 62
     7
 10
304.61212700142818
 20
-278.77441562588092
 30
0.0
 70
    32
  0
VERTEX
  5
450
  8
DATA
  6
CONTINUOUS
 62
     7
 10
304.61212700142818
 20
-278.81341562588091
 30
0.0
 70
    32
  0
VERTEX
  5
451
  8
DATA
  6
CONTINUOUS
 62
     7
 10
304.61212700142818
 20
-278.85241562588089
 30
0.0
 70
    32
  0
VERTEX
  5
452
  8
DATA
  6
CONTINUOUS
 62
     7
 10
304.61212700142818
 20
-278.89041562588091
 30
0.0
 70
    32
  0
VERTEX
  5
453
  8
DATA
  6
CONTINUOUS
 62
     7
 10
304.61212700142818
 20
-278.92941562588089
 30
0.0
 70
    32
  0
VERTEX
  5
454
  8
DATA
  6
CONTINUOUS
 62
     7
 10
304.61212700142818
 20
-278.96841562588088
 30
0.0
 70
    32
  0
VERTEX
  5
455
  8
DATA
  6
CONTINUOUS
 62
     7
 10
304.61212700142818
 20
-279.00741562588092
 30
0.0
 70
    32
  0
VERTEX
  5
456
  8
DATA
  6
CONTINUOUS
 62
     7
 10
304.61212700142818
 20
-279.04541562588088
 30
0.0
 70
    32
  0
VERTEX
  5
457
  8
DATA
  6
CONTINUOUS
 62
     7
 10
304.61212700142818
 20
-279.08441562588092
 30
0.0
 70
    32
  0
VERTEX
  5
458
  8
DATA
  6
CONTINUOUS
 62
     7
 10
304.61212700142818
 20
-279.12341562588102
 30
0.0
 70
    32
  0
VERTEX
  5
459
  8
DATA
  6
CONTINUOUS
 62
     7
 10
304.61212700142818
 20
-279.16141562588092
 30
0.0
 70
    32
  0
VERTEX
  5
45A
  8
DATA
  6
CONTINUOUS
 62
     7
 10
304.61212700142818
 20
-279.20041562588102
 30
0.0
 70
    32
  0
VERTEX
  5
45B
  8
DATA
  6
CONTINUOUS
 62
     7
 10
304.61212700142818
 20
-279.23841562588092
 30
0.0
 70
    32
  0
VERTEX
  5
45C
  8
DATA
  6
CONTINUOUS
 62
     7
 10
304.61212700142818
 20
-279.27641562588087
 30
0.0
 70
    32
  0
VERTEX
  5
45D
  8
DATA
  6
CONTINUOUS
 62
     7
 10
304.61212700142818
 20
-279.31541562588092
 30
0.0
 70
    32
  0
VERTEX
  5
45E
  8
DATA
  6
CONTINUOUS
 62
     7
 10
304.61212700142818
 20
-279.35341562588093
 30
0.0
 70
    32
  0
VERTEX
  5
45F
  8
DATA
  6
CONTINUOUS
 62
     7
 10
304.61212700142818
 20
-279.39141562588088
 30
0.0
 70
    32
  0
VERTEX
  5
460
  8
DATA
  6
CONTINUOUS
 62
     7
 10
304.61212700142818
 20
-279.42941562588089
 30
0.0
 70
    32
  0
VERTEX
  5
461
  8
DATA
  6
CONTINUOUS
 62
     7
 10
304.61212700142818
 20
-279.4674156258809
 30
0.0
 70
    32
  0
VERTEX
  5
462
  8
DATA
  6
CONTINUOUS
 62
     7
 10
304.61212700142818
 20
-279.50541562588091
 30
0.0
 70
    32
  0
VERTEX
  5
463
  8
DATA
  6
CONTINUOUS
 62
     7
 10
304.61212700142818
 20
-279.54341562588093
 30
0.0
 70
    32
  0
VERTEX
  5
464
  8
DATA
  6
CONTINUOUS
 62
     7
 10
304.61212700142818
 20
-279.58141562588088
 30
0.0
 70
    32
  0
VERTEX
  5
465
  8
DATA
  6
CONTINUOUS
 62
     7
 10
304.61212700142818
 20
-279.61841562588091
 30
0.0
 70
    32
  0
VERTEX
  5
466
  8
DATA
  6
CONTINUOUS
 62
     7
 10
304.61212700142818
 20
-279.65641562588092
 30
0.0
 70
    32
  0
VERTEX
  5
467
  8
DATA
  6
CONTINUOUS
 62
     7
 10
304.61212700142818
 20
-279.6934156258809
 30
0.0
 70
    32
  0
VERTEX
  5
468
  8
DATA
  6
CONTINUOUS
 62
     7
 10
304.61212700142818
 20
-279.73141562588091
 30
0.0
 70
    32
  0
VERTEX
  5
469
  8
DATA
  6
CONTINUOUS
 62
     7
 10
304.61212700142818
 20
-279.76841562588089
 30
0.0
 70
    32
  0
VERTEX
  5
46A
  8
DATA
  6
CONTINUOUS
 62
     7
 10
304.61212700142818
 20
-279.80541562588093
 30
0.0
 70
    32
  0
VERTEX
  5
46B
  8
DATA
  6
CONTINUOUS
 62
     7
 10
304.61212700142818
 20
-279.84341562588088
 30
0.0
 70
    32
  0
VERTEX
  5
46C
  8
DATA
  6
CONTINUOUS
 62
     7
 10
304.61212700142818
 20
-279.88041562588091
 30
0.0
 70
    32
  0
VERTEX
  5
46D
  8
DATA
  6
CONTINUOUS
 62
     7
 10
304.61212700142818
 20
-279.91741562588089
 30
0.0
 70
    32
  0
VERTEX
  5
46E
  8
DATA
  6
CONTINUOUS
 62
     7
 10
304.61212700142818
 20
-279.95441562588093
 30
0.0
 70
    32
  0
VERTEX
  5
46F
  8
DATA
  6
CONTINUOUS
 62
     7
 10
304.61212700142818
 20
-279.99041562588093
 30
0.0
 70
    32
  0
VERTEX
  5
470
  8
DATA
  6
CONTINUOUS
 62
     7
 10
304.61212700142818
 20
-280.02741562588102
 30
0.0
 70
    32
  0
VERTEX
  5
471
  8
DATA
  6
CONTINUOUS
 62
     7
 10
304.61212700142818
 20
-280.06441562588088
 30
0.0
 70
    32
  0
VERTEX
  5
472
  8
DATA
  6
CONTINUOUS
 62
     7
 10
304.61212700142818
 20
-280.10041562588088
 30
0.0
 70
    32
  0
VERTEX
  5
473
  8
DATA
  6
CONTINUOUS
 62
     7
 10
304.61212700142818
 20
-280.13741562588092
 30
0.0
 70
    32
  0
VERTEX
  5
474
  8
DATA
  6
CONTINUOUS
 62
     7
 10
304.61212700142818
 20
-280.17341562588092
 30
0.0
 70
    32
  0
VERTEX
  5
475
  8
DATA
  6
CONTINUOUS
 62
     7
 10
304.61212700142818
 20
-280.20941562588092
 30
0.0
 70
    32
  0
VERTEX
  5
476
  8
DATA
  6
CONTINUOUS
 62
     7
 10
304.61212700142818
 20
-280.24541562588092
 30
0.0
 70
    32
  0
VERTEX
  5
477
  8
DATA
  6
CONTINUOUS
 62
     7
 10
304.61212700142818
 20
-280.28141562588092
 30
0.0
 70
    32
  0
VERTEX
  5
478
  8
DATA
  6
CONTINUOUS
 62
     7
 10
304.61212700142818
 20
-280.31741562588093
 30
0.0
 70
    32
  0
VERTEX
  5
479
  8
DATA
  6
CONTINUOUS
 62
     7
 10
304.61212700142818
 20
-280.35341562588093
 30
0.0
 70
    32
  0
VERTEX
  5
47A
  8
DATA
  6
CONTINUOUS
 62
     7
 10
304.61212700142818
 20
-280.3884156258809
 30
0.0
 70
    32
  0
VERTEX
  5
47B
  8
DATA
  6
CONTINUOUS
 62
     7
 10
304.61212700142818
 20
-280.4244156258809
 30
0.0
 70
    32
  0
VERTEX
  5
47C
  8
DATA
  6
CONTINUOUS
 62
     7
 10
304.61212700142818
 20
-280.45941562588092
 30
0.0
 70
    32
  0
VERTEX
  5
47D
  8
DATA
  6
CONTINUOUS
 62
     7
 10
304.61212700142818
 20
-280.49541562588081
 30
0.0
 70
    32
  0
VERTEX
  5
47E
  8
DATA
  6
CONTINUOUS
 62
     7
 10
304.61212700142818
 20
-280.53041562588089
 30
0.0
 70
    32
  0
VERTEX
  5
47F
  8
DATA
  6
CONTINUOUS
 62
     7
 10
304.61212700142818
 20
-280.56541562588092
 30
0.0
 70
    32
  0
VERTEX
  5
480
  8
DATA
  6
CONTINUOUS
 62
     7
 10
304.61212700142818
 20
-280.60041562588088
 30
0.0
 70
    32
  0
VERTEX
  5
481
  8
DATA
  6
CONTINUOUS
 62
     7
 10
304.61212700142818
 20
-280.63541562588091
 30
0.0
 70
    32
  0
VERTEX
  5
482
  8
DATA
  6
CONTINUOUS
 62
     7
 10
304.61212700142818
 20
-280.6694156258809
 30
0.0
 70
    32
  0
VERTEX
  5
483
  8
DATA
  6
CONTINUOUS
 62
     7
 10
304.61212700142818
 20
-280.70441562588093
 30
0.0
 70
    32
  0
VERTEX
  5
484
  8
DATA
  6
CONTINUOUS
 62
     7
 10
304.61212700142818
 20
-280.73841562588092
 30
0.0
 70
    32
  0
VERTEX
  5
485
  8
DATA
  6
CONTINUOUS
 62
     7
 10
304.61212700142818
 20
-280.77341562588089
 30
0.0
 70
    32
  0
VERTEX
  5
486
  8
DATA
  6
CONTINUOUS
 62
     7
 10
304.61212700142818
 20
-280.80741562588088
 30
0.0
 70
    32
  0
VERTEX
  5
487
  8
DATA
  6
CONTINUOUS
 62
     7
 10
304.61212700142818
 20
-280.84141562588093
 30
0.0
 70
    32
  0
VERTEX
  5
488
  8
DATA
  6
CONTINUOUS
 62
     7
 10
304.61212700142818
 20
-280.87541562588081
 30
0.0
 70
    32
  0
VERTEX
  5
489
  8
DATA
  6
CONTINUOUS
 62
     7
 10
304.61212700142818
 20
-280.90941562588091
 30
0.0
 70
    32
  0
VERTEX
  5
48A
  8
DATA
  6
CONTINUOUS
 62
     7
 10
304.61212700142818
 20
-280.9434156258809
 30
0.0
 70
    32
  0
VERTEX
  5
48B
  8
DATA
  6
CONTINUOUS
 62
     7
 10
304.61212700142818
 20
-280.97641562588092
 30
0.0
 70
    32
  0
VERTEX
  5
48C
  8
DATA
  6
CONTINUOUS
 62
     7
 10
304.61212700142818
 20
-281.01041562588091
 30
0.0
 70
    32
  0
VERTEX
  5
48D
  8
DATA
  6
CONTINUOUS
 62
     7
 10
304.61212700142818
 20
-281.04341562588093
 30
0.0
 70
    32
  0
VERTEX
  5
48E
  8
DATA
  6
CONTINUOUS
 62
     7
 10
304.61212700142818
 20
-281.07641562588088
 30
0.0
 70
    32
  0
VERTEX
  5
48F
  8
DATA
  6
CONTINUOUS
 62
     7
 10
304.61212700142818
 20
-281.10941562588101
 30
0.0
 70
    32
  0
VERTEX
  5
490
  8
DATA
  6
CONTINUOUS
 62
     7
 10
304.61212700142818
 20
-281.14241562588091
 30
0.0
 70
    32
  0
VERTEX
  5
491
  8
DATA
  6
CONTINUOUS
 62
     7
 10
304.61212700142818
 20
-281.17541562588087
 30
0.0
 70
    32
  0
VERTEX
  5
492
  8
DATA
  6
CONTINUOUS
 62
     7
 10
304.61212700142818
 20
-281.20741562588091
 30
0.0
 70
    32
  0
VERTEX
  5
493
  8
DATA
  6
CONTINUOUS
 62
     7
 10
304.61212700142818
 20
-281.24041562588093
 30
0.0
 70
    32
  0
VERTEX
  5
494
  8
DATA
  6
CONTINUOUS
 62
     7
 10
304.61212700142818
 20
-281.27241562588091
 30
0.0
 70
    32
  0
VERTEX
  5
495
  8
DATA
  6
CONTINUOUS
 62
     7
 10
304.61212700142818
 20
-281.30441562588089
 30
0.0
 70
    32
  0
VERTEX
  5
496
  8
DATA
  6
CONTINUOUS
 62
     7
 10
304.61212700142818
 20
-281.33641562588087
 30
0.0
 70
    32
  0
VERTEX
  5
497
  8
DATA
  6
CONTINUOUS
 62
     7
 10
304.61212700142818
 20
-281.36841562588091
 30
0.0
 70
    32
  0
VERTEX
  5
498
  8
DATA
  6
CONTINUOUS
 62
     7
 10
304.61212700142818
 20
-281.4004156258809
 30
0.0
 70
    32
  0
VERTEX
  5
499
  8
DATA
  6
CONTINUOUS
 62
     7
 10
304.61212700142818
 20
-281.43241562588088
 30
0.0
 70
    32
  0
VERTEX
  5
49A
  8
DATA
  6
CONTINUOUS
 62
     7
 10
304.61212700142818
 20
-281.46341562588088
 30
0.0
 70
    32
  0
VERTEX
  5
49B
  8
DATA
  6
CONTINUOUS
 62
     7
 10
304.61212700142818
 20
-281.494415625881
 30
0.0
 70
    32
  0
VERTEX
  5
49C
  8
DATA
  6
CONTINUOUS
 62
     7
 10
304.61212700142818
 20
-281.52641562588087
 30
0.0
 70
    32
  0
VERTEX
  5
49D
  8
DATA
  6
CONTINUOUS
 62
     7
 10
304.61212700142818
 20
-281.55741562588088
 30
0.0
 70
    32
  0
VERTEX
  5
49E
  8
DATA
  6
CONTINUOUS
 62
     7
 10
304.61212700142818
 20
-281.58741562588091
 30
0.0
 70
    32
  0
VERTEX
  5
49F
  8
DATA
  6
CONTINUOUS
 62
     7
 10
304.61212700142818
 20
-281.61841562588091
 30
0.0
 70
    32
  0
VERTEX
  5
4A0
  8
DATA
  6
CONTINUOUS
 62
     7
 10
304.61212700142818
 20
-281.64941562588092
 30
0.0
 70
    32
  0
VERTEX
  5
4A1
  8
DATA
  6
CONTINUOUS
 62
     7
 10
304.61212700142818
 20
-281.67941562588089
 30
0.0
 70
    32
  0
VERTEX
  5
4A2
  8
DATA
  6
CONTINUOUS
 62
     7
 10
304.61212700142818
 20
-281.70941562588092
 30
0.0
 70
    32
  0
VERTEX
  5
4A3
  8
DATA
  6
CONTINUOUS
 62
     7
 10
304.61212700142818
 20
-281.73941562588101
 30
0.0
 70
    32
  0
VERTEX
  5
4A4
  8
DATA
  6
CONTINUOUS
 62
     7
 10
304.61212700142818
 20
-281.76941562588092
 30
0.0
 70
    32
  0
VERTEX
  5
4A5
  8
DATA
  6
CONTINUOUS
 62
     7
 10
304.61212700142818
 20
-281.7994156258809
 30
0.0
 70
    32
  0
VERTEX
  5
4A6
  8
DATA
  6
CONTINUOUS
 62
     7
 10
304.61212700142818
 20
-281.82841562588089
 30
0.0
 70
    32
  0
VERTEX
  5
4A7
  8
DATA
  6
CONTINUOUS
 62
     7
 10
304.61212700142818
 20
-281.85741562588089
 30
0.0
 70
    32
  0
VERTEX
  5
4A8
  8
DATA
  6
CONTINUOUS
 62
     7
 10
304.61212700142818
 20
-281.88641562588089
 30
0.0
 70
    32
  0
VERTEX
  5
4A9
  8
DATA
  6
CONTINUOUS
 62
     7
 10
304.61212700142818
 20
-281.91541562588088
 30
0.0
 70
    32
  0
VERTEX
  5
4AA
  8
DATA
  6
CONTINUOUS
 62
     7
 10
304.61212700142818
 20
-281.94441562588088
 30
0.0
 70
    32
  0
VERTEX
  5
4AB
  8
DATA
  6
CONTINUOUS
 62
     7
 10
304.61212700142818
 20
-281.97341562588088
 30
0.0
 70
    32
  0
VERTEX
  5
4AC
  8
DATA
  6
CONTINUOUS
 62
     7
 10
304.61212700142818
 20
-282.0014156258809
 30
0.0
 70
    32
  0
VERTEX
  5
4AD
  8
DATA
  6
CONTINUOUS
 62
     7
 10
304.61212700142818
 20
-282.02941562588092
 30
0.0
 70
    32
  0
VERTEX
  5
4AE
  8
DATA
  6
CONTINUOUS
 62
     7
 10
304.61212700142818
 20
-282.05841562588091
 30
0.0
 70
    32
  0
VERTEX
  5
4AF
  8
DATA
  6
CONTINUOUS
 62
     7
 10
304.61212700142818
 20
-282.08541562588101
 30
0.0
 70
    32
  0
VERTEX
  5
4B0
  8
DATA
  6
CONTINUOUS
 62
     7
 10
304.61212700142818
 20
-282.11341562588092
 30
0.0
 70
    32
  0
VERTEX
  5
4B1
  8
DATA
  6
CONTINUOUS
 62
     7
 10
304.61212700142818
 20
-282.14141562588088
 30
0.0
 70
    32
  0
VERTEX
  5
4B2
  8
DATA
  6
CONTINUOUS
 62
     7
 10
304.61212700142818
 20
-282.16841562588093
 30
0.0
 70
    32
  0
VERTEX
  5
4B3
  8
DATA
  6
CONTINUOUS
 62
     7
 10
304.61212700142818
 20
-282.19541562588091
 30
0.0
 70
    32
  0
VERTEX
  5
4B4
  8
DATA
  6
CONTINUOUS
 62
     7
 10
304.61212700142818
 20
-282.2224156258809
 30
0.0
 70
    32
  0
VERTEX
  5
4B5
  8
DATA
  6
CONTINUOUS
 62
     7
 10
304.61212700142818
 20
-282.24941562588089
 30
0.0
 70
    32
  0
VERTEX
  5
4B6
  8
DATA
  6
CONTINUOUS
 62
     7
 10
304.61212700142818
 20
-282.2754156258809
 30
0.0
 70
    32
  0
VERTEX
  5
4B7
  8
DATA
  6
CONTINUOUS
 62
     7
 10
304.61212700142818
 20
-282.30141562588091
 30
0.0
 70
    32
  0
VERTEX
  5
4B8
  8
DATA
  6
CONTINUOUS
 62
     7
 10
304.61212700142818
 20
-282.32841562588089
 30
0.0
 70
    32
  0
VERTEX
  5
4B9
  8
DATA
  6
CONTINUOUS
 62
     7
 10
304.61212700142818
 20
-282.3544156258809
 30
0.0
 70
    32
  0
VERTEX
  5
4BA
  8
DATA
  6
CONTINUOUS
 62
     7
 10
304.61212700142818
 20
-282.37941562588088
 30
0.0
 70
    32
  0
VERTEX
  5
4BB
  8
DATA
  6
CONTINUOUS
 62
     7
 10
304.61212700142818
 20
-282.40541562588089
 30
0.0
 70
    32
  0
VERTEX
  5
4BC
  8
DATA
  6
CONTINUOUS
 62
     7
 10
304.61212700142818
 20
-282.43041562588093
 30
0.0
 70
    32
  0
VERTEX
  5
4BD
  8
DATA
  6
CONTINUOUS
 62
     7
 10
304.61212700142818
 20
-282.45641562588088
 30
0.0
 70
    32
  0
VERTEX
  5
4BE
  8
DATA
  6
CONTINUOUS
 62
     7
 10
304.61212700142818
 20
-282.48141562588091
 30
0.0
 70
    32
  0
VERTEX
  5
4BF
  8
DATA
  6
CONTINUOUS
 62
     7
 10
304.61212700142818
 20
-282.50541562588091
 30
0.0
 70
    32
  0
VERTEX
  5
4C0
  8
DATA
  6
CONTINUOUS
 62
     7
 10
304.61212700142818
 20
-282.53041562588089
 30
0.0
 70
    32
  0
VERTEX
  5
4C1
  8
DATA
  6
CONTINUOUS
 62
     7
 10
304.61212700142818
 20
-282.55441562588089
 30
0.0
 70
    32
  0
VERTEX
  5
4C2
  8
DATA
  6
CONTINUOUS
 62
     7
 10
304.61212700142818
 20
-282.57941562588093
 30
0.0
 70
    32
  0
VERTEX
  5
4C3
  8
DATA
  6
CONTINUOUS
 62
     7
 10
304.61212700142818
 20
-282.60341562588093
 30
0.0
 70
    32
  0
VERTEX
  5
4C4
  8
DATA
  6
CONTINUOUS
 62
     7
 10
304.61212700142818
 20
-282.62741562588087
 30
0.0
 70
    32
  0
VERTEX
  5
4C5
  8
DATA
  6
CONTINUOUS
 62
     7
 10
304.61212700142818
 20
-282.6504156258809
 30
0.0
 70
    32
  0
VERTEX
  5
4C6
  8
DATA
  6
CONTINUOUS
 62
     7
 10
304.61212700142818
 20
-282.6744156258809
 30
0.0
 70
    32
  0
VERTEX
  5
4C7
  8
DATA
  6
CONTINUOUS
 62
     7
 10
304.61212700142818
 20
-282.69741562588092
 30
0.0
 70
    32
  0
VERTEX
  5
4C8
  8
DATA
  6
CONTINUOUS
 62
     7
 10
304.61212700142818
 20
-282.720415625881
 30
0.0
 70
    32
  0
VERTEX
  5
4C9
  8
DATA
  6
CONTINUOUS
 62
     7
 10
304.61212700142818
 20
-282.74341562588091
 30
0.0
 70
    32
  0
VERTEX
  5
4CA
  8
DATA
  6
CONTINUOUS
 62
     7
 10
304.61212700142818
 20
-282.76641562588088
 30
0.0
 70
    32
  0
VERTEX
  5
4CB
  8
DATA
  6
CONTINUOUS
 62
     7
 10
304.61212700142818
 20
-282.78841562588087
 30
0.0
 70
    32
  0
VERTEX
  5
4CC
  8
DATA
  6
CONTINUOUS
 62
     7
 10
304.61212700142818
 20
-282.81141562588101
 30
0.0
 70
    32
  0
VERTEX
  5
4CD
  8
DATA
  6
CONTINUOUS
 62
     7
 10
304.61212700142818
 20
-282.83341562588089
 30
0.0
 70
    32
  0
VERTEX
  5
4CE
  8
DATA
  6
CONTINUOUS
 62
     7
 10
304.61212700142818
 20
-282.85541562588088
 30
0.0
 70
    32
  0
VERTEX
  5
4CF
  8
DATA
  6
CONTINUOUS
 62
     7
 10
304.61212700142818
 20
-282.8764156258809
 30
0.0
 70
    32
  0
VERTEX
  5
4D0
  8
DATA
  6
CONTINUOUS
 62
     7
 10
304.61212700142818
 20
-282.898415625881
 30
0.0
 70
    32
  0
VERTEX
  5
4D1
  8
DATA
  6
CONTINUOUS
 62
     7
 10
304.61212700142818
 20
-282.9194156258809
 30
0.0
 70
    32
  0
VERTEX
  5
4D2
  8
DATA
  6
CONTINUOUS
 62
     7
 10
304.61212700142818
 20
-282.94141562588101
 30
0.0
 70
    32
  0
VERTEX
  5
4D3
  8
DATA
  6
CONTINUOUS
 62
     7
 10
304.61212700142818
 20
-282.96241562588091
 30
0.0
 70
    32
  0
VERTEX
  5
4D4
  8
DATA
  6
CONTINUOUS
 62
     7
 10
304.61212700142818
 20
-282.98241562588089
 30
0.0
 70
    32
  0
VERTEX
  5
4D5
  8
DATA
  6
CONTINUOUS
 62
     7
 10
304.61212700142818
 20
-283.0034156258809
 30
0.0
 70
    32
  0
VERTEX
  5
4D6
  8
DATA
  6
CONTINUOUS
 62
     7
 10
304.61212700142818
 20
-283.02341562588089
 30
0.0
 70
    32
  0
VERTEX
  5
4D7
  8
DATA
  6
CONTINUOUS
 62
     7
 10
304.61212700142818
 20
-283.04341562588093
 30
0.0
 70
    32
  0
VERTEX
  5
4D8
  8
DATA
  6
CONTINUOUS
 62
     7
 10
304.61212700142818
 20
-283.06341562588091
 30
0.0
 70
    32
  0
VERTEX
  5
4D9
  8
DATA
  6
CONTINUOUS
 62
     7
 10
304.61212700142818
 20
-283.08341562588089
 30
0.0
 70
    32
  0
VERTEX
  5
4DA
  8
DATA
  6
CONTINUOUS
 62
     7
 10
304.61212700142818
 20
-283.10241562588089
 30
0.0
 70
    32
  0
VERTEX
  5
4DB
  8
DATA
  6
CONTINUOUS
 62
     7
 10
304.61212700142818
 20
-283.1214156258809
 30
0.0
 70
    32
  0
VERTEX
  5
4DC
  8
DATA
  6
CONTINUOUS
 62
     7
 10
304.61212700142818
 20
-283.14041562588091
 30
0.0
 70
    32
  0
VERTEX
  5
4DD
  8
DATA
  6
CONTINUOUS
 62
     7
 10
304.61212700142818
 20
-283.15941562588091
 30
0.0
 70
    32
  0
VERTEX
  5
4DE
  8
DATA
  6
CONTINUOUS
 62
     7
 10
304.61212700142818
 20
-283.17741562588088
 30
0.0
 70
    32
  0
VERTEX
  5
4DF
  8
DATA
  6
CONTINUOUS
 62
     7
 10
304.61212700142818
 20
-283.19541562588091
 30
0.0
 70
    32
  0
VERTEX
  5
4E0
  8
DATA
  6
CONTINUOUS
 62
     7
 10
304.61212700142818
 20
-283.21341562588088
 30
0.0
 70
    32
  0
VERTEX
  5
4E1
  8
DATA
  6
CONTINUOUS
 62
     7
 10
304.61212700142818
 20
-283.23141562588091
 30
0.0
 70
    32
  0
VERTEX
  5
4E2
  8
DATA
  6
CONTINUOUS
 62
     7
 10
304.61212700142818
 20
-283.24841562588091
 30
0.0
 70
    32
  0
VERTEX
  5
4E3
  8
DATA
  6
CONTINUOUS
 62
     7
 10
304.61212700142818
 20
-283.26541562588091
 30
0.0
 70
    32
  0
VERTEX
  5
4E4
  8
DATA
  6
CONTINUOUS
 62
     7
 10
304.61212700142818
 20
-283.2824156258809
 30
0.0
 70
    32
  0
VERTEX
  5
4E5
  8
DATA
  6
CONTINUOUS
 62
     7
 10
304.61212700142818
 20
-283.29841562588092
 30
0.0
 70
    32
  0
VERTEX
  5
4E6
  8
DATA
  6
CONTINUOUS
 62
     7
 10
304.61212700142818
 20
-283.31541562588092
 30
0.0
 70
    32
  0
VERTEX
  5
4E7
  8
DATA
  6
CONTINUOUS
 62
     7
 10
304.61212700142818
 20
-283.33141562588099
 30
0.0
 70
    32
  0
VERTEX
  5
4E8
  8
DATA
  6
CONTINUOUS
 62
     7
 10
304.61212700142818
 20
-283.34641562588092
 30
0.0
 70
    32
  0
VERTEX
  5
4E9
  8
DATA
  6
CONTINUOUS
 62
     7
 10
304.61212700142818
 20
-283.36141562588091
 30
0.0
 70
    32
  0
VERTEX
  5
4EA
  8
DATA
  6
CONTINUOUS
 62
     7
 10
304.61212700142818
 20
-283.3764156258809
 30
0.0
 70
    32
  0
VERTEX
  5
4EB
  8
DATA
  6
CONTINUOUS
 62
     7
 10
304.61212700142818
 20
-283.39141562588088
 30
0.0
 70
    32
  0
VERTEX
  5
4EC
  8
DATA
  6
CONTINUOUS
 62
     7
 10
304.61212700142818
 20
-283.40541562588089
 30
0.0
 70
    32
  0
VERTEX
  5
4ED
  8
DATA
  6
CONTINUOUS
 62
     7
 10
304.61212700142818
 20
-283.4194156258809
 30
0.0
 70
    32
  0
VERTEX
  5
4EE
  8
DATA
  6
CONTINUOUS
 62
     7
 10
304.61212700142818
 20
-283.43341562588091
 30
0.0
 70
    32
  0
VERTEX
  5
4EF
  8
DATA
  6
CONTINUOUS
 62
     7
 10
304.61212700142818
 20
-283.44641562588089
 30
0.0
 70
    32
  0
VERTEX
  5
4F0
  8
DATA
  6
CONTINUOUS
 62
     7
 10
304.61212700142818
 20
-283.46041562588101
 30
0.0
 70
    32
  0
VERTEX
  5
4F1
  8
DATA
  6
CONTINUOUS
 62
     7
 10
304.61212700142818
 20
-283.4724156258809
 30
0.0
 70
    32
  0
VERTEX
  5
4F2
  8
DATA
  6
CONTINUOUS
 62
     7
 10
304.61212700142818
 20
-283.48541562588088
 30
0.0
 70
    32
  0
VERTEX
  5
4F3
  8
DATA
  6
CONTINUOUS
 62
     7
 10
304.61212700142818
 20
-283.49741562588088
 30
0.0
 70
    32
  0
VERTEX
  5
4F4
  8
DATA
  6
CONTINUOUS
 62
     7
 10
304.61212700142818
 20
-283.50941562588088
 30
0.0
 70
    32
  0
VERTEX
  5
4F5
  8
DATA
  6
CONTINUOUS
 62
     7
 10
304.61212700142818
 20
-283.5204156258809
 30
0.0
 70
    32
  0
VERTEX
  5
4F6
  8
DATA
  6
CONTINUOUS
 62
     7
 10
304.61212700142818
 20
-283.53141562588092
 30
0.0
 70
    32
  0
VERTEX
  5
4F7
  8
DATA
  6
CONTINUOUS
 62
     7
 10
304.61212700142818
 20
-283.54241562588101
 30
0.0
 70
    32
  0
VERTEX
  5
4F8
  8
DATA
  6
CONTINUOUS
 62
     7
 10
304.61212700142818
 20
-283.55341562588092
 30
0.0
 70
    32
  0
VERTEX
  5
4F9
  8
DATA
  6
CONTINUOUS
 62
     7
 10
304.61212700142818
 20
-283.56341562588091
 30
0.0
 70
    32
  0
VERTEX
  5
4FA
  8
DATA
  6
CONTINUOUS
 62
     7
 10
304.61212700142818
 20
-283.57441562588082
 30
0.0
 70
    32
  0
VERTEX
  5
4FB
  8
DATA
  6
CONTINUOUS
 62
     7
 10
304.61212700142818
 20
-283.58341562588089
 30
0.0
 70
    32
  0
VERTEX
  5
4FC
  8
DATA
  6
CONTINUOUS
 62
     7
 10
304.61212700142818
 20
-283.59341562588088
 30
0.0
 70
    32
  0
VERTEX
  5
4FD
  8
DATA
  6
CONTINUOUS
 62
     7
 10
304.61212700142818
 20
-283.60241562588089
 30
0.0
 70
    32
  0
VERTEX
  5
4FE
  8
DATA
  6
CONTINUOUS
 62
     7
 10
304.61212700142818
 20
-283.61241562588089
 30
0.0
 70
    32
  0
VERTEX
  5
4FF
  8
DATA
  6
CONTINUOUS
 62
     7
 10
304.61212700142818
 20
-283.6214156258809
 30
0.0
 70
    32
  0
VERTEX
  5
500
  8
DATA
  6
CONTINUOUS
 62
     7
 10
304.61212700142818
 20
-283.62941562588088
 30
0.0
 70
    32
  0
VERTEX
  5
501
  8
DATA
  6
CONTINUOUS
 62
     7
 10
304.61212700142818
 20
-283.63841562588101
 30
0.0
 70
    32
  0
VERTEX
  5
502
  8
DATA
  6
CONTINUOUS
 62
     7
 10
304.61212700142818
 20
-283.64641562588088
 30
0.0
 70
    32
  0
VERTEX
  5
503
  8
DATA
  6
CONTINUOUS
 62
     7
 10
304.61212700142818
 20
-283.65441562588092
 30
0.0
 70
    32
  0
VERTEX
  5
504
  8
DATA
  6
CONTINUOUS
 62
     7
 10
304.61212700142818
 20
-283.6624156258809
 30
0.0
 70
    32
  0
VERTEX
  5
505
  8
DATA
  6
CONTINUOUS
 62
     7
 10
304.61212700142818
 20
-283.6694156258809
 30
0.0
 70
    32
  0
VERTEX
  5
506
  8
DATA
  6
CONTINUOUS
 62
     7
 10
304.61212700142818
 20
-283.677415625881
 30
0.0
 70
    32
  0
VERTEX
  5
507
  8
DATA
  6
CONTINUOUS
 62
     7
 10
304.61212700142818
 20
-283.68441562588089
 30
0.0
 70
    32
  0
VERTEX
  5
508
  8
DATA
  6
CONTINUOUS
 62
     7
 10
304.61212700142818
 20
-283.69141562588101
 30
0.0
 70
    32
  0
VERTEX
  5
509
  8
DATA
  6
CONTINUOUS
 62
     7
 10
304.61212700142818
 20
-283.6984156258809
 30
0.0
 70
    32
  0
VERTEX
  5
50A
  8
DATA
  6
CONTINUOUS
 62
     7
 10
304.61212700142818
 20
-283.70541562588079
 30
0.0
 70
    32
  0
VERTEX
  5
50B
  8
DATA
  6
CONTINUOUS
 62
     7
 10
304.61212700142818
 20
-283.71141562588099
 30
0.0
 70
    32
  0
VERTEX
  5
50C
  8
DATA
  6
CONTINUOUS
 62
     7
 10
304.61212700142818
 20
-283.71841562588088
 30
0.0
 70
    32
  0
VERTEX
  5
50D
  8
DATA
  6
CONTINUOUS
 62
     7
 10
304.61212700142818
 20
-283.72441562588079
 30
0.0
 70
    32
  0
VERTEX
  5
50E
  8
DATA
  6
CONTINUOUS
 62
     7
 10
304.61212700142818
 20
-283.73041562588088
 30
0.0
 70
    32
  0
VERTEX
  5
50F
  8
DATA
  6
CONTINUOUS
 62
     7
 10
304.61212700142818
 20
-283.73641562588091
 30
0.0
 70
    32
  0
VERTEX
  5
510
  8
DATA
  6
CONTINUOUS
 62
     7
 10
304.61212700142818
 20
-283.7414156258809
 30
0.0
 70
    32
  0
VERTEX
  5
511
  8
DATA
  6
CONTINUOUS
 62
     7
 10
304.61212700142818
 20
-283.74741562588088
 30
0.0
 70
    32
  0
VERTEX
  5
512
  8
DATA
  6
CONTINUOUS
 62
     7
 10
304.61212700142818
 20
-283.75341562588079
 30
0.0
 70
    32
  0
VERTEX
  5
513
  8
DATA
  6
CONTINUOUS
 62
     7
 10
304.61212700142818
 20
-283.7584156258809
 30
0.0
 70
    32
  0
VERTEX
  5
514
  8
DATA
  6
CONTINUOUS
 62
     7
 10
304.61212700142818
 20
-283.7634156258809
 30
0.0
 70
    32
  0
VERTEX
  5
515
  8
DATA
  6
CONTINUOUS
 62
     7
 10
304.61212700142818
 20
-283.76941562588092
 30
0.0
 70
    32
  0
VERTEX
  5
516
  8
DATA
  6
CONTINUOUS
 62
     7
 10
304.61212700142818
 20
-283.77441562588092
 30
0.0
 70
    32
  0
VERTEX
  5
517
  8
DATA
  6
CONTINUOUS
 62
     7
 10
304.61212700142818
 20
-283.77941562588092
 30
0.0
 70
    32
  0
VERTEX
  5
518
  8
DATA
  6
CONTINUOUS
 62
     7
 10
304.61212700142818
 20
-283.78341562588088
 30
0.0
 70
    32
  0
VERTEX
  5
519
  8
DATA
  6
CONTINUOUS
 62
     7
 10
304.61212700142818
 20
-283.78841562588087
 30
0.0
 70
    32
  0
VERTEX
  5
51A
  8
DATA
  6
CONTINUOUS
 62
     7
 10
304.61212700142818
 20
-283.79341562588093
 30
0.0
 70
    32
  0
VERTEX
  5
51B
  8
DATA
  6
CONTINUOUS
 62
     7
 10
304.61212700142818
 20
-283.79841562588092
 30
0.0
 70
    32
  0
VERTEX
  5
51C
  8
DATA
  6
CONTINUOUS
 62
     7
 10
304.61212700142818
 20
-283.80241562588088
 30
0.0
 70
    32
  0
VERTEX
  5
51D
  8
DATA
  6
CONTINUOUS
 62
     7
 10
304.61212700142818
 20
-283.80741562588088
 30
0.0
 70
    32
  0
VERTEX
  5
51E
  8
DATA
  6
CONTINUOUS
 62
     7
 10
304.61212700142818
 20
-283.8114156258809
 30
0.0
 70
    32
  0
VERTEX
  5
51F
  8
DATA
  6
CONTINUOUS
 62
     7
 10
304.61212700142818
 20
-283.81641562588089
 30
0.0
 70
    32
  0
VERTEX
  5
520
  8
DATA
  6
CONTINUOUS
 62
     7
 10
304.61212700142818
 20
-283.82041562588091
 30
0.0
 70
    32
  0
VERTEX
  5
521
  8
DATA
  6
CONTINUOUS
 62
     7
 10
304.61212700142818
 20
-283.82441562588087
 30
0.0
 70
    32
  0
VERTEX
  5
522
  8
DATA
  6
CONTINUOUS
 62
     7
 10
304.61212700142818
 20
-283.82841562588089
 30
0.0
 70
    32
  0
VERTEX
  5
523
  8
DATA
  6
CONTINUOUS
 62
     7
 10
304.61212700142818
 20
-283.83341562588089
 30
0.0
 70
    32
  0
VERTEX
  5
524
  8
DATA
  6
CONTINUOUS
 62
     7
 10
304.61212700142818
 20
-283.83741562588091
 30
0.0
 70
    32
  0
VERTEX
  5
525
  8
DATA
  6
CONTINUOUS
 62
     7
 10
304.61212700142818
 20
-283.84141562588093
 30
0.0
 70
    32
  0
VERTEX
  5
526
  8
DATA
  6
CONTINUOUS
 62
     7
 10
304.61212700142818
 20
-283.84541562588089
 30
0.0
 70
    32
  0
VERTEX
  5
527
  8
DATA
  6
CONTINUOUS
 62
     7
 10
304.61212700142818
 20
-283.85041562588088
 30
0.0
 70
    32
  0
SEQEND
  5
528
  8
DATA
  6
CONTINUOUS
 62
     7
  0
LINE
  5
529
  8
DATA
  6
CONTINUOUS
 62
     7
 10
309.61228027275962
 20
-277.85000884499271
 30
0.0
 11
309.61228027275962
 21
-274.34999430145928
 31
0.0
  0
LINE
  5
52A
  8
DATA
  6
CONTINUOUS
 62
     7
 10
332.41227879456341
 20
-277.85000884499271
 30
0.0
 11
332.41227879456341
 21
-270.8500095602484
 31
0.0
  0
LINE
  5
52B
  8
DATA
  6
CONTINUOUS
 62
     7
 10
340.66786895200312
 20
-572.99999999999761
 30
0.0
 11
319.09584390814138
 21
-572.99999999999784
 31
0.0
  0
LINE
  5
52C
  8
DATA
  6
CONTINUOUS
 62
     7
 10
340.66786895201312
 20
-584.99999999999875
 30
0.0
 11
315.17365753653479
 21
-584.99999999999886
 31
0.0
  0
LINE
  5
52D
  8
DATA
  6
CONTINUOUS
 62
     7
 10
315.17365753653479
 20
-599.99999999999875
 30
0.0
 11
340.66786895199311
 21
-599.99999999999875
 31
0.0
  0
LINE
  5
52E
  8
DATA
  6
CONTINUOUS
 62
     7
 10
319.09584390814138
 20
-572.99999999999784
 30
0.0
 11
304.03157280724548
 21
-572.99999999999875
 31
0.0
  0
LINE
  5
52F
  8
DATA
  6
CONTINUOUS
 62
     7
 10
315.17365753653479
 20
-584.99999999999886
 30
0.0
 11
300.0
 21
-584.99999999999977
 31
0.0
  0
LINE
  5
530
  8
DATA
  6
CONTINUOUS
 62
     7
 10
300.0
 20
-600.0
 30
0.0
 11
315.17365753653479
 21
-599.99999999999875
 31
0.0
  0
LINE
  5
531
  8
DATA
  6
CONTINUOUS
 62
     7
 10
304.03157280724548
 20
-572.99999999999875
 30
0.0
 11
304.03157280724548
 21
-583.49999999999829
 31
0.0
  0
LINE
  5
532
  8
DATA
  6
CONTINUOUS
 62
     7
 10
304.03157280724548
 20
-583.49999999999829
 30
0.0
 11
304.00000000000182
 21
-583.49999999999829
 31
0.0
  0
LINE
  5
533
  8
DATA
  6
CONTINUOUS
 62
     7
 10
304.00000000000182
 20
-583.49999999999829
 30
0.0
 11
303.99999632767498
 21
-585.00000023808195
 31
0.0
  0
LINE
  5
534
  8
DATA
  6
CONTINUOUS
 62
     7
 10
300.0
 20
-584.99999999999977
 30
0.0
 11
300.0
 21
-600.0
 31
0.0
  0
LINE
  5
535
  8
DATA
  6
CONTINUOUS
 62
     7
 10
319.0958560936815
 20
-585.00000023808082
 30
0.0
 11
319.09584390814138
 21
-572.99999999999784
 31
0.0
  0
LINE
  5
536
  8
DATA
  6
CONTINUOUS
 62
     7
 10
315.17365753653479
 20
-584.99999999999886
 30
0.0
 11
315.17365753653479
 21
-599.99999999999875
 31
0.0
  0
CIRCLE
  5
537
  8
DATA
  6
CONTINUOUS
 62
     7
 10
370.91227564677507
 20
-563.99999999999966
 30
0.0
 40
4.0
  0
LINE
  5
538
  8
DATA
  6
CONTINUOUS
 62
     7
 10
341.91227569512108
 20
-573.00000572170813
 30
0.0
 11
341.91227569512108
 21
-585.0000002380807
 31
0.0
  0
LINE
  5
539
  8
DATA
  6
CONTINUOUS
 62
     7
 10
341.91227569512108
 20
-573.00000572170813
 30
0.0
 11
340.66786895200312
 21
-572.99999999999761
 31
0.0
  0
LINE
  5
53A
  8
DATA
  6
CONTINUOUS
 62
     7
 10
340.66786895201312
 20
-584.99999999999875
 30
0.0
 11
340.66786895200312
 21
-572.99999999999761
 31
0.0
  0
LINE
  5
53B
  8
DATA
  6
CONTINUOUS
 62
     7
 10
340.66786895201312
 20
-584.99999999999875
 30
0.0
 11
340.66786895199311
 21
-599.99999999999875
 31
0.0
  0
LINE
  5
53C
  8
DATA
  6
CONTINUOUS
 62
     7
 10
332.41227879456341
 20
-282.85000407662091
 30
0.0
 11
339.41227564677507
 21
-282.8500000000007
 31
0.0
  0
LINE
  5
53D
  8
DATA
  6
CONTINUOUS
 62
     7
 10
332.41227879456341
 20
-277.85000884499271
 30
0.0
 11
309.61228027275962
 21
-277.85000884499271
 31
0.0
  0
LINE
  5
53E
  8
DATA
  6
CONTINUOUS
 62
     7
 10
332.41227879456341
 20
-284.85000812973692
 30
0.0
 11
309.61228027275962
 21
-284.85000812973692
 31
0.0
  0
LINE
  5
53F
  8
DATA
  6
CONTINUOUS
 62
     7
 10
309.61228027275962
 20
-281.3499935862036
 30
0.0
 11
309.61228027275962
 21
-277.85000884499271
 31
0.0
  0
LINE
  5
540
  8
DATA
  6
CONTINUOUS
 62
     7
 10
309.61228027275962
 20
-284.85000812973692
 30
0.0
 11
309.61228027275962
 21
-281.3499935862036
 31
0.0
  0
LINE
  5
541
  8
DATA
  6
CONTINUOUS
 62
     7
 10
305.61227564677478
 20
-284.8500000000007
 30
0.0
 11
309.61228027275962
 21
-284.85000812973692
 31
0.0
  0
ARC
  5
542
  8
DATA
  6
CONTINUOUS
 62
     7
 10
305.61227564677478
 20
-283.8500000000007
 30
0.0
 40
1.0
 50
180.00000000002601
 51
270.0
  0
LINE
  5
543
  8
DATA
  6
CONTINUOUS
 62
     7
 10
332.41227879456341
 20
-284.85000812973692
 30
0.0
 11
332.41227879456341
 21
-277.85000884499271
 31
0.0
  0
CIRCLE
  5
544
  8
DATA
  6
CONTINUOUS
 62
     7
 10
370.91227564677507
 20
-284.99999999999852
 30
0.0
 40
4.0
  0
LINE
  5
545
  8
DATA
  6
CONTINUOUS
 62
     7
 10
339.41227807930858
 20
-280.85000002350517
 30
0.0
 11
341.91227569512279
 21
-280.85000002350517
 31
0.0
  0
LINE
  5
546
  8
DATA
  6
CONTINUOUS
 62
     7
 10
339.41227564677507
 20
-272.8500000000007
 30
0.0
 11
332.41227879456341
 21
-272.85001361336418
 31
0.0
  0
LINE
  5
547
  8
DATA
  6
CONTINUOUS
 62
     7
 10
332.41227879456341
 20
-270.8500095602484
 30
0.0
 11
309.61228027275962
 21
-270.8500095602484
 31
0.0
  0
LINE
  5
548
  8
DATA
  6
CONTINUOUS
 62
     7
 10
309.61228027275962
 20
-274.34999430145928
 30
0.0
 11
309.61228027275962
 21
-270.8500095602484
 31
0.0
  0
LINE
  5
549
  8
DATA
  6
CONTINUOUS
 62
     7
 10
309.61228027275962
 20
-270.8500095602484
 30
0.0
 11
305.61227564677478
 21
-270.85000000000042
 31
0.0
  0
ARC
  5
54A
  8
DATA
  6
CONTINUOUS
 62
     7
 10
305.61227564677478
 20
-271.85000000000019
 30
0.0
 40
1.0
 50
90.0
 51
180.00000000002601
  0
LINE
  5
54B
  8
DATA
  6
CONTINUOUS
 62
     7
 10
341.91227569512279
 20
-274.8499878641577
 30
0.0
 11
339.41227807930858
 21
-274.8499878641577
 31
0.0
  0
LINE
  5
54C
  8
DATA
  6
CONTINUOUS
 62
     7
 10
323.39177905602901
 20
3.0000000000003122
 30
0.0
 11
341.91227569512108
 21
2.9999843839204061
 31
0.0
  0
LINE
  5
54D
  8
DATA
  6
CONTINUOUS
 62
     7
 10
340.66786895199311
 20
30.000000000001229
 30
0.0
 11
315.17365753653479
 21
30.000000000001229
 31
0.0
  0
LINE
  5
54E
  8
DATA
  6
CONTINUOUS
 62
     7
 10
315.17365753653479
 20
15.00000000000122
 30
0.0
 11
340.66786895201312
 21
15.000000000001499
 31
0.0
  0
LINE
  5
54F
  8
DATA
  6
CONTINUOUS
 62
     7
 10
312.51243367127148
 20
15.000008702615419
 30
0.0
 11
312.51244516010411
 21
3.0000000000003122
 31
0.0
  0
LINE
  5
550
  8
DATA
  6
CONTINUOUS
 62
     7
 10
323.39177905602901
 20
3.0000000000003122
 30
0.0
 11
323.39177145890062
 21
15.000008702615419
 31
0.0
  0
LINE
  5
551
  8
DATA
  6
CONTINUOUS
 62
     7
 10
303.99999632767498
 20
15.00000870261451
 30
0.0
 11
304.00000000000182
 21
2.9999999999994031
 31
0.0
  0
LINE
  5
552
  8
DATA
  6
CONTINUOUS
 62
     7
 10
312.51244516010411
 20
3.0000000000003122
 30
0.0
 11
323.39177905602901
 21
3.0000000000003122
 31
0.0
  0
LINE
  5
553
  8
DATA
  6
CONTINUOUS
 62
     7
 10
304.00000000000182
 20
2.9999999999994031
 30
0.0
 11
312.51244516010411
 21
3.0000000000003122
 31
0.0
  0
LINE
  5
554
  8
DATA
  6
CONTINUOUS
 62
     7
 10
315.17365753653479
 20
30.000000000001229
 30
0.0
 11
300.00000000000182
 21
30.000000000000089
 31
0.0
  0
LINE
  5
555
  8
DATA
  6
CONTINUOUS
 62
     7
 10
300.00000000000182
 20
15.00000000000011
 30
0.0
 11
315.17365753653479
 21
15.00000000000122
 31
0.0
  0
LINE
  5
556
  8
DATA
  6
CONTINUOUS
 62
     7
 10
300.00000000000182
 20
30.000000000000089
 30
0.0
 11
300.00000000000182
 21
15.00000000000011
 31
0.0
  0
LINE
  5
557
  8
DATA
  6
CONTINUOUS
 62
     7
 10
315.17365753653479
 20
15.00000000000122
 30
0.0
 11
315.17365753653479
 21
30.000000000001229
 31
0.0
  0
CIRCLE
  5
558
  8
DATA
  6
CONTINUOUS
 62
     7
 10
370.91227564677507
 20
-5.9999999999978959
 30
0.0
 40
4.0
  0
LINE
  5
559
  8
DATA
  6
CONTINUOUS
 62
     7
 10
340.66786895201312
 20
15.000000000001499
 30
0.0
 11
340.66786895199311
 21
30.000000000001229
 31
0.0
  0
LINE
  5
55A
  8
DATA
  6
CONTINUOUS
 62
     7
 10
480.6088121168977
 20
-585.0000002380807
 30
0.0
 11
480.6088121168977
 21
15.000008702615901
 31
0.0
  0
LINE
  5
55B
  8
DATA
  6
CONTINUOUS
 62
     7
 10
604.97322001763121
 20
2.9999999999994031
 30
0.0
 11
604.97322001763121
 21
-572.9999999999992
 31
0.0
  0
LINE
  5
55C
  8
DATA
  6
CONTINUOUS
 62
     7
 10
604.9732198499803
 20
-585.00000023808195
 30
0.0
 11
604.9732198499803
 21
15.00000870261451
 31
0.0
  0
LINE
  5
55D
  8
DATA
  6
CONTINUOUS
 62
     7
 10
480.6088121168977
 20
15.000008702615901
 30
0.0
 11
480.6088121168977
 21
-585.0000002380807
 31
0.0
  0
LINE
  5
55E
  8
DATA
  6
CONTINUOUS
 62
     7
 10
480.6088121168977
 20
-585.0000002380807
 30
0.0
 11
604.9732198499803
 21
-585.00000023808195
 31
0.0
  0
LINE
  5
55F
  8
DATA
  6
CONTINUOUS
 62
     7
 10
480.6088121168977
 20
-585.0000002380807
 30
0.0
 11
604.9732198499803
 21
-585.00000023808195
 31
0.0
  0
LINE
  5
560
  8
DATA
  6
CONTINUOUS
 62
     7
 10
480.6088121168977
 20
-600.00000083412715
 30
0.0
 11
604.97322001759755
 21
-600.0
 31
0.0
  0
LINE
  5
561
  8
DATA
  6
CONTINUOUS
 62
     7
 10
480.6088121168977
 20
-600.00000083412715
 30
0.0
 11
480.6088121168977
 21
-585.0000002380807
 31
0.0
  0
CIRCLE
  5
562
  8
DATA
  6
CONTINUOUS
 62
     7
 10
454.91227564677678
 20
-284.99999999999852
 30
0.0
 40
3.500000000003638
  0
CIRCLE
  5
563
  8
DATA
  6
CONTINUOUS
 62
     7
 10
454.91227564677678
 20
-284.99999999999852
 30
0.0
 40
6.4999999999781721
  0
LINE
  5
564
  8
DATA
  6
CONTINUOUS
 62
     7
 10
454.5804621212846
 20
-281.51575410332322
 30
0.0
 11
454.5804621212846
 21
-288.48422253098141
 31
0.0
  0
LINE
  5
565
  8
DATA
  6
CONTINUOUS
 62
     7
 10
454.5804621212846
 20
-288.48422253098141
 30
0.0
 11
454.5804621212846
 21
-281.51575410332322
 31
0.0
  0
LINE
  5
566
  8
DATA
  6
CONTINUOUS
 62
     7
 10
604.97322001759755
 20
-600.0
 30
0.0
 11
620.0
 21
-600.00000000000034
 31
0.0
  0
LINE
  5
567
  8
DATA
  6
CONTINUOUS
 62
     7
 10
620.0
 20
-572.99999999999943
 30
0.0
 11
604.97322001763121
 21
-572.9999999999992
 31
0.0
  0
LINE
  5
568
  8
DATA
  6
CONTINUOUS
 62
     7
 10
604.97322001763121
 20
-572.9999999999992
 30
0.0
 11
604.9732198499803
 21
-585.00000023808195
 31
0.0
  0
LINE
  5
569
  8
DATA
  6
CONTINUOUS
 62
     7
 10
604.9732198499803
 20
-585.00000023808195
 30
0.0
 11
604.97322001759755
 21
-600.0
 31
0.0
  0
LINE
  5
56A
  8
DATA
  6
CONTINUOUS
 62
     7
 10
620.0
 20
-600.00000000000034
 30
0.0
 11
620.0
 21
-572.99999999999943
 31
0.0
  0
LINE
  5
56B
  8
DATA
  6
CONTINUOUS
 62
     7
 10
604.9732198499803
 20
15.00000870261451
 30
0.0
 11
480.6088121168977
 21
15.000008702615901
 31
0.0
  0
LINE
  5
56C
  8
DATA
  6
CONTINUOUS
 62
     7
 10
604.97322001760574
 20
30.000000000000089
 30
0.0
 11
480.6088121168977
 21
29.99999439750118
 31
0.0
  0
LINE
  5
56D
  8
DATA
  6
CONTINUOUS
 62
     7
 10
604.9732198499803
 20
15.00000870261451
 30
0.0
 11
480.6088121168977
 21
15.000008702615901
 31
0.0
  0
LINE
  5
56E
  8
DATA
  6
CONTINUOUS
 62
     7
 10
480.6088121168977
 20
15.000008702615901
 30
0.0
 11
480.6088121168977
 21
29.99999439750118
 31
0.0
  0
LINE
  5
56F
  8
DATA
  6
CONTINUOUS
 62
     7
 10
604.9732198499803
 20
15.00000870261451
 30
0.0
 11
604.97322001763121
 21
2.9999999999994031
 31
0.0
  0
LINE
  5
570
  8
DATA
  6
CONTINUOUS
 62
     7
 10
620.0
 20
2.9999999999992042
 30
0.0
 11
620.0
 21
29.999999999999918
 31
0.0
  0
LINE
  5
571
  8
DATA
  6
CONTINUOUS
 62
     7
 10
604.97322001763121
 20
2.9999999999994031
 30
0.0
 11
620.0
 21
2.9999999999992042
 31
0.0
  0
LINE
  5
572
  8
DATA
  6
CONTINUOUS
 62
     7
 10
620.0
 20
29.999999999999918
 30
0.0
 11
604.97322001760574
 21
30.000000000000089
 31
0.0
  0
LINE
  5
573
  8
DATA
  6
CONTINUOUS
 62
     7
 10
604.97322001760574
 20
30.000000000000089
 30
0.0
 11
604.9732198499803
 21
15.00000870261451
 31
0.0
  0
ARC
  5
574
  8
DATA
  6
CONTINUOUS
 62
     7
 10
-43.465162896371993
 20
-125.4669440955517
 30
0.0
 40
132.4503037134223
 50
104.0873851490409
 51
75.912614850970101
  0
ARC
  5
575
  8
DATA
  6
CONTINUOUS
 62
     7
 10
-43.465162896371972
 20
-125.4669440956755
 30
0.0
 40
137.3295107023809
 50
110.69660860946411
 51
69.303391390535609
  0
LINE
  5
576
  8
DATA
  6
CONTINUOUS
 62
     7
 10
-132.9564099679765
 20
-325.98741413072918
 30
0.0
 11
-133.83378413095031
 21
-325.36240994676331
 31
0.0
  0
LINE
  5
577
  8
DATA
  6
CONTINUOUS
 62
     7
 10
-128.6125858315626
 20
-321.6435904493095
 30
0.0
 11
-129.23759005323791
 21
-320.7662158690498
 31
0.0
  0
LINE
  5
578
  8
DATA
  6
CONTINUOUS
 62
     7
 10
300.0
 20
-584.99999999999977
 30
0.0
 11
300.00000000000182
 21
15.00000000000011
 31
0.0
  0
LINE
  5
579
  8
DATA
  6
CONTINUOUS
 62
     7
 10
-580.0
 20
15.000000000000449
 30
0.0
 11
-580.0
 21
-584.99999999999955
 31
0.0
  0
TEXT
  5
57A
  8
DATA
 62
     7
 10
344.32489881697518
 20
-1229.8700541538119
 30
0.0
 40
40.721028645833343
  1
寸法図はG712-96-R(右側仕様）
 41
0.7
 11
344.32489881697518
 21
-1189.149025507978
 31
0.0
 73
     3
  0
LINE
  5
57B
  8
DATA
  6
CONTINUOUS
 62
     7
 10
300.0
 20
-1250.0
 30
0.0
 11
1100.0
 21
-1250.0
 31
0.0
  0
ENDSEC
  0
EOF
