  0
SECTION
  2
HEADER
  9
$ACADVER
  1
AC1009
  9
$INSBASE
 10
0.0
 20
0.0
 30
0.0
  9
$EXTMIN
 10
-1250.0823911746049
 20
-1874.553312064382
 30
-0.0015258207003583
  9
$EXTMAX
 10
1450.0824037474611
 20
2139.5933335614391
 30
0.0000000349246037
  9
$LIMMIN
 10
0.0
 20
0.0
  9
$LIMMAX
 10
0.0
 20
0.0
  9
$ORTHOMODE
 70
     0
  9
$REGENMODE
 70
     1
  9
$FILLMODE
 70
     1
  9
$QTEXTMODE
 70
     0
  9
$MIRRTEXT
 70
     1
  9
$DRAGMODE
 70
     2
  9
$LTSCALE
 40
76.200000000000003
  9
$OSMODE
 70
   231
  9
$ATTMODE
 70
     1
  9
$TEXTSIZE
 40
0.0
  9
$TRACEWID
 40
1.0
  9
$TEXTSTYLE
  7
STANDARD
  9
$CLAYER
  8
DATA
  9
$CELTYPE
  6
BYLAYER
  9
$CECOLOR
 62
   256
  9
$DIMSCALE
 40
1.0
  9
$DIMASZ
 40
0.18
  9
$DIMEXO
 40
0.0625
  9
$DIMDLI
 40
0.38
  9
$DIMRND
 40
0.0
  9
$DIMDLE
 40
0.0
  9
$DIMEXE
 40
0.18
  9
$DIMTP
 40
0.0
  9
$DIMTM
 40
0.0
  9
$DIMTXT
 40
0.18
  9
$DIMCEN
 40
0.09
  9
$DIMTSZ
 40
0.0
  9
$DIMTOL
 70
     0
  9
$DIMLIM
 70
     0
  9
$DIMTIH
 70
     1
  9
$DIMTOH
 70
     1
  9
$DIMSE1
 70
     0
  9
$DIMSE2
 70
     0
  9
$DIMTAD
 70
     0
  9
$DIMZIN
 70
     0
  9
$DIMBLK
  1

  9
$DIMASO
 70
     1
  9
$DIMSHO
 70
     1
  9
$DIMPOST
  1

  9
$DIMAPOST
  1

  9
$DIMALT
 70
     0
  9
$DIMALTD
 70
     2
  9
$DIMALTF
 40
25.399999999999999
  9
$DIMLFAC
 40
1.0
  9
$DIMTOFL
 70
     0
  9
$DIMTVP
 40
0.0
  9
$DIMTIX
 70
     0
  9
$DIMSOXD
 70
     0
  9
$DIMSAH
 70
     0
  9
$DIMBLK1
  1

  9
$DIMBLK2
  1

  9
$DIMSTYLE
  2
STANDARD
  9
$DIMCLRD
 70
     0
  9
$DIMCLRE
 70
     0
  9
$DIMCLRT
 70
     0
  9
$DIMTFAC
 40
1.0
  9
$DIMGAP
 40
0.09
  9
$LUNITS
 70
     2
  9
$LUPREC
 70
     4
  9
$SKETCHINC
 40
0.1
  9
$FILLETRAD
 40
0.0
  9
$AUNITS
 70
     0
  9
$AUPREC
 70
     0
  9
$MENU
  1
acad
  9
$ELEVATION
 40
0.0
  9
$PELEVATION
 40
0.0
  9
$THICKNESS
 40
0.0
  9
$LIMCHECK
 70
     0
  9
$BLIPMODE
 70
     0
  9
$CHAMFERA
 40
0.0
  9
$CHAMFERB
 40
0.0
  9
$SKPOLY
 70
     0
  9
$TDCREATE
 40
2456114.6368634258
  9
$TDUPDATE
 40
2456114.637962616
  9
$TDINDWG
 40
0.0003553819
  9
$TDUSRTIMER
 40
0.0003551968
  9
$USRTIMER
 70
     1
  9
$ANGBASE
 50
0.0
  9
$ANGDIR
 70
     0
  9
$PDMODE
 70
     1
  9
$PDSIZE
 40
-2.0
  9
$PLINEWID
 40
0.0
  9
$COORDS
 70
     2
  9
$SPLFRAME
 70
     0
  9
$SPLINETYPE
 70
     6
  9
$SPLINESEGS
 70
     8
  9
$ATTDIA
 70
     0
  9
$ATTREQ
 70
     1
  9
$HANDLING
 70
     1
  9
$HANDSEED
  5
404
  9
$SURFTAB1
 70
     6
  9
$SURFTAB2
 70
     6
  9
$SURFTYPE
 70
     6
  9
$SURFU
 70
     6
  9
$SURFV
 70
     6
  9
$UCSNAME
  2

  9
$UCSORG
 10
0.0
 20
0.0
 30
0.0
  9
$UCSXDIR
 10
1.0
 20
0.0
 30
0.0
  9
$UCSYDIR
 10
0.0
 20
1.0
 30
0.0
  9
$PUCSNAME
  2

  9
$PUCSORG
 10
0.0
 20
0.0
 30
0.0
  9
$PUCSXDIR
 10
1.0
 20
0.0
 30
0.0
  9
$PUCSYDIR
 10
0.0
 20
1.0
 30
0.0
  9
$USERI1
 70
     0
  9
$USERI2
 70
     0
  9
$USERI3
 70
     0
  9
$USERI4
 70
     0
  9
$USERI5
 70
     0
  9
$USERR1
 40
0.0
  9
$USERR2
 40
0.0
  9
$USERR3
 40
0.0
  9
$USERR4
 40
0.0
  9
$USERR5
 40
0.0
  9
$WORLDVIEW
 70
     1
  9
$SHADEDGE
 70
     3
  9
$SHADEDIF
 70
    70
  9
$TILEMODE
 70
     1
  9
$MAXACTVP
 70
    64
  9
$PLIMCHECK
 70
     0
  9
$PEXTMIN
 10
1.0000000000000000E+020
 20
1.0000000000000000E+020
 30
1.0000000000000000E+020
  9
$PEXTMAX
 10
-1.0000000000000000E+020
 20
-1.0000000000000000E+020
 30
-1.0000000000000000E+020
  9
$PLIMMIN
 10
0.0
 20
0.0
  9
$PLIMMAX
 10
12.0
 20
9.0
  9
$UNITMODE
 70
     0
  9
$VISRETAIN
 70
     0
  9
$PLINEGEN
 70
     1
  9
$PSLTSCALE
 70
     0
  0
ENDSEC
  0
SECTION
  2
TABLES
  0
TABLE
  2
VPORT
 70
     1
  0
VPORT
  2
*ACTIVE
 70
     0
 10
0.0
 20
0.0
 11
1.0
 21
1.0
 12
100.0000062864278
 22
136.46636143234969
 13
0.0
 23
0.0
 14
1.0
 24
1.0
 15
0.0
 25
0.0
 16
0.0
 26
0.0
 36
1.0
 17
0.0
 27
0.0
 37
0.0
 40
4037.3906329441229
 41
2.172503242542152
 42
50.0
 43
0.0
 44
0.0
 50
0.0
 51
0.0
 71
     0
 72
  2000
 73
     1
 74
     1
 75
     0
 76
     0
 77
     0
 78
     0
  0
ENDTAB
  0
TABLE
  2
LTYPE
 70
    12
  0
LTYPE
  2
CONTINUOUS
 70
     0
  3
Solid line
 72
    65
 73
     0
 40
0.0
  0
LTYPE
  2
PHANTOM2
 70
     0
  3
___ _ _ ___ _ _ ___ _ _ ___ _ _
 72
    65
 73
     6
 40
1.25
 49
0.625
 49
-0.125
 49
0.125
 49
-0.125
 49
0.125
 49
-0.125
  0
LTYPE
  2
STYLE_01
 70
     0
  3

 72
    65
 73
     2
 40
0.4166412353515625
 49
0.208282470703125
 49
-0.2083587646484375
  0
ENDTAB
  0
TABLE
  2
LAYER
 70
     5
  0
LAYER
  2
0
 70
     0
 62
     7
  6
CONTINUOUS
  0
LAYER
  2
DATA
 70
     0
 62
     7
  6
CONTINUOUS
  0
LAYER
  2
HIBINO-BASE
 70
     0
 62
     7
  6
CONTINUOUS
  0
LAYER
  2
SPEC
 70
     0
 62
     7
  6
CONTINUOUS
  0
LAYER
  2
DIMNSIONS
 70
     0
 62
     7
  6
CONTINUOUS
  0
ENDTAB
  0
TABLE
  2
STYLE
 70
     3
  0
STYLE
  2
STANDARD
 70
     0
 40
0.0
 41
1.0
 50
0.0
 71
     0
 42
0.0
  3
txt
  4
BIGFONT.SHX
  0
ENDTAB
  0
TABLE
  2
VIEW
 70
     0
  0
ENDTAB
  0
TABLE
  2
UCS
 70
     0
  0
ENDTAB
  0
TABLE
  2
APPID
 70
     4
  0
APPID
  2
ACAD
 70
     0
  0
APPID
  2
ACADANNOTATIVE
 70
     0
  0
APPID
  2
ACAD_NAV_VCDISPLAY
 70
     0
  0
APPID
  2
ACAD_MLEADERVER
 70
     0
  0
ENDTAB
  0
TABLE
  2
DIMSTYLE
 70
     2
  0
DIMSTYLE
  2
STANDARD
 70
     0
  3

  4

  5

  6

  7

 40
1.0
 41
0.18
 42
0.0625
 43
0.38
 44
0.18
 45
0.0
 46
0.0
 47
0.0
 48
0.0
140
0.18
141
0.09
142
0.0
143
25.399999999999999
144
1.0
145
0.0
146
1.0
147
0.09
 71
     0
 72
     0
 73
     1
 74
     1
 75
     0
 76
     0
 77
     0
 78
     0
170
     0
171
     2
172
     0
173
     0
174
     0
175
     0
176
     0
177
     0
178
     0
  0
ENDTAB
  0
ENDSEC
  0
SECTION
  2
BLOCKS
  0
BLOCK
  8
0
  2
$MODEL_SPACE
 70
     0
 10
0.0
 20
0.0
 30
0.0
  3
$MODEL_SPACE
  1

  0
ENDBLK
  5
2A3
  8
0
  0
BLOCK
 67
     1
  8
0
  2
$PAPER_SPACE
 70
     0
 10
0.0
 20
0.0
 30
0.0
  3
$PAPER_SPACE
  1

  0
ENDBLK
  5
29F
 67
     1
  8
0
  0
ENDSEC
  0
SECTION
  2
ENTITIES
  0
LINE
  5
2C
  8
HIBINO-BASE
  6
CONTINUOUS
 62
     7
 10
-1250.0
 20
2139.4710705281232
 30
0.0
 11
1450.0
 21
2139.4710705281232
 31
0.0
  0
LINE
  5
2D
  8
HIBINO-BASE
  6
CONTINUOUS
 62
     7
 10
1450.0
 20
-1760.5289294718771
 30
0.0
 11
-1250.0
 21
-1760.5289294718771
 31
0.0
  0
LINE
  5
2E
  8
HIBINO-BASE
  6
CONTINUOUS
 62
     7
 10
-1250.0
 20
-1760.5289294718771
 30
0.0
 11
-1250.0
 21
2139.4710705281232
 31
0.0
  0
LINE
  5
2F
  8
HIBINO-BASE
  6
CONTINUOUS
 62
     7
 10
1450.0
 20
2139.4710705281232
 30
0.0
 11
1450.0
 21
-1760.5289294718771
 31
0.0
  0
LINE
  5
30
  8
HIBINO-BASE
  6
CONTINUOUS
 62
     7
 10
100.0
 20
-1423.0289294718771
 30
0.0
 11
1450.0
 21
-1423.0289294718771
 31
0.0
  0
LINE
  5
31
  8
HIBINO-BASE
  6
CONTINUOUS
 62
     7
 10
100.0
 20
-1760.5289294718771
 30
0.0
 11
100.0
 21
-1423.0289294718771
 31
0.0
  0
TEXT
  5
32
  8
HIBINO-BASE
 62
     7
 10
113.5
 20
-1460.6593294718771
 30
0.0
 40
24.4326171875
  1
NOTE
 41
0.7
 11
113.5
 21
-1436.2267122843771
 31
0.0
 73
     3
1001
ACADANNOTATIVE
1000
AnnotativeData
1002
{
1070
     1
1070
     0
1002
}
  0
LINE
  5
33
  8
HIBINO-BASE
  6
CONTINUOUS
 62
     7
 10
625.0
 20
-1760.5289294718771
 30
0.0
 11
625.0
 21
-1423.0289294718771
 31
0.0
  0
TEXT
  5
34
  8
HIBINO-BASE
 62
     7
 10
638.49999999999989
 20
-1460.6593294718771
 30
0.0
 40
24.4326171875
  1
TITLE
 41
0.7
 11
638.49999999999989
 21
-1436.2267122843771
 31
0.0
 73
     3
1001
ACADANNOTATIVE
1000
AnnotativeData
1002
{
1070
     1
1070
     0
1002
}
  0
LINE
  5
35
  8
HIBINO-BASE
  6
CONTINUOUS
 62
     7
 10
100.0
 20
-1610.5289294718771
 30
0.0
 11
1450.0
 21
-1610.5289294718771
 31
0.0
  0
TEXT
  5
36
  8
HIBINO-BASE
 62
     7
 10
826.0
 20
-1647.314529471877
 30
0.0
 40
24.4326171875
  1
DRAWN
 41
0.7
 11
826.0
 21
-1622.881912284377
 31
0.0
 73
     3
1001
ACADANNOTATIVE
1000
AnnotativeData
1002
{
1070
     1
1070
     0
1002
}
  0
TEXT
  5
37
  8
HIBINO-BASE
 62
     7
 10
451.0
 20
-1647.314529471877
 30
0.0
 40
24.4326171875
  1
DATE
 41
0.7
 11
451.0
 21
-1622.881912284377
 31
0.0
 73
     3
1001
ACADANNOTATIVE
1000
AnnotativeData
1002
{
1070
     1
1070
     0
1002
}
  0
TEXT
  5
38
  8
HIBINO-BASE
 62
     7
 10
300.99999999999989
 20
-1647.314529471877
 30
0.0
 40
24.4326171875
  1
SCALE
 41
0.7
 11
300.99999999999989
 21
-1622.881912284377
 31
0.0
 73
     3
1001
ACADANNOTATIVE
1000
AnnotativeData
1002
{
1070
     1
1070
     0
1002
}
  0
TEXT
  5
39
  8
HIBINO-BASE
 62
     7
 10
638.49999999999989
 20
-1647.314529471877
 30
0.0
 40
24.4326171875
  1
DESIGN
 41
0.7
 11
638.49999999999989
 21
-1622.881912284377
 31
0.0
 73
     3
1001
ACADANNOTATIVE
1000
AnnotativeData
1002
{
1070
     1
1070
     0
1002
}
  0
TEXT
  5
3A
  8
HIBINO-BASE
 62
     7
 10
1201.0
 20
-1647.314529471877
 30
0.0
 40
24.4326171875
  1
DRAWING NO.
 41
0.7
 11
1201.0
 21
-1622.881912284377
 31
0.0
 73
     3
1001
ACADANNOTATIVE
1000
AnnotativeData
1002
{
1070
     1
1070
     0
1002
}
  0
TEXT
  5
3B
  8
HIBINO-BASE
 62
     7
 10
1013.5
 20
-1647.314529471877
 30
0.0
 40
24.4326171875
  1
CHECK
 41
0.7
 11
1013.5
 21
-1622.881912284377
 31
0.0
 73
     3
1001
ACADANNOTATIVE
1000
AnnotativeData
1002
{
1070
     1
1070
     0
1002
}
  0
LINE
  5
3C
  8
HIBINO-BASE
  6
CONTINUOUS
 62
     7
 10
315.625
 20
-1741.7789294718771
 30
0.0
 11
371.875
 21
-1685.5289294718771
 31
0.0
  0
TEXT
  5
3D
  8
HIBINO-BASE
 62
     7
 10
306.25
 20
-1702.1630794718769
 30
0.0
 40
24.4326171875
  1
1
 41
0.7
 11
306.25
 21
-1677.7304622843769
 31
0.0
 73
     3
1001
ACADANNOTATIVE
1000
AnnotativeData
1002
{
1070
     1
1070
     0
1002
}
  0
LINE
  5
3E
  8
HIBINO-BASE
  6
CONTINUOUS
 62
     7
 10
287.5
 20
-1760.5289294718771
 30
0.0
 11
287.5
 21
-1610.5289294718771
 31
0.0
  0
LINE
  5
3F
  8
HIBINO-BASE
  6
CONTINUOUS
 62
     7
 10
437.5
 20
-1760.5289294718771
 30
0.0
 11
437.5
 21
-1610.5289294718771
 31
0.0
  0
LINE
  5
40
  8
HIBINO-BASE
  6
CONTINUOUS
 62
     7
 10
812.5
 20
-1610.5289294718771
 30
0.0
 11
812.5
 21
-1760.5289294718771
 31
0.0
  0
LINE
  5
41
  8
HIBINO-BASE
  6
CONTINUOUS
 62
     7
 10
1187.5
 20
-1610.5289294718771
 30
0.0
 11
1187.5
 21
-1760.5289294718771
 31
0.0
  0
LINE
  5
42
  8
HIBINO-BASE
  6
CONTINUOUS
 62
     7
 10
1000.0
 20
-1760.5289294718771
 30
0.0
 11
1000.0
 21
-1610.5289294718771
 31
0.0
  0
TEXT
  5
43
  8
HIBINO-BASE
 62
     7
 10
450.34809999999987
 20
-1717.5742294718771
 30
0.0
 40
24.4326171875
  1
'12.04.
 41
0.7
 11
450.34809999999987
 21
-1693.1416122843771
 31
0.0
 73
     3
1001
ACADANNOTATIVE
1000
AnnotativeData
1002
{
1070
     1
1070
     0
1002
}
  0
TEXT
  5
44
  8
HIBINO-BASE
 62
     7
 10
362.5
 20
-1730.2880794718769
 30
0.0
 40
24.4326171875
  1
15
 41
0.7
 11
362.5
 21
-1705.8554622843769
 31
0.0
 73
     3
1001
ACADANNOTATIVE
1000
AnnotativeData
1002
{
1070
     1
1070
     0
1002
}
  0
TEXT
  5
45
  8
HIBINO-BASE
 62
     7
 10
835.08715016551946
 20
-1717.5742294718771
 30
0.0
 40
24.4326171875
  1
T.Ootake
 41
0.7
 11
835.08715016551946
 21
-1693.1416122843771
 31
0.0
 73
     3
1001
ACADANNOTATIVE
1000
AnnotativeData
1002
{
1070
     1
1070
     0
1002
}
  0
TEXT
  5
46
  8
HIBINO-BASE
 62
     7
 10
158.2500000000002
 20
-1730.888929471877
 30
0.0
 40
48.865234374999993
  1
A4
 41
0.7
 11
158.2500000000002
 21
-1682.023695096877
 31
0.0
 73
     3
1001
ACADANNOTATIVE
1000
AnnotativeData
1002
{
1070
     1
1070
     0
1002
}
  0
TEXT
  5
47
  8
HIBINO-BASE
 62
     7
 10
114.3749999999999
 20
-1649.8207544718771
 30
0.0
 40
24.4326171875
  1
PAPER SIZE
 41
0.7
 11
114.3749999999999
 21
-1625.3881372843771
 31
0.0
 73
     3
1001
ACADANNOTATIVE
1000
AnnotativeData
1002
{
1070
     1
1070
     0
1002
}
  0
TEXT
  5
48
  8
HIBINO-BASE
 62
     7
 10
-1208.605471146647
 20
-1856.9075329845209
 30
0.0
 40
52.937337239583321
  1
Hibino-Intersound Corporation
 41
0.7
 11
-1208.605471146647
 21
-1803.970195744937
 31
0.0
 73
     3
1001
ACADANNOTATIVE
1000
AnnotativeData
1002
{
1070
     1
1070
     0
1002
}
  0
TEXT
  5
49
  8
HIBINO-BASE
 62
     7
 10
402.70914520320849
 20
-1851.6412091851801
 30
0.0
 40
52.937337239583321
  1
ヒビノインターサウンド株式会社
 41
0.7
 11
402.70914520320849
 21
-1798.703871945597
 31
0.0
 73
     3
1001
ACADANNOTATIVE
1000
AnnotativeData
1002
{
1070
     1
1070
     0
1002
}
  0
LINE
  5
4A
  8
SPEC
  6
CONTINUOUS
 62
     7
 10
-1137.5
 20
1989.471070528122
 30
0.0
 11
1075.0
 21
1989.471070528122
 31
0.0
  0
LINE
  5
4B
  8
SPEC
  6
CONTINUOUS
 62
     7
 10
-1137.5
 20
1933.221070528122
 30
0.0
 11
1075.0
 21
1933.221070528122
 31
0.0
  0
LINE
  5
4C
  8
SPEC
  6
CONTINUOUS
 62
     7
 10
-1137.5
 20
1820.721070528122
 30
0.0
 11
1075.0
 21
1820.721070528122
 31
0.0
  0
LINE
  5
4D
  8
SPEC
  6
CONTINUOUS
 62
     7
 10
-649.99999999999989
 20
1876.971070528122
 30
0.0
 11
1075.0
 21
1876.971070528122
 31
0.0
  0
LINE
  5
4E
  8
SPEC
  6
CONTINUOUS
 62
     7
 10
-1137.5
 20
1989.471070528122
 30
0.0
 11
-1137.5
 21
1033.221070528122
 31
0.0
  0
TEXT
  5
4F
  8
SPEC
 62
     7
 10
-1118.75
 20
2010.3701205281229
 30
0.0
 40
36.64892578125
  1
仕様
 41
0.7
 11
-1118.75
 21
2047.0190463093729
 31
0.0
 73
     3
1001
ACADANNOTATIVE
1000
AnnotativeData
1002
{
1070
     1
1070
     0
1002
}
  0
LINE
  5
50
  8
SPEC
  6
CONTINUOUS
 62
     7
 10
-649.99999999999989
 20
1989.471070528122
 30
0.0
 11
-650.0
 21
1033.221070528122
 31
0.0
  0
LINE
  5
51
  8
SPEC
  6
CONTINUOUS
 62
     7
 10
1075.0
 20
1989.471070528122
 30
0.0
 11
1075.0
 21
1033.221070528122
 31
0.0
  0
LINE
  5
52
  8
SPEC
  6
CONTINUOUS
 62
     7
 10
-1137.5
 20
1764.471070528122
 30
0.0
 11
1075.0
 21
1764.471070528122
 31
0.0
  0
LINE
  5
53
  8
SPEC
  6
CONTINUOUS
 62
     7
 10
-1137.5
 20
1708.221070528122
 30
0.0
 11
1075.0
 21
1708.221070528122
 31
0.0
  0
LINE
  5
54
  8
SPEC
  6
CONTINUOUS
 62
     7
 10
-1137.5
 20
1651.971070528122
 30
0.0
 11
1075.0
 21
1651.971070528122
 31
0.0
  0
LINE
  5
55
  8
SPEC
  6
CONTINUOUS
 62
     7
 10
-1137.5
 20
1595.721070528122
 30
0.0
 11
1075.0
 21
1595.721070528122
 31
0.0
  0
LINE
  5
56
  8
SPEC
  6
CONTINUOUS
 62
     7
 10
-649.99999999999989
 20
1539.471070528122
 30
0.0
 11
1075.0
 21
1539.471070528122
 31
0.0
  0
LINE
  5
57
  8
SPEC
  6
CONTINUOUS
 62
     7
 10
-649.99999999999989
 20
1483.221070528122
 30
0.0
 11
1075.0
 21
1483.221070528122
 31
0.0
  0
LINE
  5
58
  8
SPEC
  6
CONTINUOUS
 62
     7
 10
-649.99999999999989
 20
1426.971070528122
 30
0.0
 11
1075.0
 21
1426.971070528122
 31
0.0
  0
LINE
  5
59
  8
SPEC
  6
CONTINUOUS
 62
     7
 10
-1137.5
 20
1370.721070528122
 30
0.0
 11
1075.0
 21
1370.721070528122
 31
0.0
  0
LINE
  5
5A
  8
SPEC
  6
CONTINUOUS
 62
     7
 10
-1137.5
 20
1314.471070528122
 30
0.0
 11
1075.0
 21
1314.471070528122
 31
0.0
  0
LINE
  5
5B
  8
SPEC
  6
CONTINUOUS
 62
     7
 10
-1137.5
 20
1258.221070528122
 30
0.0
 11
1075.0
 21
1258.221070528122
 31
0.0
  0
TEXT
  5
5C
  8
SPEC
 62
     7
 10
-1126.253402260606
 20
1216.1836688691251
 30
0.0
 40
28.504720052083329
  1
エンクロージャー
 41
0.7
 11
-1126.253402260606
 21
1244.688388921209
 31
0.0
 73
     3
1001
ACADANNOTATIVE
1000
AnnotativeData
1002
{
1070
     1
1070
     0
1002
}
  0
TEXT
  5
5D
  8
SPEC
 62
     7
 10
-636.04846723336709
 20
1101.76075684036
 30
0.0
 40
28.504720052083329
  1
348(W)\U+00D7630(H)\U+00D7320(D)mm(突起部含まず）
 41
0.7
 11
-636.04846723336709
 21
1130.2654768924431
 31
0.0
 73
     3
1001
ACADANNOTATIVE
1000
AnnotativeData
1002
{
1070
     1
1070
     0
1002
}
  0
TEXT
  5
5E
  8
SPEC
 62
     7
 10
-636.70032930733782
 20
1159.9315505649349
 30
0.0
 40
28.504720052083329
  1
黒
 41
0.7
 11
-636.70032930733782
 21
1188.436270617018
 31
0.0
 73
     3
1001
ACADANNOTATIVE
1000
AnnotativeData
1002
{
1070
     1
1070
     0
1002
}
  0
TEXT
  5
5F
  8
SPEC
 62
     7
 10
-1124.1496401700001
 20
1161.567023924465
 30
0.0
 40
28.504720052083329
  1
仕上げ
 41
0.7
 11
-1124.1496401700001
 21
1190.071743976549
 31
0.0
 73
     3
1001
ACADANNOTATIVE
1000
AnnotativeData
1002
{
1070
     1
1070
     0
1002
}
  0
TEXT
  5
60
  8
SPEC
 62
     7
 10
-1124.5739666945401
 20
1329.6013177016371
 30
0.0
 40
28.504720052083329
  1
入力コネクター
 41
0.7
 11
-1124.5739666945401
 21
1358.1060377537201
 31
0.0
 73
     3
1001
ACADANNOTATIVE
1000
AnnotativeData
1002
{
1070
     1
1070
     0
1002
}
  0
TEXT
  5
61
  8
SPEC
 62
     7
 10
-636.3898085202236
 20
1327.3574995853639
 30
0.0
 40
28.504720052083329
  1
2\U+00D7Neutrik NL4MP
 41
0.7
 11
-636.3898085202236
 21
1355.862219637447
 31
0.0
 73
     3
1001
ACADANNOTATIVE
1000
AnnotativeData
1002
{
1070
     1
1070
     0
1002
}
  0
TEXT
  5
62
  8
SPEC
 62
     7
 10
-1124.23872389091
 20
1272.3701333882741
 30
0.0
 40
28.504720052083329
  1
公称インピーダンス
 41
0.7
 11
-1124.23872389091
 21
1300.874853440358
 31
0.0
 73
     3
1001
ACADANNOTATIVE
1000
AnnotativeData
1002
{
1070
     1
1070
     0
1002
}
  0
TEXT
  5
63
  8
SPEC
 62
     7
 10
-636.69649561882238
 20
1271.983150553112
 30
0.0
 40
28.504720052083329
  1
8\U+03A9
 41
0.7
 11
-636.69649561882238
 21
1300.487870605195
 31
0.0
 73
     3
1001
ACADANNOTATIVE
1000
AnnotativeData
1002
{
1070
     1
1070
     0
1002
}
  0
TEXT
  5
64
  8
SPEC
 62
     7
 10
-1124.8074419570671
 20
1891.8916032902359
 30
0.0
 40
28.504720052083329
  1
形式
 41
0.7
 11
-1124.8074419570671
 21
1920.3963233423201
 31
0.0
 73
     3
1001
ACADANNOTATIVE
1000
AnnotativeData
1002
{
1070
     1
1070
     0
1002
}
  0
TEXT
  5
65
  8
SPEC
 62
     7
 10
-636.48216481831469
 20
1889.514163010929
 30
0.0
 40
28.504720052083329
  1
2-Way フルレンジ・スピーカーシステム
 41
0.7
 11
-636.48216481831469
 21
1918.018883063012
 31
0.0
 73
     3
1001
ACADANNOTATIVE
1000
AnnotativeData
1002
{
1070
     1
1070
     0
1002
}
  0
TEXT
  5
66
  8
SPEC
 62
     7
 10
-1124.347062237732
 20
1778.6537670405789
 30
0.0
 40
28.504720052083329
  1
周波数特性
 41
0.7
 11
-1124.347062237732
 21
1807.158487092662
 31
0.0
 73
     3
1001
ACADANNOTATIVE
1000
AnnotativeData
1002
{
1070
     1
1070
     0
1002
}
  0
TEXT
  5
67
  8
SPEC
 62
     7
 10
-1124.9865430874979
 20
1722.1686362896769
 30
0.0
 40
28.504720052083329
  1
許容入力(AES/ピーク）
 41
0.7
 11
-1124.9865430874979
 21
1750.6733563417611
 31
0.0
 73
     3
1001
ACADANNOTATIVE
1000
AnnotativeData
1002
{
1070
     1
1070
     0
1002
}
  0
TEXT
  5
68
  8
SPEC
 62
     7
 10
-1124.4940488192819
 20
1667.3928806792489
 30
0.0
 40
28.504720052083329
  1
感度
 41
0.7
 11
-1124.4940488192819
 21
1695.897600731332
 31
0.0
 73
     3
1001
ACADANNOTATIVE
1000
AnnotativeData
1002
{
1070
     1
1070
     0
1002
}
  0
TEXT
  5
69
  8
SPEC
 62
     7
 10
-1123.9498472400201
 20
1610.959696992873
 30
0.0
 40
28.504720052083329
  1
最大音圧
 41
0.7
 11
-1123.9498472400201
 21
1639.4644170449569
 31
0.0
 73
     3
1001
ACADANNOTATIVE
1000
AnnotativeData
1002
{
1070
     1
1070
     0
1002
}
  0
TEXT
  5
6A
  8
SPEC
 62
     7
 10
-1126.860906236918
 20
1554.2884138431759
 30
0.0
 40
28.504720052083329
  1
カバレージ角
 41
0.7
 11
-1126.860906236918
 21
1582.793133895259
 31
0.0
 73
     3
1001
ACADANNOTATIVE
1000
AnnotativeData
1002
{
1070
     1
1070
     0
1002
}
  0
TEXT
  5
6B
  8
SPEC
 62
     7
 10
-1135.59488602703
 20
1500.9509353501419
 30
0.0
 40
28.504720052083329
  1
ドライバー構成
 41
0.7
 11
-1135.59488602703
 21
1529.4556554022249
 31
0.0
 73
     3
1001
ACADANNOTATIVE
1000
AnnotativeData
1002
{
1070
     1
1070
     0
1002
}
  0
TEXT
  5
6C
  8
SPEC
 62
     7
 10
-1126.16823987322
 20
1384.4591214813099
 30
0.0
 40
28.504720052083329
  1
クロスオーバー
 41
0.7
 11
-1126.16823987322
 21
1412.963841533393
 31
0.0
 73
     3
1001
ACADANNOTATIVE
1000
AnnotativeData
1002
{
1070
     1
1070
     0
1002
}
  0
TEXT
  5
6D
  8
SPEC
 62
     7
 10
-1125.484970992062
 20
1103.705772809474
 30
0.0
 40
28.504720052083329
  1
寸法
 41
0.7
 11
-1125.484970992062
 21
1132.210492861557
 31
0.0
 73
     3
1001
ACADANNOTATIVE
1000
AnnotativeData
1002
{
1070
     1
1070
     0
1002
}
  0
TEXT
  5
6E
  8
SPEC
 62
     7
 10
-636.92811729434368
 20
1048.720768593053
 30
0.0
 40
28.504720052083329
  1
約16kg
 41
0.7
 11
-636.92811729434368
 21
1077.225488645136
 31
0.0
 73
     3
1001
ACADANNOTATIVE
1000
AnnotativeData
1002
{
1070
     1
1070
     0
1002
}
  0
TEXT
  5
6F
  8
SPEC
 62
     7
 10
-1124.8403468895051
 20
1048.0222784726191
 30
0.0
 40
28.504720052083329
  1
重量
 41
0.7
 11
-1124.8403468895051
 21
1076.5269985247021
 31
0.0
 73
     3
1001
ACADANNOTATIVE
1000
AnnotativeData
1002
{
1070
     1
1070
     0
1002
}
  0
TEXT
  5
70
  8
SPEC
 62
     7
 10
-636.36333765384722
 20
1776.407968583575
 30
0.0
 40
28.504720052083329
  1
60Hz～21kHz(-3dB)
 41
0.7
 11
-636.36333765384722
 21
1804.912688635658
 31
0.0
 73
     3
1001
ACADANNOTATIVE
1000
AnnotativeData
1002
{
1070
     1
1070
     0
1002
}
  0
TEXT
  5
71
  8
SPEC
 62
     7
 10
-636.97112038138437
 20
1720.7084549643389
 30
0.0
 40
28.504720052083329
  1
600W/2400W
 41
0.7
 11
-636.97112038138437
 21
1749.2131750164219
 31
0.0
 73
     3
1001
ACADANNOTATIVE
1000
AnnotativeData
1002
{
1070
     1
1070
     0
1002
}
  0
TEXT
  5
72
  8
SPEC
 62
     7
 10
-636.54152576088438
 20
1664.8905886362691
 30
0.0
 40
28.504720052083329
  1
98dB
 41
0.7
 11
-636.54152576088438
 21
1693.395308688353
 31
0.0
 73
     3
1001
ACADANNOTATIVE
1000
AnnotativeData
1002
{
1070
     1
1070
     0
1002
}
  0
TEXT
  5
73
  8
SPEC
 62
     7
 10
-638.34569917557019
 20
1608.880619270022
 30
0.0
 40
28.504720052083329
  1
132dB
 41
0.7
 11
-638.34569917557019
 21
1637.385339322105
 31
0.0
 73
     3
1001
ACADANNOTATIVE
1000
AnnotativeData
1002
{
1070
     1
1070
     0
1002
}
  0
TEXT
  5
74
  8
SPEC
 62
     7
 10
-636.27740625294939
 20
1551.298792789602
 30
0.0
 40
28.504720052083329
  1
90\U+00B0\U+00D760\U+00B0
 41
0.7
 11
-636.27740625294939
 21
1579.803512841685
 31
0.0
 73
     3
1001
ACADANNOTATIVE
1000
AnnotativeData
1002
{
1070
     1
1070
     0
1002
}
  0
TEXT
  5
75
  8
SPEC
 62
     7
 10
-636.66305963321395
 20
1498.211862877868
 30
0.0
 40
28.504720052083329
  1
低域：1\U+00D712インチネオジム磁石採用、3インチボイスコイル
 41
0.7
 11
-636.66305963321395
 21
1526.716582929952
 31
0.0
 73
     3
1001
ACADANNOTATIVE
1000
AnnotativeData
1002
{
1070
     1
1070
     0
1002
}
  0
TEXT
  5
76
  8
SPEC
 62
     7
 10
-636.84350440732044
 20
1442.3628205171899
 30
0.0
 40
28.504720052083329
  1
高域：2インチネオジム磁石採用コンプレッションドライバー、1.75インチボイスコイル 
 41
0.7
 11
-636.84350440732044
 21
1470.8675405692729
 31
0.0
 73
     3
1001
ACADANNOTATIVE
1000
AnnotativeData
1002
{
1070
     1
1070
     0
1002
}
  0
TEXT
  5
77
  8
SPEC
 62
     7
 10
-636.86345393199235
 20
1384.4030682770949
 30
0.0
 40
28.504720052083329
  1
1.3kHz
 41
0.7
 11
-636.86345393199235
 21
1412.9077883291779
 31
0.0
 73
     3
1001
ACADANNOTATIVE
1000
AnnotativeData
1002
{
1070
     1
1070
     0
1002
}
  0
TEXT
  5
78
  8
SPEC
 62
     7
 10
-637.34701457796382
 20
1217.0680428526241
 30
0.0
 40
28.504720052083329
  1
合板
 41
0.7
 11
-637.34701457796382
 21
1245.5727629047069
 31
0.0
 73
     3
1001
ACADANNOTATIVE
1000
AnnotativeData
1002
{
1070
     1
1070
     0
1002
}
  0
LINE
  5
79
  8
SPEC
  6
CONTINUOUS
 62
     7
 10
-1137.5
 20
1201.971070528122
 30
0.0
 11
1075.0
 21
1201.971070528122
 31
0.0
  0
LINE
  5
7A
  8
SPEC
  6
CONTINUOUS
 62
     7
 10
-1137.5
 20
1145.721070528122
 30
0.0
 11
1075.0
 21
1145.721070528122
 31
0.0
  0
LINE
  5
7B
  8
SPEC
  6
CONTINUOUS
 62
     7
 10
-1137.5
 20
1089.471070528122
 30
0.0
 11
1075.0
 21
1089.471070528122
 31
0.0
  0
TEXT
  5
7C
  8
SPEC
 62
     7
 10
-335.38593683979201
 20
1944.15795374563
 30
0.0
 40
28.504720052083329
  1
G512-96-L
 41
0.7
 11
-335.38593683979201
 21
1972.6626737977131
 31
0.0
 73
     3
1001
ACADANNOTATIVE
1000
AnnotativeData
1002
{
1070
     1
1070
     0
1002
}
  0
LINE
  5
7D
  8
SPEC
  6
CONTINUOUS
 62
     7
 10
-1137.5
 20
1033.221070528122
 30
0.0
 11
1075.0
 21
1033.221070528122
 31
0.0
  0
TEXT
  5
7E
  8
SPEC
 62
     7
 10
314.61406316020788
 20
1945.9580778598611
 30
0.0
 40
28.504720052083329
  1
G512-96-R
 41
0.7
 11
314.61406316020788
 21
1974.462797911945
 31
0.0
 73
     3
1001
ACADANNOTATIVE
1000
AnnotativeData
1002
{
1070
     1
1070
     0
1002
}
  0
LINE
  5
7F
  8
SPEC
  6
CONTINUOUS
 62
     7
 10
200.0
 20
1820.721070528122
 30
0.0
 11
200.0
 21
1876.971070528122
 31
0.0
  0
LINE
  5
80
  8
SPEC
  6
CONTINUOUS
 62
     7
 10
200.0
 20
1933.221070528122
 30
0.0
 11
200.0
 21
1989.471070528122
 31
0.0
  0
TEXT
  5
81
  8
SPEC
 62
     7
 10
-636.58587507697644
 20
1835.3255384943759
 30
0.0
 40
28.504720052083329
  1
L仕様
 41
0.7
 11
-636.58587507697644
 21
1863.8302585464589
 31
0.0
 73
     3
1001
ACADANNOTATIVE
1000
AnnotativeData
1002
{
1070
     1
1070
     0
1002
}
  0
TEXT
  5
82
  8
SPEC
 62
     7
 10
213.32771372389209
 20
1834.6639491664889
 30
0.0
 40
28.504720052083329
  1
R仕様
 41
0.7
 11
213.32771372389209
 21
1863.1686692185719
 31
0.0
 73
     3
1001
ACADANNOTATIVE
1000
AnnotativeData
1002
{
1070
     1
1070
     0
1002
}
  0
LINE
  5
83
  8
SPEC
  6
CONTINUOUS
 62
     7
 10
-649.99999999999989
 20
1426.971070528122
 30
0.0
 11
-1137.5
 21
1426.971070528122
 31
0.0
  0
LINE
  5
84
  8
SPEC
  6
CONTINUOUS
 62
     7
 10
-649.99999999999989
 20
1539.471070528122
 30
0.0
 11
-1137.5
 21
1539.471070528122
 31
0.0
  0
TEXT
  5
85
  8
DIMNSIONS
 62
     7
 10
-200.0
 20
-1576.4865794718769
 30
0.0
 40
36.64892578125
  1
(単位：mm)
 41
0.7
 11
-200.0
 21
-1539.8376536906269
 31
0.0
 73
     3
1001
ACADANNOTATIVE
1000
AnnotativeData
1002
{
1070
     1
1070
     0
1002
}
  0
LINE
  5
86
  8
DIMNSIONS
  6
CONTINUOUS
 62
     7
 10
-329.99999999903281
 20
-600.0000000004336
 30
0.0
 11
-480.0
 21
-600.0000000004336
 31
0.0
  0
LINE
  5
87
  8
DIMNSIONS
  6
CONTINUOUS
 62
     7
 10
-329.99999999903912
 20
29.999999999567368
 30
0.0
 11
-480.0
 21
29.999999999567368
 31
0.0
  0
LINE
  5
88
  8
DIMNSIONS
  6
CONTINUOUS
 62
     7
 10
-450.0
 20
-600.0000000004336
 30
0.0
 11
-450.0
 21
29.999999999567368
 31
0.0
  0
LINE
  5
89
  8
DIMNSIONS
  6
CONTINUOUS
 62
     7
 10
-450.0
 20
-600.0000000004336
 30
0.0
 11
-460.05059692725359
 21
-562.49066162152735
 31
0.0
  0
LINE
  5
8A
  8
DIMNSIONS
  6
CONTINUOUS
 62
     7
 10
-450.0
 20
-600.0000000004336
 30
0.0
 11
-439.94940307274629
 21
-562.49066162152735
 31
0.0
  0
LINE
  5
8B
  8
DIMNSIONS
  6
CONTINUOUS
 62
     7
 10
-450.0
 20
29.999999999567368
 30
0.0
 11
-439.94940307274629
 21
-7.5093383793388844
 31
0.0
  0
LINE
  5
8C
  8
DIMNSIONS
  6
CONTINUOUS
 62
     7
 10
-450.0
 20
29.999999999567368
 30
0.0
 11
-460.05059692725359
 21
-7.5093383793388844
 31
0.0
  0
TEXT
  5
8D
  8
DIMNSIONS
 62
     7
 10
-464.90833333333342
 20
-324.6875000004332
 30
0.0
 40
40.721028645833343
  1
630
 50
90.0
 41
0.7
 11
-505.62936197916667
 21
-324.6875000004332
 31
0.0
 73
     3
1001
ACADANNOTATIVE
1000
AnnotativeData
1002
{
1070
     1
1070
     0
1002
}
  0
LINE
  5
8E
  8
DIMNSIONS
  6
CONTINUOUS
 62
     7
 10
-299.99999999903281
 20
-630.00000000043349
 30
0.0
 11
-299.99999999903281
 21
-780.0
 31
0.0
  0
LINE
  5
8F
  8
DIMNSIONS
  6
CONTINUOUS
 62
     7
 10
48.000000000969962
 20
-630.0000000004311
 30
0.0
 11
48.000000000969962
 21
-780.0
 31
0.0
  0
LINE
  5
90
  8
DIMNSIONS
  6
CONTINUOUS
 62
     7
 10
-299.99999999903281
 20
-750.0
 30
0.0
 11
48.000000000969962
 21
-750.0
 31
0.0
  0
LINE
  5
91
  8
DIMNSIONS
  6
CONTINUOUS
 62
     7
 10
-299.99999999903281
 20
-750.0
 30
0.0
 11
-262.4906616201265
 21
-739.94940307274624
 31
0.0
  0
LINE
  5
92
  8
DIMNSIONS
  6
CONTINUOUS
 62
     7
 10
-299.99999999903281
 20
-750.0
 30
0.0
 11
-262.4906616201265
 21
-760.05059692725354
 31
0.0
  0
LINE
  5
93
  8
DIMNSIONS
  6
CONTINUOUS
 62
     7
 10
48.000000000969962
 20
-750.0
 30
0.0
 11
10.49066162206371
 21
-760.05059692725354
 31
0.0
  0
LINE
  5
94
  8
DIMNSIONS
  6
CONTINUOUS
 62
     7
 10
48.000000000969962
 20
-750.0
 30
0.0
 11
10.49066162206371
 21
-739.94940307274624
 31
0.0
  0
TEXT
  5
95
  8
DIMNSIONS
 62
     7
 10
-165.68749999903139
 20
-735.0916666666667
 30
0.0
 40
40.721028645833343
  1
348
 41
0.7
 11
-165.68749999903139
 21
-694.37063802083321
 31
0.0
 73
     3
1001
ACADANNOTATIVE
1000
AnnotativeData
1002
{
1070
     1
1070
     0
1002
}
  0
LINE
  5
96
  8
DIMNSIONS
  6
CONTINUOUS
 62
     7
 10
-157.4305987908715
 20
350.0
 30
0.0
 11
-480.0
 21
350.0
 31
0.0
  0
LINE
  5
97
  8
DIMNSIONS
  6
CONTINUOUS
 62
     7
 10
-221.60489598323329
 20
670.00000000021441
 30
0.0
 11
-480.0
 21
670.00000000021441
 31
0.0
  0
LINE
  5
98
  8
DIMNSIONS
  6
CONTINUOUS
 62
     7
 10
-450.0
 20
350.0
 30
0.0
 11
-450.0
 21
670.00000000021441
 31
0.0
  0
LINE
  5
99
  8
DIMNSIONS
  6
CONTINUOUS
 62
     7
 10
-450.0
 20
350.0
 30
0.0
 11
-460.05059692725359
 21
387.50933837890631
 31
0.0
  0
LINE
  5
9A
  8
DIMNSIONS
  6
CONTINUOUS
 62
     7
 10
-450.0
 20
350.0
 30
0.0
 11
-439.94940307274629
 21
387.50933837890631
 31
0.0
  0
LINE
  5
9B
  8
DIMNSIONS
  6
CONTINUOUS
 62
     7
 10
-450.0
 20
670.00000000021441
 30
0.0
 11
-439.94940307274629
 21
632.49066162130805
 31
0.0
  0
LINE
  5
9C
  8
DIMNSIONS
  6
CONTINUOUS
 62
     7
 10
-450.0
 20
670.00000000021441
 30
0.0
 11
-460.05059692725359
 21
632.49066162130805
 31
0.0
  0
TEXT
  5
9D
  8
DIMNSIONS
 62
     7
 10
-464.90833333333342
 20
470.31250000010721
 30
0.0
 40
40.721028645833343
  1
320
 50
90.0
 41
0.7
 11
-505.62936197916667
 21
470.31250000010721
 31
0.0
 73
     3
1001
ACADANNOTATIVE
1000
AnnotativeData
1002
{
1070
     1
1070
     0
1002
}
  0
LINE
  5
9E
  8
DIMNSIONS
  6
CONTINUOUS
 62
     7
 10
-154.18536344304391
 20
672.18052061330877
 30
0.0
 11
-191.0267243196738
 21
697.97713598457244
 31
0.0
  0
LINE
  5
9F
  8
DIMNSIONS
  6
CONTINUOUS
 62
     7
 10
50.0
 20
630.0
 30
0.0
 11
50.0
 21
823.44766018998803
 31
0.0
  0
ARC
  5
A0
  8
DIMNSIONS
  6
CONTINUOUS
 62
     7
 10
50.0
 20
529.20829700787851
 30
0.0
 40
264.23936318210929
 50
90.0
 51
144.9999825021236
  0
LINE
  5
A1
  8
DIMNSIONS
  6
CONTINUOUS
 62
     7
 10
-166.452168246036
 20
680.76983538907984
 30
0.0
 11
-152.5358360414277
 21
717.02312023595107
 31
0.0
  0
LINE
  5
A2
  8
DIMNSIONS
  6
CONTINUOUS
 62
     7
 10
-166.452168246036
 20
680.76983538907984
 30
0.0
 11
-136.273628605906
 21
705.20793493479982
 31
0.0
  0
LINE
  5
A3
  8
DIMNSIONS
  6
CONTINUOUS
 62
     7
 10
50.000000000000021
 20
793.44766018998791
 30
0.0
 11
12.490661621093761
 21
783.39706326273415
 31
0.0
  0
LINE
  5
A4
  8
DIMNSIONS
  6
CONTINUOUS
 62
     7
 10
50.000000000000021
 20
793.44766018998791
 30
0.0
 11
12.490661621093761
 21
803.49825711724145
 31
0.0
  0
TEXT
  5
A5
  8
DIMNSIONS
 62
     7
 10
-125.8336842647762
 20
752.38115727288414
 30
0.0
 40
40.721028645833343
  1
55\U+00B0
 50
27.4999912510618
 41
0.7
 11
-144.63655725605091
 21
788.5011536910564
 31
0.0
 73
     3
1001
ACADANNOTATIVE
1000
AnnotativeData
1002
{
1070
     1
1070
     0
1002
}
  0
LINE
  5
A6
  8
DIMNSIONS
  6
CONTINUOUS
 62
     7
 10
-299.9999527340745
 20
627.26679559891636
 30
0.0
 11
-299.9999527340745
 21
756.21938001667729
 31
0.0
  0
LINE
  5
A7
  8
DIMNSIONS
  6
CONTINUOUS
 62
     7
 10
-207.82786687942041
 20
679.5477893129339
 30
0.0
 11
-180.5199870156012
 21
718.5475219375752
 31
0.0
  0
ARC
  5
A8
  8
DIMNSIONS
  6
CONTINUOUS
 62
     7
 10
-299.9999527340745
 20
547.91227891398512
 30
0.0
 40
178.30710110269209
 50
55.000026526106282
 51
90.0
  0
LINE
  5
A9
  8
DIMNSIONS
  6
CONTINUOUS
 62
     7
 10
-299.9999527340745
 20
726.21938001667718
 30
0.0
 11
-262.4906143551683
 21
736.26997694393083
 31
0.0
  0
LINE
  5
AA
  8
DIMNSIONS
  6
CONTINUOUS
 62
     7
 10
-299.9999527340745
 20
726.21938001667718
 30
0.0
 11
-262.4906143551683
 21
716.16878308942364
 31
0.0
  0
LINE
  5
AB
  8
DIMNSIONS
  6
CONTINUOUS
 62
     7
 10
-197.727268728898
 20
693.97295264248385
 30
0.0
 11
-234.2179055106414
 21
707.25445826045802
 31
0.0
  0
LINE
  5
AC
  8
DIMNSIONS
  6
CONTINUOUS
 62
     7
 10
-197.727268728898
 20
693.97295264248385
 30
0.0
 11
-222.68833437317161
 21
723.72039229902691
 31
0.0
  0
TEXT
  5
AD
  8
DIMNSIONS
 62
     7
 10
-277.94264286448271
 20
747.02494249099129
 30
0.0
 40
40.721028645833343
  1
35\U+00B0
 50
338.36240987407581
 41
0.7
 11
-262.92739581717512
 21
784.87655447889881
 31
0.0
 73
     3
1001
ACADANNOTATIVE
1000
AnnotativeData
1002
{
1070
     1
1070
     0
1002
}
  0
TEXT
  5
AE
  8
DATA
 62
     7
 10
850.0
 20
-1595.941901795027
 30
0.0
 40
36.64892578125
  1
G512-96
 41
0.7
 11
850.0
 21
-1559.292976013777
 31
0.0
 73
     3
1001
ACADANNOTATIVE
1000
AnnotativeData
1002
{
1070
     1
1070
     0
1002
}
  0
TEXT
  5
AF
  8
DATA
 62
     7
 10
850.0
 20
-1480.721363006435
 30
0.0
 40
36.64892578125
  1
CODA
 41
0.7
 11
850.0
 21
-1444.072437225185
 31
0.0
 73
     3
1001
ACADANNOTATIVE
1000
AnnotativeData
1002
{
1070
     1
1070
     0
1002
}
  0
TEXT
  5
B0
  8
DATA
 62
     7
 10
-1100.0
 20
-1696.9589294718769
 30
0.0
 40
24.4326171875
  1
仕様および外観は予告なく変更されることがありますので、ご了承ください。
 41
0.7
 11
-1100.0
 21
-1672.5263122843769
 31
0.0
 73
     3
1001
ACADANNOTATIVE
1000
AnnotativeData
1002
{
1070
     1
1070
     0
1002
}
  0
TEXT
  5
B1
  8
DATA
 62
     7
 10
818.08273681255594
 20
-1532.8040637370259
 30
0.0
 40
24.4326171875
  1
2Way-フルレンジ・スピーカー
 41
0.7
 11
818.08273681255594
 21
-1508.3714465495259
 31
0.0
 73
     3
1001
ACADANNOTATIVE
1000
AnnotativeData
1002
{
1070
     1
1070
     0
1002
}
  0
ARC
  5
B2
  8
DATA
  6
CONTINUOUS
 62
     7
 10
21.999971110953641
 20
390.6678689522081
 30
0.0
 40
26.000000000011731
 50
281.31988551673959
 51
0.0
  0
LINE
  5
B3
  8
DATA
  6
CONTINUOUS
 62
     7
 10
-129.61080736940619
 20
654.9732200178164
 30
0.0
 11
47.999858438411678
 21
530.60881211710989
 31
0.0
  0
LINE
  5
B4
  8
DATA
  6
CONTINUOUS
 62
     7
 10
32.99978242423866
 20
-294.99999368200253
 30
0.0
 11
-2.0000649878707151
 21
-294.9999936820027
 31
0.0
  0
ARC
  5
B5
  8
DATA
  6
CONTINUOUS
 62
     7
 10
31.000000000964501
 20
-392.93489100017848
 30
0.0
 40
2.0000000000002749
 50
192.79846756443251
 51
0.0
  0
ARC
  5
B6
  8
DATA
  6
CONTINUOUS
 62
     7
 10
31.000000000965411
 20
-464.26510900068689
 30
0.0
 40
2.0
 50
0.0000000000260551
 51
167.20153243556749
  0
LINE
  5
B7
  8
DATA
  6
CONTINUOUS
 62
     7
 10
21.000175338054291
 20
9.0000263451589433
 30
0.0
 11
32.999782424236841
 21
9.0000263451589433
 31
0.0
  0
LINE
  5
B8
  8
DATA
  6
CONTINUOUS
 62
     7
 10
32.999782424236841
 20
-21.000004649256311
 30
0.0
 11
21.000175338054291
 21
-21.000004649256311
 31
0.0
  0
LINE
  5
B9
  8
DATA
  6
CONTINUOUS
 62
     7
 10
21.00017533805611
 20
-269.99998772153799
 30
0.0
 11
32.99978242423775
 21
-269.99998772153799
 31
0.0
  0
LINE
  5
BA
  8
DATA
  6
CONTINUOUS
 62
     7
 10
-299.9999527340745
 20
547.91227891398512
 30
0.0
 11
-225.03514859271701
 21
654.97322001784244
 31
0.0
  0
ARC
  5
BB
  8
DATA
  6
CONTINUOUS
 62
     7
 10
-274.00002888902998
 20
390.66786895220622
 30
0.0
 40
26.000000000010012
 50
180.0
 51
258.6801144832595
  0
LINE
  5
BC
  8
DATA
  6
CONTINUOUS
 62
     7
 10
-300.00002888903907
 20
390.66786895220622
 30
0.0
 11
-299.9999527340745
 21
547.91227891398512
 31
0.0
  0
ARC
  5
BD
  8
DATA
  6
CONTINUOUS
 62
     7
 10
-126.0000288890372
 20
1130.0000000002581
 30
0.0
 40
780.00000000004411
 50
258.68011448326041
 51
281.31988551673959
  0
ARC
  5
BE
  8
DATA
  6
CONTINUOUS
 62
     7
 10
-177.3229779810803
 20
586.74013514400531
 30
0.0
 40
83.25986485620912
 50
55.036725217973711
 51
124.96327478201491
  0
CIRCLE
  5
BF
  8
DATA
  6
CONTINUOUS
 62
     7
 10
-126.00002888903821
 20
464.91227564698693
 30
0.0
 40
6.500000000021827
  0
CIRCLE
  5
C0
  8
DATA
  6
CONTINUOUS
 62
     7
 10
-126.00002888903821
 20
544.91227564698761
 30
0.0
 40
6.500000000021827
  0
ARC
  5
C1
  8
DATA
  6
CONTINUOUS
 62
     7
 10
-205.553236786984
 20
634.94094510658078
 30
0.0
 40
10.00000000000027
 50
183.26588377316421
 51
270.0
  0
ARC
  5
C2
  8
DATA
  6
CONTINUOUS
 62
     7
 10
-205.5532367869786
 20
633.80155383367071
 30
0.0
 40
9.9999999999970406
 50
113.1313616646769
 51
176.73411622769069
  0
ARC
  5
C3
  8
DATA
  6
CONTINUOUS
 62
     7
 10
-175.55323678698309
 20
563.57408041932047
 30
0.0
 40
86.366864687261014
 50
66.868638335324334
 51
113.13136166467559
  0
LINE
  5
C4
  8
DATA
  6
CONTINUOUS
 62
     7
 10
-205.553236786984
 20
624.94094510658067
 30
0.0
 11
-145.5532367869821
 21
624.94094510658067
 31
0.0
  0
ARC
  5
C5
  8
DATA
  6
CONTINUOUS
 62
     7
 10
-145.5532367869867
 20
633.80155383367025
 30
0.0
 40
9.9999999999953033
 50
3.2658837723908078
 51
66.868638335319972
  0
ARC
  5
C6
  8
DATA
  6
CONTINUOUS
 62
     7
 10
-145.553236786984
 20
634.94094510658033
 30
0.0
 40
9.9999999999995435
 50
270.0
 51
356.73411622691378
  0
CIRCLE
  5
C7
  8
DATA
  6
CONTINUOUS
 62
     7
 10
-126.00002888903821
 20
464.91227564698693
 30
0.0
 40
3.4999999999790812
  0
CIRCLE
  5
C8
  8
DATA
  6
CONTINUOUS
 62
     7
 10
-126.00002888903821
 20
544.91227564698761
 30
0.0
 40
3.4999999999790812
  0
LINE
  5
C9
  8
DATA
  6
STYLE_01
 62
     7
 10
-994.3877243062816
 20
-270.85000000043289
 30
0.0
 11
-994.3877243062816
 21
-284.85000000043311
 31
0.0
  0
LINE
  5
CA
  8
DATA
  6
CONTINUOUS
 62
     7
 10
-958.08772425793529
 20
-585.00000023851317
 30
0.0
 11
-958.08772425793529
 21
15.00000870218431
 31
0.0
  0
LINE
  5
CB
  8
DATA
  6
CONTINUOUS
 62
     7
 10
-916.08772854946972
 20
15.00000870218431
 30
0.0
 11
-916.08772854946972
 21
-585.00000023851317
 31
0.0
  0
LINE
  5
CC
  8
DATA
  6
STYLE_01
 62
     7
 10
-960.5877243062813
 20
-282.85000000043311
 30
0.0
 11
-960.5877243062813
 21
-272.85000000043311
 31
0.0
  0
LINE
  5
CD
  8
DATA
  6
STYLE_01
 62
     7
 10
-995.38771491192631
 20
-271.84999668607759
 30
0.0
 11
-995.38771491192631
 21
-283.84999120245021
 31
0.0
  0
LINE
  5
CE
  8
DATA
  6
STYLE_01
 62
     7
 10
-990.38771968029766
 20
-277.85000884542512
 30
0.0
 11
-990.38771968029766
 21
-274.34999430189168
 31
0.0
  0
LINE
  5
CF
  8
DATA
  6
STYLE_01
 62
     7
 10
-967.58772115849274
 20
-277.85000884542512
 30
0.0
 11
-967.58772115849274
 21
-270.8500095606808
 31
0.0
  0
LINE
  5
D0
  8
DATA
  6
STYLE_01
 62
     7
 10
-959.33213100105229
 20
-573.00000000043008
 30
0.0
 11
-980.904156044915
 21
-573.00000000043008
 31
0.0
  0
LINE
  5
D1
  8
DATA
  6
STYLE_01
 62
     7
 10
-980.904156044915
 20
-573.00000000043008
 30
0.0
 11
-995.96842714581101
 21
-573.00000000043121
 31
0.0
  0
LINE
  5
D2
  8
DATA
  6
STYLE_01
 62
     7
 10
-995.96842714581101
 20
-573.00000000043121
 30
0.0
 11
-995.96842714581101
 21
-583.50000000043099
 31
0.0
  0
LINE
  5
D3
  8
DATA
  6
STYLE_01
 62
     7
 10
-995.96842714581101
 20
-583.50000000043099
 30
0.0
 11
-995.9999999530545
 21
-583.50000000043099
 31
0.0
  0
LINE
  5
D4
  8
DATA
  6
STYLE_01
 62
     7
 10
-995.9999999530545
 20
-583.50000000043099
 30
0.0
 11
-996.00000362538128
 21
-585.00000023851442
 31
0.0
  0
LINE
  5
D5
  8
DATA
  6
STYLE_01
 62
     7
 10
-980.90414385937595
 20
-585.00000023851351
 30
0.0
 11
-980.904156044915
 21
-573.00000000043008
 31
0.0
  0
LINE
  5
D6
  8
DATA
  6
CONTINUOUS
 62
     7
 10
-984.82634241652238
 20
-585.00000000043133
 30
0.0
 11
-984.82634241652238
 21
-600.00000000043121
 31
0.0
  0
CIRCLE
  5
D7
  8
DATA
  6
CONTINUOUS
 62
     7
 10
-929.08772430628142
 20
-564.00000000043212
 30
0.0
 40
4.0
  0
LINE
  5
D8
  8
DATA
  6
STYLE_01
 62
     7
 10
-958.08772425793529
 20
-573.00000572214049
 30
0.0
 11
-959.33213100105229
 21
-573.00000000043008
 31
0.0
  0
LINE
  5
D9
  8
DATA
  6
STYLE_01
 62
     7
 10
-959.33213100104319
 20
-585.00000000043121
 30
0.0
 11
-959.33213100105229
 21
-573.00000000043008
 31
0.0
  0
LINE
  5
DA
  8
DATA
  6
CONTINUOUS
 62
     7
 10
-959.33213100104319
 20
-585.00000000043121
 30
0.0
 11
-959.33213100106218
 21
-600.00000000043121
 31
0.0
  0
LINE
  5
DB
  8
DATA
  6
STYLE_01
 62
     7
 10
-967.58772115849274
 20
-282.85000407705348
 30
0.0
 11
-960.5877243062813
 21
-282.85000000043311
 31
0.0
  0
LINE
  5
DC
  8
DATA
  6
STYLE_01
 62
     7
 10
-967.58772115849274
 20
-277.85000884542512
 30
0.0
 11
-990.38771968029766
 21
-277.85000884542512
 31
0.0
  0
LINE
  5
DD
  8
DATA
  6
STYLE_01
 62
     7
 10
-967.58772115849274
 20
-284.85000813016927
 30
0.0
 11
-990.38771968029766
 21
-284.85000813016927
 31
0.0
  0
LINE
  5
DE
  8
DATA
  6
STYLE_01
 62
     7
 10
-990.38771968029766
 20
-281.349993586636
 30
0.0
 11
-990.38771968029766
 21
-277.85000884542512
 31
0.0
  0
LINE
  5
DF
  8
DATA
  6
STYLE_01
 62
     7
 10
-990.38771968029766
 20
-284.85000813016927
 30
0.0
 11
-990.38771968029766
 21
-281.349993586636
 31
0.0
  0
LINE
  5
E0
  8
DATA
  6
STYLE_01
 62
     7
 10
-994.3877243062816
 20
-284.85000000043311
 30
0.0
 11
-990.38771968029766
 21
-284.85000813016927
 31
0.0
  0
ARC
  5
E1
  8
DATA
  6
STYLE_01
 62
     7
 10
-994.3877243062816
 20
-283.85000000043311
 30
0.0
 40
1.0
 50
180.00000000002601
 51
270.0
  0
LINE
  5
E2
  8
DATA
  6
STYLE_01
 62
     7
 10
-967.58772115849274
 20
-284.85000813016927
 30
0.0
 11
-967.58772115849274
 21
-277.85000884542512
 31
0.0
  0
CIRCLE
  5
E3
  8
DATA
  6
CONTINUOUS
 62
     7
 10
-929.08772430628142
 20
-285.00000000043087
 30
0.0
 40
4.0
  0
LINE
  5
E4
  8
DATA
  6
STYLE_01
 62
     7
 10
-960.58772187374882
 20
-280.85000002393758
 30
0.0
 11
-958.08772425793438
 21
-280.85000002393758
 31
0.0
  0
LINE
  5
E5
  8
DATA
  6
STYLE_01
 62
     7
 10
-960.5877243062813
 20
-272.85000000043311
 30
0.0
 11
-967.58772115849274
 21
-272.85001361379659
 31
0.0
  0
LINE
  5
E6
  8
DATA
  6
STYLE_01
 62
     7
 10
-967.58772115849274
 20
-270.8500095606808
 30
0.0
 11
-990.38771968029766
 21
-270.8500095606808
 31
0.0
  0
LINE
  5
E7
  8
DATA
  6
STYLE_01
 62
     7
 10
-990.38771968029766
 20
-274.34999430189168
 30
0.0
 11
-990.38771968029766
 21
-270.8500095606808
 31
0.0
  0
LINE
  5
E8
  8
DATA
  6
STYLE_01
 62
     7
 10
-990.38771968029766
 20
-270.8500095606808
 30
0.0
 11
-994.3877243062816
 21
-270.85000000043289
 31
0.0
  0
ARC
  5
E9
  8
DATA
  6
STYLE_01
 62
     7
 10
-994.3877243062816
 20
-271.8500000004326
 30
0.0
 40
1.0
 50
90.0
 51
180.00000000002601
  0
LINE
  5
EA
  8
DATA
  6
STYLE_01
 62
     7
 10
-958.08772425793438
 20
-274.8499878645901
 30
0.0
 11
-960.58772187374882
 21
-274.8499878645901
 31
0.0
  0
LINE
  5
EB
  8
DATA
  6
STYLE_01
 62
     7
 10
-995.9999999530595
 20
3.000016350295112
 30
0.0
 11
-958.08772425793529
 21
2.999984383488794
 31
0.0
  0
LINE
  5
EC
  8
DATA
  6
STYLE_01
 62
     7
 10
-987.48756628178489
 20
15.000008702183861
 30
0.0
 11
-987.48755479295119
 21
2.999999999568757
 31
0.0
  0
LINE
  5
ED
  8
DATA
  6
STYLE_01
 62
     7
 10
-976.60822089702742
 20
2.999999999568757
 30
0.0
 11
-976.60822849415683
 21
15.000008702183861
 31
0.0
  0
LINE
  5
EE
  8
DATA
  6
STYLE_01
 62
     7
 10
-996.00000362538128
 20
15.000008702182949
 30
0.0
 11
-995.9999999530595
 21
3.000016350295112
 31
0.0
  0
LINE
  5
EF
  8
DATA
  6
CONTINUOUS
 62
     7
 10
-999.99999995305438
 20
29.999986260813369
 30
0.0
 11
-999.99999995305438
 21
-600.00000204592493
 31
0.0
  0
LINE
  5
F0
  8
DATA
  6
CONTINUOUS
 62
     7
 10
-984.82634241652238
 20
14.99999999956967
 30
0.0
 11
-984.82634241652238
 21
29.999999999569638
 31
0.0
  0
CIRCLE
  5
F1
  8
DATA
  6
CONTINUOUS
 62
     7
 10
-929.08772430628142
 20
-6.0000000004293952
 30
0.0
 40
4.0
  0
LINE
  5
F2
  8
DATA
  6
CONTINUOUS
 62
     7
 10
-959.33213100104319
 20
14.999999999569891
 30
0.0
 11
-959.33213100106218
 21
29.999999999569638
 31
0.0
  0
LINE
  5
F3
  8
DATA
  6
CONTINUOUS
 62
     7
 10
-279.10344827489331
 20
29.999999999567589
 30
0.0
 11
-299.99999999903548
 21
29.999999999567589
 31
0.0
  0
LINE
  5
F4
  8
DATA
  6
CONTINUOUS
 62
     7
 10
-819.39118783615959
 20
-585.00000023851317
 30
0.0
 11
-819.39118783615959
 21
15.00000870218431
 31
0.0
  0
LINE
  5
F5
  8
DATA
  6
CONTINUOUS
 62
     7
 10
-695.0267799354242
 20
2.999999999567847
 30
0.0
 11
-695.02677993542511
 21
-573.00000000043156
 31
0.0
  0
LINE
  5
F6
  8
DATA
  6
CONTINUOUS
 62
     7
 10
-695.02678010307591
 20
-600.00000000043235
 30
0.0
 11
-695.02678010307591
 21
29.999999999568491
 31
0.0
  0
LINE
  5
F7
  8
DATA
  6
CONTINUOUS
 62
     7
 10
-819.39118783615959
 20
29.99999439706955
 30
0.0
 11
-819.39118783615959
 21
-585.00000023851317
 31
0.0
  0
LINE
  5
F8
  8
DATA
  6
CONTINUOUS
 62
     7
 10
-299.99999999903548
 20
-600.00000000043349
 30
0.0
 11
-299.99999999903548
 21
29.999999999567589
 31
0.0
  0
LINE
  5
F9
  8
DATA
  6
CONTINUOUS
 62
     7
 10
-295.99999999904009
 20
2.999999999566711
 30
0.0
 11
-295.99999999903548
 21
-573.00000000043235
 31
0.0
  0
LINE
  5
FA
  8
DATA
  6
CONTINUOUS
 62
     7
 10
-999.99999995305552
 20
-585.00000023851317
 30
0.0
 11
-695.02678010307591
 21
-585.00000023851442
 31
0.0
  0
LINE
  5
FB
  8
DATA
  6
CONTINUOUS
 62
     7
 10
-999.99999995305438
 20
-600.00000204592493
 30
0.0
 11
-679.9999999530545
 21
-599.99999989964613
 31
0.0
  0
LINE
  5
FC
  8
DATA
  6
CONTINUOUS
 62
     7
 10
-819.39118783615959
 20
-600.00000083455961
 30
0.0
 11
-819.39118783615959
 21
-585.00000023851317
 31
0.0
  0
CIRCLE
  5
FD
  8
DATA
  6
CONTINUOUS
 62
     7
 10
-845.08772430628051
 20
-285.00000000043087
 30
0.0
 40
3.500000000003638
  0
CIRCLE
  5
FE
  8
DATA
  6
CONTINUOUS
 62
     7
 10
-845.08772430628051
 20
-285.00000000043087
 30
0.0
 40
6.4999999999781721
  0
LINE
  5
FF
  8
DATA
  6
CONTINUOUS
 62
     7
 10
-845.41953783177269
 20
-281.51575410375568
 30
0.0
 11
-845.41953783177269
 21
-288.48422253141371
 31
0.0
  0
LINE
  5
100
  8
DATA
  6
CONTINUOUS
 62
     7
 10
-679.99999995305552
 20
-573.00000000043178
 30
0.0
 11
-695.02677993542511
 21
-573.00000000043156
 31
0.0
  0
LINE
  5
101
  8
DATA
  6
CONTINUOUS
 62
     7
 10
-679.9999999530545
 20
-599.99999989964613
 30
0.0
 11
-679.99999995305552
 21
-573.00000000043178
 31
0.0
  0
LINE
  5
102
  8
DATA
  6
CONTINUOUS
 62
     7
 10
-295.99999999903548
 20
-573.00000000043235
 30
0.0
 11
-296.00021376106218
 21
-585.00000023851567
 31
0.0
  0
LINE
  5
103
  8
DATA
  6
CONTINUOUS
 62
     7
 10
-695.02678010307591
 20
15.000008702182949
 30
0.0
 11
-999.99999995305438
 21
15.000008702182949
 31
0.0
  0
LINE
  5
104
  8
DATA
  6
CONTINUOUS
 62
     7
 10
-679.9999999530545
 20
30.000000676510709
 30
0.0
 11
-999.99999995305438
 21
29.999986260813369
 31
0.0
  0
LINE
  5
105
  8
DATA
  6
CONTINUOUS
 62
     7
 10
-679.9999999530545
 20
2.9999999995676201
 30
0.0
 11
-679.9999999530545
 21
30.000000676510709
 31
0.0
  0
LINE
  5
106
  8
DATA
  6
CONTINUOUS
 62
     7
 10
-695.0267799354242
 20
2.999999999567847
 30
0.0
 11
-679.9999999530545
 21
2.9999999995676201
 31
0.0
  0
LINE
  5
107
  8
DATA
  6
CONTINUOUS
 62
     7
 10
-296.00021376106679
 20
15.000008702181811
 30
0.0
 11
-295.99999999904009
 21
2.999999999566711
 31
0.0
  0
LINE
  5
108
  8
DATA
  6
CONTINUOUS
 62
     7
 10
-285.0000573584789
 20
2.9999843834867481
 30
0.0
 11
-285.00005735847441
 21
-573.00000572214299
 31
0.0
  0
ARC
  5
109
  8
DATA
  6
CONTINUOUS
 62
     7
 10
-125.9999999990346
 20
-428.60000000043323
 30
0.0
 40
150.20000000000019
 50
46.239852310357932
 51
87.07949988589192
  0
ARC
  5
10A
  8
DATA
  6
CONTINUOUS
 62
     7
 10
-125.9999999990346
 20
-428.60000000043323
 30
0.0
 40
150.2000000000001
 50
92.920500114108137
 51
133.760147689642
  0
LINE
  5
10B
  8
DATA
  6
CONTINUOUS
 62
     7
 10
-132.06216825935601
 20
-274.34999430189202
 30
0.0
 11
-134.0830041358208
 21
-277.85000884542529
 31
0.0
  0
LINE
  5
10C
  8
DATA
  6
CONTINUOUS
 62
     7
 10
-117.9172707984185
 20
-277.85000884542512
 30
0.0
 11
-119.9376298377251
 21
-274.34999430189168
 31
0.0
  0
CIRCLE
  5
10D
  8
DATA
  6
CONTINUOUS
 62
     7
 10
-125.9999999990373
 20
-277.85000000043328
 30
0.0
 40
1.6000000000003629
  0
CIRCLE
  5
10E
  8
DATA
  6
CONTINUOUS
 62
     7
 10
-125.9999999990373
 20
-277.85000000043328
 30
0.0
 40
7.0
  0
CIRCLE
  5
10F
  8
DATA
  6
CONTINUOUS
 62
     7
 10
-125.9999999990373
 20
-277.85000000043328
 30
0.0
 40
4.5999999999748971
  0
LINE
  5
110
  8
DATA
  6
CONTINUOUS
 62
     7
 10
-2.0000649878707151
 20
-294.9999936820027
 30
0.0
 11
-1.9999999990364039
 21
-167.1945909948958
 31
0.0
  0
LINE
  5
111
  8
DATA
  6
CONTINUOUS
 62
     7
 10
-284.99999999903548
 20
-167.19459099489779
 30
0.0
 11
-284.99999999903463
 21
-392.93489100017172
 31
0.0
  0
ARC
  5
112
  8
DATA
  6
CONTINUOUS
 62
     7
 10
-125.9999999990346
 20
-428.60000000043323
 30
0.0
 40
159.00000000000071
 50
12.798467564435651
 51
167.20153243555799
  0
LINE
  5
113
  8
DATA
  6
CONTINUOUS
 62
     7
 10
21.000175338057019
 20
-294.99999368200253
 30
0.0
 11
21.00017533805611
 21
-269.99998772153799
 31
0.0
  0
LINE
  5
114
  8
DATA
  6
CONTINUOUS
 62
     7
 10
-118.9999999990319
 20
-583.50000000043099
 30
0.0
 11
-132.99999999903179
 21
-583.50000000043099
 31
0.0
  0
LINE
  5
115
  8
DATA
  6
CONTINUOUS
 62
     7
 10
-299.99999999903548
 20
-600.00000000043349
 30
0.0
 11
48.000000000965407
 21
-600.00000000043349
 31
0.0
  0
LINE
  5
116
  8
DATA
  6
CONTINUOUS
 62
     7
 10
48.000000000965407
 20
-585.00000000043133
 30
0.0
 11
-299.99999999903281
 21
-585.00000000043133
 31
0.0
  0
CIRCLE
  5
117
  8
DATA
  6
CONTINUOUS
 62
     7
 10
-125.9999999990346
 20
-428.60000000043323
 30
0.0
 40
39.250000000000909
  0
CIRCLE
  5
118
  8
DATA
  6
CONTINUOUS
 62
     7
 10
-125.9999999990346
 20
-428.600000000433
 30
0.0
 40
122.6099999999997
  0
ARC
  5
119
  8
DATA
  6
CONTINUOUS
 62
     7
 10
-125.9999999990346
 20
-428.60000000043323
 30
0.0
 40
150.20000000000019
 50
267.3287897138548
 51
268.76014768965319
  0
CIRCLE
  5
11A
  8
DATA
  6
CONTINUOUS
 62
     7
 10
-125.9999999990346
 20
-428.60000000043323
 30
0.0
 40
131.8951629691428
  0
CIRCLE
  5
11B
  8
DATA
  6
CONTINUOUS
 62
     7
 10
-125.9999999990346
 20
-428.60000000043323
 30
0.0
 40
140.6765584543254
  0
LINE
  5
11C
  8
DATA
  6
CONTINUOUS
 62
     7
 10
-132.0621682593551
 20
-281.34999358663617
 30
0.0
 11
-130.0413323828902
 21
-284.85000813016961
 31
0.0
  0
ARC
  5
11D
  8
DATA
  6
CONTINUOUS
 62
     7
 10
-125.9999999990346
 20
-428.60000000043323
 30
0.0
 40
150.2000000000005
 50
181.2398523103528
 51
223.76014768966471
  0
LINE
  5
11E
  8
DATA
  6
CONTINUOUS
 62
     7
 10
-285.00005735847441
 20
-573.00000572214299
 30
0.0
 11
-284.99999999903463
 21
-464.26510900068911
 31
0.0
  0
ARC
  5
11F
  8
DATA
  6
CONTINUOUS
 62
     7
 10
-125.9999999990346
 20
-428.60000000043323
 30
0.0
 40
159.0
 50
192.79846756444201
 51
245.25450659013859
  0
LINE
  5
120
  8
DATA
  6
CONTINUOUS
 62
     7
 10
-132.99999999903179
 20
-573.00000000043121
 30
0.0
 11
-295.99999999903548
 21
-573.00000000043121
 31
0.0
  0
ARC
  5
121
  8
DATA
  6
CONTINUOUS
 62
     7
 10
-125.9999999990346
 20
-428.60000000043323
 30
0.0
 40
150.2000000000001
 50
226.23985231035789
 51
254.02561338732369
  0
LINE
  5
122
  8
DATA
  6
CONTINUOUS
 62
     7
 10
-278.31813826057402
 20
-585.00000023851567
 30
0.0
 11
-278.31830238628982
 21
-573.00000000043212
 31
0.0
  0
LINE
  5
123
  8
DATA
  6
CONTINUOUS
 62
     7
 10
-279.10344827488677
 20
-585.00000000043337
 30
0.0
 11
-279.10344827488677
 21
-600.00000000043349
 31
0.0
  0
LINE
  5
124
  8
DATA
  6
CONTINUOUS
 62
     7
 10
-132.99999999903179
 20
-583.50000000043099
 30
0.0
 11
-132.99999999903179
 21
-573.00000000043121
 31
0.0
  0
ARC
  5
125
  8
DATA
  6
CONTINUOUS
 62
     7
 10
-125.9999999990346
 20
-428.60000000043323
 30
0.0
 40
150.19999999999999
 50
136.2398523103351
 51
178.76014768964711
  0
ARC
  5
126
  8
DATA
  6
CONTINUOUS
 62
     7
 10
-282.99999999903451
 20
-464.26510900068911
 30
0.0
 40
2.0000000000003011
 50
12.79846756443564
 51
180.0
  0
ARC
  5
127
  8
DATA
  6
CONTINUOUS
 62
     7
 10
-282.99999999903372
 20
-392.93489100017172
 30
0.0
 40
2.0000000000009091
 50
180.0
 51
347.20153243555478
  0
LINE
  5
128
  8
DATA
  6
CONTINUOUS
 62
     7
 10
-134.0830041358208
 20
-277.85000884542529
 30
0.0
 11
-132.0621682593551
 21
-281.34999358663617
 31
0.0
  0
ARC
  5
129
  8
DATA
  6
CONTINUOUS
 62
     7
 10
-125.9999999990346
 20
-428.60000000043323
 30
0.0
 40
150.1999999999997
 50
316.23985231033521
 51
358.76014768965348
  0
ARC
  5
12A
  8
DATA
  6
CONTINUOUS
 62
     7
 10
-125.9999999990346
 20
-428.60000000043323
 30
0.0
 40
159.0000000000002
 50
294.7454934098613
 51
347.20153243556427
  0
LINE
  5
12B
  8
DATA
  6
CONTINUOUS
 62
     7
 10
44.000000000970871
 20
-573.00000000043121
 30
0.0
 11
-118.9999999990319
 21
-573.00000000043121
 31
0.0
  0
ARC
  5
12C
  8
DATA
  6
CONTINUOUS
 62
     7
 10
-125.9999999990346
 20
-428.60000000043323
 30
0.0
 40
150.2000000000007
 50
285.97438661267631
 51
313.76014768964188
  0
LINE
  5
12D
  8
DATA
  6
CONTINUOUS
 62
     7
 10
-118.9999999990319
 20
-573.00000000043121
 30
0.0
 11
-118.9999999990319
 21
-583.50000000043099
 31
0.0
  0
ARC
  5
12E
  8
DATA
  6
CONTINUOUS
 62
     7
 10
-125.9999999990346
 20
-428.60000000043323
 30
0.0
 40
150.20000000000019
 50
271.23985231034669
 51
272.67121028614531
  0
LINE
  5
12F
  8
DATA
  6
CONTINUOUS
 62
     7
 10
26.318340163498291
 20
-585.00000023851351
 30
0.0
 11
26.318302388227931
 21
-573.00000000043008
 31
0.0
  0
LINE
  5
130
  8
DATA
  6
CONTINUOUS
 62
     7
 10
27.103448276821371
 20
-585.00000000043133
 30
0.0
 11
27.103448276821371
 21
-600.00000000043121
 31
0.0
  0
LINE
  5
131
  8
DATA
  6
CONTINUOUS
 62
     7
 10
-121.958465714189
 20
-284.85000813016927
 30
0.0
 11
-119.9376298377242
 21
-281.349993586636
 31
0.0
  0
LINE
  5
132
  8
DATA
  6
CONTINUOUS
 62
     7
 10
-126.00013746711871
 20
-284.85000813016927
 30
0.0
 11
-121.958465714189
 21
-284.85000813016927
 31
0.0
  0
LINE
  5
133
  8
DATA
  6
CONTINUOUS
 62
     7
 10
-130.0413323828902
 20
-284.85000813016961
 30
0.0
 11
-126.00013746711871
 21
-284.85000813016927
 31
0.0
  0
LINE
  5
134
  8
DATA
  6
CONTINUOUS
 62
     7
 10
-119.9376298377242
 20
-281.349993586636
 30
0.0
 11
-117.9172707984185
 21
-277.85000884542512
 31
0.0
  0
ARC
  5
135
  8
DATA
  6
CONTINUOUS
 62
     7
 10
-125.9999999990346
 20
-428.60000000043323
 30
0.0
 40
150.19999999999959
 50
1.2398523103529
 51
43.760147689664812
  0
LINE
  5
136
  8
DATA
  6
CONTINUOUS
 62
     7
 10
-295.99999999904009
 20
2.999999999568757
 30
0.0
 11
-1.999999999033661
 21
2.999999999568757
 31
0.0
  0
LINE
  5
137
  8
DATA
  6
CONTINUOUS
 62
     7
 10
-299.99999999903548
 20
14.999999999567621
 30
0.0
 11
48.000000000965407
 21
14.999999999567621
 31
0.0
  0
LINE
  5
138
  8
DATA
  6
CONTINUOUS
 62
     7
 10
48.000000000965407
 20
29.999999999569638
 30
0.0
 11
-279.10344827489331
 21
29.999999999567589
 31
0.0
  0
LINE
  5
139
  8
DATA
  6
CONTINUOUS
 62
     7
 10
-130.04133238289111
 20
-270.85000956068097
 30
0.0
 11
-132.06216825935601
 21
-274.34999430189202
 31
0.0
  0
ARC
  5
13A
  8
DATA
  6
CONTINUOUS
 62
     7
 10
-143.4999999990381
 20
12.399999999571349
 30
0.0
 40
278.600000000004
 50
247.4064683256791
 51
292.59353167432079
  0
ARC
  5
13B
  8
DATA
  6
CONTINUOUS
 62
     7
 10
-5.4999999990318571
 20
-125.60000000043181
 30
0.0
 40
278.00000000000563
 50
157.40646832567049
 51
202.59353167432951
  0
ARC
  5
13C
  8
DATA
  6
CONTINUOUS
 62
     7
 10
-5.4999999989554604
 20
-125.6000000004327
 30
0.0
 40
278.60000000008642
 50
188.52462508463481
 51
202.5935316743236
  0
ARC
  5
13D
  8
DATA
  6
CONTINUOUS
 62
     7
 10
-241.8529204993979
 20
-223.952920500793
 30
0.0
 40
22.600000000000549
 50
202.59353167432991
 51
247.40646832567899
  0
ARC
  5
13E
  8
DATA
  6
CONTINUOUS
 62
     7
 10
-241.85292049939881
 20
-223.95292050079641
 30
0.0
 40
21.99999999999832
 50
202.593531674329
 51
247.40646832567839
  0
CIRCLE
  5
13F
  8
DATA
  6
CONTINUOUS
 62
     7
 10
-248.85891039583339
 20
-230.9589103972292
 30
0.0
 40
3.2500000000009091
  0
ARC
  5
140
  8
DATA
  6
CONTINUOUS
 62
     7
 10
-282.99999999904912
 20
-167.19459099489779
 30
0.0
 40
2.000000000000242
 50
8.5246250846405527
 51
180.0
  0
LINE
  5
141
  8
DATA
  6
CONTINUOUS
 62
     7
 10
-278.31813826057851
 20
15.00000870218204
 30
0.0
 11
-278.31830238629442
 21
2.999999999566938
 31
0.0
  0
ARC
  5
142
  8
DATA
  6
CONTINUOUS
 62
     7
 10
-241.85292049940239
 20
-27.247079500065752
 30
0.0
 40
22.599999999994122
 50
112.5935316743207
 51
157.406468325677
  0
ARC
  5
143
  8
DATA
  6
CONTINUOUS
 62
     7
 10
-241.8529204993979
 20
-27.247079500070981
 30
0.0
 40
21.999999999999531
 50
112.59353167432
 51
157.4064683256704
  0
LINE
  5
144
  8
DATA
  6
CONTINUOUS
 62
     7
 10
-285.0000573584789
 20
2.9999843834867481
 30
0.0
 11
-284.99999999903639
 21
-84.00540900597764
 31
0.0
  0
ARC
  5
145
  8
DATA
  6
CONTINUOUS
 62
     7
 10
-5.4999999989554604
 20
-125.6000000004327
 30
0.0
 40
278.6000000000804
 50
157.4064683256764
 51
171.47537491536519
  0
ARC
  5
146
  8
DATA
  6
CONTINUOUS
 62
     7
 10
-282.99999999905009
 20
-84.00540900597764
 30
0.0
 40
2.0000000000054561
 50
180.0
 51
351.4753749153731
  0
ARC
  5
147
  8
DATA
  6
CONTINUOUS
 62
     7
 10
-143.49999999903639
 20
-263.6000000004297
 30
0.0
 40
275.99999999999812
 50
104.9964127268958
 51
112.5935316743207
  0
ARC
  5
148
  8
DATA
  6
CONTINUOUS
 62
     7
 10
-143.49999999903639
 20
-263.60000000043931
 30
0.0
 40
278.60000000000719
 50
106.8775343677909
 51
112.5935316743208
  0
ARC
  5
149
  8
DATA
  6
CONTINUOUS
 62
     7
 10
-143.49999999903639
 20
-263.6000000004322
 30
0.0
 40
278.00000000000028
 50
106.465049589421
 51
112.5935316743208
  0
CIRCLE
  5
14A
  8
DATA
  6
CONTINUOUS
 62
     7
 10
-248.85891039583521
 20
-20.24108960363731
 30
0.0
 40
3.2500000000009091
  0
LINE
  5
14B
  8
DATA
  6
CONTINUOUS
 62
     7
 10
-279.10344827489331
 20
14.999999999567621
 30
0.0
 11
-279.10344827489331
 21
29.999999999567589
 31
0.0
  0
LINE
  5
14C
  8
DATA
  6
CONTINUOUS
 62
     7
 10
-1.9999999990364039
 20
-167.1945909948958
 30
0.0
 11
-1.9999999990373141
 21
-84.005409005975579
 31
0.0
  0
ARC
  5
14D
  8
DATA
  6
CONTINUOUS
 62
     7
 10
-281.49999999903912
 20
-125.6000000004336
 30
0.0
 40
278.00000000000171
 50
337.40646832567052
 51
22.59353167432949
  0
ARC
  5
14E
  8
DATA
  6
CONTINUOUS
 62
     7
 10
-281.49999999904821
 20
-125.6000000004336
 30
0.0
 40
276.0000000000108
 50
337.40646832567052
 51
22.59353167432949
  0
LINE
  5
14F
  8
DATA
  6
CONTINUOUS
 62
     7
 10
-126.0001374671197
 20
-270.8500095606808
 30
0.0
 11
-130.04133238289111
 21
-270.85000956068097
 31
0.0
  0
LINE
  5
150
  8
DATA
  6
CONTINUOUS
 62
     7
 10
-119.9376298377251
 20
-274.34999430189168
 30
0.0
 11
-121.95846571419
 21
-270.8500095606808
 31
0.0
  0
LINE
  5
151
  8
DATA
  6
CONTINUOUS
 62
     7
 10
-121.95846571419
 20
-270.8500095606808
 30
0.0
 11
-126.0001374671197
 21
-270.8500095606808
 31
0.0
  0
ARC
  5
152
  8
DATA
  6
CONTINUOUS
 62
     7
 10
-281.49999999902099
 20
-125.60000000043399
 30
0.0
 40
278.59999999998797
 50
337.40646832567052
 51
351.4753749153586
  0
CIRCLE
  5
153
  8
DATA
  6
CONTINUOUS
 62
     7
 10
-38.14108960224123
 20
-230.95891039722761
 30
0.0
 40
3.25
  0
ARC
  5
154
  8
DATA
  6
CONTINUOUS
 62
     7
 10
-45.147079498680363
 20
-223.952920500788
 30
0.0
 40
22.600000000005728
 50
292.59353167432101
 51
337.40646832567018
  0
ARC
  5
155
  8
DATA
  6
CONTINUOUS
 62
     7
 10
-3.9999999990254902
 20
-167.1945909948958
 30
0.0
 40
2.0000000000018181
 50
0.0000000000195413
 51
171.47537491535431
  0
ARC
  5
156
  8
DATA
  6
CONTINUOUS
 62
     7
 10
-143.49999999903639
 20
-263.6000000004297
 30
0.0
 40
275.99999999999818
 50
67.4064683256791
 51
75.003587273104188
  0
ARC
  5
157
  8
DATA
  6
CONTINUOUS
 62
     7
 10
-143.49999999903639
 20
-263.60000000043931
 30
0.0
 40
278.60000000000701
 50
67.406468325679256
 51
73.122465632209057
  0
ARC
  5
158
  8
DATA
  6
CONTINUOUS
 62
     7
 10
-143.49999999903639
 20
-263.6000000004322
 30
0.0
 40
277.99999999999989
 50
67.406468325679256
 51
73.534950410579015
  0
LINE
  5
159
  8
DATA
  6
CONTINUOUS
 62
     7
 10
-1.9999999990336761
 20
2.999999999568757
 30
0.0
 11
-2.000064987873444
 21
15.000008702183861
 31
0.0
  0
LINE
  5
15A
  8
DATA
  6
CONTINUOUS
 62
     7
 10
-11.375160355305081
 20
15.000008702183861
 30
0.0
 11
-11.37516339772675
 21
2.999999999568757
 31
0.0
  0
LINE
  5
15B
  8
DATA
  6
CONTINUOUS
 62
     7
 10
21.000175338054291
 20
-21.000004649256311
 30
0.0
 11
21.000175338054291
 21
9.0000263451589433
 31
0.0
  0
ARC
  5
15C
  8
DATA
  6
CONTINUOUS
 62
     7
 10
-281.49999999902099
 20
-125.60000000043399
 30
0.0
 40
278.59999999998621
 50
8.5246250846412384
 51
22.593531674329508
  0
ARC
  5
15D
  8
DATA
  6
CONTINUOUS
 62
     7
 10
-45.147079498677613
 20
-27.247079500070068
 30
0.0
 40
22.599999999999529
 50
22.593531674329689
 51
67.406468325680095
  0
ARC
  5
15E
  8
DATA
  6
CONTINUOUS
 62
     7
 10
-45.147079498676717
 20
-27.24707950006939
 30
0.0
 40
21.999999999998419
 50
22.593531674329729
 51
67.406468325679114
  0
CIRCLE
  5
15F
  8
DATA
  6
CONTINUOUS
 62
     7
 10
-38.141089602243042
 20
-20.241089603635938
 30
0.0
 40
3.2500000000009091
  0
LINE
  5
160
  8
DATA
  6
CONTINUOUS
 62
     7
 10
-1.9999999990373141
 20
-84.005409005975579
 30
0.0
 11
-1.9999999990336761
 21
2.999999999568757
 31
0.0
  0
ARC
  5
161
  8
DATA
  6
CONTINUOUS
 62
     7
 10
-3.9999999990264001
 20
-84.005409005975579
 30
0.0
 40
2.0000000000020748
 50
188.52462508463921
 51
0.0
  0
LINE
  5
162
  8
DATA
  6
CONTINUOUS
 62
     7
 10
27.10344827681773
 20
14.99999999956967
 30
0.0
 11
27.10344827681773
 21
29.999999999569638
 31
0.0
  0
LINE
  5
163
  8
DATA
  6
CONTINUOUS
 62
     7
 10
47.999858438411678
 20
530.60881211710989
 30
0.0
 11
47.999971110964538
 21
390.66786895220753
 31
0.0
  0
LINE
  5
164
  8
DATA
  6
CONTINUOUS
 62
     7
 10
422.08772104742911
 20
15.000008702181811
 30
0.0
 11
536.08772855761435
 21
15.000008702181811
 31
0.0
  0
LINE
  5
165
  8
DATA
  6
CONTINUOUS
 62
     7
 10
422.08772104742911
 20
-585.00000023851567
 30
0.0
 11
536.08772855761435
 21
-585.00000023851567
 31
0.0
  0
LINE
  5
166
  8
DATA
  6
CONTINUOUS
 62
     7
 10
422.08772104742911
 20
-600.00000083456223
 30
0.0
 11
579.33213100920784
 21
-600.0000000004336
 31
0.0
  0
LINE
  5
167
  8
DATA
  6
CONTINUOUS
 62
     7
 10
619.99999996119925
 20
-584.99999993885899
 30
0.0
 11
422.08772104742911
 21
-585.00000023851567
 31
0.0
  0
LINE
  5
168
  8
DATA
  6
CONTINUOUS
 62
     7
 10
422.08772104742911
 20
15.000008702181811
 30
0.0
 11
619.99999996119925
 21
14.99999774882421
 31
0.0
  0
LINE
  5
169
  8
DATA
  6
CONTINUOUS
 62
     7
 10
315.02677994356878
 20
-600.00000000043281
 30
0.0
 11
315.02677994356878
 21
29.999999999568061
 31
0.0
  0
LINE
  5
16A
  8
DATA
  6
CONTINUOUS
 62
     7
 10
422.08772104742911
 20
-585.00000023851567
 30
0.0
 11
422.08772104742911
 21
15.000008702181811
 31
0.0
  0
LINE
  5
16B
  8
DATA
  6
CONTINUOUS
 62
     7
 10
422.08772104742911
 20
-600.00000083456223
 30
0.0
 11
422.08772104742911
 21
29.999994397067042
 31
0.0
  0
LINE
  5
16C
  8
DATA
  6
CONTINUOUS
 62
     7
 10
48.000000000965407
 20
29.999999999569638
 30
0.0
 11
48.000000000965407
 21
-600.00000000043349
 31
0.0
  0
LINE
  5
16D
  8
DATA
  6
CONTINUOUS
 62
     7
 10
32.999782424236841
 20
15.00000870218409
 30
0.0
 11
32.999782424240479
 21
-573.00000572214071
 31
0.0
  0
LINE
  5
16E
  8
DATA
  6
CONTINUOUS
 62
     7
 10
44.000000000970871
 20
-573.00000000043008
 30
0.0
 11
43.999938826824717
 21
15.00000870218431
 31
0.0
  0
LINE
  5
16F
  8
DATA
  6
CONTINUOUS
 62
     7
 10
33.000000000965407
 20
-464.26510900068689
 30
0.0
 11
32.999782424240479
 21
-573.00000572214071
 31
0.0
  0
LINE
  5
170
  8
DATA
  6
CONTINUOUS
 62
     7
 10
43.999938826828362
 20
-585.00000023851317
 30
0.0
 11
44.000000000970871
 21
-573.00000000043008
 31
0.0
  0
LINE
  5
171
  8
DATA
  6
CONTINUOUS
 62
     7
 10
33.000000000964512
 20
-392.93489100017848
 30
0.0
 11
32.99978242423866
 21
-294.99999368200253
 31
0.0
  0
LINE
  5
172
  8
DATA
  6
CONTINUOUS
 62
     7
 10
315.02678011122129
 20
-585.00000023851521
 30
0.0
 11
422.08772104742911
 21
-585.00000023851567
 31
0.0
  0
LINE
  5
173
  8
DATA
  6
CONTINUOUS
 62
     7
 10
299.9999999612001
 20
-599.99999988335685
 30
0.0
 11
422.08772104742911
 21
-600.00000083456223
 31
0.0
  0
LINE
  5
174
  8
DATA
  6
CONTINUOUS
 62
     7
 10
422.08772104742911
 20
-585.00000023851567
 30
0.0
 11
315.02678011122129
 21
-585.00000023851521
 31
0.0
  0
LINE
  5
175
  8
DATA
  6
CONTINUOUS
 62
     7
 10
315.02677994356878
 20
-573.00000000043235
 30
0.0
 11
299.9999999612001
 21
-573.00000000043178
 31
0.0
  0
LINE
  5
176
  8
DATA
  6
CONTINUOUS
 62
     7
 10
299.9999999612001
 20
-573.00000000043178
 30
0.0
 11
299.9999999612001
 21
-599.99999988335685
 31
0.0
  0
LINE
  5
177
  8
DATA
  6
CONTINUOUS
 62
     7
 10
422.08772104742911
 20
15.000008702181811
 30
0.0
 11
315.02678011122129
 21
15.000008702182271
 31
0.0
  0
LINE
  5
178
  8
DATA
  6
CONTINUOUS
 62
     7
 10
619.99999996119925
 20
29.99998404031389
 30
0.0
 11
299.99999996119919
 21
30.00000078591971
 31
0.0
  0
LINE
  5
179
  8
DATA
  6
CONTINUOUS
 62
     7
 10
315.02678011122129
 20
15.000008702182271
 30
0.0
 11
422.08772104742911
 21
15.000008702181811
 31
0.0
  0
LINE
  5
17A
  8
DATA
  6
CONTINUOUS
 62
     7
 10
299.99999996119919
 20
30.00000078591971
 30
0.0
 11
299.99999996119919
 21
2.9999999995676201
 31
0.0
  0
LINE
  5
17B
  8
DATA
  6
CONTINUOUS
 62
     7
 10
299.99999996119919
 20
2.9999999995676201
 30
0.0
 11
315.02677994356958
 21
2.9999999995676201
 31
0.0
  0
LINE
  5
17C
  8
DATA
  6
STYLE_01
 62
     7
 10
614.38772431442601
 20
-277.85000000043328
 30
0.0
 11
614.38772431442601
 21
-270.85000000043351
 31
0.0
  0
LINE
  5
17D
  8
DATA
  6
CONTINUOUS
 62
     7
 10
578.08772426607982
 20
15.000008702181811
 30
0.0
 11
578.08772426607982
 21
-585.00000023851567
 31
0.0
  0
LINE
  5
17E
  8
DATA
  6
CONTINUOUS
 62
     7
 10
536.08772855761435
 20
-585.00000023851567
 30
0.0
 11
536.08772855761435
 21
15.000008702181811
 31
0.0
  0
LINE
  5
17F
  8
DATA
  6
STYLE_01
 62
     7
 10
580.58772431442492
 20
-272.85000000043311
 30
0.0
 11
580.58772431442492
 21
-277.85000000043328
 31
0.0
  0
LINE
  5
180
  8
DATA
  6
STYLE_01
 62
     7
 10
610.38771968844219
 20
-274.34999430189202
 30
0.0
 11
610.38771968844219
 21
-277.85000884542529
 31
0.0
  0
LINE
  5
181
  8
DATA
  6
STYLE_01
 62
     7
 10
587.58772116663749
 20
-270.85000956068097
 30
0.0
 11
587.58772116663749
 21
-277.85000884542529
 31
0.0
  0
LINE
  5
182
  8
DATA
  6
CONTINUOUS
 62
     7
 10
579.33213100920784
 20
-600.0000000004336
 30
0.0
 11
604.82634242466611
 21
-600.00000000043349
 31
0.0
  0
LINE
  5
183
  8
DATA
  6
STYLE_01
 62
     7
 10
587.58772116663749
 20
-284.85000813016961
 30
0.0
 11
610.38771968844219
 21
-284.85000813016961
 31
0.0
  0
LINE
  5
184
  8
DATA
  6
STYLE_01
 62
     7
 10
587.58772116663749
 20
-277.85000884542529
 30
0.0
 11
610.38771968844219
 21
-277.85000884542529
 31
0.0
  0
CIRCLE
  5
185
  8
DATA
  6
CONTINUOUS
 62
     7
 10
549.0877243144248
 20
-564.00000000043428
 30
0.0
 40
4.0
  0
LINE
  5
186
  8
DATA
  6
STYLE_01
 62
     7
 10
578.08772426607982
 20
-573.00000572214299
 30
0.0
 11
615.9684271539553
 21
-572.99983154884626
 31
0.0
  0
LINE
  5
187
  8
DATA
  6
STYLE_01
 62
     7
 10
579.33213100920318
 20
-573.00000000043235
 30
0.0
 11
579.33213100920784
 21
-585.00000000043349
 31
0.0
  0
LINE
  5
188
  8
DATA
  6
CONTINUOUS
 62
     7
 10
579.33213100920784
 20
-600.0000000004336
 30
0.0
 11
579.33213100920784
 21
-585.00000000043349
 31
0.0
  0
CIRCLE
  5
189
  8
DATA
  6
CONTINUOUS
 62
     7
 10
465.08772431442412
 20
-285.00000000043337
 30
0.0
 40
6.5000000000463842
  0
CIRCLE
  5
18A
  8
DATA
  6
CONTINUOUS
 62
     7
 10
465.08772431442412
 20
-285.00000000043337
 30
0.0
 40
3.5
  0
CIRCLE
  5
18B
  8
DATA
  6
CONTINUOUS
 62
     7
 10
549.0877243144248
 20
-285.00000000043337
 30
0.0
 40
4.0
  0
LINE
  5
18C
  8
DATA
  6
STYLE_01
 62
     7
 10
580.58772431442492
 20
-282.85000000043311
 30
0.0
 11
587.58772116663749
 21
-282.85000407705348
 31
0.0
  0
LINE
  5
18D
  8
DATA
  6
STYLE_01
 62
     7
 10
580.58772431442492
 20
-277.85000000043328
 30
0.0
 11
580.58772431442492
 21
-282.85000000043311
 31
0.0
  0
LINE
  5
18E
  8
DATA
  6
STYLE_01
 62
     7
 10
578.08772426607902
 20
-280.85000002393758
 30
0.0
 11
580.58772188189323
 21
-280.85000002393758
 31
0.0
  0
LINE
  5
18F
  8
DATA
  6
STYLE_01
 62
     7
 10
587.58772116663749
 20
-277.85000884542529
 30
0.0
 11
587.58772116663749
 21
-284.85000813016961
 31
0.0
  0
LINE
  5
190
  8
DATA
  6
STYLE_01
 62
     7
 10
615.9684271539553
 20
-584.99999994496306
 30
0.0
 11
615.9684271539553
 21
-572.99983154884626
 31
0.0
  0
LINE
  5
191
  8
DATA
  6
CONTINUOUS
 62
     7
 10
604.82634242466611
 20
-600.00000000043349
 30
0.0
 11
619.99999996119925
 21
-600.00000000043235
 31
0.0
  0
LINE
  5
192
  8
DATA
  6
STYLE_01
 62
     7
 10
600.90414386752025
 20
-585.00000023851567
 30
0.0
 11
600.90415605305941
 21
-573.00000000043212
 31
0.0
  0
LINE
  5
193
  8
DATA
  6
CONTINUOUS
 62
     7
 10
604.82634242466611
 20
-585.00000000043337
 30
0.0
 11
604.82634242466611
 21
-600.00000000043349
 31
0.0
  0
LINE
  5
194
  8
DATA
  6
CONTINUOUS
 62
     7
 10
619.99999996119925
 20
-600.00000000043235
 30
0.0
 11
619.99999996119925
 21
29.99998404031389
 31
0.0
  0
LINE
  5
195
  8
DATA
  6
STYLE_01
 62
     7
 10
614.38772431442601
 20
-284.85000000043311
 30
0.0
 11
614.38772431442601
 21
-277.85000000043328
 31
0.0
  0
LINE
  5
196
  8
DATA
  6
STYLE_01
 62
     7
 10
610.38771968844219
 20
-281.34999358663617
 30
0.0
 11
610.38771968844219
 21
-284.85000813016961
 31
0.0
  0
LINE
  5
197
  8
DATA
  6
STYLE_01
 62
     7
 10
610.38771968844219
 20
-277.85000884542529
 30
0.0
 11
610.38771968844219
 21
-281.34999358663617
 31
0.0
  0
LINE
  5
198
  8
DATA
  6
STYLE_01
 62
     7
 10
610.38771968844219
 20
-284.85000813016927
 30
0.0
 11
614.38772431442601
 21
-284.85000000043311
 31
0.0
  0
ARC
  5
199
  8
DATA
  6
STYLE_01
 62
     7
 10
614.38772431442601
 20
-283.85000000043311
 30
0.0
 40
1.0
 50
270.0
 51
359.99999999997402
  0
LINE
  5
19A
  8
DATA
  6
STYLE_01
 62
     7
 10
610.38771968844219
 20
-270.85000956068097
 30
0.0
 11
587.58772116663749
 21
-270.85000956068097
 31
0.0
  0
LINE
  5
19B
  8
DATA
  6
STYLE_01
 62
     7
 10
587.58772116663749
 20
-272.85001361379659
 30
0.0
 11
580.58772431442492
 21
-272.85000000043311
 31
0.0
  0
LINE
  5
19C
  8
DATA
  6
STYLE_01
 62
     7
 10
580.58772188189323
 20
-274.8499878645901
 30
0.0
 11
578.08772426607902
 21
-274.8499878645901
 31
0.0
  0
LINE
  5
19D
  8
DATA
  6
STYLE_01
 62
     7
 10
579.33213100920784
 20
14.99999999956739
 30
0.0
 11
579.33213100920227
 21
2.999999999566711
 31
0.0
  0
CIRCLE
  5
19E
  8
DATA
  6
CONTINUOUS
 62
     7
 10
549.0877243144248
 20
-6.000000000431668
 30
0.0
 40
4.0
  0
LINE
  5
19F
  8
DATA
  6
STYLE_01
 62
     7
 10
578.08772426607982
 20
2.9999843834867481
 30
0.0
 11
615.99999996133909
 21
3.0004601452359898
 31
0.0
  0
LINE
  5
1A0
  8
DATA
  6
CONTINUOUS
 62
     7
 10
579.33213100920784
 20
29.999999999567368
 30
0.0
 11
579.33213100920784
 21
14.99999999956739
 31
0.0
  0
LINE
  5
1A1
  8
DATA
  6
STYLE_01
 62
     7
 10
610.38771968844219
 20
-270.85000956068097
 30
0.0
 11
610.38771968844219
 21
-274.34999430189202
 31
0.0
  0
LINE
  5
1A2
  8
DATA
  6
STYLE_01
 62
     7
 10
614.38772431442601
 20
-270.85000000043351
 30
0.0
 11
610.38771968844219
 21
-270.8500095606808
 31
0.0
  0
ARC
  5
1A3
  8
DATA
  6
STYLE_01
 62
     7
 10
614.38772431442601
 20
-271.8500000004326
 30
0.0
 40
1.0
 50
359.99999999997402
 51
90.0
  0
LINE
  5
1A4
  8
DATA
  6
STYLE_01
 62
     7
 10
600.90414386752025
 20
15.00000870218204
 30
0.0
 11
600.90415605305941
 21
2.999999999566938
 31
0.0
  0
LINE
  5
1A5
  8
DATA
  6
STYLE_01
 62
     7
 10
615.99999996133909
 20
3.0004601452359898
 30
0.0
 11
616.00000363352581
 21
15.000008702182949
 31
0.0
  0
LINE
  5
1A6
  8
DATA
  6
CONTINUOUS
 62
     7
 10
604.82634242466611
 20
14.999999999567621
 30
0.0
 11
604.82634242466611
 21
29.999999999567589
 31
0.0
  0
LINE
  5
1A7
  8
DATA
  6
CONTINUOUS
 62
     7
 10
1073.034811042518
 20
-584.99999983526982
 30
0.0
 11
1147.999811195104
 21
-584.99999983527039
 31
0.0
  0
LINE
  5
1A8
  8
DATA
  6
CONTINUOUS
 62
     7
 10
1147.999811195109
 20
15.00000910542758
 30
0.0
 11
1073.0348110425221
 21
15.000009105428029
 31
0.0
  0
LINE
  5
1A9
  8
DATA
  6
CONTINUOUS
 62
     7
 10
1073.0350070537461
 20
-599.99999959718753
 30
0.0
 11
1147.999811195104
 21
-600.00000043131672
 31
0.0
  0
LINE
  5
1AA
  8
DATA
  6
CONTINUOUS
 62
     7
 10
1147.999811195104
 20
-584.99999983527039
 30
0.0
 11
1073.034811042518
 21
-584.99999983526982
 31
0.0
  0
LINE
  5
1AB
  8
DATA
  6
CONTINUOUS
 62
     7
 10
1073.0348110425221
 20
15.000009105428029
 30
0.0
 11
1147.999811195109
 21
15.00000910542758
 31
0.0
  0
LINE
  5
1AC
  8
DATA
  6
CONTINUOUS
 62
     7
 10
800.00000002261902
 20
-584.99999983526777
 30
0.0
 11
800.00000002262345
 21
15.000009105430079
 31
0.0
  0
LINE
  5
1AD
  8
DATA
  6
CONTINUOUS
 62
     7
 10
977.61066583048353
 20
3.0000004028136962
 30
0.0
 11
977.61066583047807
 21
-572.99999959718605
 31
0.0
  0
LINE
  5
1AE
  8
DATA
  6
CONTINUOUS
 62
     7
 10
1073.035007053744
 20
-572.99999959718684
 30
0.0
 11
1073.03500705375
 21
3.0000004028134688
 31
0.0
  0
LINE
  5
1AF
  8
DATA
  6
CONTINUOUS
 62
     7
 10
1073.0348110425221
 20
30.000003412845629
 30
0.0
 11
1073.0348110425221
 21
-599.99999959718707
 31
0.0
  0
LINE
  5
1B0
  8
DATA
  6
CONTINUOUS
 62
     7
 10
977.61063578007077
 20
-599.99999959718718
 30
0.0
 11
977.61063578007077
 21
30.00000040281332
 31
0.0
  0
LINE
  5
1B1
  8
DATA
  6
CONTINUOUS
 62
     7
 10
800.00000002262345
 20
29.99999480031531
 30
0.0
 11
800.00000002262345
 21
-600.00000043131422
 31
0.0
  0
LINE
  5
1B2
  8
DATA
  6
CONTINUOUS
 62
     7
 10
800.00000002261902
 20
-584.99999983526777
 30
0.0
 11
977.61063578006645
 21
-584.9999998352688
 31
0.0
  0
LINE
  5
1B3
  8
DATA
  6
CONTINUOUS
 62
     7
 10
800.00000002262345
 20
-600.00000043131422
 30
0.0
 11
977.61066583042873
 21
-599.99999959718707
 31
0.0
  0
LINE
  5
1B4
  8
DATA
  6
CONTINUOUS
 62
     7
 10
800.00000002261902
 20
-584.99999983526777
 30
0.0
 11
977.61063578006645
 21
-584.9999998352688
 31
0.0
  0
CIRCLE
  5
1B5
  8
DATA
  6
CONTINUOUS
 62
     7
 10
1033.0530952480169
 20
-461.99999959718969
 30
0.0
 40
6.0
  0
ARC
  5
1B6
  8
DATA
  6
CONTINUOUS
 62
     7
 10
1033.0530952480169
 20
-461.99999959718969
 30
0.0
 40
9.0000000000003268
 50
196.12762021316459
 51
350.405931773144
  0
CIRCLE
  5
1B7
  8
DATA
  6
CONTINUOUS
 62
     7
 10
1033.0530952480169
 20
-461.99999959718969
 30
0.0
 40
11.75
  0
ARC
  5
1B8
  8
DATA
  6
CONTINUOUS
 62
     7
 10
937.494960025355
 20
-478.70290069512191
 30
0.0
 40
128.00000000000841
 50
3.001747544694906
 51
20.93949001012712
  0
ARC
  5
1B9
  8
DATA
  6
CONTINUOUS
 62
     7
 10
1113.1437121590091
 20
-478.70290069512328
 30
0.0
 40
128.00000000001131
 50
159.06050998987291
 51
176.99825245530511
  0
CIRCLE
  5
1BA
  8
DATA
  6
CONTINUOUS
 62
     7
 10
1033.0693360921821
 20
-461.99999959718872
 30
0.0
 40
12.093386622446809
  0
ARC
  5
1BB
  8
DATA
  6
CONTINUOUS
 62
     7
 10
1113.1437121590041
 20
-478.70290069512379
 30
0.0
 40
129.00000000000659
 50
159.06443109663411
 51
177.0099124229406
  0
ARC
  5
1BC
  8
DATA
  6
CONTINUOUS
 62
     7
 10
937.49496002534738
 20
-478.70290069509059
 30
0.0
 40
129.00000000001239
 50
2.9900875770463662
 51
20.93556890352427
  0
LINE
  5
1BD
  8
DATA
  6
CONTINUOUS
 62
     7
 10
1065.319108985633
 20
-551.99999256350316
 30
0.0
 11
985.31918527957794
 21
-551.99999256350236
 31
0.0
  0
LINE
  5
1BE
  8
DATA
  6
CONTINUOUS
 62
     7
 10
977.61066583042873
 20
-599.99999959718707
 30
0.0
 11
1073.0350070537461
 21
-599.99999959718753
 31
0.0
  0
LINE
  5
1BF
  8
DATA
  6
CONTINUOUS
 62
     7
 10
1073.035007053744
 20
-572.99999959718684
 30
0.0
 11
977.61066583047807
 21
-572.99999959718605
 31
0.0
  0
LINE
  5
1C0
  8
DATA
  6
CONTINUOUS
 62
     7
 10
984.31925775882598
 20
-573.00000531889646
 30
0.0
 11
984.31933609217958
 21
-471.9738494250692
 31
0.0
  0
LINE
  5
1C1
  8
DATA
  6
CONTINUOUS
 62
     7
 10
985.31918527957794
 20
-551.99999256350236
 30
0.0
 11
985.31933609218049
 21
-471.9999995971956
 31
0.0
  0
CIRCLE
  5
1C2
  8
DATA
  6
CONTINUOUS
 62
     7
 10
991.31933609217947
 20
-545.99999959718866
 30
0.0
 40
2.75
  0
CIRCLE
  5
1C3
  8
DATA
  6
CONTINUOUS
 62
     7
 10
991.31933609217947
 20
-471.99999959718821
 30
0.0
 40
2.75
  0
LINE
  5
1C4
  8
DATA
  6
CONTINUOUS
 62
     7
 10
1066.31933609218
 20
-471.9738494250704
 30
0.0
 11
1066.3195133435429
 21
-573.00000531889714
 31
0.0
  0
CIRCLE
  5
1C5
  8
DATA
  6
CONTINUOUS
 62
     7
 10
1033.0530952480169
 20
-520.99999959718957
 30
0.0
 40
11.75
  0
CIRCLE
  5
1C6
  8
DATA
  6
CONTINUOUS
 62
     7
 10
1045.069336092183
 20
-511.49999959718917
 30
0.0
 40
1.75
  0
CIRCLE
  5
1C7
  8
DATA
  6
CONTINUOUS
 62
     7
 10
1033.0693360921809
 20
-520.99999959718878
 30
0.0
 40
12.093386622446809
  0
ARC
  5
1C8
  8
DATA
  6
CONTINUOUS
 62
     7
 10
1033.0530952480169
 20
-520.99999959718957
 30
0.0
 40
9.0000000000000515
 50
9.5940682268560025
 51
163.8723797868353
  0
LINE
  5
1C9
  8
DATA
  6
CONTINUOUS
 62
     7
 10
1023.0532169568251
 20
-518.50000663019875
 30
0.0
 11
1024.407287015121
 21
-518.49999959718912
 31
0.0
  0
LINE
  5
1CA
  8
DATA
  6
CONTINUOUS
 62
     7
 10
1024.407287015121
 20
-523.49999959718923
 30
0.0
 11
1023.0532169568251
 21
-523.50000186182717
 31
0.0
  0
CIRCLE
  5
1CB
  8
DATA
  6
CONTINUOUS
 62
     7
 10
1021.053095248017
 20
-530.49999959718957
 30
0.0
 40
1.5
  0
LINE
  5
1CC
  8
DATA
  6
CONTINUOUS
 62
     7
 10
1023.0532169568251
 20
-518.50000663019875
 30
0.0
 11
1023.0532169568251
 21
-523.50000186182717
 31
0.0
  0
CIRCLE
  5
1CD
  8
DATA
  6
CONTINUOUS
 62
     7
 10
1021.069336092183
 20
-530.49999959718821
 30
0.0
 40
1.75
  0
CIRCLE
  5
1CE
  8
DATA
  6
CONTINUOUS
 62
     7
 10
1033.0530952480169
 20
-520.99999959718957
 30
0.0
 40
6.0
  0
CIRCLE
  5
1CF
  8
DATA
  6
CONTINUOUS
 62
     7
 10
1033.0530952480169
 20
-520.99999959718957
 30
0.0
 40
2.75
  0
LINE
  5
1D0
  8
DATA
  6
CONTINUOUS
 62
     7
 10
1041.9272149226661
 20
-519.49999959718969
 30
0.0
 11
1043.053197883339
 21
-519.49999375559582
 31
0.0
  0
LINE
  5
1D1
  8
DATA
  6
CONTINUOUS
 62
     7
 10
1043.053197883339
 20
-522.49999983526959
 30
0.0
 11
1043.053197883339
 21
-519.49999375559582
 31
0.0
  0
LINE
  5
1D2
  8
DATA
  6
CONTINUOUS
 62
     7
 10
1043.053197883339
 20
-522.49999983526959
 30
0.0
 11
1041.9272149226661
 21
-522.4999995971898
 31
0.0
  0
ARC
  5
1D3
  8
DATA
  6
CONTINUOUS
 62
     7
 10
1033.0530952480169
 20
-520.99999959718957
 30
0.0
 40
9.0000000000000409
 50
196.12762021315839
 51
350.405931773144
  0
CIRCLE
  5
1D4
  8
DATA
  6
CONTINUOUS
 62
     7
 10
1021.053095248017
 20
-471.49999959718917
 30
0.0
 40
1.5
  0
CIRCLE
  5
1D5
  8
DATA
  6
CONTINUOUS
 62
     7
 10
1021.069336092183
 20
-471.49999959718861
 30
0.0
 40
1.75
  0
LINE
  5
1D6
  8
DATA
  6
CONTINUOUS
 62
     7
 10
1065.3193360921809
 20
-471.99999959719162
 30
0.0
 11
1065.319108985633
 21
-551.99999256350316
 31
0.0
  0
CIRCLE
  5
1D7
  8
DATA
  6
CONTINUOUS
 62
     7
 10
1059.3193360921839
 20
-545.99999959718912
 30
0.0
 40
2.75
  0
CIRCLE
  5
1D8
  8
DATA
  6
CONTINUOUS
 62
     7
 10
1045.0530952480169
 20
-511.49999959718917
 30
0.0
 40
1.5
  0
CIRCLE
  5
1D9
  8
DATA
  6
CONTINUOUS
 62
     7
 10
1059.319336092185
 20
-471.99999959718832
 30
0.0
 40
2.75
  0
ARC
  5
1DA
  8
DATA
  6
CONTINUOUS
 62
     7
 10
1042.4842907599971
 20
-450.6791112206364
 30
0.0
 40
52.00000000000253
 50
129.7801195765847
 51
160.0749869353823
  0
ARC
  5
1DB
  8
DATA
  6
CONTINUOUS
 62
     7
 10
1010.610665830481
 20
-374.99999959718781
 30
0.0
 40
6.5
 50
180.0
 51
270.0
  0
ARC
  5
1DC
  8
DATA
  6
CONTINUOUS
 62
     7
 10
1010.610665830481
 20
-306.9999995971877
 30
0.0
 40
6.5
 50
90.0
 51
180.0
  0
ARC
  5
1DD
  8
DATA
  6
CONTINUOUS
 62
     7
 10
1042.48429076
 20
-450.67911122063242
 30
0.0
 40
52.999999999999602
 50
129.76627983103771
 51
160.06538919673471
  0
CIRCLE
  5
1DE
  8
DATA
  6
CONTINUOUS
 62
     7
 10
992.61066583048057
 20
-378.99999959718821
 30
0.0
 40
3.4999999999918141
  0
CIRCLE
  5
1DF
  8
DATA
  6
CONTINUOUS
 62
     7
 10
992.61066583048057
 20
-378.99999959718821
 30
0.0
 40
6.5000000000027276
  0
CIRCLE
  5
1E0
  8
DATA
  6
CONTINUOUS
 62
     7
 10
992.61066583048057
 20
-302.99999959718792
 30
0.0
 40
3.499999999935425
  0
CIRCLE
  5
1E1
  8
DATA
  6
CONTINUOUS
 62
     7
 10
992.61066583048057
 20
-302.99999959718792
 30
0.0
 40
6.4999999999208731
  0
LINE
  5
1E2
  8
DATA
  6
CONTINUOUS
 62
     7
 10
1004.110665830481
 20
-374.99999959718798
 30
0.0
 11
1004.110665830481
 21
-306.9999995971877
 31
0.0
  0
LINE
  5
1E3
  8
DATA
  6
CONTINUOUS
 62
     7
 10
1065.1106658304791
 20
-306.99999959718838
 30
0.0
 11
1065.1106658304791
 21
-374.99999959718821
 31
0.0
  0
ARC
  5
1E4
  8
DATA
  6
CONTINUOUS
 62
     7
 10
1008.154381424366
 20
-450.67911122063481
 30
0.0
 40
51.99999999999897
 50
19.925013064617399
 51
50.21988042341178
  0
CIRCLE
  5
1E5
  8
DATA
  6
CONTINUOUS
 62
     7
 10
1045.069336092183
 20
-452.49999959718821
 30
0.0
 40
1.75
  0
LINE
  5
1E6
  8
DATA
  6
CONTINUOUS
 62
     7
 10
1058.61066583048
 20
-381.49999959718832
 30
0.0
 11
1010.610665830481
 21
-381.49999959718798
 31
0.0
  0
ARC
  5
1E7
  8
DATA
  6
CONTINUOUS
 62
     7
 10
1008.154381424421
 20
-450.67911122071757
 30
0.0
 40
52.999999999974911
 50
19.93461080380785
 51
50.233720168127462
  0
LINE
  5
1E8
  8
DATA
  6
CONTINUOUS
 62
     7
 10
1023.0532169568251
 20
-459.49999137140969
 30
0.0
 11
1024.407287015121
 21
-459.49999959718912
 31
0.0
  0
LINE
  5
1E9
  8
DATA
  6
CONTINUOUS
 62
     7
 10
1024.407287015121
 20
-464.4999995971898
 30
0.0
 11
1023.0532169568251
 21
-464.49998660303822
 31
0.0
  0
LINE
  5
1EA
  8
DATA
  6
CONTINUOUS
 62
     7
 10
1023.0532169568251
 20
-459.49999137140969
 30
0.0
 11
1023.0532169568251
 21
-464.49998660303822
 31
0.0
  0
CIRCLE
  5
1EB
  8
DATA
  6
CONTINUOUS
 62
     7
 10
1033.0530952480169
 20
-461.99999959718969
 30
0.0
 40
2.75
  0
ARC
  5
1EC
  8
DATA
  6
CONTINUOUS
 62
     7
 10
1033.0530952480169
 20
-461.99999959718969
 30
0.0
 40
9.000000000000222
 50
9.5940682268624258
 51
163.8723797868353
  0
LINE
  5
1ED
  8
DATA
  6
CONTINUOUS
 62
     7
 10
1041.9272149226661
 20
-460.49999959718963
 30
0.0
 11
1043.053197883339
 21
-460.50000829912921
 31
0.0
  0
LINE
  5
1EE
  8
DATA
  6
CONTINUOUS
 62
     7
 10
1043.053197883339
 20
-463.49999947764161
 30
0.0
 11
1043.053197883339
 21
-460.50000829912921
 31
0.0
  0
LINE
  5
1EF
  8
DATA
  6
CONTINUOUS
 62
     7
 10
1043.053197883339
 20
-463.49999947764161
 30
0.0
 11
1041.9272149226661
 21
-463.49999959718912
 31
0.0
  0
LINE
  5
1F0
  8
DATA
  6
CONTINUOUS
 62
     7
 10
1021.296049962245
 20
-406.41431626824351
 30
0.0
 11
1029.3426222221201
 21
-406.41431626824368
 31
0.0
  0
CIRCLE
  5
1F1
  8
DATA
  6
CONTINUOUS
 62
     7
 10
1025.3193360921809
 20
-412.41431626824368
 30
0.0
 40
2.75
  0
LINE
  5
1F2
  8
DATA
  6
CONTINUOUS
 62
     7
 10
1021.288330247835
 20
-405.41431626824408
 30
0.0
 11
1029.3503419365329
 21
-405.41431626824408
 31
0.0
  0
ARC
  5
1F3
  8
DATA
  6
CONTINUOUS
 62
     7
 10
1021.6086324570221
 20
-426.41187342365231
 30
0.0
 40
19.999999999997311
 50
90.895519345542667
 51
128.3021952992176
  0
ARC
  5
1F4
  8
DATA
  6
CONTINUOUS
 62
     7
 10
1021.608632456913
 20
-426.41187342369369
 30
0.0
 40
21.000000000036039
 50
90.873936970740203
 51
128.3376474729794
  0
ARC
  5
1F5
  8
DATA
  6
CONTINUOUS
 62
     7
 10
1029.0300397273379
 20
-426.41187342365322
 30
0.0
 40
19.999999999998131
 50
51.697804700721179
 51
89.104480654405208
  0
ARC
  5
1F6
  8
DATA
  6
CONTINUOUS
 62
     7
 10
1029.0300397273379
 20
-426.41187342365458
 30
0.0
 40
20.99999999999886
 50
51.662352524289609
 51
89.126063028948039
  0
CIRCLE
  5
1F7
  8
DATA
  6
CONTINUOUS
 62
     7
 10
1045.0530952480169
 20
-452.4999995971898
 30
0.0
 40
1.5
  0
ARC
  5
1F8
  8
DATA
  6
CONTINUOUS
 62
     7
 10
1058.6106658304791
 20
-374.99999959718821
 30
0.0
 40
6.5000000000002274
 50
270.0
 51
0.0
  0
LINE
  5
1F9
  8
DATA
  6
CONTINUOUS
 62
     7
 10
1010.610665830481
 20
-300.4999995971877
 30
0.0
 11
1058.61066583048
 21
-300.49999959718792
 31
0.0
  0
ARC
  5
1FA
  8
DATA
  6
CONTINUOUS
 62
     7
 10
1058.6106658304791
 20
-306.99999959718838
 30
0.0
 40
6.5000000000009086
 50
0.0
 51
90.0
  0
LINE
  5
1FB
  8
DATA
  6
CONTINUOUS
 62
     7
 10
977.61063578007077
 20
15.00000910542871
 30
0.0
 11
800.00000002262345
 21
15.000009105430079
 31
0.0
  0
LINE
  5
1FC
  8
DATA
  6
CONTINUOUS
 62
     7
 10
1147.999811195104
 20
30.000005777519711
 30
0.0
 11
800.00000002262345
 21
29.99999480031531
 31
0.0
  0
LINE
  5
1FD
  8
DATA
  6
CONTINUOUS
 62
     7
 10
977.61063578007077
 20
15.00000910542871
 30
0.0
 11
800.00000002262345
 21
15.000009105430079
 31
0.0
  0
ARC
  5
1FE
  8
DATA
  6
CONTINUOUS
 62
     7
 10
1025.323095248021
 20
27.000000402813129
 30
0.0
 40
69.999999999999488
 50
247.97568716295689
 51
292.02431283704311
  0
LINE
  5
1FF
  8
DATA
  6
CONTINUOUS
 62
     7
 10
977.61066583048353
 20
3.0000004028136962
 30
0.0
 11
1073.03500705375
 21
3.0000004028134688
 31
0.0
  0
ARC
  5
200
  8
DATA
  6
CONTINUOUS
 62
     7
 10
1007.32309524802
 20
-17.497190519760181
 30
0.0
 40
22.000000000001819
 50
180.0
 51
247.9756871629572
  0
LINE
  5
201
  8
DATA
  6
CONTINUOUS
 62
     7
 10
985.32309524801883
 20
-17.49719051975995
 30
0.0
 11
985.32299997684822
 21
2.9999847867337328
 31
0.0
  0
ARC
  5
202
  8
DATA
  6
CONTINUOUS
 62
     7
 10
1043.323095248021
 20
-17.497190519760409
 30
0.0
 40
21.999999999999378
 50
292.02431283704033
 51
0.0
  0
LINE
  5
203
  8
DATA
  6
CONTINUOUS
 62
     7
 10
1065.322923682902
 20
2.9999847867332781
 30
0.0
 11
1065.323095248021
 21
-17.497190519760629
 31
0.0
  0
LINE
  5
204
  8
DATA
  6
CONTINUOUS
 62
     7
 10
1147.999811195104
 20
-584.99999983527039
 30
0.0
 11
1147.999811195109
 21
15.00000910542758
 31
0.0
  0
LINE
  5
205
  8
DATA
  6
CONTINUOUS
 62
     7
 10
1147.999811195104
 20
-600.00000043131672
 30
0.0
 11
1147.999811195104
 21
30.000005777519711
 31
0.0
  0
CIRCLE
  5
206
  8
DATA
  6
CONTINUOUS
 62
     7
 10
-143.46516289540389
 20
-125.4669440961012
 30
0.0
 40
12.69999999999982
  0
LINE
  5
207
  8
DATA
  6
CONTINUOUS
 62
     7
 10
47.999887327448953
 20
-1110.608845537995
 30
0.0
 11
-129.6107784803589
 21
-1234.9732534386951
 31
0.0
  0
ARC
  5
208
  8
DATA
  6
CONTINUOUS
 62
     7
 10
21.99999999999271
 20
-970.6679023730934
 30
0.0
 40
26.000000000011831
 50
0.0
 51
78.680114483260283
  0
LINE
  5
209
  8
DATA
  6
CONTINUOUS
 62
     7
 10
-225.03511970367711
 20
-1234.973253438729
 30
0.0
 11
-299.99992384503639
 21
-1127.91231233487
 31
0.0
  0
ARC
  5
20A
  8
DATA
  6
CONTINUOUS
 62
     7
 10
-273.99999999999091
 20
-970.66790237309147
 30
0.0
 40
26.000000000008651
 50
101.31988551673891
 51
180.0
  0
LINE
  5
20B
  8
DATA
  6
CONTINUOUS
 62
     7
 10
-299.99992384503639
 20
-1127.91231233487
 30
0.0
 11
-299.99999999999898
 21
-970.6679023730909
 31
0.0
  0
CIRCLE
  5
20C
  8
DATA
  6
CONTINUOUS
 62
     7
 10
-126.0
 20
-1084.9123090678711
 30
0.0
 40
21.0
  0
CIRCLE
  5
20D
  8
DATA
  6
CONTINUOUS
 62
     7
 10
-126.0
 20
-1084.9123090678711
 30
0.0
 40
53.5
  0
ARC
  5
20E
  8
DATA
  6
CONTINUOUS
 62
     7
 10
-177.32294909204211
 20
-1166.7401685648899
 30
0.0
 40
83.259864856208935
 50
235.03672521798509
 51
304.96327478203011
  0
ARC
  5
20F
  8
DATA
  6
CONTINUOUS
 62
     7
 10
-205.5532078979395
 20
-1213.8015872545559
 30
0.0
 40
9.9999999999972236
 50
183.26588377230919
 51
246.8686383353226
  0
ARC
  5
210
  8
DATA
  6
CONTINUOUS
 62
     7
 10
-205.55320789794499
 20
-1214.9409785274661
 30
0.0
 40
10.000000000000449
 50
90.0
 51
176.73411622683571
  0
LINE
  5
211
  8
DATA
  6
CONTINUOUS
 62
     7
 10
-145.55320789794399
 20
-1204.9409785274649
 30
0.0
 11
-205.55320789794499
 21
-1204.9409785274649
 31
0.0
  0
ARC
  5
212
  8
DATA
  6
CONTINUOUS
 62
     7
 10
-175.55320789794499
 20
-1143.5741138402061
 30
0.0
 40
86.366864687261014
 50
246.86863833532439
 51
293.13136166467569
  0
ARC
  5
213
  8
DATA
  6
CONTINUOUS
 62
     7
 10
-145.5532078979486
 20
-1213.801587254555
 30
0.0
 40
9.9999999999968328
 50
293.13136166467751
 51
356.7341162276345
  0
ARC
  5
214
  8
DATA
  6
CONTINUOUS
 62
     7
 10
-145.5532078979449
 20
-1214.9409785274649
 30
0.0
 40
10.000000000000661
 50
3.2658837731119559
 51
89.999999999999986
  0
CIRCLE
  5
215
  8
DATA
  6
CONTINUOUS
 62
     7
 10
-166.0
 20
-1084.912309067872
 30
0.0
 40
4.0
  0
CIRCLE
  5
216
  8
DATA
  6
CONTINUOUS
 62
     7
 10
-126.0
 20
-1124.9123090678729
 30
0.0
 40
4.0
  0
CIRCLE
  5
217
  8
DATA
  6
CONTINUOUS
 62
     7
 10
-126.0
 20
-1044.912309067872
 30
0.0
 40
4.0
  0
CIRCLE
  5
218
  8
DATA
  6
CONTINUOUS
 62
     7
 10
-86.000000000000014
 20
-1084.912309067872
 30
0.0
 40
4.0
  0
ARC
  5
219
  8
DATA
  6
CONTINUOUS
 62
     7
 10
-125.9999999999982
 20
-1710.0000334211441
 30
0.0
 40
780.00000000004445
 50
78.68011448326034
 51
101.3198855167395
  0
LINE
  5
21A
  8
DATA
  6
CONTINUOUS
 62
     7
 10
48.000000000003617
 20
-970.66790237309272
 30
0.0
 11
47.999887327448953
 21
-1110.608845537995
 31
0.0
  0
ARC
  5
21B
  8
DATA
  6
CONTINUOUS
 62
     7
 10
-143.46516289540389
 20
-125.4669440961012
 30
0.0
 40
132.81672386016811
 50
104.7040623333594
 51
75.295937666640583
  0
ARC
  5
21C
  8
DATA
  6
CONTINUOUS
 62
     7
 10
-143.46516289540389
 20
-125.4669440961014
 30
0.0
 40
137.25741766456301
 50
110.616805721709
 51
69.383194278290944
  0
ARC
  5
21D
  8
DATA
  6
CONTINUOUS
 62
     7
 10
-241.88384977609641
 20
-27.19136498586693
 30
0.0
 40
19.93669156359045
 50
112.2683132114756
 51
157.76992126592529
  0
ARC
  5
21E
  8
DATA
  6
CONTINUOUS
 62
     7
 10
-5.5827752198977123
 20
-125.6179130230002
 30
0.0
 40
275.91671323064969
 50
157.41447781320491
 51
202.59669904879459
  0
ARC
  5
21F
  8
DATA
  6
CONTINUOUS
 62
     7
 10
-45.130584130986101
 20
-27.23440448029271
 30
0.0
 40
19.979815936038658
 50
22.578320316912819
 51
67.327615545734943
  0
ARC
  5
220
  8
DATA
  6
CONTINUOUS
 62
     7
 10
-241.8576955044588
 20
-223.95765985830479
 30
0.0
 40
19.99378815635173
 50
202.58622026186609
 51
247.41393811899181
  0
LINE
  5
221
  8
DATA
  6
CONTINUOUS
 62
     7
 10
-250.30512460489581
 20
-244.26449960629529
 30
0.0
 11
-249.5367242285943
 21
-242.4179979563726
 31
0.0
  0
LINE
  5
222
  8
DATA
  6
CONTINUOUS
 62
     7
 10
-24.83550039318153
 20
-232.40512460630489
 30
0.0
 11
-26.682109970781781
 21
-231.636739611721
 31
0.0
  0
ARC
  5
223
  8
DATA
  6
CONTINUOUS
 62
     7
 10
-45.143759046393363
 20
-223.95611519664399
 30
0.0
 40
19.995726019029149
 50
292.58788648257331
 51
337.48814380871067
  0
ARC
  5
224
  8
DATA
  6
CONTINUOUS
 62
     7
 10
-143.50006117317599
 20
12.18674048991943
 30
0.0
 40
275.80309416544458
 50
247.38946321875801
 51
292.6105367812429
  0
CIRCLE
  5
225
  8
DATA
  6
CONTINUOUS
 62
     7
 10
-232.1825727216665
 20
-322.41742727777279
 30
0.0
 40
3.249999999980612
  0
CIRCLE
  5
226
  8
DATA
  6
CONTINUOUS
 62
     7
 10
-276.1648344310679
 20
-428.60000000043652
 30
0.0
 40
3.250000000003638
  0
CIRCLE
  5
227
  8
DATA
  6
CONTINUOUS
 62
     7
 10
-232.18257272166011
 20
-534.78257272310054
 30
0.0
 40
3.24999999999058
  0
CIRCLE
  5
228
  8
DATA
  6
CONTINUOUS
 62
     7
 10
-19.81742727639103
 20
-322.41742727778802
 30
0.0
 40
3.2499999999998361
  0
CIRCLE
  5
229
  8
DATA
  6
CONTINUOUS
 62
     7
 10
24.16483443299829
 20
-428.60000000042771
 30
0.0
 40
3.2500000000017049
  0
CIRCLE
  5
22A
  8
DATA
  6
CONTINUOUS
 62
     7
 10
-19.8174272764095
 20
-534.78257272310032
 30
0.0
 40
3.2500000000292482
  0
CIRCLE
  5
22B
  8
DATA
  6
CONTINUOUS
 62
     7
 10
-125.9999999990346
 20
-578.76483443246696
 30
0.0
 40
3.2499999999909042
  0
CIRCLE
  5
22C
  8
DATA
  6
CONTINUOUS
 62
     7
 10
-125.9999999990373
 20
-277.85000000043328
 30
0.0
 40
5.9998835214785231
  0
LINE
  5
22D
  8
DATA
  6
STYLE_01
 62
     7
 10
615.38772431442612
 20
-283.85000000043362
 30
0.0
 11
615.38772431442612
 21
-271.80000000000001
 31
0.0
  0
TEXT
  5
22E
  8
DATA
 62
     7
 10
244.32489881697521
 20
-1279.8700541538119
 30
0.0
 40
46.302083333333343
  1
寸法図はG512-96-R(右側仕様）
 41
0.7
 11
244.32489881697521
 21
-1233.567970820478
 31
0.0
 73
     3
1001
ACADANNOTATIVE
1000
AnnotativeData
1002
{
1070
     1
1070
     0
1002
}
  0
LINE
  5
22F
  8
DATA
  6
CONTINUOUS
 62
     7
 10
200.0
 20
-1300.0
 30
0.0
 11
1000.0
 21
-1300.0
 31
0.0
  0
ENDSEC
  0
EOF
