  0
SECTION
  2
HEADER
  9
$ACADVER
  1
AC1009
  9
$INSBASE
 10
0.0
 20
0.0
 30
0.0
  9
$EXTMIN
 10
-80.010985489947416
 20
-131.669603117468
 30
-0.0015258207003583
  9
$EXTMAX
 10
280.01098716632811
 20
403.54994963264153
 30
0.0000000349246037
  9
$LIMMIN
 10
0.0
 20
0.0
  9
$LIMMAX
 10
0.0
 20
0.0
  9
$ORTHOMODE
 70
     0
  9
$REGENMODE
 70
     1
  9
$FILLMODE
 70
     1
  9
$QTEXTMODE
 70
     0
  9
$MIRRTEXT
 70
     1
  9
$DRAGMODE
 70
     2
  9
$LTSCALE
 40
10.16
  9
$OSMODE
 70
   231
  9
$ATTMODE
 70
     1
  9
$TEXTSIZE
 40
0.0
  9
$TRACEWID
 40
1.0
  9
$TEXTSTYLE
  7
STANDARD
  9
$CLAYER
  8
DATA
  9
$CELTYPE
  6
BYLAYER
  9
$CECOLOR
 62
   256
  9
$DIMSCALE
 40
1.0
  9
$DIMASZ
 40
0.18
  9
$DIMEXO
 40
0.0625
  9
$DIMDLI
 40
0.38
  9
$DIMRND
 40
0.0
  9
$DIMDLE
 40
0.0
  9
$DIMEXE
 40
0.18
  9
$DIMTP
 40
0.0
  9
$DIMTM
 40
0.0
  9
$DIMTXT
 40
0.18
  9
$DIMCEN
 40
0.09
  9
$DIMTSZ
 40
0.0
  9
$DIMTOL
 70
     0
  9
$DIMLIM
 70
     0
  9
$DIMTIH
 70
     1
  9
$DIMTOH
 70
     1
  9
$DIMSE1
 70
     0
  9
$DIMSE2
 70
     0
  9
$DIMTAD
 70
     0
  9
$DIMZIN
 70
     0
  9
$DIMBLK
  1

  9
$DIMASO
 70
     1
  9
$DIMSHO
 70
     1
  9
$DIMPOST
  1

  9
$DIMAPOST
  1

  9
$DIMALT
 70
     0
  9
$DIMALTD
 70
     2
  9
$DIMALTF
 40
25.399999999999999
  9
$DIMLFAC
 40
1.0
  9
$DIMTOFL
 70
     0
  9
$DIMTVP
 40
0.0
  9
$DIMTIX
 70
     0
  9
$DIMSOXD
 70
     0
  9
$DIMSAH
 70
     0
  9
$DIMBLK1
  1

  9
$DIMBLK2
  1

  9
$DIMSTYLE
  2
STANDARD
  9
$DIMCLRD
 70
     0
  9
$DIMCLRE
 70
     0
  9
$DIMCLRT
 70
     0
  9
$DIMTFAC
 40
1.0
  9
$DIMGAP
 40
0.09
  9
$LUNITS
 70
     2
  9
$LUPREC
 70
     4
  9
$SKETCHINC
 40
0.1
  9
$FILLETRAD
 40
0.0
  9
$AUNITS
 70
     0
  9
$AUPREC
 70
     0
  9
$MENU
  1
acad
  9
$ELEVATION
 40
0.0
  9
$PELEVATION
 40
0.0
  9
$THICKNESS
 40
0.0
  9
$LIMCHECK
 70
     0
  9
$BLIPMODE
 70
     0
  9
$CHAMFERA
 40
0.0
  9
$CHAMFERB
 40
0.0
  9
$SKPOLY
 70
     0
  9
$TDCREATE
 40
2456059.7399305562
  9
$TDUPDATE
 40
2456059.7508808682
  9
$TDINDWG
 40
0.0003255324
  9
$TDUSRTIMER
 40
0.0003255324
  9
$USRTIMER
 70
     1
  9
$ANGBASE
 50
0.0
  9
$ANGDIR
 70
     0
  9
$PDMODE
 70
     1
  9
$PDSIZE
 40
-2.0
  9
$PLINEWID
 40
0.0
  9
$COORDS
 70
     2
  9
$SPLFRAME
 70
     0
  9
$SPLINETYPE
 70
     6
  9
$SPLINESEGS
 70
     8
  9
$ATTDIA
 70
     0
  9
$ATTREQ
 70
     1
  9
$HANDLING
 70
     1
  9
$HANDSEED
  5
6A3
  9
$SURFTAB1
 70
     6
  9
$SURFTAB2
 70
     6
  9
$SURFTYPE
 70
     6
  9
$SURFU
 70
     6
  9
$SURFV
 70
     6
  9
$UCSNAME
  2

  9
$UCSORG
 10
0.0
 20
0.0
 30
0.0
  9
$UCSXDIR
 10
1.0
 20
0.0
 30
0.0
  9
$UCSYDIR
 10
0.0
 20
1.0
 30
0.0
  9
$PUCSNAME
  2

  9
$PUCSORG
 10
0.0
 20
0.0
 30
0.0
  9
$PUCSXDIR
 10
1.0
 20
0.0
 30
0.0
  9
$PUCSYDIR
 10
0.0
 20
1.0
 30
0.0
  9
$USERI1
 70
     0
  9
$USERI2
 70
     0
  9
$USERI3
 70
     0
  9
$USERI4
 70
     0
  9
$USERI5
 70
     0
  9
$USERR1
 40
0.0
  9
$USERR2
 40
0.0
  9
$USERR3
 40
0.0
  9
$USERR4
 40
0.0
  9
$USERR5
 40
0.0
  9
$WORLDVIEW
 70
     1
  9
$SHADEDGE
 70
     3
  9
$SHADEDIF
 70
    70
  9
$TILEMODE
 70
     1
  9
$MAXACTVP
 70
    64
  9
$PLIMCHECK
 70
     0
  9
$PEXTMIN
 10
1.0000000000000000E+020
 20
1.0000000000000000E+020
 30
1.0000000000000000E+020
  9
$PEXTMAX
 10
-1.0000000000000000E+020
 20
-1.0000000000000000E+020
 30
-1.0000000000000000E+020
  9
$PLIMMIN
 10
0.0
 20
0.0
  9
$PLIMMAX
 10
12.0
 20
9.0
  9
$UNITMODE
 70
     0
  9
$VISRETAIN
 70
     0
  9
$PLINEGEN
 70
     1
  9
$PSLTSCALE
 70
     0
  0
ENDSEC
  0
SECTION
  2
TABLES
  0
TABLE
  2
VPORT
 70
     1
  0
VPORT
  2
*ACTIVE
 70
     0
 10
0.0
 20
0.0
 11
1.0
 21
1.0
 12
100.0000008381904
 22
136.46635334876311
 13
0.0
 23
0.0
 14
1.0
 24
1.0
 15
0.0
 25
0.0
 16
0.0
 26
0.0
 36
1.0
 17
0.0
 27
0.0
 37
0.0
 40
538.3458146738933
 41
2.1540469973890342
 42
50.0
 43
0.0
 44
0.0
 50
0.0
 51
0.0
 71
     0
 72
  2000
 73
     1
 74
     1
 75
     0
 76
     0
 77
     0
 78
     0
  0
ENDTAB
  0
TABLE
  2
LTYPE
 70
    11
  0
LTYPE
  2
CONTINUOUS
 70
     0
  3
Solid line
 72
    65
 73
     0
 40
0.0
  0
ENDTAB
  0
TABLE
  2
LAYER
 70
     5
  0
LAYER
  2
0
 70
     0
 62
     7
  6
CONTINUOUS
  0
LAYER
  2
DATA
 70
     0
 62
     7
  6
CONTINUOUS
  0
LAYER
  2
HIBINO-BASE
 70
     0
 62
     7
  6
CONTINUOUS
  0
LAYER
  2
SPEC
 70
     0
 62
     7
  6
CONTINUOUS
  0
LAYER
  2
DIMNSIONS
 70
     0
 62
     7
  6
CONTINUOUS
  0
ENDTAB
  0
TABLE
  2
STYLE
 70
     3
  0
STYLE
  2
STANDARD
 70
     0
 40
0.0
 41
1.0
 50
0.0
 71
     0
 42
0.0
  3
txt
  4
BIGFONT.SHX
  0
ENDTAB
  0
TABLE
  2
VIEW
 70
     0
  0
ENDTAB
  0
TABLE
  2
UCS
 70
     0
  0
ENDTAB
  0
TABLE
  2
APPID
 70
     4
  0
APPID
  2
ACAD
 70
     0
  0
APPID
  2
ACADANNOTATIVE
 70
     0
  0
APPID
  2
ACAD_NAV_VCDISPLAY
 70
     0
  0
APPID
  2
ACAD_MLEADERVER
 70
     0
  0
ENDTAB
  0
TABLE
  2
DIMSTYLE
 70
     2
  0
DIMSTYLE
  2
STANDARD
 70
     0
  3

  4

  5

  6

  7

 40
1.0
 41
0.18
 42
0.0625
 43
0.38
 44
0.18
 45
0.0
 46
0.0
 47
0.0
 48
0.0
140
0.18
141
0.09
142
0.0
143
25.399999999999999
144
1.0
145
0.0
146
1.0
147
0.09
 71
     0
 72
     0
 73
     1
 74
     1
 75
     0
 76
     0
 77
     0
 78
     0
170
     0
171
     2
172
     0
173
     0
174
     0
175
     0
176
     0
177
     0
178
     0
  0
ENDTAB
  0
ENDSEC
  0
SECTION
  2
BLOCKS
  0
BLOCK
  8
0
  2
$MODEL_SPACE
 70
     0
 10
0.0
 20
0.0
 30
0.0
  3
$MODEL_SPACE
  1

  0
ENDBLK
  5
569
  8
0
  0
BLOCK
 67
     1
  8
0
  2
$PAPER_SPACE
 70
     0
 10
0.0
 20
0.0
 30
0.0
  3
$PAPER_SPACE
  1

  0
ENDBLK
  5
565
 67
     1
  8
0
  0
ENDSEC
  0
SECTION
  2
ENTITIES
  0
LINE
  5
2C
  8
HIBINO-BASE
  6
CONTINUOUS
 62
     7
 10
-79.999999999999986
 20
403.53364789486591
 30
0.0
 11
279.99999999999989
 21
403.53364789486591
 31
0.0
  0
LINE
  5
2D
  8
HIBINO-BASE
  6
CONTINUOUS
 62
     7
 10
279.99999999999989
 20
-116.46635210513411
 30
0.0
 11
-79.999999999999986
 21
-116.46635210513411
 31
0.0
  0
LINE
  5
2E
  8
HIBINO-BASE
  6
CONTINUOUS
 62
     7
 10
-79.999999999999986
 20
-116.46635210513411
 30
0.0
 11
-79.999999999999986
 21
403.53364789486591
 31
0.0
  0
LINE
  5
2F
  8
HIBINO-BASE
  6
CONTINUOUS
 62
     7
 10
279.99999999999989
 20
403.53364789486591
 30
0.0
 11
279.99999999999989
 21
-116.46635210513411
 31
0.0
  0
LINE
  5
30
  8
HIBINO-BASE
  6
CONTINUOUS
 62
     7
 10
100.0
 20
-71.466352105134064
 30
0.0
 11
279.99999999999989
 21
-71.466352105134064
 31
0.0
  0
LINE
  5
31
  8
HIBINO-BASE
  6
CONTINUOUS
 62
     7
 10
100.0
 20
-116.46635210513411
 30
0.0
 11
100.0
 21
-71.466352105134064
 31
0.0
  0
TEXT
  5
32
  8
HIBINO-BASE
 62
     7
 10
101.8
 20
-76.483738771800731
 30
0.0
 40
3.2576822916666659
  1
NOTE
 41
0.7
 11
101.8
 21
-73.226056480134062
 31
0.0
 73
     3
  0
LINE
  5
33
  8
HIBINO-BASE
  6
CONTINUOUS
 62
     7
 10
170.0
 20
-116.46635210513411
 30
0.0
 11
170.0
 21
-71.466352105134064
 31
0.0
  0
TEXT
  5
34
  8
HIBINO-BASE
 62
     7
 10
171.7999999999999
 20
-76.483738771800731
 30
0.0
 40
3.2576822916666659
  1
TITLE
 41
0.7
 11
171.7999999999999
 21
-73.226056480134062
 31
0.0
 73
     3
  0
LINE
  5
35
  8
HIBINO-BASE
  6
CONTINUOUS
 62
     7
 10
100.0
 20
-96.466352105134064
 30
0.0
 11
279.99999999999989
 21
-96.466352105134064
 31
0.0
  0
TEXT
  5
36
  8
HIBINO-BASE
 62
     7
 10
196.80000000000001
 20
-101.3710987718007
 30
0.0
 40
3.2576822916666659
  1
DRAWN
 41
0.7
 11
196.80000000000001
 21
-98.113416480134106
 31
0.0
 73
     3
  0
TEXT
  5
37
  8
HIBINO-BASE
 62
     7
 10
146.7999999999999
 20
-101.3710987718007
 30
0.0
 40
3.2576822916666659
  1
DATE
 41
0.7
 11
146.7999999999999
 21
-98.113416480134106
 31
0.0
 73
     3
  0
TEXT
  5
38
  8
HIBINO-BASE
 62
     7
 10
126.8
 20
-101.3710987718007
 30
0.0
 40
3.2576822916666659
  1
SCALE
 41
0.7
 11
126.8
 21
-98.113416480134106
 31
0.0
 73
     3
  0
TEXT
  5
39
  8
HIBINO-BASE
 62
     7
 10
171.7999999999999
 20
-101.3710987718007
 30
0.0
 40
3.2576822916666659
  1
DESIGN
 41
0.7
 11
171.7999999999999
 21
-98.113416480134106
 31
0.0
 73
     3
  0
TEXT
  5
3A
  8
HIBINO-BASE
 62
     7
 10
246.7999999999999
 20
-101.3710987718007
 30
0.0
 40
3.2576822916666659
  1
DRAWING NO.
 41
0.7
 11
246.7999999999999
 21
-98.113416480134106
 31
0.0
 73
     3
  0
TEXT
  5
3B
  8
HIBINO-BASE
 62
     7
 10
221.7999999999999
 20
-101.3710987718007
 30
0.0
 40
3.2576822916666659
  1
CHECK
 41
0.7
 11
221.7999999999999
 21
-98.113416480134106
 31
0.0
 73
     3
  0
LINE
  5
3C
  8
HIBINO-BASE
  6
CONTINUOUS
 62
     7
 10
128.74999999999989
 20
-113.96635210513411
 30
0.0
 11
136.25
 21
-106.46635210513401
 31
0.0
  0
TEXT
  5
3D
  8
HIBINO-BASE
 62
     7
 10
127.5
 20
-108.68423877180069
 30
0.0
 40
3.2576822916666659
  1
1
 41
0.7
 11
127.5
 21
-105.4265564801341
 31
0.0
 73
     3
  0
LINE
  5
3E
  8
HIBINO-BASE
  6
CONTINUOUS
 62
     7
 10
125.0
 20
-116.46635210513411
 30
0.0
 11
125.0
 21
-96.466352105134064
 31
0.0
  0
LINE
  5
3F
  8
HIBINO-BASE
  6
CONTINUOUS
 62
     7
 10
145.0
 20
-116.46635210513411
 30
0.0
 11
145.0
 21
-96.466352105134064
 31
0.0
  0
LINE
  5
40
  8
HIBINO-BASE
  6
CONTINUOUS
 62
     7
 10
195.0
 20
-96.466352105134064
 30
0.0
 11
195.0
 21
-116.46635210513411
 31
0.0
  0
LINE
  5
41
  8
HIBINO-BASE
  6
CONTINUOUS
 62
     7
 10
245.0
 20
-96.466352105134064
 30
0.0
 11
245.0
 21
-116.46635210513411
 31
0.0
  0
LINE
  5
42
  8
HIBINO-BASE
  6
CONTINUOUS
 62
     7
 10
220.0
 20
-116.46635210513411
 30
0.0
 11
220.0
 21
-96.466352105134064
 31
0.0
  0
TEXT
  5
43
  8
HIBINO-BASE
 62
     7
 10
146.71307999999999
 20
-110.7390587718007
 30
0.0
 40
3.2576822916666659
  1
'12.05.
 41
0.7
 11
146.71307999999999
 21
-107.4813764801341
 31
0.0
 73
     3
  0
TEXT
  5
44
  8
HIBINO-BASE
 62
     7
 10
135.0
 20
-112.43423877180069
 30
0.0
 40
3.2576822916666659
  1
2
 41
0.7
 11
135.0
 21
-109.1765564801341
 31
0.0
 73
     3
  0
TEXT
  5
45
  8
HIBINO-BASE
 62
     7
 10
198.0116200220692
 20
-110.7390587718007
 30
0.0
 40
3.2576822916666659
  1
Ootake
 41
0.7
 11
198.0116200220692
 21
-107.4813764801341
 31
0.0
 73
     3
  0
TEXT
  5
46
  8
HIBINO-BASE
 62
     7
 10
107.76666666666659
 20
-112.51435210513399
 30
0.0
 40
6.5153645833333318
  1
A4
 41
0.7
 11
107.76666666666659
 21
-105.9989875218007
 31
0.0
 73
     3
  0
TEXT
  5
47
  8
HIBINO-BASE
 62
     7
 10
101.9166666666666
 20
-101.7052621051341
 30
0.0
 40
3.2576822916666659
  1
PAPER SIZE
 41
0.7
 11
101.9166666666666
 21
-98.447579813467414
 31
0.0
 73
     3
  0
TEXT
  5
48
  8
HIBINO-BASE
 62
     7
 10
-74.48072948621963
 20
-129.31683257348661
 30
0.0
 40
7.0583116319444441
  1
Hibino-Intersound Corporation
 41
0.7
 11
-74.48072948621963
 21
-122.2585209415421
 31
0.0
 73
     3
  0
TEXT
  5
49
  8
HIBINO-BASE
 62
     7
 10
140.36121936042781
 20
-128.61465606690771
 30
0.0
 40
7.0583116319444441
  1
ヒビノインターサウンド株式会社
 41
0.7
 11
140.36121936042781
 21
-121.55634443496329
 31
0.0
 73
     3
  0
LINE
  5
4A
  8
SPEC
  6
CONTINUOUS
 62
     7
 10
-64.999999999999986
 20
383.53364789486602
 30
0.0
 11
230.0
 21
383.53364789486602
 31
0.0
  0
LINE
  5
4B
  8
SPEC
  6
CONTINUOUS
 62
     7
 10
10.0
 20
376.03364789486591
 30
0.0
 11
230.0
 21
376.03364789486591
 31
0.0
  0
LINE
  5
4C
  8
SPEC
  6
CONTINUOUS
 62
     7
 10
-64.999999999999986
 20
361.03364789486602
 30
0.0
 11
230.0
 21
361.03364789486602
 31
0.0
  0
LINE
  5
4D
  8
SPEC
  6
CONTINUOUS
 62
     7
 10
10.0
 20
368.53364789486602
 30
0.0
 11
230.0
 21
368.53364789486602
 31
0.0
  0
LINE
  5
4E
  8
SPEC
  6
CONTINUOUS
 62
     7
 10
-64.999999999999986
 20
383.53364789486602
 30
0.0
 11
-64.999999999999986
 21
271.03364789486591
 31
0.0
  0
TEXT
  5
4F
  8
SPEC
 62
     7
 10
-62.5
 20
386.32018789486591
 30
0.0
 40
4.8865234375000002
  1
仕様
 41
0.7
 11
-62.5
 21
391.2067113323659
 31
0.0
 73
     3
  0
LINE
  5
50
  8
SPEC
  6
CONTINUOUS
 62
     7
 10
10.0
 20
383.53364789486602
 30
0.0
 11
9.9999999999999716
 21
271.03364789486591
 31
0.0
  0
LINE
  5
51
  8
SPEC
  6
CONTINUOUS
 62
     7
 10
230.0
 20
383.53364789486602
 30
0.0
 11
230.0
 21
271.03364789486591
 31
0.0
  0
LINE
  5
52
  8
SPEC
  6
CONTINUOUS
 62
     7
 10
-64.999999999999986
 20
353.53364789486602
 30
0.0
 11
230.0
 21
353.53364789486602
 31
0.0
  0
LINE
  5
53
  8
SPEC
  6
CONTINUOUS
 62
     7
 10
-64.999999999999986
 20
346.03364789486602
 30
0.0
 11
230.0
 21
346.03364789486602
 31
0.0
  0
LINE
  5
54
  8
SPEC
  6
CONTINUOUS
 62
     7
 10
-64.999999999999986
 20
338.53364789486591
 30
0.0
 11
230.0
 21
338.53364789486591
 31
0.0
  0
LINE
  5
55
  8
SPEC
  6
CONTINUOUS
 62
     7
 10
-64.999999999999986
 20
331.03364789486602
 30
0.0
 11
230.0
 21
331.03364789486602
 31
0.0
  0
LINE
  5
56
  8
SPEC
  6
CONTINUOUS
 62
     7
 10
-64.999999999999986
 20
323.53364789486602
 30
0.0
 11
230.0
 21
323.53364789486602
 31
0.0
  0
LINE
  5
57
  8
SPEC
  6
CONTINUOUS
 62
     7
 10
-64.999999999999986
 20
316.03364789486602
 30
0.0
 11
230.0
 21
316.03364789486602
 31
0.0
  0
LINE
  5
58
  8
SPEC
  6
CONTINUOUS
 62
     7
 10
-64.999999999999986
 20
308.53364789486602
 30
0.0
 11
230.0
 21
308.53364789486602
 31
0.0
  0
LINE
  5
59
  8
SPEC
  6
CONTINUOUS
 62
     7
 10
-64.999999999999986
 20
301.03364789486591
 30
0.0
 11
230.0
 21
301.03364789486591
 31
0.0
  0
TEXT
  5
5A
  8
SPEC
 62
     7
 10
-63.398479573621849
 20
288.20079730879939
 30
0.0
 40
3.8006293402777769
  1
寸法
 41
0.7
 11
-63.398479573621849
 21
292.00142664907719
 31
0.0
 73
     3
  0
TEXT
  5
5B
  8
SPEC
 62
     7
 10
11.730441743165599
 20
280.53629144883388
 30
0.0
 40
3.8006293402777769
  1
約145g(除電池)
 41
0.7
 11
11.730441743165599
 21
284.33692078911167
 31
0.0
 73
     3
  0
TEXT
  5
5C
  8
SPEC
 62
     7
 10
-63.327777777777783
 20
280.68624762236118
 30
0.0
 40
3.8006293402777769
  1
重量
 41
0.7
 11
-63.327777777777783
 21
284.48687696263909
 31
0.0
 73
     3
  0
TEXT
  5
5D
  8
SPEC
 62
     7
 10
-63.377644275443281
 20
295.5976550950287
 30
0.0
 40
3.8006293402777769
  1
電池寿命
 41
0.7
 11
-63.377644275443281
 21
299.39828443530649
 31
0.0
 73
     3
  0
TEXT
  5
5E
  8
SPEC
 62
     7
 10
-63.360364372339021
 20
303.1164599800714
 30
0.0
 40
3.8006293402777769
  1
電源
 41
0.7
 11
-63.360364372339021
 21
306.91708932034919
 31
0.0
 73
     3
  0
TEXT
  5
5F
  8
SPEC
 62
     7
 10
11.73670688335981
 20
302.99853972796262
 30
0.0
 40
3.8006293402777769
  1
単3形アルカリ乾電池\U+00D72、もしくは専用リチウムイオンバッテリーSB900
 41
0.7
 11
11.73670688335981
 21
306.79916906824042
 31
0.0
 73
     3
  0
TEXT
  5
60
  8
SPEC
 62
     7
 10
-63.42435678485095
 20
317.90563343281309
 30
0.0
 40
3.8006293402777769
  1
ゲイン調整範囲
 41
0.7
 11
-63.42435678485095
 21
321.70626277309088
 31
0.0
 73
     3
  0
TEXT
  5
61
  8
SPEC
 62
     7
 10
11.864168356510641
 20
317.9107267890322
 30
0.0
 40
3.8006293402777769
  1
0～+21dB(3dBステップ）
 41
0.7
 11
11.864168356510641
 21
321.71135612930988
 31
0.0
 73
     3
  0
TEXT
  5
62
  8
SPEC
 62
     7
 10
-63.211012538623912
 20
325.68855751617889
 30
0.0
 40
3.8006293402777769
  1
最大入力レベル(1kHz、THD1%%%）
 41
0.7
 11
-63.211012538623912
 21
329.4891868564568
 31
0.0
 73
     3
  0
TEXT
  5
63
  8
SPEC
 62
     7
 10
11.857167936826601
 20
325.35874435094019
 30
0.0
 40
3.8006293402777769
  1
8.5dBV(パットOFF、7.5Vpp)20.5dBV(パットON、30Vpp)
 41
0.7
 11
11.857167936826601
 21
329.15937369121798
 31
0.0
 73
     3
  0
TEXT
  5
64
  8
SPEC
 62
     7
 10
-63.482680558309667
 20
340.54351203322278
 30
0.0
 40
3.8006293402777769
  1
アンテナ形式
 41
0.7
 11
-63.482680558309667
 21
344.34414137350058
 31
0.0
 73
     3
  0
TEXT
  5
65
  8
SPEC
 62
     7
 10
11.545832493899111
 20
340.4805065862821
 30
0.0
 40
3.8006293402777769
  1
1/4波長ホイップ、50\U+03A9
 41
0.7
 11
11.545832493899111
 21
344.28113592655978
 31
0.0
 73
     3
  0
TEXT
  5
66
  8
SPEC
 62
     7
 10
-63.228938089938602
 20
348.03953229040678
 30
0.0
 40
3.8006293402777769
  1
送信出力
 41
0.7
 11
-63.228938089938602
 21
351.84016163068458
 31
0.0
 73
     3
  0
TEXT
  5
67
  8
SPEC
 62
     7
 10
11.90848398760626
 20
348.0435992301168
 30
0.0
 40
3.8006293402777769
  1
A帯：1mW、10mW、20mW　B帯：1mW、10mW
 41
0.7
 11
11.90848398760626
 21
351.84422857039459
 31
0.0
 73
     3
  0
TEXT
  5
68
  8
SPEC
 62
     7
 10
-63.376910516921512
 20
355.55808318886972
 30
0.0
 40
3.8006293402777769
  1
電波方式
 41
0.7
 11
-63.376910516921512
 21
359.35871252914751
 31
0.0
 73
     3
  0
TEXT
  5
69
  8
SPEC
 62
     7
 10
11.84164475309289
 20
355.40949176427358
 30
0.0
 40
3.8006293402777769
  1
G1D、G1E
 41
0.7
 11
11.84164475309289
 21
359.21012110455138
 31
0.0
 73
     3
  0
TEXT
  5
6A
  8
SPEC
 62
     7
 10
-63.224042925608167
 20
377.80041957081039
 30
0.0
 40
3.8006293402777769
  1
送信周波数
 41
0.7
 11
-63.224042925608167
 21
381.60104891108818
 31
0.0
 73
     3
  0
TEXT
  5
6B
  8
SPEC
 62
     7
 10
11.774122315057809
 20
377.83451200335588
 30
0.0
 40
3.8006293402777769
  1
ULXD1-JB：B帯(806～810MHz)30チャンネルのうち任意の1チャンネル
 41
0.7
 11
11.774122315057809
 21
381.63514134363368
 31
0.0
 73
     3
  0
TEXT
  5
6C
  8
SPEC
 62
     7
 10
11.736858179434259
 20
295.39778557386791
 30
0.0
 40
3.8006293402777769
  1
約11時間(アルカリ乾電池)、約12時間(SB900)＊使用環境によって異なる
 41
0.7
 11
11.736858179434259
 21
299.19841491414581
 31
0.0
 73
     3
  0
TEXT
  5
6D
  8
SPEC
 62
     7
 10
-63.248254848619958
 20
273.29050973361058
 30
0.0
 40
3.8006293402777769
  1
付属品
 41
0.7
 11
-63.248254848619958
 21
277.09113907388843
 31
0.0
 73
     3
  0
TEXT
  5
6E
  8
SPEC
 62
     7
 10
11.7302280924609
 20
272.94869802506207
 30
0.0
 40
3.8006293402777769
  1
単3型 アルカリ乾電池\U+00D72、マイクポーチ
 41
0.7
 11
11.7302280924609
 21
276.74932736533992
 31
0.0
 73
     3
  0
TEXT
  5
6F
  8
SPEC
 62
     7
 10
11.7288338704656
 20
287.98552218799972
 30
0.0
 40
3.8006293402777769
  1
65.5(W)\U+00D786(H)\U+00D724(D)mm(突起部含まず）
 41
0.7
 11
11.7288338704656
 21
291.78615152827751
 31
0.0
 73
     3
  0
LINE
  5
70
  8
SPEC
  6
CONTINUOUS
 62
     7
 10
-64.999999999999986
 20
293.53364789486602
 30
0.0
 11
230.0
 21
293.53364789486602
 31
0.0
  0
LINE
  5
71
  8
SPEC
  6
CONTINUOUS
 62
     7
 10
-64.999999999999986
 20
286.03364789486602
 30
0.0
 11
230.0
 21
286.03364789486602
 31
0.0
  0
LINE
  5
72
  8
SPEC
  6
CONTINUOUS
 62
     7
 10
-64.999999999999986
 20
278.53364789486591
 30
0.0
 11
230.0
 21
278.53364789486591
 31
0.0
  0
TEXT
  5
73
  8
SPEC
 62
     7
 10
11.78652765305756
 20
370.33451200335588
 30
0.0
 40
3.8006293402777769
  1
ULXD1-AB：A1～A4帯(770～806MHz)284チャンネル、B帯(806～810MHz)30チャンネル、
 41
0.7
 11
11.78652765305756
 21
374.13514134363368
 31
0.0
 73
     3
  0
TEXT
  5
74
  8
SPEC
 62
     7
 10
11.78652765305756
 20
362.91778548420388
 30
0.0
 40
3.8006293402777769
  1
合計314チャンネルのうち任意の1チャンネル
 41
0.7
 11
11.78652765305756
 21
366.71841482448173
 31
0.0
 73
     3
  0
TEXT
  5
75
  8
SPEC
 62
     7
 10
-63.21674350120928
 20
333.10345430499558
 30
0.0
 40
3.8006293402777769
  1
周波数特性
 41
0.7
 11
-63.21674350120928
 21
336.90408364527337
 31
0.0
 73
     3
  0
TEXT
  5
76
  8
SPEC
 62
     7
 10
11.791730111592001
 20
332.99423246280429
 30
0.0
 40
3.8006293402777769
  1
20Hz～20kHz(\U+00B11dB）＊システム全体の帯域幅はマイクヘッドにより変動
 41
0.7
 11
11.791730111592001
 21
336.79486180308197
 31
0.0
 73
     3
  0
LINE
  5
77
  8
SPEC
  6
CONTINUOUS
 62
     7
 10
-64.999999999999986
 20
271.03364789486591
 30
0.0
 11
230.0
 21
271.03364789486591
 31
0.0
  0
TEXT
  5
78
  8
SPEC
 62
     7
 10
-63.308133801170939
 20
310.31814909367682
 30
0.0
 40
3.8006293402777769
  1
入力コネクタ 
 41
0.7
 11
-63.308133801170939
 21
314.11877843395462
 31
0.0
 73
     3
  0
TEXT
  5
79
  8
SPEC
 62
     7
 10
11.82822589117878
 20
310.39275555636618
 30
0.0
 40
3.8006293402777769
  1
Switchcraft TA4M
 41
0.7
 11
11.82822589117878
 21
314.19338489664398
 31
0.0
 73
     3
  0
TEXT
  5
7A
  8
DIMNSIONS
 62
     7
 10
60.0
 20
-91.927372105134054
 30
0.0
 40
4.8865234375000002
  1
(単位：mm)
 41
0.7
 11
60.0
 21
-87.040848667634066
 31
0.0
 73
     3
  0
LINE
  5
7B
  8
DIMNSIONS
  6
CONTINUOUS
 62
     7
 10
-12.50000056327128
 20
-22.987843414329951
 30
0.0
 11
-12.50000056327128
 21
-47.75
 31
0.0
  0
LINE
  5
7C
  8
DIMNSIONS
  6
CONTINUOUS
 62
     7
 10
53.014044399170039
 20
-22.987833422968269
 30
0.0
 11
53.014044399170039
 21
-47.75
 31
0.0
  0
LINE
  5
7D
  8
DIMNSIONS
  6
CONTINUOUS
 62
     7
 10
-12.50000056327128
 20
-43.75
 30
0.0
 11
53.014044399170039
 21
-43.75
 31
0.0
  0
LINE
  5
7E
  8
DIMNSIONS
  6
CONTINUOUS
 62
     7
 10
-12.50000056327128
 20
-43.75
 30
0.0
 11
-7.4987554460837904
 21
-42.409920409699509
 31
0.0
  0
LINE
  5
7F
  8
DIMNSIONS
  6
CONTINUOUS
 62
     7
 10
-12.50000056327128
 20
-43.75
 30
0.0
 11
-7.4987554460837904
 21
-45.090079590300491
 31
0.0
  0
LINE
  5
80
  8
DIMNSIONS
  6
CONTINUOUS
 62
     7
 10
53.014044399170039
 20
-43.75
 30
0.0
 11
48.012799281982552
 21
-45.090079590300491
 31
0.0
  0
LINE
  5
81
  8
DIMNSIONS
  6
CONTINUOUS
 62
     7
 10
53.014044399170039
 20
-43.75
 30
0.0
 11
48.012799281982552
 21
-42.409920409699509
 31
0.0
  0
TEXT
  5
82
  8
DIMNSIONS
 62
     7
 10
13.20146636239383
 20
-41.762222222222242
 30
0.0
 40
5.4294704861111107
  1
65.5
 41
0.7
 11
13.20146636239383
 21
-36.332751736111128
 31
0.0
 73
     3
  0
LINE
  5
83
  8
DIMNSIONS
  6
CONTINUOUS
 62
     7
 10
-10.489664567242819
 20
-25.000006986405591
 30
0.0
 11
-35.250000000000007
 21
-25.000006986405591
 31
0.0
  0
LINE
  5
84
  8
DIMNSIONS
  6
CONTINUOUS
 62
     7
 10
-14.06802561061415
 20
61.074256221174352
 30
0.0
 11
-35.250000000000007
 21
61.074256221174352
 31
0.0
  0
LINE
  5
85
  8
DIMNSIONS
  6
CONTINUOUS
 62
     7
 10
-31.250000000000011
 20
-25.000006986405591
 30
0.0
 11
-31.250000000000011
 21
61.074256221174352
 31
0.0
  0
LINE
  5
86
  8
DIMNSIONS
  6
CONTINUOUS
 62
     7
 10
-31.250000000000011
 20
-25.000006986405591
 30
0.0
 11
-32.590079590300498
 21
-19.9987618692181
 31
0.0
  0
LINE
  5
87
  8
DIMNSIONS
  6
CONTINUOUS
 62
     7
 10
-31.250000000000011
 20
-25.000006986405591
 30
0.0
 11
-29.90992040969952
 21
-19.9987618692181
 31
0.0
  0
LINE
  5
88
  8
DIMNSIONS
  6
CONTINUOUS
 62
     7
 10
-31.250000000000011
 20
61.074256221174352
 30
0.0
 11
-29.90992040969952
 21
56.073011103986872
 31
0.0
  0
LINE
  5
89
  8
DIMNSIONS
  6
CONTINUOUS
 62
     7
 10
-31.250000000000011
 20
61.074256221174352
 30
0.0
 11
-32.590079590300498
 21
56.073011103986872
 31
0.0
  0
TEXT
  5
8A
  8
DIMNSIONS
 62
     7
 10
-33.237777777777772
 20
14.5093468396066
 30
0.0
 40
5.4294704861111107
  1
86
 50
90.0
 41
0.7
 11
-38.667248263888887
 21
14.5093468396066
 31
0.0
 73
     3
  0
LINE
  5
8B
  8
DIMNSIONS
  6
CONTINUOUS
 62
     7
 10
-18.068025610614161
 20
61.074256221174352
 30
0.0
 11
-35.250000000000007
 21
61.074256221174352
 31
0.0
  0
LINE
  5
8C
  8
DIMNSIONS
  6
CONTINUOUS
 62
     7
 10
-4.1000000000000076
 20
161.07425622117441
 30
0.0
 11
-35.250000000000007
 21
161.07425622117441
 31
0.0
  0
LINE
  5
8D
  8
DIMNSIONS
  6
CONTINUOUS
 62
     7
 10
-31.250000000000011
 20
61.074256221174352
 30
0.0
 11
-31.250000000000011
 21
161.07425622117441
 31
0.0
  0
LINE
  5
8E
  8
DIMNSIONS
  6
CONTINUOUS
 62
     7
 10
-31.250000000000011
 20
61.074256221174352
 30
0.0
 11
-32.590079590300498
 21
66.07550133836186
 31
0.0
  0
LINE
  5
8F
  8
DIMNSIONS
  6
CONTINUOUS
 62
     7
 10
-31.250000000000011
 20
61.074256221174352
 30
0.0
 11
-29.90992040969952
 21
66.07550133836186
 31
0.0
  0
LINE
  5
90
  8
DIMNSIONS
  6
CONTINUOUS
 62
     7
 10
-31.250000000000011
 20
161.07425622117441
 30
0.0
 11
-29.90992040969952
 21
156.07301110398689
 31
0.0
  0
LINE
  5
91
  8
DIMNSIONS
  6
CONTINUOUS
 62
     7
 10
-31.250000000000011
 20
161.07425622117441
 30
0.0
 11
-32.590079590300498
 21
156.07301110398689
 31
0.0
  0
TEXT
  5
92
  8
DIMNSIONS
 62
     7
 10
-33.237777777777772
 20
105.78258955450769
 30
0.0
 40
5.4294704861111107
  1
100
 50
90.0
 41
0.7
 11
-38.667248263888887
 21
105.78258955450769
 31
0.0
 73
     3
  0
LINE
  5
93
  8
DIMNSIONS
  6
CONTINUOUS
 62
     7
 10
0.5999999999999944
 20
187.50000708060901
 30
0.0
 11
-35.250000000000007
 21
187.50000708060901
 31
0.0
  0
LINE
  5
94
  8
DIMNSIONS
  6
CONTINUOUS
 62
     7
 10
-12.982840367124959
 20
211.5
 30
0.0
 11
-35.250000000000007
 21
211.5
 31
0.0
  0
LINE
  5
95
  8
DIMNSIONS
  6
CONTINUOUS
 62
     7
 10
-31.250000000000011
 20
187.50000708060901
 30
0.0
 11
-31.250000000000011
 21
211.5
 31
0.0
  0
LINE
  5
96
  8
DIMNSIONS
  6
CONTINUOUS
 62
     7
 10
-31.250000000000011
 20
187.50000708060901
 30
0.0
 11
-32.590079590300498
 21
192.5012521977965
 31
0.0
  0
LINE
  5
97
  8
DIMNSIONS
  6
CONTINUOUS
 62
     7
 10
-31.250000000000011
 20
187.50000708060901
 30
0.0
 11
-29.90992040969952
 21
192.5012521977965
 31
0.0
  0
LINE
  5
98
  8
DIMNSIONS
  6
CONTINUOUS
 62
     7
 10
-31.250000000000011
 20
211.5
 30
0.0
 11
-29.90992040969952
 21
206.49875488281251
 31
0.0
  0
LINE
  5
99
  8
DIMNSIONS
  6
CONTINUOUS
 62
     7
 10
-31.250000000000011
 20
211.5
 30
0.0
 11
-32.590079590300498
 21
206.49875488281251
 31
0.0
  0
TEXT
  5
9A
  8
DIMNSIONS
 62
     7
 10
-33.237777777777772
 20
195.9722257625267
 30
0.0
 40
5.4294704861111107
  1
24
 50
90.0
 41
0.7
 11
-38.667248263888887
 21
195.9722257625267
 31
0.0
 73
     3
  0
TEXT
  5
9B
  8
DATA
 62
     7
 10
195.2965536007647
 20
-93.675637289969501
 30
0.0
 40
4.8865234375000002
  1
ULXD1-AB 、ULXD1-JB　
 41
0.7
 11
195.2965536007647
 21
-88.789113852469484
 31
0.0
 73
     3
  0
TEXT
  5
9C
  8
DATA
 62
     7
 10
199.81205982077731
 20
-78.490649605738227
 30
0.0
 40
4.8865234375000002
  1
SHURE
 41
0.7
 11
199.81205982077731
 21
-73.604126168238224
 31
0.0
 73
     3
  0
TEXT
  5
9D
  8
DATA
 62
     7
 10
194.58311787793559
 20
-85.3712021528967
 30
0.0
 40
3.2576822916666659
  1
ボディーパック型送信機
 41
0.7
 11
194.58311787793559
 21
-82.113519861230046
 31
0.0
 73
     3
  0
TEXT
  5
9E
  8
DATA
 62
     7
 10
-60.0
 20
-107.99035210513409
 30
0.0
 40
3.2576822916666659
  1
仕様および外観は予告なく変更されることがありますので、ご了承ください。
 41
0.7
 11
-60.0
 21
-104.7326698134674
 31
0.0
 73
     3
  0
ARC
  5
9F
  8
DATA
  6
CONTINUOUS
 62
     7
 10
-3.277950692243905
 20
86.877972579657708
 30
0.0
 40
2.0354058587807682
 50
335.13308638901418
 51
357.00254680406579
  0
ARC
  5
A0
  8
DATA
  6
CONTINUOUS
 62
     7
 10
4.4250122483730356
 20
86.898139993092059
 30
0.0
 40
2.117534553675108
 50
183.42761221381571
 51
204.43908374295239
  0
LINE
  5
A1
  8
DATA
  6
CONTINUOUS
 62
     7
 10
-3.897031933226244
 20
61.074409514054992
 30
0.0
 11
-3.897031933226244
 21
64.074409514054992
 31
0.0
  0
LINE
  5
A2
  8
DATA
  6
CONTINUOUS
 62
     7
 10
4.9629680667737537
 20
64.074409514054992
 30
0.0
 11
4.9629680667737537
 21
61.074409514054992
 31
0.0
  0
LINE
  5
A3
  8
DATA
  6
CONTINUOUS
 62
     7
 10
6.2329680667737506
 20
64.074409514054992
 30
0.0
 11
-5.16703193322624
 21
64.074409514054992
 31
0.0
  0
LINE
  5
A4
  8
DATA
  6
CONTINUOUS
 62
     7
 10
-5.16703193322624
 20
64.074409514054992
 30
0.0
 11
-5.16703193322624
 21
78.574409514054992
 31
0.0
  0
LINE
  5
A5
  8
DATA
  6
CONTINUOUS
 62
     7
 10
6.2329680667737506
 20
64.074409514054992
 30
0.0
 11
6.2329680667737506
 21
78.574409514054992
 31
0.0
  0
LINE
  5
A6
  8
DATA
  6
CONTINUOUS
 62
     7
 10
5.7329680667737506
 20
79.074409514054992
 30
0.0
 11
-4.66703193322624
 21
79.074409514054992
 31
0.0
  0
LINE
  5
A7
  8
DATA
  6
CONTINUOUS
 62
     7
 10
-5.16703193322624
 20
78.574409514054992
 30
0.0
 11
-4.66703193322624
 21
79.074409514054992
 31
0.0
  0
LINE
  5
A8
  8
DATA
  6
CONTINUOUS
 62
     7
 10
6.2329680667737506
 20
78.574409514054992
 30
0.0
 11
5.7329680667737506
 21
79.074409514054992
 31
0.0
  0
LINE
  5
A9
  8
DATA
  6
CONTINUOUS
 62
     7
 10
-10.05553480999626
 20
61.07440951405502
 30
0.0
 11
50.56687370637421
 21
61.07440951405502
 31
0.0
  0
LINE
  5
AA
  8
DATA
  6
CONTINUOUS
 62
     7
 10
-12.49933889954128
 20
58.177009488989967
 30
0.0
 11
-10.775330056685799
 21
60.776260560744532
 31
0.0
  0
ARC
  5
AB
  8
DATA
  6
CONTINUOUS
 62
     7
 10
-10.05553480999624
 20
60.056465314054918
 30
0.0
 40
1.0179442000001011
 50
90.000000000000782
 51
134.9999999999977
  0
LINE
  5
AC
  8
DATA
  6
CONTINUOUS
 62
     7
 10
53.010677795919243
 20
58.177009488989967
 30
0.0
 11
51.286668953063767
 21
60.776260560744532
 31
0.0
  0
ARC
  5
AD
  8
DATA
  6
CONTINUOUS
 62
     7
 10
50.56687370637421
 20
60.056465314054918
 30
0.0
 40
1.0179442000000991
 50
45.00000000000226
 51
89.999999999999204
  0
LINE
  5
AE
  8
DATA
  6
CONTINUOUS
 62
     7
 10
53.014713832050717
 20
58.177020199983318
 30
0.0
 11
-12.499331795245959
 21
58.177020199983318
 31
0.0
  0
ARC
  5
AF
  8
DATA
  6
CONTINUOUS
 62
     7
 10
8.424096953778843
 20
44.97819230015989
 30
0.0
 40
1.0179441999999741
 50
90.000000000000782
 51
180.00000000000321
  0
ARC
  5
B0
  8
DATA
  6
CONTINUOUS
 62
     7
 10
32.090558026844178
 20
44.97745072322504
 30
0.0
 40
1.018686046859208
 50
0.0417098402705255
 51
89.958290159727895
  0
ARC
  5
B1
  8
DATA
  6
CONTINUOUS
 62
     7
 10
8.424096953778843
 20
34.798750300159838
 30
0.0
 40
1.0179442000000021
 50
179.9999999999992
 51
269.9999999999992
  0
ARC
  5
B2
  8
DATA
  6
CONTINUOUS
 62
     7
 10
32.091299603778971
 20
34.798750300159881
 30
0.0
 40
1.017944200000044
 50
270.00000000000159
 51
359.99999999999841
  0
ARC
  5
B3
  8
DATA
  6
CONTINUOUS
 62
     7
 10
7.7895642350707419
 20
54.39249374386803
 30
0.0
 40
2.292057473748407
 50
90.042056008504659
 51
179.9579439914946
  0
ARC
  5
B4
  8
DATA
  6
CONTINUOUS
 62
     7
 10
7.3500040878802491
 20
54.728986283707769
 30
0.0
 40
2.914298166475656
 50
86.883712935200151
 51
180.3567171211117
  0
ARC
  5
B5
  8
DATA
  6
CONTINUOUS
 62
     7
 10
32.725846180675703
 20
54.392507602056639
 30
0.0
 40
2.2920436054332218
 50
0.0417098402719464
 51
89.958290159728406
  0
ARC
  5
B6
  8
DATA
  6
CONTINUOUS
 62
     7
 10
33.252844752897737
 20
54.820709855022422
 30
0.0
 40
2.8234374249399199
 50
358.4497269465312
 51
94.061605929372291
  0
ARC
  5
B7
  8
DATA
  6
CONTINUOUS
 62
     7
 10
32.727514728779042
 20
28.818328125159841
 30
0.0
 40
2.290374449999987
 50
269.99999999999892
 51
0.0000000000003411
  0
ARC
  5
B8
  8
DATA
  6
CONTINUOUS
 62
     7
 10
33.059908606267449
 20
28.589763738401761
 30
0.0
 40
3.0177919274612761
 50
268.11084649198239
 51
357.69024382109512
  0
ARC
  5
B9
  8
DATA
  6
CONTINUOUS
 62
     7
 10
8.0239682584646328
 20
29.054414554845689
 30
0.0
 40
2.537467512868838
 50
185.33853065649879
 51
264.66146934350178
  0
ARC
  5
BA
  8
DATA
  6
CONTINUOUS
 62
     7
 10
7.3345250981848684
 20
28.471814388534028
 30
0.0
 40
2.8992005639181921
 50
180.11397391876679
 51
272.52812057348569
  0
ARC
  5
BB
  8
DATA
  6
CONTINUOUS
 62
     7
 10
-12.54827630946342
 20
21.186772343723121
 30
0.0
 40
14.870688666474489
 50
342.88638214867723
 51
359.89362401510363
  0
ARC
  5
BC
  8
DATA
  6
CONTINUOUS
 62
     7
 10
53.022791667971063
 20
21.18139376399149
 30
0.0
 40
14.8311727231179
 50
180.08588085558151
 51
196.86874900223111
  0
LINE
  5
BD
  8
DATA
  6
CONTINUOUS
 62
     7
 10
-12.095469538191271
 20
24.634235133455508
 30
0.0
 11
52.609491871079037
 21
24.634235133455508
 31
0.0
  0
LINE
  5
BE
  8
DATA
  6
CONTINUOUS
 62
     7
 10
-12.095469538191271
 20
24.374009196564842
 30
0.0
 11
52.609517319684073
 21
24.374009196564842
 31
0.0
  0
LINE
  5
BF
  8
DATA
  6
CONTINUOUS
 62
     7
 10
-12.095469538191271
 20
24.374009196564842
 30
0.0
 11
-12.095469538191271
 21
24.634235133455508
 31
0.0
  0
LINE
  5
C0
  8
DATA
  6
CONTINUOUS
 62
     7
 10
-12.095469538191271
 20
24.634235133455508
 30
0.0
 11
-12.49933055182983
 21
25.019312090589771
 31
0.0
  0
LINE
  5
C1
  8
DATA
  6
CONTINUOUS
 62
     7
 10
52.609491871079037
 20
24.37403464516985
 30
0.0
 11
52.609491871079037
 21
24.634235133455508
 31
0.0
  0
LINE
  5
C2
  8
DATA
  6
CONTINUOUS
 62
     7
 10
52.609491871079037
 20
24.634235133455508
 30
0.0
 11
53.01471384754484
 21
25.019312090781039
 31
0.0
  0
ARC
  5
C3
  8
DATA
  6
CONTINUOUS
 62
     7
 10
-6.4719976972720303
 20
-18.97379586199796
 30
0.0
 40
6.0335068058166881
 50
174.29537617358241
 51
217.04158330462499
  0
ARC
  5
C4
  8
DATA
  6
CONTINUOUS
 62
     7
 10
-6.649674861393521
 20
-19.29934111498568
 30
0.0
 40
5.702039884178066
 50
213.90959033221881
 51
271.54519667523817
  0
LINE
  5
C5
  8
DATA
  6
CONTINUOUS
 62
     7
 10
-9.017139036860355
 20
-18.374064975409279
 30
0.0
 11
-8.9486573467869874
 21
-18.937661881826049
 31
0.0
  0
ARC
  5
C6
  8
DATA
  6
CONTINUOUS
 62
     7
 10
-7.694028506952975
 20
-18.686354670841471
 30
0.0
 40
1.2795502491250921
 50
191.3266810656234
 51
242.25280711337101
  0
ARC
  5
C7
  8
DATA
  6
CONTINUOUS
 62
     7
 10
-7.2617806476617091
 20
-18.146787067002261
 30
0.0
 40
1.962714540873969
 50
238.41594298822039
 51
261.8251799025179
  0
ARC
  5
C8
  8
DATA
  6
CONTINUOUS
 62
     7
 10
20.338919848758469
 20
261.0451641072188
 30
0.0
 40
282.51374220612661
 50
264.33656475477471
 51
265.01042786147048
  0
ARC
  5
C9
  8
DATA
  6
CONTINUOUS
 62
     7
 10
46.983336593649987
 20
-18.97379586199796
 30
0.0
 40
6.033506805816673
 50
322.95841669537492
 51
5.7046238264175031
  0
ARC
  5
CA
  8
DATA
  6
CONTINUOUS
 62
     7
 10
47.161013757771492
 20
-19.29934111498568
 30
0.0
 40
5.7020398841780597
 50
268.45480332476183
 51
326.09040966778127
  0
LINE
  5
CB
  8
DATA
  6
CONTINUOUS
 62
     7
 10
49.528477933238307
 20
-18.374064975409279
 30
0.0
 11
49.459996243164952
 21
-18.937661881826049
 31
0.0
  0
ARC
  5
CC
  8
DATA
  6
CONTINUOUS
 62
     7
 10
48.205367403330939
 20
-18.686354670841471
 30
0.0
 40
1.279550249125111
 50
297.74719288662891
 51
348.6733189343766
  0
ARC
  5
CD
  8
DATA
  6
CONTINUOUS
 62
     7
 10
47.773119544039659
 20
-18.146787067002261
 30
0.0
 40
1.962714540873969
 50
278.1748200974821
 51
301.58405701177969
  0
ARC
  5
CE
  8
DATA
  6
CONTINUOUS
 62
     7
 10
20.172419047619499
 20
261.0451641072188
 30
0.0
 40
282.51374220612661
 50
274.98957213852958
 51
275.6634352452254
  0
LINE
  5
CF
  8
DATA
  6
CONTINUOUS
 62
     7
 10
-6.4959165016865512
 20
-24.99930753660411
 30
0.0
 11
47.29999999999999
 21
-24.99930753660411
 31
0.0
  0
LINE
  5
D0
  8
DATA
  6
CONTINUOUS
 62
     7
 10
-12.500000000171021
 20
23.967917100921731
 30
0.0
 11
-12.095469538191271
 21
24.374009196564842
 31
0.0
  0
ARC
  5
D1
  8
DATA
  6
CONTINUOUS
 62
     7
 10
-12.475867476112301
 20
20.855615855650768
 30
0.0
 40
1.2720563945822929
 50
91.087038858839151
 51
179.98181956127351
  0
ARC
  5
D2
  8
DATA
  6
CONTINUOUS
 62
     7
 10
-12.47556135265661
 20
16.564090569482509
 30
0.0
 40
1.2724333011763791
 50
180.00011136918249
 51
269.40149336303779
  0
LINE
  5
D3
  8
DATA
  6
CONTINUOUS
 62
     7
 10
-12.4888528364715
 20
15.29172668976862
 30
0.0
 11
-11.431221839335009
 21
15.280678368211641
 31
0.0
  0
ARC
  5
D4
  8
DATA
  6
CONTINUOUS
 62
     7
 10
52.987206372490263
 20
20.855615855650768
 30
0.0
 40
1.2720563945822929
 50
0.0181804387264357
 51
88.912961141160835
  0
ARC
  5
D5
  8
DATA
  6
CONTINUOUS
 62
     7
 10
52.986900249034569
 20
16.564090569482509
 30
0.0
 40
1.2724333011763691
 50
270.5985066369621
 51
359.99988863081728
  0
LINE
  5
D6
  8
DATA
  6
CONTINUOUS
 62
     7
 10
53.000191732849473
 20
15.29172668976862
 30
0.0
 11
51.942560735712959
 21
15.280678368211641
 31
0.0
  0
LINE
  5
D7
  8
DATA
  6
CONTINUOUS
 62
     7
 10
52.989617683963999
 20
23.993908832284841
 30
0.0
 11
52.989617683963999
 21
22.128531707903811
 31
0.0
  0
ARC
  5
D8
  8
DATA
  6
CONTINUOUS
 62
     7
 10
20.382208384406631
 20
61.522684158326257
 30
0.0
 40
0.9057182922062814
 50
5.2018865186371084
 51
144.7981134813638
  0
LINE
  5
D9
  8
DATA
  6
CONTINUOUS
 62
     7
 10
19.642122493162908
 20
62.044793819622747
 30
0.0
 11
19.382108802138202
 21
61.07440951405502
 31
0.0
  0
LINE
  5
DA
  8
DATA
  6
CONTINUOUS
 62
     7
 10
21.28419639785433
 20
61.604801442948457
 30
0.0
 11
21.142078308835352
 21
61.07440951405502
 31
0.0
  0
TEXT
  5
DB
  8
DATA
 62
     7
 10
16.276733684351111
 20
47.402981193276602
 30
0.0
 40
3.111499999999999
  1
ULXD1
 41
0.7
 11
16.276733684351111
 21
50.514481193276609
 31
0.0
 73
     3
  0
TEXT
  5
DC
  8
DATA
 62
     7
 10
14.630031839549909
 20
51.701797824814093
 30
0.0
 40
3.951111111111111
  1
SHURE
 41
0.7
 11
14.630031839549909
 21
55.652908935925197
 31
0.0
 73
     3
  0
CIRCLE
  5
DD
  8
DATA
  6
CONTINUOUS
 62
     7
 10
39.63044939847962
 20
200.13333081773391
 30
0.0
 40
7.5073384749999681
  0
CIRCLE
  5
DE
  8
DATA
  6
CONTINUOUS
 62
     7
 10
39.630457931932327
 20
200.13333081773391
 30
0.0
 40
7.1510580050000661
  0
CIRCLE
  5
DF
  8
DATA
  6
CONTINUOUS
 62
     7
 10
39.63044939847962
 20
200.13333081773391
 30
0.0
 40
5.565661212828326
  0
CIRCLE
  5
E0
  8
DATA
  6
CONTINUOUS
 62
     7
 10
39.629787734749648
 20
200.13210928469391
 30
0.0
 40
4.2575516164999661
  0
CIRCLE
  5
E1
  8
DATA
  6
CONTINUOUS
 62
     7
 10
39.629787734749648
 20
200.13210928469391
 30
0.0
 40
0.4911580764999712
  0
CIRCLE
  5
E2
  8
DATA
  6
CONTINUOUS
 62
     7
 10
39.629787734749648
 20
202.55210928469401
 30
0.0
 40
0.4911580764999712
  0
CIRCLE
  5
E3
  8
DATA
  6
CONTINUOUS
 62
     7
 10
37.416158076499968
 20
199.4438419235
 30
0.0
 40
0.4911580764999712
  0
CIRCLE
  5
E4
  8
DATA
  6
CONTINUOUS
 62
     7
 10
41.849158076499961
 20
199.44684192349999
 30
0.0
 40
0.4911580764999712
  0
TEXT
  5
E5
  8
DATA
 62
     7
 10
23.519101768278428
 20
206.238
 30
0.0
 40
1.2347222222222221
  1
off
 50
180.0
 41
0.7
 11
23.519101768278428
 21
205.00327777777781
 31
0.0
 73
     3
  0
TEXT
  5
E6
  8
DATA
 62
     7
 10
19.21160116833385
 20
206.238
 30
0.0
 40
1.085894097222222
  1
on
 50
180.0
 41
0.7
 11
19.21160116833385
 21
205.15210590277781
 31
0.0
 73
     3
  0
CIRCLE
  5
E7
  8
DATA
  6
CONTINUOUS
 62
     7
 10
0.5323069664944599
 20
198.11881924593399
 30
0.0
 40
1.525000000000005
  0
ARC
  5
E8
  8
DATA
  6
CONTINUOUS
 62
     7
 10
-7.3377700232474572
 20
205.90626929165211
 30
0.0
 40
4.0913651455719888
 50
92.126758780723947
 51
175.22284902420679
  0
ARC
  5
E9
  8
DATA
  6
CONTINUOUS
 62
     7
 10
47.872775324222289
 20
205.9271032820152
 30
0.0
 40
4.0702955489730757
 50
0.0413072770488722
 51
87.958826531897984
  0
ARC
  5
EA
  8
DATA
  6
CONTINUOUS
 62
     7
 10
48.130221116321572
 20
196.85361120157009
 30
0.0
 40
3.8128321176061162
 50
288.03098088030958
 51
359.99969569505549
  0
ARC
  5
EB
  8
DATA
  6
CONTINUOUS
 62
     7
 10
32.048592669194889
 20
209.0155485752752
 30
0.0
 40
20.355034210064971
 50
270.00044313861957
 51
288.02985106059617
  0
ARC
  5
EC
  8
DATA
  6
CONTINUOUS
 62
     7
 10
32.951218172709858
 20
205.74987064180411
 30
0.0
 40
17.868136527543989
 50
270.027387766804
 51
287.96445201310922
  0
ARC
  5
ED
  8
DATA
  6
CONTINUOUS
 62
     7
 10
8.4827724161972071
 20
209.0359650094602
 30
0.0
 40
20.375450923172771
 50
251.97931721935299
 51
269.99050927223738
  0
ARC
  5
EE
  8
DATA
  6
CONTINUOUS
 62
     7
 10
7.5600474723386517
 20
205.73186005308131
 30
0.0
 40
17.850131904465002
 50
251.98403243325399
 51
269.9815443147171
  0
ARC
  5
EF
  8
DATA
  6
CONTINUOUS
 62
     7
 10
-7.6021758474093843
 20
196.85357119451919
 30
0.0
 40
3.8127465324722589
 50
179.99970310863981
 51
251.9701133890816
  0
ARC
  5
F0
  8
DATA
  6
CONTINUOUS
 62
     7
 10
-7.3762121770712668
 20
206.1156710107725
 30
0.0
 40
5.0799720208294268
 50
92.224260959987632
 51
179.60706778736429
  0
ARC
  5
F1
  8
DATA
  6
CONTINUOUS
 62
     7
 10
47.8498525387282
 20
206.07649638599781
 30
0.0
 40
5.1208334202384691
 50
0.8742061221305078
 51
87.340829121590346
  0
ARC
  5
F2
  8
DATA
  6
CONTINUOUS
 62
     7
 10
47.979366512632637
 20
197.11989342355369
 30
0.0
 40
5.0096243635030557
 50
288.0347500580375
 51
359.49953550896038
  0
LINE
  5
F3
  8
DATA
  6
CONTINUOUS
 62
     7
 10
54.015252418892423
 20
194.62254904516411
 30
0.0
 11
52.313471385865007
 21
194.60754965503261
 31
0.0
  0
ARC
  5
F4
  8
DATA
  6
CONTINUOUS
 62
     7
 10
53.27870804035539
 20
196.76675806272041
 30
0.0
 40
0.2545138536231615
 50
30.261926228400188
 51
88.998625318393024
  0
ARC
  5
F5
  8
DATA
  6
CONTINUOUS
 62
     7
 10
54.00695425012885
 20
194.87676989116079
 30
0.0
 40
0.2543562425892692
 50
271.86956067354799
 51
0.0111869442302464
  0
ARC
  5
F6
  8
DATA
  6
CONTINUOUS
 62
     7
 10
52.674264986605699
 20
195.15837262742971
 30
0.0
 40
1.587054482589169
 50
0.1261020433456618
 51
30.16547249913188
  0
LINE
  5
F7
  8
DATA
  6
CONTINUOUS
 62
     7
 10
-13.496319536331249
 20
194.62234329972151
 30
0.0
 11
-11.79869007213118
 21
194.60758078466529
 31
0.0
  0
ARC
  5
F8
  8
DATA
  6
CONTINUOUS
 62
     7
 10
-7.4644159101474514
 20
197.12054522817439
 30
0.0
 40
5.0105195715605957
 50
180.50782881076501
 51
251.95788562177091
  0
ARC
  5
F9
  8
DATA
  6
CONTINUOUS
 62
     7
 10
-12.76603164255023
 20
196.7668428844319
 30
0.0
 40
0.2544286310447386
 50
90.996364449912278
 51
149.7489905165171
  0
ARC
  5
FA
  8
DATA
  6
CONTINUOUS
 62
     7
 10
-13.494098856932091
 20
194.87681966056729
 30
0.0
 40
0.254486050003365
 50
180.00000000075019
 51
269.50002299924893
  0
ARC
  5
FB
  8
DATA
  6
CONTINUOUS
 62
     7
 10
-12.15245013813813
 20
195.1559130004928
 30
0.0
 40
1.596142408855076
 50
149.95885203196499
 51
179.82272385212451
  0
ARC
  5
FC
  8
DATA
  6
CONTINUOUS
 62
     7
 10
1.5021452338263821
 20
146.72599620404699
 30
0.0
 40
64.774765674103406
 50
90.083182461115953
 51
92.188395696352316
  0
ARC
  5
FD
  8
DATA
  6
CONTINUOUS
 62
     7
 10
39.06296045063177
 20
149.28981329017321
 30
0.0
 40
62.21088696897845
 50
87.768416108055547
 51
89.961880163155726
  0
ARC
  5
FE
  8
DATA
  6
CONTINUOUS
 62
     7
 10
1.433403248732418
 20
140.97338417580951
 30
0.0
 40
75.330588053777873
 50
87.857221939081953
 51
88.8691011001428
  0
ARC
  5
FF
  8
DATA
  6
CONTINUOUS
 62
     7
 10
3.9338794870895981
 20
208.0694518171382
 30
0.0
 40
8.18795064889526
 50
82.871244457076386
 51
87.787373830450377
  0
ARC
  5
100
  8
DATA
  6
CONTINUOUS
 62
     7
 10
4.5931865511612093
 20
211.1423368560942
 30
0.0
 40
5.0643563820342221
 50
76.836317337492375
 51
85.959830815548344
  0
ARC
  5
101
  8
DATA
  6
CONTINUOUS
 62
     7
 10
5.515354506011021
 20
215.12544291496951
 30
0.0
 40
0.9759467816558947
 50
38.507753377259483
 51
76.2990749516742
  0
ARC
  5
102
  8
DATA
  6
CONTINUOUS
 62
     7
 10
5.626945670725461
 20
215.2398470420334
 30
0.0
 40
0.8176395663390172
 50
13.17412495838159
 51
37.136324465731548
  0
ARC
  5
103
  8
DATA
  6
CONTINUOUS
 62
     7
 10
5.6343839758334866
 20
215.24122871750049
 30
0.0
 40
0.8100735585198298
 50
347.57231246873152
 51
13.078801486172379
  0
ARC
  5
104
  8
DATA
  6
CONTINUOUS
 62
     7
 10
5.6384232624767634
 20
215.24186783868549
 30
0.0
 40
0.8062678454878124
 50
328.57333099608923
 51
347.46618489510053
  0
ARC
  5
105
  8
DATA
  6
CONTINUOUS
 62
     7
 10
5.6462905658414542
 20
215.22461542143901
 30
0.0
 40
0.7906304051289627
 50
314.41779239834079
 51
329.34293766992511
  0
ARC
  5
106
  8
DATA
  6
CONTINUOUS
 62
     7
 10
-4.6952031393734179
 20
212.17738861429231
 30
0.0
 40
4.17028350761188
 50
90.388660275445872
 51
107.6551942877585
  0
ARC
  5
107
  8
DATA
  6
CONTINUOUS
 62
     7
 10
-4.6587454350419213
 20
212.4231894132206
 30
0.0
 40
3.9486300909662511
 50
109.2412113060619
 51
119.1148812833104
  0
ARC
  5
108
  8
DATA
  6
CONTINUOUS
 62
     7
 10
-4.8193311850842369
 20
212.66580260873531
 30
0.0
 40
3.6586047492322762
 50
118.7664530511737
 51
133.25259526499599
  0
ARC
  5
109
  8
DATA
  6
CONTINUOUS
 62
     7
 10
-1.6771856975998241
 20
212.7270676399832
 30
0.0
 40
1.8824048372498861
 50
103.2301874576311
 51
122.29808629387691
  0
ARC
  5
10A
  8
DATA
  6
CONTINUOUS
 62
     7
 10
-0.6500914500355748
 20
209.28526794954141
 30
0.0
 40
5.4720318272870783
 50
93.660093258892445
 51
105.4518878385722
  0
ARC
  5
10B
  8
DATA
  6
CONTINUOUS
 62
     7
 10
3.4110823955348621
 20
198.10939588026099
 30
0.0
 40
16.126372604253959
 50
104.68783073528461
 51
106.958782092387
  0
ARC
  5
10C
  8
DATA
  6
CONTINUOUS
 62
     7
 10
5.9339300938033972
 20
321.76370873942221
 30
0.0
 40
107.0904084970243
 50
268.38085659433051
 51
268.66182444015459
  0
ARC
  5
10D
  8
DATA
  6
CONTINUOUS
 62
     7
 10
3.0606780583892559
 20
189.6171224332293
 30
0.0
 40
25.088147343721161
 50
86.390791546450885
 51
89.149667820790896
  0
ARC
  5
10E
  8
DATA
  6
CONTINUOUS
 62
     7
 10
3.4910245626366669
 20
203.9830897241001
 30
0.0
 40
10.734091055168649
 50
81.584315111376597
 51
83.855296500623183
  0
ARC
  5
10F
  8
DATA
  6
CONTINUOUS
 62
     7
 10
5.6947845861861159
 20
215.33065479555651
 30
0.0
 40
0.8986233081891795
 50
241.93452000676771
 51
254.72233392729581
  0
ARC
  5
110
  8
DATA
  6
CONTINUOUS
 62
     7
 10
5.6535000000000082
 20
215.17487371048239
 30
0.0
 40
0.7374701414375844
 50
254.62737378071759
 51
285.3726262192813
  0
ARC
  5
111
  8
DATA
  6
CONTINUOUS
 62
     7
 10
5.658743614958623
 20
215.215304153088
 30
0.0
 40
0.7752245090870295
 50
284.2067157000364
 51
315.35146857311162
  0
ARC
  5
112
  8
DATA
  6
CONTINUOUS
 62
     7
 10
-5.221662972754145
 20
212.90498404294129
 30
0.0
 40
3.2113129978240309
 50
130.94781658682101
 51
162.21329075643141
  0
LINE
  5
113
  8
DATA
  6
CONTINUOUS
 62
     7
 10
-8.5662309847354692
 20
213.1255282963925
 30
0.0
 11
-8.3339106696904697
 21
213.73677833988759
 31
0.0
  0
LINE
  5
114
  8
DATA
  6
CONTINUOUS
 62
     7
 10
-8.851275777760506
 20
212.42361765738789
 30
0.0
 11
-8.5662309847354692
 21
213.1255282963925
 31
0.0
  0
ARC
  5
115
  8
DATA
  6
CONTINUOUS
 62
     7
 10
-9.7787160579047594
 20
214.0614004467642
 30
0.0
 40
0.0115411935504579
 50
171.47890006984821
 51
241.67115479165111
  0
ARC
  5
116
  8
DATA
  6
CONTINUOUS
 62
     7
 10
-9.7705103199491514
 20
214.05412823532561
 30
0.0
 40
0.0215655891391481
 50
112.6895505233134
 51
155.5239368768442
  0
ARC
  5
117
  8
DATA
  6
CONTINUOUS
 62
     7
 10
-9.5731694210384273
 20
213.55530584021059
 30
0.0
 40
0.5580011163187862
 50
92.284528376518111
 51
111.6271310621206
  0
ARC
  5
118
  8
DATA
  6
CONTINUOUS
 62
     7
 10
-9.0316324125425762
 20
210.0953285612097
 30
0.0
 40
4.0568996229119492
 50
88.314248984541848
 51
97.988144814679941
  0
LINE
  5
119
  8
DATA
  6
CONTINUOUS
 62
     7
 10
-8.3339106696904697
 20
213.73677833988759
 30
0.0
 11
-8.2794761035954565
 21
213.88595806239761
 31
0.0
  0
ARC
  5
11A
  8
DATA
  6
CONTINUOUS
 62
     7
 10
-9.0086596305630433
 20
206.6463192397953
 30
0.0
 40
7.5830849522386679
 50
89.560423221016563
 51
95.003268727375783
  0
ARC
  5
11B
  8
DATA
  6
CONTINUOUS
 62
     7
 10
-10.068489556625041
 20
213.30342252215061
 30
0.0
 40
0.7795832855369183
 50
177.56550337865141
 51
230.18247604556939
  0
ARC
  5
11C
  8
DATA
  6
CONTINUOUS
 62
     7
 10
-10.059743335444139
 20
213.30771540268049
 30
0.0
 40
0.7881530426224557
 50
146.08250404391359
 51
177.9043077980088
  0
ARC
  5
11D
  8
DATA
  6
CONTINUOUS
 62
     7
 10
-10.046227826471689
 20
213.2942982335897
 30
0.0
 40
0.8068635371176988
 50
119.30086830693649
 51
145.8273983309011
  0
ARC
  5
11E
  8
DATA
  6
CONTINUOUS
 62
     7
 10
-10.04434662641644
 20
213.2921973397498
 30
0.0
 40
0.8096165292333308
 50
98.133510490840663
 51
119.3442040450887
  0
ARC
  5
11F
  8
DATA
  6
CONTINUOUS
 62
     7
 10
-10.06644568418959
 20
213.2284431570931
 30
0.0
 40
0.8701515360491994
 50
71.590353145820018
 51
96.098664945420893
  0
ARC
  5
120
  8
DATA
  6
CONTINUOUS
 62
     7
 10
-9.5421491662203266
 20
211.4279778233944
 30
0.0
 40
2.7754789749123758
 50
92.640231239605981
 51
104.9698074391346
  0
ARC
  5
121
  8
DATA
  6
CONTINUOUS
 62
     7
 10
-9.9321164733043901
 20
213.1175204282514
 30
0.0
 40
1.044251008522038
 50
108.24682598297299
 51
124.81592679331349
  0
ARC
  5
122
  8
DATA
  6
CONTINUOUS
 62
     7
 10
-10.06248511506646
 20
213.32820013495669
 30
0.0
 40
0.7971743545540323
 50
125.7673278298786
 51
146.3206895286782
  0
ARC
  5
123
  8
DATA
  6
CONTINUOUS
 62
     7
 10
-10.07789046437963
 20
213.3314359702413
 30
0.0
 40
0.7825821791744644
 50
145.89236831256389
 51
170.43234869206719
  0
ARC
  5
124
  8
DATA
  6
CONTINUOUS
 62
     7
 10
-10.04931248599056
 20
213.32590514792909
 30
0.0
 40
0.8116822333516207
 50
170.38266221063299
 51
195.36050271981321
  0
ARC
  5
125
  8
DATA
  6
CONTINUOUS
 62
     7
 10
-10.1014350369623
 20
213.29735815325881
 30
0.0
 40
0.7539845841704641
 50
194.3178209316207
 51
231.41135563664719
  0
LINE
  5
126
  8
DATA
  6
CONTINUOUS
 62
     7
 10
-8.7339105231093725
 20
211.31564950419551
 30
0.0
 11
-8.7666529360369765
 21
211.33567746092689
 31
0.0
  0
ARC
  5
127
  8
DATA
  6
CONTINUOUS
 62
     7
 10
-4.7401078778055563
 20
212.52892858676401
 30
0.0
 40
2.2456871185903959
 50
89.818651460321774
 51
116.90655563142479
  0
ARC
  5
128
  8
DATA
  6
CONTINUOUS
 62
     7
 10
-4.8916211947116466
 20
212.76395256575759
 30
0.0
 40
1.9677502417955539
 50
116.0692731702905
 51
140.0450782052676
  0
ARC
  5
129
  8
DATA
  6
CONTINUOUS
 62
     7
 10
-5.1795429393456232
 20
212.89956158894401
 30
0.0
 40
1.6619303468302029
 50
137.253260629415
 51
150.59599871523179
  0
ARC
  5
12A
  8
DATA
  6
CONTINUOUS
 62
     7
 10
-5.0684137303754389
 20
212.70676699312301
 30
0.0
 40
1.856864990703595
 50
147.094783741019
 51
164.9281485791447
  0
ARC
  5
12B
  8
DATA
  6
CONTINUOUS
 62
     7
 10
-42.196821976046202
 20
226.91264015618569
 30
0.0
 40
37.906640770881992
 50
337.88086026922332
 51
338.77558313416989
  0
LINE
  5
12C
  8
DATA
  6
CONTINUOUS
 62
     7
 10
-7.0799999999999983
 20
212.63951054718359
 30
0.0
 11
-7.5056541604423739
 21
211.63151054723861
 31
0.0
  0
ARC
  5
12D
  8
DATA
  6
CONTINUOUS
 62
     7
 10
-7.9321656999778014
 20
211.87125507087811
 30
0.0
 40
1.073382142824334
 50
149.4651435511534
 51
183.3173362950763
  0
ARC
  5
12E
  8
DATA
  6
CONTINUOUS
 62
     7
 10
-8.4791902334436582
 20
211.885298878242
 30
0.0
 40
0.5303967576265734
 50
186.78506030686779
 51
234.1266975142149
  0
ARC
  5
12F
  8
DATA
  6
CONTINUOUS
 62
     7
 10
-7.5459729708841641
 20
212.73881245207349
 30
0.0
 40
1.7873072003057411
 50
225.8903089247344
 51
236.40206565361359
  0
ARC
  5
130
  8
DATA
  6
CONTINUOUS
 62
     7
 10
-8.2176903927079525
 20
211.98322906051439
 30
0.0
 40
0.7988599978344688
 50
246.59655792651961
 51
284.69802183594919
  0
ARC
  5
131
  8
DATA
  6
CONTINUOUS
 62
     7
 10
-8.3226546667112036
 20
212.10134122801071
 30
0.0
 40
0.9424599173715387
 50
289.0527144609336
 51
330.09817898281523
  0
ARC
  5
132
  8
DATA
  6
CONTINUOUS
 62
     7
 10
-8.3024999999999949
 20
211.87782068672399
 30
0.0
 40
0.7086264727731649
 50
232.4973441558605
 51
283.30381472318811
  0
ARC
  5
133
  8
DATA
  6
CONTINUOUS
 62
     7
 10
3.5076848516073649
 20
216.0984649042897
 30
0.0
 40
2.9263158398084248
 50
277.98520150726029
 51
309.79023590932559
  0
LINE
  5
134
  8
DATA
  6
CONTINUOUS
 62
     7
 10
5.3804648421728842
 20
213.84990547628891
 30
0.0
 11
5.4177777063961221
 21
213.88098261155949
 31
0.0
  0
ARC
  5
135
  8
DATA
  6
CONTINUOUS
 62
     7
 10
4.9190378003729327
 20
213.75474027268169
 30
0.0
 40
0.8588413763503258
 50
65.733912376441339
 51
80.417976911861501
  0
ARC
  5
136
  8
DATA
  6
CONTINUOUS
 62
     7
 10
-5.4493629878575831
 20
213.55928982083921
 30
0.0
 40
4.1567196199003886
 50
348.87505764111768
 51
9.6460694573922865
  0
ARC
  5
137
  8
DATA
  6
CONTINUOUS
 62
     7
 10
-2.168385695610112
 20
212.71732294242511
 30
0.0
 40
0.6515474580385013
 50
178.24449456250039
 51
207.94905081269829
  0
ARC
  5
138
  8
DATA
  6
CONTINUOUS
 62
     7
 10
-1.247008416216417
 20
213.1065652681269
 30
0.0
 40
1.650239823645884
 50
204.89248181143901
 51
223.960251700881
  0
ARC
  5
139
  8
DATA
  6
CONTINUOUS
 62
     7
 10
-1.745484397946327
 20
212.6341148412813
 30
0.0
 40
0.9634886004753854
 50
224.3135878624351
 51
270.26141449208359
  0
ARC
  5
13A
  8
DATA
  6
CONTINUOUS
 62
     7
 10
-1.713822475232845
 20
212.63517931659251
 30
0.0
 40
0.9649121641738268
 50
268.38696920175852
 51
295.39590799449991
  0
ARC
  5
13B
  8
DATA
  6
CONTINUOUS
 62
     7
 10
-1.836950720251749
 20
212.77988223234041
 30
0.0
 40
1.1494900949409079
 50
297.84756245113732
 51
312.28851102197012
  0
ARC
  5
13C
  8
DATA
  6
CONTINUOUS
 62
     7
 10
-1.599208547475697
 20
212.50431240162709
 30
0.0
 40
0.7889056139379941
 50
179.5758430913715
 51
224.2815456035957
  0
ARC
  5
13D
  8
DATA
  6
CONTINUOUS
 62
     7
 10
-1.581350222271239
 20
212.60242299725431
 30
0.0
 40
0.8721055735081936
 50
228.07975856578491
 51
293.96696854756141
  0
ARC
  5
13E
  8
DATA
  6
CONTINUOUS
 62
     7
 10
0.0701239001173093
 20
209.77348379130109
 30
0.0
 40
2.435904750624156
 50
98.934481476674506
 51
117.7348854595285
  0
CIRCLE
  5
13F
  8
DATA
  6
CONTINUOUS
 62
     7
 10
21.706612054096929
 20
202.88178015773391
 30
0.0
 40
0.9000000000000056
  0
ARC
  5
140
  8
DATA
  6
CONTINUOUS
 62
     7
 10
39.078557881745994
 20
140.97354277236539
 30
0.0
 40
75.330588053777873
 50
91.131381666544144
 51
92.143260827605019
  0
ARC
  5
141
  8
DATA
  6
CONTINUOUS
 62
     7
 10
36.577516300854427
 20
208.069589342629
 30
0.0
 40
8.1879506488952511
 50
92.213108936236566
 51
97.129238309610628
  0
ARC
  5
142
  8
DATA
  6
CONTINUOUS
 62
     7
 10
35.918183345081857
 20
211.14246882624161
 30
0.0
 40
5.0643563820342248
 50
94.040651951138486
 51
103.1641654291944
  0
ARC
  5
143
  8
DATA
  6
CONTINUOUS
 62
     7
 10
34.99598182913811
 20
215.1255671149097
 30
0.0
 40
0.9759467816558991
 50
103.7014078150135
 51
141.49272938942829
  0
ARC
  5
144
  8
DATA
  6
CONTINUOUS
 62
     7
 10
34.884389700473513
 20
215.23997030171719
 30
0.0
 40
0.8176395663390023
 50
142.8641583009545
 51
166.8263578083058
  0
ARC
  5
145
  8
DATA
  6
CONTINUOUS
 62
     7
 10
34.876951383723949
 20
215.24135191451001
 30
0.0
 40
0.8100735585198529
 50
166.92168128051469
 51
192.42817029795501
  0
ARC
  5
146
  8
DATA
  6
CONTINUOUS
 62
     7
 10
34.872912091695653
 20
215.24199100166049
 30
0.0
 40
0.8062678454878201
 50
192.5342978715866
 51
211.42715177059719
  0
ARC
  5
147
  8
DATA
  6
CONTINUOUS
 62
     7
 10
34.865044933697831
 20
215.2247385181258
 30
0.0
 40
0.7906304051289637
 50
210.6575450967614
 51
225.58269036834679
  0
ARC
  5
148
  8
DATA
  6
CONTINUOUS
 62
     7
 10
45.206564314077092
 20
212.17759884715031
 30
0.0
 40
4.1702835076118721
 50
72.345288478928566
 51
89.611822491241227
  0
ARC
  5
149
  8
DATA
  6
CONTINUOUS
 62
     7
 10
45.170104538661747
 20
212.42339933888209
 30
0.0
 40
3.9486300909662431
 50
60.885601483376647
 51
70.7592714606252
  0
ARC
  5
14A
  8
DATA
  6
CONTINUOUS
 62
     7
 10
45.330688244471538
 20
212.66601388746241
 30
0.0
 40
3.6586047492322762
 50
46.747887501690769
 51
61.234029715513103
  0
ARC
  5
14B
  8
DATA
  6
CONTINUOUS
 62
     7
 10
42.188542240887593
 20
212.72725244340441
 30
0.0
 40
1.8824048372498881
 50
57.702396472810108
 51
76.770295309055896
  0
ARC
  5
14C
  8
DATA
  6
CONTINUOUS
 62
     7
 10
41.161476993510391
 20
209.28544409892419
 30
0.0
 40
5.4720318272870712
 50
74.548594928114809
 51
86.340389507794669
  0
ARC
  5
14D
  8
DATA
  6
CONTINUOUS
 62
     7
 10
37.100397314509259
 20
198.10953781112471
 30
0.0
 40
16.126372604253969
 50
73.041700674299932
 51
75.31265203140228
  0
ARC
  5
14E
  8
DATA
  6
CONTINUOUS
 62
     7
 10
34.576507721386932
 20
321.76382940871429
 30
0.0
 40
107.0904084970243
 50
271.33865832653242
 51
271.6196261723565
  0
ARC
  5
14F
  8
DATA
  6
CONTINUOUS
 62
     7
 10
37.450873206419267
 20
189.6172673168553
 30
0.0
 40
25.088147343721172
 50
90.850814945896076
 51
93.60969122023613
  0
ARC
  5
150
  8
DATA
  6
CONTINUOUS
 62
     7
 10
37.020405656440083
 20
203.98323098117311
 30
0.0
 40
10.73409105516863
 50
96.145186266063845
 51
98.416167655310446
  0
ARC
  5
151
  8
DATA
  6
CONTINUOUS
 62
     7
 10
34.816550019881092
 20
215.3307774836353
 30
0.0
 40
0.8986233081891857
 50
285.27814883939197
 51
298.06596275991973
  0
ARC
  5
152
  8
DATA
  6
CONTINUOUS
 62
     7
 10
34.857835918656647
 20
215.17499674642511
 30
0.0
 40
0.7374701414375853
 50
254.62785654740571
 51
285.37310898596888
  0
ARC
  5
153
  8
DATA
  6
CONTINUOUS
 62
     7
 10
34.85259196303663
 20
215.2154271448473
 30
0.0
 40
0.775224509087037
 50
224.649014193575
 51
255.79376706665079
  0
ARC
  5
154
  8
DATA
  6
CONTINUOUS
 62
     7
 10
45.733018016815933
 20
212.90519871165461
 30
0.0
 40
3.21131299782403
 50
17.787192010255591
 51
49.052666179866151
  0
LINE
  5
155
  8
DATA
  6
CONTINUOUS
 62
     7
 10
49.0775841704017
 20
213.12577114598719
 30
0.0
 11
48.84525870505265
 21
213.73701923196029
 31
0.0
  0
LINE
  5
156
  8
DATA
  6
CONTINUOUS
 62
     7
 10
49.362634877623172
 20
212.4238629087574
 30
0.0
 11
49.0775841704017
 21
213.12577114598719
 31
0.0
  0
ARC
  5
157
  8
DATA
  6
CONTINUOUS
 62
     7
 10
50.29006135799257
 20
214.06165351256519
 30
0.0
 40
0.0115411935504526
 50
298.3293279751361
 51
8.5215826968865827
  0
ARC
  5
158
  8
DATA
  6
CONTINUOUS
 62
     7
 10
50.281855681311953
 20
214.05438123198641
 30
0.0
 40
0.0215655891391431
 50
24.476545889819189
 51
67.310932243380492
  0
ARC
  5
159
  8
DATA
  6
CONTINUOUS
 62
     7
 10
50.08451898541999
 20
213.55555717412071
 30
0.0
 40
0.5580011163187755
 50
68.373351704566574
 51
87.715954390169045
  0
ARC
  5
15A
  8
DATA
  6
CONTINUOUS
 62
     7
 10
49.543011130255927
 20
210.09557533232319
 30
0.0
 40
4.0568996229119438
 50
82.012337952007115
 51
91.686233782145209
  0
LINE
  5
15B
  8
DATA
  6
CONTINUOUS
 62
     7
 10
48.84525870505265
 20
213.73701923196029
 30
0.0
 11
48.790822881990891
 21
213.8861984958065
 31
0.0
  0
ARC
  5
15C
  8
DATA
  6
CONTINUOUS
 62
     7
 10
49.520067409175176
 20
206.6465658174655
 30
0.0
 40
7.5830849522386581
 50
84.997214039311174
 51
90.44005954567055
  0
ARC
  5
15D
  8
DATA
  6
CONTINUOUS
 62
     7
 10
50.579841243324672
 20
213.30367802957181
 30
0.0
 40
0.779583285536911
 50
309.81800672111819
 51
2.4349793880354009
  0
ARC
  5
15E
  8
DATA
  6
CONTINUOUS
 62
     7
 10
50.571094985972827
 20
213.30797083640689
 30
0.0
 40
0.7881530426224623
 50
2.09617496867829
 51
33.917978722773881
  0
ARC
  5
15F
  8
DATA
  6
CONTINUOUS
 62
     7
 10
50.55757959005215
 20
213.2945535534368
 30
0.0
 40
0.8068635371177171
 50
34.173084435785299
 51
60.699614459749071
  0
ARC
  5
160
  8
DATA
  6
CONTINUOUS
 62
     7
 10
50.555698407698841
 20
213.2924526437462
 30
0.0
 40
0.8096165292333296
 50
60.656278721597957
 51
81.866972275846777
  0
ARC
  5
161
  8
DATA
  6
CONTINUOUS
 62
     7
 10
50.577798002655527
 20
213.22869864729549
 30
0.0
 40
0.8701515360492006
 50
83.901817821266306
 51
108.4101296208667
  0
ARC
  5
162
  8
DATA
  6
CONTINUOUS
 62
     7
 10
50.053516655188503
 20
211.42822889600731
 30
0.0
 40
2.7754789749123869
 50
75.030675327552601
 51
87.360251527080905
  0
ARC
  5
163
  8
DATA
  6
CONTINUOUS
 62
     7
 10
50.443469726395399
 20
213.11777478661759
 30
0.0
 40
1.0442510085220369
 50
55.184555973373357
 51
71.753656783714575
  0
ARC
  5
164
  8
DATA
  6
CONTINUOUS
 62
     7
 10
50.573836592993402
 20
213.3284555917844
 30
0.0
 40
0.7971743545540204
 50
33.679793238009978
 51
54.233154936808752
  0
ARC
  5
165
  8
DATA
  6
CONTINUOUS
 62
     7
 10
50.589241915041292
 20
213.3316915568723
 30
0.0
 40
0.7825821791744471
 50
9.5681340746197296
 51
34.108114454123552
  0
ARC
  5
166
  8
DATA
  6
CONTINUOUS
 62
     7
 10
50.560663983255203
 20
213.326160493766
 30
0.0
 40
0.8116822333516323
 50
344.63998004687397
 51
9.6178205560544825
  0
ARC
  5
167
  8
DATA
  6
CONTINUOUS
 62
     7
 10
50.612786774758327
 20
213.29761393827451
 30
0.0
 40
0.7539845841704719
 50
308.58912713003929
 51
345.68266183506603
  0
LINE
  5
168
  8
DATA
  6
CONTINUOUS
 62
     7
 10
49.245278958569841
 20
211.31589376670021
 30
0.0
 11
49.278021202743361
 21
211.33592199931411
 31
0.0
  0
ARC
  5
169
  8
DATA
  6
CONTINUOUS
 62
     7
 10
45.251466090478146
 20
212.52913919797089
 30
0.0
 40
2.2456871185904039
 50
63.093927135261723
 51
90.181831306365055
  0
ARC
  5
16A
  8
DATA
  6
CONTINUOUS
 62
     7
 10
45.402977427097767
 20
212.76416445358731
 30
0.0
 40
1.967750241795561
 50
39.955404561419442
 51
63.931209596396243
  0
ARC
  5
16B
  8
DATA
  6
CONTINUOUS
 62
     7
 10
45.690898029097781
 20
212.89977590275959
 30
0.0
 40
1.6619303468301949
 50
29.40448405145511
 51
42.747222137271883
  0
ARC
  5
16C
  8
DATA
  6
CONTINUOUS
 62
     7
 10
45.5797704445934
 20
212.7069803705854
 30
0.0
 40
1.8568649907036121
 50
15.072334187542189
 51
32.905699025668007
  0
ARC
  5
16D
  8
DATA
  6
CONTINUOUS
 62
     7
 10
82.708058992131157
 20
226.91316637221851
 30
0.0
 40
37.906640770881992
 50
201.22489963251709
 51
202.11962249746369
  0
LINE
  5
16E
  8
DATA
  6
CONTINUOUS
 62
     7
 10
47.591357280840519
 20
212.63974087400919
 30
0.0
 11
48.017019934542922
 21
211.63174446060589
 31
0.0
  0
ARC
  5
16F
  8
DATA
  6
CONTINUOUS
 62
     7
 10
48.443529454007461
 20
211.87149257796679
 30
0.0
 40
1.073382142824334
 50
356.68314647161122
 51
30.53533921553408
  0
ARC
  5
170
  8
DATA
  6
CONTINUOUS
 62
     7
 10
48.990553869122607
 20
211.88554099448689
 30
0.0
 40
0.5303967576265728
 50
305.87378525247368
 51
353.21542245981919
  0
ARC
  5
171
  8
DATA
  6
CONTINUOUS
 62
     7
 10
48.057329415003373
 20
212.73904670512241
 30
0.0
 40
1.787307200305738
 50
303.59841711307342
 51
314.11017384195281
  0
ARC
  5
172
  8
DATA
  6
CONTINUOUS
 62
     7
 10
48.729053203249379
 20
211.98346897339249
 30
0.0
 40
0.7988599978344794
 50
255.30246093073831
 51
293.40392484016758
  0
ARC
  5
173
  8
DATA
  6
CONTINUOUS
 62
     7
 10
48.834016482051346
 20
212.1015820252999
 30
0.0
 40
0.9424599173715424
 50
209.90230378387199
 51
250.94776830575401
  0
ARC
  5
174
  8
DATA
  6
CONTINUOUS
 62
     7
 10
48.813863698695492
 20
211.87806131420049
 30
0.0
 40
0.7086264727731862
 50
256.69666804349851
 51
307.50313861082469
  0
ARC
  5
175
  8
DATA
  6
CONTINUOUS
 62
     7
 10
37.003643284915441
 20
216.09860602055531
 30
0.0
 40
2.9263158398084279
 50
230.21024685736151
 51
262.01528125942662
  0
LINE
  5
176
  8
DATA
  6
CONTINUOUS
 62
     7
 10
35.13088224048181
 20
213.85003081283691
 30
0.0
 11
35.093569114408041
 21
213.88110763371321
 31
0.0
  0
ARC
  5
177
  8
DATA
  6
CONTINUOUS
 62
     7
 10
35.592310084114828
 20
213.75486949715659
 30
0.0
 40
0.8588413763503332
 50
99.582505854826806
 51
114.26657039024511
  0
ARC
  5
178
  8
DATA
  6
CONTINUOUS
 62
     7
 10
45.96071251881704
 20
213.55950640809951
 30
0.0
 40
4.1567196199003931
 50
170.3544133092947
 51
191.12542512556939
  0
ARC
  5
179
  8
DATA
  6
CONTINUOUS
 62
     7
 10
42.67974232098797
 20
212.7175118846331
 30
0.0
 40
0.6515474580385079
 50
332.05143195399017
 51
1.755988204187189
  0
ARC
  5
17A
  8
DATA
  6
CONTINUOUS
 62
     7
 10
41.758361761922473
 20
213.10674644691761
 30
0.0
 40
1.6502398236458911
 50
316.04023106580581
 51
335.10800095524809
  0
ARC
  5
17B
  8
DATA
  6
CONTINUOUS
 62
     7
 10
42.256841724439688
 20
212.6343002201817
 30
0.0
 40
0.9634886004753951
 50
269.73906827460343
 51
315.68689490425243
  0
ARC
  5
17C
  8
DATA
  6
CONTINUOUS
 62
     7
 10
42.225179792758219
 20
212.6353644287137
 30
0.0
 40
0.9649121641738304
 50
244.6045747721875
 51
271.6135135649285
  0
ARC
  5
17D
  8
DATA
  6
CONTINUOUS
 62
     7
 10
42.348306818525039
 20
212.7800683819188
 30
0.0
 40
1.1494900949409079
 50
227.71197174471689
 51
242.1529203155504
  0
ARC
  5
17E
  8
DATA
  6
CONTINUOUS
 62
     7
 10
42.110566967672519
 20
212.50449654803111
 30
0.0
 40
0.7889056139379952
 50
315.7189371630908
 51
0.4246396753155183
  0
ARC
  5
17F
  8
DATA
  6
CONTINUOUS
 62
     7
 10
42.092707815801752
 20
212.60260699318289
 30
0.0
 40
0.8721055735082053
 50
246.03351421912589
 51
311.92072420090119
  0
ARC
  5
180
  8
DATA
  6
CONTINUOUS
 62
     7
 10
40.441257529740717
 20
209.77365387222679
 30
0.0
 40
2.4359047506241711
 50
62.265597307158593
 51
81.066001290012593
  0
ARC
  5
181
  8
DATA
  6
CONTINUOUS
 62
     7
 10
102.687118591756
 20
86.877972579657708
 30
0.0
 40
2.0354058587807669
 50
335.13308638901412
 51
357.00254680406579
  0
ARC
  5
182
  8
DATA
  6
CONTINUOUS
 62
     7
 10
110.390081532373
 20
86.898139993092059
 30
0.0
 40
2.117534553675108
 50
183.42761221381571
 51
204.43908374295239
  0
LINE
  5
183
  8
DATA
  6
CONTINUOUS
 62
     7
 10
102.06803735077381
 20
61.074409514054992
 30
0.0
 11
102.06803735077381
 21
64.074409514054992
 31
0.0
  0
LINE
  5
184
  8
DATA
  6
CONTINUOUS
 62
     7
 10
110.92803735077381
 20
64.074409514054992
 30
0.0
 11
110.92803735077381
 21
61.074409514054992
 31
0.0
  0
LINE
  5
185
  8
DATA
  6
CONTINUOUS
 62
     7
 10
112.1980373507738
 20
64.074409514054992
 30
0.0
 11
100.7980373507737
 21
64.074409514054992
 31
0.0
  0
LINE
  5
186
  8
DATA
  6
CONTINUOUS
 62
     7
 10
100.7980373507737
 20
64.074409514054992
 30
0.0
 11
100.7980373507737
 21
78.574409514054992
 31
0.0
  0
LINE
  5
187
  8
DATA
  6
CONTINUOUS
 62
     7
 10
112.1980373507738
 20
64.074409514054992
 30
0.0
 11
112.1980373507738
 21
78.574409514054992
 31
0.0
  0
LINE
  5
188
  8
DATA
  6
CONTINUOUS
 62
     7
 10
111.6980373507737
 20
79.074409514054992
 30
0.0
 11
101.2980373507737
 21
79.074409514054992
 31
0.0
  0
LINE
  5
189
  8
DATA
  6
CONTINUOUS
 62
     7
 10
100.7980373507737
 20
78.574409514054992
 30
0.0
 11
101.2980373507737
 21
79.074409514054992
 31
0.0
  0
LINE
  5
18A
  8
DATA
  6
CONTINUOUS
 62
     7
 10
112.1980373507738
 20
78.574409514054992
 30
0.0
 11
111.6980373507737
 21
79.074409514054992
 31
0.0
  0
LINE
  5
18B
  8
DATA
  6
CONTINUOUS
 62
     7
 10
96.282110749333611
 20
61.074416500326713
 30
0.0
 11
114.61006928400001
 21
61.074416500326713
 31
0.0
  0
LINE
  5
18C
  8
DATA
  6
CONTINUOUS
 62
     7
 10
94.918854428088636
 20
59.878332065322169
 30
0.0
 11
115.970069284
 21
59.878332065322169
 31
0.0
  0
ARC
  5
18D
  8
DATA
  6
CONTINUOUS
 62
     7
 10
95.162339059107566
 20
58.96485609618945
 30
0.0
 40
0.9453692991235659
 50
104.9250363953654
 51
118.4947408886521
  0
LINE
  5
18E
  8
DATA
  6
CONTINUOUS
 62
     7
 10
51.882239224509362
 20
59.878332065322169
 30
0.0
 11
-11.370900328131381
 21
59.878332065322169
 31
0.0
  0
LINE
  5
18F
  8
DATA
  6
CONTINUOUS
 62
     7
 10
94.869245472843687
 20
11.015363698572511
 30
0.0
 11
95.533346498935686
 21
10.25771337345202
 31
0.0
  0
LINE
  5
190
  8
DATA
  6
CONTINUOUS
 62
     7
 10
94.869245472843687
 20
50.691504294534063
 30
0.0
 11
94.894763909994623
 21
50.911999999999992
 31
0.0
  0
ARC
  5
191
  8
DATA
  6
CONTINUOUS
 62
     7
 10
95.072848061712421
 20
50.893981620732902
 30
0.0
 40
0.1789933716215471
 50
133.52995833448799
 51
174.22253088693711
  0
LINE
  5
192
  8
DATA
  6
CONTINUOUS
 62
     7
 10
94.949569283999978
 20
51.02375438386207
 30
0.0
 11
95.53324851775524
 21
51.449399683711519
 31
0.0
  0
ARC
  5
193
  8
DATA
  6
CONTINUOUS
 62
     7
 10
95.008215532046506
 20
42.049242778219302
 30
0.0
 40
9.4148079897550403
 50
84.315746230849271
 51
86.803143695581156
  0
ARC
  5
194
  8
DATA
  6
CONTINUOUS
 62
     7
 10
95.562453478677625
 20
49.017054195572022
 30
0.0
 40
2.430319980729525
 50
61.605864453867262
 51
81.045874619232933
  0
ARC
  5
195
  8
DATA
  6
CONTINUOUS
 62
     7
 10
95.633729325136812
 20
49.117092808170391
 30
0.0
 40
2.3084717661753511
 50
36.680745296421968
 51
61.981375328644809
  0
ARC
  5
196
  8
DATA
  6
CONTINUOUS
 62
     7
 10
95.759030902591135
 20
49.191461593675498
 30
0.0
 40
2.1636116842340409
 50
0.0107249328281211
 51
37.083469199172271
  0
ARC
  5
197
  8
DATA
  6
CONTINUOUS
 62
     7
 10
95.514095235173485
 20
12.969510064898159
 30
0.0
 40
2.7118650237234641
 50
270.40674053418451
 51
286.62702576411817
  0
ARC
  5
198
  8
DATA
  6
CONTINUOUS
 62
     7
 10
95.583902104330306
 20
12.64642807099113
 30
0.0
 40
2.3824543636969868
 50
287.2417005483627
 51
322.97317352885472
  0
ARC
  5
199
  8
DATA
  6
CONTINUOUS
 62
     7
 10
95.767006342852341
 20
12.51262471473
 30
0.0
 40
2.155700279280556
 50
322.88171766559122
 51
0.0881320375920609
  0
LINE
  5
19A
  8
DATA
  6
CONTINUOUS
 62
     7
 10
95.857920172167155
 20
32.457519163081393
 30
0.0
 11
94.702039918675183
 21
32.457827160861378
 31
0.0
  0
LINE
  5
19B
  8
DATA
  6
CONTINUOUS
 62
     7
 10
95.079307882613605
 20
29.27638455282214
 30
0.0
 11
95.079307882613605
 21
29.530876573818929
 31
0.0
  0
ARC
  5
19C
  8
DATA
  6
CONTINUOUS
 62
     7
 10
95.150867404850402
 20
29.279949430518169
 30
0.0
 40
0.2816348705639254
 50
141.42335883179791
 51
180.72525785129071
  0
ARC
  5
19D
  8
DATA
  6
CONTINUOUS
 62
     7
 10
95.086929060470425
 20
29.33154542845206
 30
0.0
 40
0.1994767852788722
 50
92.189566203177648
 51
141.55749417309241
  0
ARC
  5
19E
  8
DATA
  6
CONTINUOUS
 62
     7
 10
95.857785943117406
 20
30.86702298181109
 30
0.0
 40
1.590587532431412
 50
270.00164053265843
 51
329.14756239231917
  0
ARC
  5
19F
  8
DATA
  6
CONTINUOUS
 62
     7
 10
95.857811216336714
 20
30.867079247364561
 30
0.0
 40
1.5904399194489349
 50
30.845310138933701
 51
89.99607485377831
  0
ARC
  5
1A0
  8
DATA
  6
CONTINUOUS
 62
     7
 10
95.019111398165933
 20
30.866928336318921
 30
0.0
 40
2.350237809941333
 50
339.6942000533885
 51
20.305799946611611
  0
LINE
  5
1A1
  8
DATA
  6
CONTINUOUS
 62
     7
 10
91.266738239848564
 20
8.7006214190579367
 30
0.0
 11
90.54502066708487
 21
4.6332024524671729
 31
0.0
  0
ARC
  5
1A2
  8
DATA
  6
CONTINUOUS
 62
     7
 10
72.447164545893713
 20
12.037562384790149
 30
0.0
 40
19.11312452298106
 50
349.94525966746482
 51
4.9979292214040347
  0
ARC
  5
1A3
  8
DATA
  6
CONTINUOUS
 62
     7
 10
90.731730773582427
 20
1.300125943013881
 30
0.0
 40
0.7959134036962599
 50
262.19074058652149
 51
332.5629233452517
  0
ARC
  5
1A4
  8
DATA
  6
CONTINUOUS
 62
     7
 10
90.892631597406563
 20
1.3059482387317869
 30
0.0
 40
0.6605450153892059
 50
325.69770650575731
 51
352.85834639810571
  0
LINE
  5
1A5
  8
DATA
  6
CONTINUOUS
 62
     7
 10
92.100846582364866
 20
4.3596299487171564
 30
0.0
 11
92.815707070870062
 21
8.4290106262802151
 31
0.0
  0
ARC
  5
1A6
  8
DATA
  6
CONTINUOUS
 62
     7
 10
72.444071453717683
 20
12.038267707257001
 30
0.0
 40
20.68914619617896
 50
349.95319461582869
 51
4.9953870683850701
  0
ARC
  5
1A7
  8
DATA
  6
CONTINUOUS
 62
     7
 10
89.232637639833754
 20
48.480693965461072
 30
0.0
 40
0.7875879896854917
 50
149.85719163833781
 51
302.52644946541108
  0
ARC
  5
1A8
  8
DATA
  6
CONTINUOUS
 62
     7
 10
90.331856341198062
 20
46.236764118050978
 30
0.0
 40
1.7183271430548539
 50
98.771836138939605
 51
113.15721087746221
  0
ARC
  5
1A9
  8
DATA
  6
CONTINUOUS
 62
     7
 10
89.399698865818806
 20
48.369304175855333
 30
0.0
 40
0.9880720373500743
 50
104.7829811778726
 51
149.13602284204811
  0
ARC
  5
1AA
  8
DATA
  6
CONTINUOUS
 62
     7
 10
92.422280764811561
 20
36.775860601731686
 30
0.0
 40
12.96905023195472
 50
95.890999182888848
 51
104.62555245821549
  0
ARC
  5
1AB
  8
DATA
  6
CONTINUOUS
 62
     7
 10
91.444416714583056
 20
47.140437657209318
 30
0.0
 40
2.5598835143491789
 50
77.555182040727345
 51
94.034167081899497
  0
ARC
  5
1AC
  8
DATA
  6
CONTINUOUS
 62
     7
 10
91.454779515789596
 20
47.526973044951752
 30
0.0
 40
0.6143650720426407
 50
355.9329567009554
 51
85.029108755375077
  0
ARC
  5
1AD
  8
DATA
  6
CONTINUOUS
 62
     7
 10
91.551558675745596
 20
45.463946308656062
 30
0.0
 40
2.675435472171408
 50
90.932571681448209
 51
100.6632063520576
  0
LINE
  5
1AE
  8
DATA
  6
CONTINUOUS
 62
     7
 10
90.069811362392713
 20
47.934992783349607
 30
0.0
 11
91.056507941756209
 21
48.093181888920718
 31
0.0
  0
LINE
  5
1AF
  8
DATA
  6
CONTINUOUS
 62
     7
 10
92.064082754935058
 20
47.41771097999402
 30
0.0
 11
92.067597458982846
 21
47.483400000000003
 31
0.0
  0
ARC
  5
1B0
  8
DATA
  6
CONTINUOUS
 62
     7
 10
91.500767220872149
 20
47.579262771347672
 30
0.0
 40
2.1195943715670489
 50
30.232256416364951
 51
76.486295709807621
  0
ARC
  5
1B1
  8
DATA
  6
CONTINUOUS
 62
     7
 10
91.198321138670238
 20
47.397973964221052
 30
0.0
 40
2.4721792622504899
 50
3.990138378287007
 51
30.21477419779308
  0
ARC
  5
1B2
  8
DATA
  6
CONTINUOUS
 62
     7
 10
90.522977868848002
 20
47.485999999999983
 30
0.0
 40
3.1426528919031052
 50
354.17328671302892
 51
1.531641867719542
  0
LINE
  5
1B3
  8
DATA
  6
CONTINUOUS
 62
     7
 10
92.574419672809867
 20
34.971807800427158
 30
0.0
 11
92.268425646289842
 21
31.432288574002161
 31
0.0
  0
LINE
  5
1B4
  8
DATA
  6
CONTINUOUS
 62
     7
 10
90.695126033989084
 20
31.57120378377429
 30
0.0
 11
90.463252039995623
 21
29.330085407919299
 31
0.0
  0
LINE
  5
1B5
  8
DATA
  6
CONTINUOUS
 62
     7
 10
92.268425646289842
 20
31.432288574002161
 30
0.0
 11
92.147353970883088
 21
30.08999999998365
 31
0.0
  0
ARC
  5
1B6
  8
DATA
  6
CONTINUOUS
 62
     7
 10
91.347298992068929
 20
30.116169574366818
 30
0.0
 40
0.8004828641202795
 50
178.17349122204229
 51
358.12653905705213
  0
ARC
  5
1B7
  8
DATA
  6
CONTINUOUS
 62
     7
 10
91.250059042578798
 20
29.25521817037637
 30
0.0
 40
0.7903609065302039
 50
174.56448600879801
 51
342.29645304743963
  0
LINE
  5
1B8
  8
DATA
  6
CONTINUOUS
 62
     7
 10
92.002990557321283
 20
29.014875713288831
 30
0.0
 11
92.129960501175688
 21
29.9482
 31
0.0
  0
ARC
  5
1B9
  8
DATA
  6
CONTINUOUS
 62
     7
 10
91.189017984038713
 20
28.039904790143002
 30
0.0
 40
0.7732110536187188
 50
328.42821657059937
 51
41.576694239633973
  0
LINE
  5
1BA
  8
DATA
  6
CONTINUOUS
 62
     7
 10
93.720174665213506
 20
58.168568057696149
 30
0.0
 11
116.7391245702136
 21
58.151296011739468
 31
0.0
  0
LINE
  5
1BB
  8
DATA
  6
CONTINUOUS
 62
     7
 10
109.0735917020649
 20
22.543599263295349
 30
0.0
 11
107.7722606149283
 21
22.54366927811644
 31
0.0
  0
LINE
  5
1BC
  8
DATA
  6
CONTINUOUS
 62
     7
 10
109.0735917020649
 20
14.913407440680951
 30
0.0
 11
107.7725301307111
 21
14.912983302428909
 31
0.0
  0
LINE
  5
1BD
  8
DATA
  6
CONTINUOUS
 62
     7
 10
107.7725301307111
 20
14.912983302428909
 30
0.0
 11
107.4902252212222
 21
14.98956909776784
 31
0.0
  0
LINE
  5
1BE
  8
DATA
  6
CONTINUOUS
 62
     7
 10
107.2502304668886
 20
22.034780411232148
 30
0.0
 11
107.5014550259214
 21
22.47351220136629
 31
0.0
  0
LINE
  5
1BF
  8
DATA
  6
CONTINUOUS
 62
     7
 10
107.7722606149283
 20
22.54366927811644
 30
0.0
 11
107.5014550259214
 21
22.47351220136629
 31
0.0
  0
ARC
  5
1C0
  8
DATA
  6
CONTINUOUS
 62
     7
 10
109.82743083662569
 20
22.612652476550341
 30
0.0
 40
0.8102028962329457
 50
101.4157995526389
 51
158.50233993266929
  0
ARC
  5
1C1
  8
DATA
  6
CONTINUOUS
 62
     7
 10
109.8301631053199
 20
22.618935106787561
 30
0.0
 40
0.8045949066901657
 50
20.488791946145689
 51
101.6950692505164
  0
ARC
  5
1C2
  8
DATA
  6
CONTINUOUS
 62
     7
 10
109.82743083662569
 20
14.84401199084896
 30
0.0
 40
0.8102028962329592
 50
201.49766006733049
 51
258.5842004474672
  0
ARC
  5
1C3
  8
DATA
  6
CONTINUOUS
 62
     7
 10
109.8301631053199
 20
14.83772936061173
 30
0.0
 40
0.8045949066901723
 50
258.30493074953961
 51
339.51120805385438
  0
ARC
  5
1C4
  8
DATA
  6
CONTINUOUS
 62
     7
 10
96.250000000438604
 20
-22.49930753660411
 30
0.0
 40
2.5
 50
180.0
 51
270.0
  0
LINE
  5
1C5
  8
DATA
  6
CONTINUOUS
 62
     7
 10
104.781069284
 20
-24.99930753660411
 30
0.0
 11
108.0964577072077
 21
-24.912509301074021
 31
0.0
  0
ARC
  5
1C6
  8
DATA
  6
CONTINUOUS
 62
     7
 10
107.9890796097182
 20
-20.35565895854182
 30
0.0
 40
4.5568239249633136
 50
271.34983146832059
 51
292.18962144627739
  0
ARC
  5
1C7
  8
DATA
  6
CONTINUOUS
 62
     7
 10
107.8559421895221
 20
-19.873603207811051
 30
0.0
 40
5.0538024377770947
 50
291.523181440538
 51
316.22446857656399
  0
ARC
  5
1C8
  8
DATA
  6
CONTINUOUS
 62
     7
 10
108.1961023988944
 20
-20.043065825575589
 30
0.0
 40
4.692307838119576
 50
314.84486698605173
 51
355.66193386906372
  0
LINE
  5
1C9
  8
DATA
  6
CONTINUOUS
 62
     7
 10
96.250000000438604
 20
-24.99930753660411
 30
0.0
 11
104.781069284
 21
-24.99930753660411
 31
0.0
  0
ARC
  5
1CA
  8
DATA
  6
CONTINUOUS
 62
     7
 10
116.9675638419356
 20
-18.544877289128351
 30
0.0
 40
4.7545334389224188
 50
177.9410531333242
 51
190.35235107063599
  0
ARC
  5
1CB
  8
DATA
  6
CONTINUOUS
 62
     7
 10
114.1392697733836
 20
-18.987440432690871
 30
0.0
 40
1.894154290007829
 50
192.5576906545447
 51
228.12659932909449
  0
ARC
  5
1CC
  8
DATA
  6
CONTINUOUS
 62
     7
 10
115.21120985596821
 20
58.176313312610723
 30
0.0
 40
1.528119510820481
 50
359.06195177699942
 51
44.992172148587493
  0
LINE
  5
1CD
  8
DATA
  6
CONTINUOUS
 62
     7
 10
116.73889553276859
 20
57.639109311372138
 30
0.0
 11
116.7391245702136
 21
58.151296011739468
 31
0.0
  0
LINE
  5
1CE
  8
DATA
  6
CONTINUOUS
 62
     7
 10
116.73889553276859
 20
57.639109311372138
 30
0.0
 11
117.12086072617311
 21
57.257220368032023
 31
0.0
  0
ARC
  5
1CF
  8
DATA
  6
CONTINUOUS
 62
     7
 10
130.30012435467521
 20
54.890125353916012
 30
0.0
 40
13.837045926008271
 50
168.5408977411704
 51
180.60370792407289
  0
LINE
  5
1D0
  8
DATA
  6
CONTINUOUS
 62
     7
 10
116.7400661685986
 20
25.574554123707131
 30
0.0
 11
116.6520152320374
 21
25.94749995332139
 31
0.0
  0
ARC
  5
1D1
  8
DATA
  6
CONTINUOUS
 62
     7
 10
133.74993870734741
 20
28.491223230069821
 30
0.0
 40
17.286107580257351
 50
180.0764845767537
 51
188.46204392498541
  0
LINE
  5
1D2
  8
DATA
  6
CONTINUOUS
 62
     7
 10
115.6936750301625
 20
16.810819156362879
 30
0.0
 11
115.86043021080781
 21
19.120000000000001
 31
0.0
  0
LINE
  5
1D3
  8
DATA
  6
CONTINUOUS
 62
     7
 10
115.86043021080781
 20
19.120000000000001
 30
0.0
 11
115.90804947672861
 21
21.15917025899715
 31
0.0
  0
ARC
  5
1D4
  8
DATA
  6
CONTINUOUS
 62
     7
 10
56.421723786295608
 20
21.166674841020448
 30
0.0
 40
60.267725574196042
 50
354.36256751577201
 51
359.9928654868927
  0
ARC
  5
1D5
  8
DATA
  6
CONTINUOUS
 62
     7
 10
198.63610081775599
 20
86.952409749357685
 30
0.0
 40
2.0354058587807682
 50
335.13308638901418
 51
357.00254680406579
  0
ARC
  5
1D6
  8
DATA
  6
CONTINUOUS
 62
     7
 10
206.33906375837299
 20
86.972577162792049
 30
0.0
 40
2.117534553675108
 50
183.42761221381571
 51
204.43908374295239
  0
LINE
  5
1D7
  8
DATA
  6
CONTINUOUS
 62
     7
 10
198.01701957677369
 20
61.148846683754989
 30
0.0
 11
198.01701957677369
 21
64.148846683754982
 31
0.0
  0
LINE
  5
1D8
  8
DATA
  6
CONTINUOUS
 62
     7
 10
206.87701957677379
 20
64.148846683754982
 30
0.0
 11
206.87701957677379
 21
61.148846683754989
 31
0.0
  0
LINE
  5
1D9
  8
DATA
  6
CONTINUOUS
 62
     7
 10
208.14701957677369
 20
64.148846683754982
 30
0.0
 11
196.74701957677371
 21
64.148846683754982
 31
0.0
  0
LINE
  5
1DA
  8
DATA
  6
CONTINUOUS
 62
     7
 10
196.74701957677371
 20
64.148846683754982
 30
0.0
 11
196.74701957677371
 21
78.648846683754982
 31
0.0
  0
LINE
  5
1DB
  8
DATA
  6
CONTINUOUS
 62
     7
 10
208.14701957677369
 20
64.148846683754982
 30
0.0
 11
208.14701957677369
 21
78.648846683754982
 31
0.0
  0
LINE
  5
1DC
  8
DATA
  6
CONTINUOUS
 62
     7
 10
207.64701957677369
 20
79.148846683754982
 30
0.0
 11
197.24701957677371
 21
79.148846683754982
 31
0.0
  0
LINE
  5
1DD
  8
DATA
  6
CONTINUOUS
 62
     7
 10
196.74701957677371
 20
78.648846683754982
 30
0.0
 11
197.24701957677371
 21
79.148846683754982
 31
0.0
  0
LINE
  5
1DE
  8
DATA
  6
CONTINUOUS
 62
     7
 10
208.14701957677369
 20
78.648846683754982
 30
0.0
 11
207.64701957677369
 21
79.148846683754982
 31
0.0
  0
LINE
  5
1DF
  8
DATA
  6
CONTINUOUS
 62
     7
 10
150.44723798325711
 20
59.289807638697852
 30
0.0
 11
151.0277877790887
 21
59.878325079122177
 31
0.0
  0
LINE
  5
1E0
  8
DATA
  6
CONTINUOUS
 62
     7
 10
214.9894255781218
 20
59.289831616430419
 30
0.0
 11
214.40646969017891
 21
59.878325079122177
 31
0.0
  0
ARC
  5
1E1
  8
DATA
  6
CONTINUOUS
 62
     7
 10
213.85456674039881
 20
58.18727718677259
 30
0.0
 40
1.582285185244936
 50
0.8881276396842776
 51
44.172120567448033
  0
LINE
  5
1E2
  8
DATA
  6
CONTINUOUS
 62
     7
 10
150.4277684109926
 20
59.270352848992687
 30
0.0
 11
215.00807162437181
 21
59.270352848992687
 31
0.0
  0
LINE
  5
1E3
  8
DATA
  6
CONTINUOUS
 62
     7
 10
150.00000000236361
 20
58.177020199983318
 30
0.0
 11
215.4366628976102
 21
58.177020199983318
 31
0.0
  0
ARC
  5
1E4
  8
DATA
  6
CONTINUOUS
 62
     7
 10
151.57849361402751
 20
58.188771784993932
 30
0.0
 40
1.578660455330853
 50
135.7756774482495
 51
179.16426074485051
  0
ARC
  5
1E5
  8
DATA
  6
CONTINUOUS
 62
     7
 10
163.65388964981869
 20
55.542001704139651
 30
0.0
 40
1.6783300507270911
 50
82.565183039348014
 51
177.01219496704491
  0
ARC
  5
1E6
  8
DATA
  6
CONTINUOUS
 62
     7
 10
201.8814146949386
 20
55.62880940744261
 30
0.0
 40
1.577412163681716
 50
0.0244366363982525
 51
90.008412349774048
  0
ARC
  5
1E7
  8
DATA
  6
CONTINUOUS
 62
     7
 10
163.57635134053419
 20
23.997392735534209
 30
0.0
 40
1.598633760970753
 50
180.05715607046361
 51
235.752400291323
  0
ARC
  5
1E8
  8
DATA
  6
CONTINUOUS
 62
     7
 10
201.8832103550821
 20
23.992641845251821
 30
0.0
 40
1.5757373307502369
 50
305.75398846862009
 51
0.1147618138903681
  0
ARC
  5
1E9
  8
DATA
  6
CONTINUOUS
 62
     7
 10
165.16474307506209
 20
44.812966725940569
 30
0.0
 40
2.2243354703343159
 50
355.44089830832093
 51
84.838024769596743
  0
LINE
  5
1EA
  8
DATA
  6
CONTINUOUS
 62
     7
 10
168.94897535474391
 20
44.49912231110207
 30
0.0
 11
168.96350009595179
 21
44.828834596705804
 31
0.0
  0
ARC
  5
1EB
  8
DATA
  6
CONTINUOUS
 62
     7
 10
165.1795468268958
 20
44.822076402615721
 30
0.0
 40
3.7839593041663311
 50
0.1023309642696248
 51
85.115015593186186
  0
ARC
  5
1EC
  8
DATA
  6
CONTINUOUS
 62
     7
 10
200.2655509853017
 20
44.869667273932087
 30
0.0
 40
2.1658029077602019
 50
93.595418109858585
 51
186.187295297124
  0
ARC
  5
1ED
  8
DATA
  6
CONTINUOUS
 62
     7
 10
200.31243586845281
 20
44.827524173273723
 30
0.0
 40
3.781357049481719
 50
94.847614280335847
 51
184.9822787017925
  0
ARC
  5
1EE
  8
DATA
  6
CONTINUOUS
 62
     7
 10
217.9683303129697
 20
36.96625124607371
 30
0.0
 40
20.681819186910801
 50
185.02442522486231
 51
199.89812977456401
  0
ARC
  5
1EF
  8
DATA
  6
CONTINUOUS
 62
     7
 10
217.9623903871381
 20
36.963306659354622
 30
0.0
 40
19.102661144537379
 50
185.01920757974989
 51
199.9016684529883
  0
ARC
  5
1F0
  8
DATA
  6
CONTINUOUS
 62
     7
 10
147.5345478252772
 20
36.962741467882601
 30
0.0
 40
19.100027238748211
 50
340.0972742497122
 51
354.98685747053207
  0
ARC
  5
1F1
  8
DATA
  6
CONTINUOUS
 62
     7
 10
147.508647926349
 20
36.968303187465771
 30
0.0
 40
20.699270219367769
 50
340.10764379004343
 51
354.9741199287613
  0
LINE
  5
1F2
  8
DATA
  6
CONTINUOUS
 62
     7
 10
155.03103148582369
 20
47.168401040947103
 30
0.0
 11
155.05836374977801
 21
47.48444377724293
 31
0.0
  0
LINE
  5
1F3
  8
DATA
  6
CONTINUOUS
 62
     7
 10
155.05836374977801
 20
47.48444377724293
 30
0.0
 11
155.10716318922559
 21
48.04871700830396
 31
0.0
  0
ARC
  5
1F4
  8
DATA
  6
CONTINUOUS
 62
     7
 10
159.55328072427841
 20
71.055506640623548
 30
0.0
 40
23.43246317230248
 50
259.06228418229807
 51
265.5153724031108
  0
LINE
  5
1F5
  8
DATA
  6
CONTINUOUS
 62
     7
 10
155.10716318922559
 20
48.04871700830396
 30
0.0
 11
154.73094153566359
 21
48.148172333447071
 31
0.0
  0
ARC
  5
1F6
  8
DATA
  6
CONTINUOUS
 62
     7
 10
159.16440959101459
 20
67.641220303253647
 30
0.0
 40
18.425200826182468
 50
257.64044734113048
 51
265.93333551662869
  0
ARC
  5
1F7
  8
DATA
  6
CONTINUOUS
 62
     7
 10
154.92907645838949
 20
48.87020533575847
 30
0.0
 40
0.7487249855790861
 50
173.5695259874189
 51
254.6550450035059
  0
ARC
  5
1F8
  8
DATA
  6
CONTINUOUS
 62
     7
 10
154.97953939944119
 20
48.898604600284202
 30
0.0
 40
0.7964104342494184
 50
89.647941508990627
 51
176.00712101168941
  0
ARC
  5
1F9
  8
DATA
  6
CONTINUOUS
 62
     7
 10
154.9896630531394
 20
49.15612048141444
 30
0.0
 40
0.5389048981559422
 50
64.628902860408886
 51
90.556064797459044
  0
LINE
  5
1FA
  8
DATA
  6
CONTINUOUS
 62
     7
 10
153.46388094131871
 20
47.303940311177101
 30
0.0
 11
153.4904198915076
 21
47.605625803463859
 31
0.0
  0
ARC
  5
1FB
  8
DATA
  6
CONTINUOUS
 62
     7
 10
157.18379016342001
 20
47.413185500945467
 30
0.0
 40
3.6983642267946721
 50
155.02019907520881
 51
177.00738834451309
  0
ARC
  5
1FC
  8
DATA
  6
CONTINUOUS
 62
     7
 10
155.21952800872049
 20
48.298171322963782
 30
0.0
 40
1.544358595745037
 50
130.8720045994541
 51
154.00716439968471
  0
ARC
  5
1FD
  8
DATA
  6
CONTINUOUS
 62
     7
 10
154.8598851671542
 20
48.705990580404453
 30
0.0
 40
1.000649499874309
 50
81.021433262468008
 51
130.5807262260019
  0
LINE
  5
1FE
  8
DATA
  6
CONTINUOUS
 62
     7
 10
161.43446037313379
 20
27.25573288101716
 30
0.0
 11
161.56895625055881
 21
28.82298521994214
 31
0.0
  0
ARC
  5
1FF
  8
DATA
  6
CONTINUOUS
 62
     7
 10
154.0267173060241
 20
29.95458102707126
 30
0.0
 40
0.4825898430801859
 50
175.3386588265316
 51
265.3886244672388
  0
ARC
  5
200
  8
DATA
  6
CONTINUOUS
 62
     7
 10
154.02598252050601
 20
29.953974155579211
 30
0.0
 40
2.0549058206192621
 50
175.10446152349539
 51
265.18294017066131
  0
LINE
  5
201
  8
DATA
  6
CONTINUOUS
 62
     7
 10
161.26659652101449
 20
8.4974690111649789
 30
0.0
 11
161.69778021593871
 21
13.467042738883841
 31
0.0
  0
ARC
  5
202
  8
DATA
  6
CONTINUOUS
 62
     7
 10
180.7451425473144
 20
11.795010641034761
 30
0.0
 40
19.120609381474878
 50
160.10906570590021
 51
174.9832717848561
  0
ARC
  5
203
  8
DATA
  6
CONTINUOUS
 62
     7
 10
163.099706106322
 20
4.2615672884026594
 30
0.0
 40
2.1885623804485288
 50
175.6397303674355
 51
270.56652458376681
  0
ARC
  5
204
  8
DATA
  6
CONTINUOUS
 62
     7
 10
163.09937209150269
 20
4.2612207085722948
 30
0.0
 40
3.7612175360991631
 50
175.39550664108739
 51
270.44916663758119
  0
LINE
  5
205
  8
DATA
  6
CONTINUOUS
 62
     7
 10
159.6993578019086
 20
8.6320234357122558
 30
0.0
 11
160.13075642687329
 21
13.603471693403961
 31
0.0
  0
ARC
  5
206
  8
DATA
  6
CONTINUOUS
 62
     7
 10
180.7360065104543
 20
11.79455897948133
 30
0.0
 40
20.684498935519489
 50
160.10425447825949
 51
174.9829275230399
  0
LINE
  5
207
  8
DATA
  6
CONTINUOUS
 62
     7
 10
204.57697394414041
 20
4.4265285732378734
 30
0.0
 11
204.22764182053271
 21
8.4981925413910062
 31
0.0
  0
LINE
  5
208
  8
DATA
  6
CONTINUOUS
 62
     7
 10
206.14405117786231
 20
4.5630110974980189
 30
0.0
 11
205.79480389928131
 21
8.6333087995083702
 31
0.0
  0
ARC
  5
209
  8
DATA
  6
CONTINUOUS
 62
     7
 10
202.3931344909314
 20
4.2634680476371889
 30
0.0
 40
2.189918604058485
 50
269.77696898176902
 51
4.2701744799126677
  0
ARC
  5
20A
  8
DATA
  6
CONTINUOUS
 62
     7
 10
202.39095212899451
 20
4.2651931213651153
 30
0.0
 40
3.7648992720229502
 50
269.34006913225159
 51
4.4978176165159311
  0
LINE
  5
20B
  8
DATA
  6
CONTINUOUS
 62
     7
 10
204.22764182053271
 20
8.4981925413910062
 30
0.0
 11
203.796386396369
 21
13.46890022505716
 31
0.0
  0
LINE
  5
20C
  8
DATA
  6
CONTINUOUS
 62
     7
 10
205.79480389928131
 20
8.6333087995083702
 30
0.0
 11
205.36324012419769
 21
13.60531590467904
 31
0.0
  0
ARC
  5
20D
  8
DATA
  6
CONTINUOUS
 62
     7
 10
184.765941270844
 20
11.79805851209664
 30
0.0
 40
19.103482697301761
 50
5.0171939655586888
 51
19.89935911376768
  0
ARC
  5
20E
  8
DATA
  6
CONTINUOUS
 62
     7
 10
184.7525252822245
 20
11.79399709442003
 30
0.0
 40
20.69015326500822
 50
5.0223865467226272
 51
19.891733477118031
  0
LINE
  5
20F
  8
DATA
  6
CONTINUOUS
 62
     7
 10
204.44381113088599
 20
28.464796391294541
 30
0.0
 11
204.26807533484811
 21
30.02820899218451
 31
0.0
  0
ARC
  5
210
  8
DATA
  6
CONTINUOUS
 62
     7
 10
211.77816666402131
 20
31.35960922358413
 30
0.0
 40
0.4839236332423412
 50
276.00838665741873
 51
7.0543720672993677
  0
ARC
  5
211
  8
DATA
  6
CONTINUOUS
 62
     7
 10
211.77764143732799
 20
31.360831564529018
 30
0.0
 40
2.0584455514929392
 50
276.32893294315232
 51
6.4355204113311411
  0
ARC
  5
212
  8
DATA
  6
CONTINUOUS
 62
     7
 10
206.61819119187609
 20
65.607189565677345
 30
0.0
 40
16.377333046476618
 50
273.56502731759127
 51
282.89761771746129
  0
ARC
  5
213
  8
DATA
  6
CONTINUOUS
 62
     7
 10
206.36840844047359
 20
67.736445462543102
 30
0.0
 40
20.091138876273011
 50
274.00927003990341
 51
281.40661119056011
  0
ARC
  5
214
  8
DATA
  6
CONTINUOUS
 62
     7
 10
209.98554368883859
 20
50.350287251056223
 30
0.0
 40
2.3354859227646561
 50
278.77522689365549
 51
289.39103708162378
  0
LINE
  5
215
  8
DATA
  6
CONTINUOUS
 62
     7
 10
210.42392638715319
 20
47.637164323908422
 30
0.0
 11
210.32605151000001
 21
48.03896027585192
 31
0.0
  0
LINE
  5
216
  8
DATA
  6
CONTINUOUS
 62
     7
 10
210.45883693050359
 20
47.260499108260177
 30
0.0
 11
210.42392638715319
 21
47.637164323908422
 31
0.0
  0
ARC
  5
217
  8
DATA
  6
CONTINUOUS
 62
     7
 10
209.02989816878059
 20
47.578050742076421
 30
0.0
 40
2.9611841616319738
 50
3.5227446107399301
 51
29.961553024690541
  0
ARC
  5
218
  8
DATA
  6
CONTINUOUS
 62
     7
 10
210.37237163069699
 20
48.356807440357457
 30
0.0
 40
1.409216621164054
 50
29.76154718170644
 51
59.577985521393643
  0
ARC
  5
219
  8
DATA
  6
CONTINUOUS
 62
     7
 10
210.6034316156709
 20
48.717628532899468
 30
0.0
 40
0.9808381141466847
 50
60.324280025347477
 51
82.85101539307918
  0
LINE
  5
21A
  8
DATA
  6
CONTINUOUS
 62
     7
 10
210.27318061331789
 20
49.642739488756817
 30
0.0
 11
210.49962841905889
 21
49.694583700771886
 31
0.0
  0
ARC
  5
21B
  8
DATA
  6
CONTINUOUS
 62
     7
 10
210.59971939130421
 20
48.917531797709223
 30
0.0
 40
0.783471673245657
 50
80.761847251129552
 51
97.339774525818896
  0
ARC
  5
21C
  8
DATA
  6
CONTINUOUS
 62
     7
 10
210.54753889215041
 20
48.882124673880597
 30
0.0
 40
0.7652058025653047
 50
286.19471504677358
 51
5.3942646005801276
  0
ARC
  5
21D
  8
DATA
  6
CONTINUOUS
 62
     7
 10
210.50630201370419
 20
48.888919801265587
 30
0.0
 40
0.8056915388864524
 50
4.6374739657852064
 51
90.474590040190506
  0
LINE
  5
21E
  8
DATA
  6
CONTINUOUS
 62
     7
 10
204.749675291812
 20
19.160557079122171
 30
0.0
 11
205.1893028892697
 21
19.922014414328451
 31
0.0
  0
LINE
  5
21F
  8
DATA
  6
CONTINUOUS
 62
     7
 10
205.1893028892697
 20
19.922014414328451
 30
0.0
 11
206.07833311363331
 21
19.92389748608884
 31
0.0
  0
LINE
  5
220
  8
DATA
  6
CONTINUOUS
 62
     7
 10
206.07833311363331
 20
19.92389748608884
 30
0.0
 11
206.5212211691034
 21
19.160557079122171
 31
0.0
  0
LINE
  5
221
  8
DATA
  6
CONTINUOUS
 62
     7
 10
206.5212211691034
 20
19.160557079122171
 30
0.0
 11
206.0783368546152
 21
18.38969375511029
 31
0.0
  0
LINE
  5
222
  8
DATA
  6
CONTINUOUS
 62
     7
 10
206.0783368546152
 20
18.38969375511029
 30
0.0
 11
205.19256390248489
 21
18.38969160091602
 31
0.0
  0
LINE
  5
223
  8
DATA
  6
CONTINUOUS
 62
     7
 10
205.19256390248489
 20
18.38969160091602
 30
0.0
 11
204.749675291812
 21
19.160557079122171
 31
0.0
  0
CIRCLE
  5
224
  8
DATA
  6
CONTINUOUS
 62
     7
 10
205.62499345037301
 20
19.159148142787782
 30
0.0
 40
1.5
  0
LINE
  5
225
  8
DATA
  6
CONTINUOUS
 62
     7
 10
152.84468184380259
 20
54.30140893633439
 30
0.0
 11
153.28430944126029
 21
55.062866271540692
 31
0.0
  0
LINE
  5
226
  8
DATA
  6
CONTINUOUS
 62
     7
 10
153.28430944126029
 20
55.062866271540692
 30
0.0
 11
154.1733396656239
 21
55.06474934330106
 31
0.0
  0
LINE
  5
227
  8
DATA
  6
CONTINUOUS
 62
     7
 10
154.1733396656239
 20
55.06474934330106
 30
0.0
 11
154.61622772109399
 21
54.30140893633439
 31
0.0
  0
LINE
  5
228
  8
DATA
  6
CONTINUOUS
 62
     7
 10
154.61622772109399
 20
54.30140893633439
 30
0.0
 11
154.1733434066058
 21
53.530545612322513
 31
0.0
  0
LINE
  5
229
  8
DATA
  6
CONTINUOUS
 62
     7
 10
154.1733434066058
 20
53.530545612322513
 30
0.0
 11
153.28757045447551
 21
53.53054345812825
 31
0.0
  0
LINE
  5
22A
  8
DATA
  6
CONTINUOUS
 62
     7
 10
153.28757045447551
 20
53.53054345812825
 30
0.0
 11
152.84468184380259
 21
54.30140893633439
 31
0.0
  0
CIRCLE
  5
22B
  8
DATA
  6
CONTINUOUS
 62
     7
 10
153.72000000236361
 20
54.300000000000011
 30
0.0
 40
1.5
  0
LINE
  5
22C
  8
DATA
  6
CONTINUOUS
 62
     7
 10
210.84468184380259
 20
54.30140893633439
 30
0.0
 11
211.2843094412604
 21
55.062866271540692
 31
0.0
  0
LINE
  5
22D
  8
DATA
  6
CONTINUOUS
 62
     7
 10
211.2843094412604
 20
55.062866271540692
 30
0.0
 11
212.17333966562401
 21
55.06474934330106
 31
0.0
  0
LINE
  5
22E
  8
DATA
  6
CONTINUOUS
 62
     7
 10
212.17333966562401
 20
55.06474934330106
 30
0.0
 11
212.61622772109399
 21
54.30140893633439
 31
0.0
  0
LINE
  5
22F
  8
DATA
  6
CONTINUOUS
 62
     7
 10
212.61622772109399
 20
54.30140893633439
 30
0.0
 11
212.1733434066058
 21
53.530545612322513
 31
0.0
  0
LINE
  5
230
  8
DATA
  6
CONTINUOUS
 62
     7
 10
212.1733434066058
 20
53.530545612322513
 30
0.0
 11
211.2875704544756
 21
53.53054345812825
 31
0.0
  0
LINE
  5
231
  8
DATA
  6
CONTINUOUS
 62
     7
 10
211.2875704544756
 20
53.53054345812825
 30
0.0
 11
210.84468184380259
 21
54.30140893633439
 31
0.0
  0
CIRCLE
  5
232
  8
DATA
  6
CONTINUOUS
 62
     7
 10
211.72000000236369
 20
54.300000000000011
 30
0.0
 40
1.5
  0
LINE
  5
233
  8
DATA
  6
CONTINUOUS
 62
     7
 10
158.9120566932005
 20
19.16196601545656
 30
0.0
 11
159.35168429065831
 21
19.923423350662841
 31
0.0
  0
LINE
  5
234
  8
DATA
  6
CONTINUOUS
 62
     7
 10
159.35168429065831
 20
19.923423350662841
 30
0.0
 11
160.24071451502181
 21
19.925306422423208
 31
0.0
  0
LINE
  5
235
  8
DATA
  6
CONTINUOUS
 62
     7
 10
160.24071451502181
 20
19.925306422423208
 30
0.0
 11
160.6836025704919
 21
19.16196601545656
 31
0.0
  0
LINE
  5
236
  8
DATA
  6
CONTINUOUS
 62
     7
 10
160.6836025704919
 20
19.16196601545656
 30
0.0
 11
160.24071825600359
 21
18.391102691444669
 31
0.0
  0
LINE
  5
237
  8
DATA
  6
CONTINUOUS
 62
     7
 10
160.24071825600359
 20
18.391102691444669
 30
0.0
 11
159.35494530387339
 21
18.391100537250399
 31
0.0
  0
LINE
  5
238
  8
DATA
  6
CONTINUOUS
 62
     7
 10
159.35494530387339
 20
18.391100537250399
 30
0.0
 11
158.9120566932005
 21
19.16196601545656
 31
0.0
  0
CIRCLE
  5
239
  8
DATA
  6
CONTINUOUS
 62
     7
 10
159.78737485176151
 20
19.160557079122171
 30
0.0
 40
1.5
  0
LINE
  5
23A
  8
DATA
  6
CONTINUOUS
 62
     7
 10
155.97173597411779
 20
-25.000006945023021
 30
0.0
 11
209.66412236757211
 21
-25.006416340016699
 31
0.0
  0
ARC
  5
23B
  8
DATA
  6
CONTINUOUS
 62
     7
 10
156.00187143477461
 20
-18.811065662246609
 30
0.0
 40
6.001871662012686
 50
179.984151729942
 51
213.702578397899
  0
ARC
  5
23C
  8
DATA
  6
CONTINUOUS
 62
     7
 10
156.37276156556649
 20
-18.56618909239549
 30
0.0
 40
6.4463038778656241
 50
213.6840887969181
 51
266.43331732673562
  0
ARC
  5
23D
  8
DATA
  6
CONTINUOUS
 62
     7
 10
209.43812856995271
 20
-18.811065662246609
 30
0.0
 40
6.0018716620126842
 50
326.297421602101
 51
0.0158482700580294
  0
ARC
  5
23E
  8
DATA
  6
CONTINUOUS
 62
     7
 10
209.0672384391608
 20
-18.56618909239549
 30
0.0
 40
6.4463038778656303
 50
273.56668267326438
 51
326.31591120308173
  0
ARC
  5
23F
  8
DATA
  6
CONTINUOUS
 62
     7
 10
156.48939229251971
 20
12.448306485692919
 30
0.0
 40
6.348379895053589
 50
179.38963604500631
 51
189.89860439906369
  0
ARC
  5
240
  8
DATA
  6
CONTINUOUS
 62
     7
 10
152.0667314290159
 20
11.68860181323339
 30
0.0
 40
1.8610440504435619
 50
190.18236068603639
 51
216.43862940681399
  0
ARC
  5
241
  8
DATA
  6
CONTINUOUS
 62
     7
 10
151.34176935896539
 20
11.327785098985879
 30
0.0
 40
1.0727099081559179
 50
223.93339117755829
 51
274.15454152448979
  0
ARC
  5
242
  8
DATA
  6
CONTINUOUS
 62
     7
 10
151.4799728433857
 20
11.08850808142051
 30
0.0
 40
0.8328137231061978
 50
265.83482214895213
 51
314.19359728334888
  0
ARC
  5
243
  8
DATA
  6
CONTINUOUS
 62
     7
 10
151.54555249159441
 20
11.018229017305259
 30
0.0
 40
0.7367124891533033
 50
314.3468574667732
 51
359.73523085574118
  0
ARC
  5
244
  8
DATA
  6
CONTINUOUS
 62
     7
 10
156.85071096662381
 20
49.243786939889709
 30
0.0
 40
6.7095466334410281
 50
171.25789434067121
 51
180.45145531846731
  0
ARC
  5
245
  8
DATA
  6
CONTINUOUS
 62
     7
 10
151.96466200483121
 20
50.07046707706553
 30
0.0
 40
1.7561959031723511
 50
147.8282693462647
 51
173.68784996663831
  0
ARC
  5
246
  8
DATA
  6
CONTINUOUS
 62
     7
 10
151.25269790270639
 20
50.501336829469132
 30
0.0
 40
0.9242411419445099
 50
115.30072626789929
 51
146.9368342272567
  0
ARC
  5
247
  8
DATA
  6
CONTINUOUS
 62
     7
 10
151.42318621320209
 20
50.007829939436562
 30
0.0
 40
1.4443871827711561
 50
85.687391022000028
 51
113.0479970707464
  0
ARC
  5
248
  8
DATA
  6
CONTINUOUS
 62
     7
 10
151.4820503038585
 20
50.611218879236432
 30
0.0
 40
0.838169791479003
 50
58.877262400463373
 51
87.947991634326215
  0
ARC
  5
249
  8
DATA
  6
CONTINUOUS
 62
     7
 10
151.52124289326579
 20
50.672929740321209
 30
0.0
 40
0.7650856604759269
 50
20.82194704846945
 51
59.001172581104122
  0
ARC
  5
24A
  8
DATA
  6
CONTINUOUS
 62
     7
 10
151.55063387129999
 20
50.689613539290839
 30
0.0
 40
0.7317018134028822
 50
0.8770542458093991
 51
20.418931633934939
  0
ARC
  5
24B
  8
DATA
  6
CONTINUOUS
 62
     7
 10
214.02194413147069
 20
50.574087890797017
 30
0.0
 40
0.8754473912143106
 50
91.705130867124296
 51
172.29263211781841
  0
ARC
  5
24C
  8
DATA
  6
CONTINUOUS
 62
     7
 10
214.03498596289111
 20
50.178392354459497
 30
0.0
 40
1.27135324461496
 50
54.35775461004858
 51
92.115664762758655
  0
ARC
  5
24D
  8
DATA
  6
CONTINUOUS
 62
     7
 10
213.96914151344839
 20
50.314966154252652
 30
0.0
 40
1.205021777450012
 50
12.705575025017071
 51
48.483958707604209
  0
ARC
  5
24E
  8
DATA
  6
CONTINUOUS
 62
     7
 10
209.9752307080696
 20
49.31684120855337
 30
0.0
 40
5.3215156696116486
 50
358.65348922116999
 51
13.731263454598199
  0
ARC
  5
24F
  8
DATA
  6
CONTINUOUS
 62
     7
 10
215.4120743345585
 20
20.856656960854199
 30
0.0
 40
1.3114655259557639
 50
1.3724302950186571
 51
88.925703031516335
  0
ARC
  5
250
  8
DATA
  6
CONTINUOUS
 62
     7
 10
215.45151665450061
 20
16.56408680818538
 30
0.0
 40
1.27243025000332
 50
269.33114061847721
 51
359.99999999985482
  0
ARC
  5
251
  8
DATA
  6
CONTINUOUS
 62
     7
 10
214.00696418576169
 20
11.11569585257331
 30
0.0
 40
0.8584531390075515
 50
186.72815244846029
 51
281.22355843629958
  0
ARC
  5
252
  8
DATA
  6
CONTINUOUS
 62
     7
 10
214.1557287496916
 20
11.25190104474089
 30
0.0
 40
0.9784121745503851
 50
271.0730428686598
 51
343.64380888180358
  0
ARC
  5
253
  8
DATA
  6
CONTINUOUS
 62
     7
 10
210.75712424164729
 20
12.324804777084291
 30
0.0
 40
4.5421890422398006
 50
342.73039248169351
 51
2.4116367085518959
  0
LINE
  5
254
  8
DATA
  6
CONTINUOUS
 62
     7
 10
188.85185080618891
 20
-23.755100668854428
 30
0.0
 11
176.57405151
 21
-23.755100668854428
 31
0.0
  0
LINE
  5
255
  8
DATA
  6
CONTINUOUS
 62
     7
 10
175.81747749842901
 20
-16.96999807520746
 30
0.0
 11
176.58521101406899
 21
-16.202951671902461
 31
0.0
  0
LINE
  5
256
  8
DATA
  6
CONTINUOUS
 62
     7
 10
189.61917213970921
 20
-16.96999807520746
 30
0.0
 11
188.85143862406909
 21
-16.202951671902461
 31
0.0
  0
LINE
  5
257
  8
DATA
  6
CONTINUOUS
 62
     7
 10
176.57405151
 20
-23.755100668854428
 30
0.0
 11
175.81848845012931
 21
-22.919303602767119
 31
0.0
  0
ARC
  5
258
  8
DATA
  6
CONTINUOUS
 62
     7
 10
156.68114313215591
 20
-18.93621738759105
 30
0.0
 40
1.797575520465722
 50
176.00946867466561
 51
243.33400891545301
  0
ARC
  5
259
  8
DATA
  6
CONTINUOUS
 62
     7
 10
178.11518610520341
 20
81.223528654125403
 30
0.0
 40
104.1681854549787
 50
257.67233003421097
 51
268.73585973555453
  0
ARC
  5
25A
  8
DATA
  6
CONTINUOUS
 62
     7
 10
208.75885687257141
 20
-18.93621738759105
 30
0.0
 40
1.797575520465704
 50
296.6659910845471
 51
3.9905313253343011
  0
ARC
  5
25B
  8
DATA
  6
CONTINUOUS
 62
     7
 10
187.32481389952389
 20
81.223528654125403
 30
0.0
 40
104.1681854549786
 50
271.26214900237409
 51
282.32766996578908
  0
LINE
  5
25C
  8
DATA
  6
CONTINUOUS
 62
     7
 10
188.85185080618891
 20
-23.755100668854428
 30
0.0
 11
189.619582441738
 21
-22.91937749367208
 31
0.0
  0
LINE
  5
25D
  8
DATA
  6
CONTINUOUS
 62
     7
 10
209.56475151000001
 20
-20.54285104007889
 30
0.0
 11
209.56558835150199
 21
-20.54259905851487
 31
0.0
  0
LINE
  5
25E
  8
DATA
  6
CONTINUOUS
 62
     7
 10
153.46388094131871
 20
47.303940311177101
 30
0.0
 11
151.9785731104937
 21
30.129338460407151
 31
0.0
  0
LINE
  5
25F
  8
DATA
  6
CONTINUOUS
 62
     7
 10
198.52145044917901
 20
29.925291545517169
 30
0.0
 11
202.72879196801401
 21
18.300292435702161
 31
0.0
  0
LINE
  5
260
  8
DATA
  6
CONTINUOUS
 62
     7
 10
162.76552420905381
 20
18.300292435702161
 30
0.0
 11
166.97286572788889
 21
29.925291545517169
 31
0.0
  0
LINE
  5
261
  8
DATA
  6
CONTINUOUS
 62
     7
 10
161.56895625055881
 20
28.82298521994214
 30
0.0
 11
153.98791861547869
 21
29.473553358162171
 31
0.0
  0
LINE
  5
262
  8
DATA
  6
CONTINUOUS
 62
     7
 10
153.85342273805369
 20
27.90632646784216
 30
0.0
 11
161.43446037313379
 21
27.25573288101716
 31
0.0
  0
LINE
  5
263
  8
DATA
  6
CONTINUOUS
 62
     7
 10
153.54572365499871
 20
29.993799190177139
 30
0.0
 11
155.03103148582369
 21
47.168401040947103
 31
0.0
  0
LINE
  5
264
  8
DATA
  6
CONTINUOUS
 62
     7
 10
196.54536627092909
 20
44.49912231110207
 30
0.0
 11
197.36598198775911
 21
35.154928975807117
 31
0.0
  0
LINE
  5
265
  8
DATA
  6
CONTINUOUS
 62
     7
 10
168.1283341893089
 20
35.154928975807117
 30
0.0
 11
168.94897535474391
 21
44.49912231110207
 31
0.0
  0
LINE
  5
266
  8
DATA
  6
CONTINUOUS
 62
     7
 10
157.72120352037371
 20
47.694474603507089
 30
0.0
 11
165.36487017235891
 21
47.028281021817108
 31
0.0
  0
LINE
  5
267
  8
DATA
  6
CONTINUOUS
 62
     7
 10
207.63655544226401
 20
49.261548802197098
 30
0.0
 11
199.99288879027901
 21
48.595355220507088
 31
0.0
  0
LINE
  5
268
  8
DATA
  6
CONTINUOUS
 62
     7
 10
156.19385459408869
 20
63.135746519122193
 30
0.0
 11
156.19385459408869
 21
61.074434962727167
 31
0.0
  0
LINE
  5
269
  8
DATA
  6
CONTINUOUS
 62
     7
 10
165.50145283539379
 20
48.595355220507088
 30
0.0
 11
157.85776073480369
 21
49.261548802197098
 31
0.0
  0
LINE
  5
26A
  8
DATA
  6
CONTINUOUS
 62
     7
 10
170.495970604089
 20
61.074434962727167
 30
0.0
 11
170.495970604089
 21
63.135746519122193
 31
0.0
  0
LINE
  5
26B
  8
DATA
  6
CONTINUOUS
 62
     7
 10
200.1294714533141
 20
47.028281021817108
 30
0.0
 11
207.77313810529901
 21
47.694474603507089
 31
0.0
  0
LINE
  5
26C
  8
DATA
  6
CONTINUOUS
 62
     7
 10
214.39481422908889
 20
59.878325079122177
 30
0.0
 11
214.40646969017891
 21
59.878325079122177
 31
0.0
  0
LINE
  5
26D
  8
DATA
  6
CONTINUOUS
 62
     7
 10
154.67650696956869
 20
48.166011805552088
 30
0.0
 11
154.73094153566359
 21
48.148172333447071
 31
0.0
  0
LINE
  5
26E
  8
DATA
  6
CONTINUOUS
 62
     7
 10
204.20824661968899
 20
18.833695196502148
 30
0.0
 11
200.000905100854
 21
30.45869430631717
 31
0.0
  0
LINE
  5
26F
  8
DATA
  6
CONTINUOUS
 62
     7
 10
162.35944081906891
 20
24.25027807912214
 30
0.0
 11
162.35944081906891
 21
41.758918319122088
 31
0.0
  0
LINE
  5
270
  8
DATA
  6
CONTINUOUS
 62
     7
 10
203.077208819069
 20
41.758918319122088
 30
0.0
 11
203.077208819069
 21
24.25027807912214
 31
0.0
  0
LINE
  5
271
  8
DATA
  6
CONTINUOUS
 62
     7
 10
161.2592203705415
 20
18.835629290482139
 30
0.0
 11
161.25888953867661
 21
18.833695196502148
 31
0.0
  0
LINE
  5
272
  8
DATA
  6
CONTINUOUS
 62
     7
 10
201.146092325854
 20
22.67246456912217
 30
0.0
 11
164.3480966081888
 21
22.67246456912217
 31
0.0
  0
LINE
  5
273
  8
DATA
  6
CONTINUOUS
 62
     7
 10
163.93725432906879
 20
43.336731829122087
 30
0.0
 11
167.26796775146889
 21
43.336731829122087
 31
0.0
  0
LINE
  5
274
  8
DATA
  6
CONTINUOUS
 62
     7
 10
168.8473336263738
 20
43.336731829122087
 30
0.0
 11
196.6474406255841
 21
43.336731829122087
 31
0.0
  0
LINE
  5
275
  8
DATA
  6
CONTINUOUS
 62
     7
 10
198.22622118257411
 20
43.336731829122087
 30
0.0
 11
201.499395309069
 21
43.336731829122087
 31
0.0
  0
LINE
  5
276
  8
DATA
  6
CONTINUOUS
 62
     7
 10
187.0195207931441
 20
-17.25298656280745
 30
0.0
 11
188.59733430314409
 21
-17.253088357227451
 31
0.0
  0
LINE
  5
277
  8
DATA
  6
CONTINUOUS
 62
     7
 10
187.01916451267411
 20
-22.495399192807469
 30
0.0
 11
187.0195207931441
 21
-17.25298656280745
 31
0.0
  0
LINE
  5
278
  8
DATA
  6
CONTINUOUS
 62
     7
 10
188.59697802267411
 20
-22.495500987227441
 30
0.0
 11
187.01916451267411
 21
-22.495399192807469
 31
0.0
  0
LINE
  5
279
  8
DATA
  6
CONTINUOUS
 62
     7
 10
188.59733430314409
 20
-17.253088357227451
 30
0.0
 11
188.59697802267411
 21
-22.495500987227441
 31
0.0
  0
LINE
  5
27A
  8
DATA
  6
CONTINUOUS
 62
     7
 10
184.4746602931441
 20
-17.252808422572461
 30
0.0
 11
186.0524738031441
 21
-17.252910216992461
 31
0.0
  0
LINE
  5
27B
  8
DATA
  6
CONTINUOUS
 62
     7
 10
184.47430401267411
 20
-22.495221052572479
 30
0.0
 11
184.4746602931441
 21
-17.252808422572461
 31
0.0
  0
LINE
  5
27C
  8
DATA
  6
CONTINUOUS
 62
     7
 10
186.05211752267411
 20
-22.495322846992451
 30
0.0
 11
184.47430401267411
 21
-22.495221052572479
 31
0.0
  0
LINE
  5
27D
  8
DATA
  6
CONTINUOUS
 62
     7
 10
186.0524738031441
 20
-17.252910216992461
 30
0.0
 11
186.05211752267411
 21
-22.495322846992451
 31
0.0
  0
LINE
  5
27E
  8
DATA
  6
CONTINUOUS
 62
     7
 10
181.9297997931441
 20
-17.25263028233746
 30
0.0
 11
183.5076133031441
 21
-17.252732076757471
 31
0.0
  0
LINE
  5
27F
  8
DATA
  6
CONTINUOUS
 62
     7
 10
181.92944351267411
 20
-22.49504291233745
 30
0.0
 11
181.9297997931441
 21
-17.25263028233746
 31
0.0
  0
LINE
  5
280
  8
DATA
  6
CONTINUOUS
 62
     7
 10
183.50725702267411
 20
-22.495144706757451
 30
0.0
 11
181.92944351267411
 21
-22.49504291233745
 31
0.0
  0
LINE
  5
281
  8
DATA
  6
CONTINUOUS
 62
     7
 10
183.5076133031441
 20
-17.252732076757471
 30
0.0
 11
183.50725702267411
 21
-22.495144706757451
 31
0.0
  0
LINE
  5
282
  8
DATA
  6
CONTINUOUS
 62
     7
 10
176.8400787931441
 20
-17.252274001867448
 30
0.0
 11
178.4178923031441
 21
-17.252375796287449
 31
0.0
  0
LINE
  5
283
  8
DATA
  6
CONTINUOUS
 62
     7
 10
178.417536022674
 20
-22.494788426287471
 30
0.0
 11
176.839722512674
 21
-22.49468663186747
 31
0.0
  0
LINE
  5
284
  8
DATA
  6
CONTINUOUS
 62
     7
 10
178.4178923031441
 20
-17.252375796287449
 30
0.0
 11
178.417536022674
 21
-22.494788426287471
 31
0.0
  0
LINE
  5
285
  8
DATA
  6
CONTINUOUS
 62
     7
 10
214.3902843773989
 20
60.137340980812169
 30
0.0
 11
214.39481422908889
 21
59.878325079122177
 31
0.0
  0
LINE
  5
286
  8
DATA
  6
CONTINUOUS
 62
     7
 10
151.03229218217359
 20
60.137340980812169
 30
0.0
 11
151.0277877790887
 21
59.878325079122177
 31
0.0
  0
LINE
  5
287
  8
DATA
  6
CONTINUOUS
 62
     7
 10
151.0277877790887
 20
59.878325079122177
 30
0.0
 11
214.40646969017891
 21
59.878325079122177
 31
0.0
  0
LINE
  5
288
  8
DATA
  6
CONTINUOUS
 62
     7
 10
214.3902843773989
 20
60.137340980812169
 30
0.0
 11
213.75134625166399
 21
60.776279106547193
 31
0.0
  0
LINE
  5
289
  8
DATA
  6
CONTINUOUS
 62
     7
 10
149.96240737936861
 20
58.177009489057163
 30
0.0
 11
149.96131308935369
 21
58.177009489057163
 31
0.0
  0
LINE
  5
28A
  8
DATA
  6
CONTINUOUS
 62
     7
 10
204.20824661968899
 20
18.833695196502148
 30
0.0
 11
204.20791578782399
 21
18.835629290482139
 31
0.0
  0
LINE
  5
28B
  8
DATA
  6
CONTINUOUS
 62
     7
 10
156.19385459408869
 20
63.135746519122193
 30
0.0
 11
170.495970604089
 21
63.135746519122193
 31
0.0
  0
LINE
  5
28C
  8
DATA
  6
CONTINUOUS
 62
     7
 10
161.97771174406881
 20
55.628408044122139
 30
0.0
 11
161.97771174406881
 21
48.902036359362093
 31
0.0
  0
LINE
  5
28D
  8
DATA
  6
CONTINUOUS
 62
     7
 10
161.97771174406881
 20
47.3233575967921
 30
0.0
 11
161.97771174406881
 21
23.995792029122171
 31
0.0
  0
LINE
  5
28E
  8
DATA
  6
CONTINUOUS
 62
     7
 10
203.45893789406901
 20
55.628408044122139
 30
0.0
 11
203.45893789406901
 21
48.897099329992102
 31
0.0
  0
LINE
  5
28F
  8
DATA
  6
CONTINUOUS
 62
     7
 10
203.45893789406901
 20
47.318420567422102
 30
0.0
 11
203.45893789406901
 21
23.995792029122171
 31
0.0
  0
LINE
  5
290
  8
DATA
  6
CONTINUOUS
 62
     7
 10
201.23813993013911
 20
22.417978519122151
 30
0.0
 11
164.25625259274381
 21
22.417978519122151
 31
0.0
  0
LINE
  5
291
  8
DATA
  6
CONTINUOUS
 62
     7
 10
189.619582441738
 20
-22.91937749367208
 30
0.0
 11
189.61917213970921
 21
-16.96999807520746
 31
0.0
  0
LINE
  5
292
  8
DATA
  6
CONTINUOUS
 62
     7
 10
200.000905100854
 20
30.45869430631717
 30
0.0
 11
200.000574268989
 21
30.460628400297161
 31
0.0
  0
LINE
  5
293
  8
DATA
  6
CONTINUOUS
 62
     7
 10
165.49376735668389
 20
30.460628400297161
 30
0.0
 11
165.49343652481889
 21
30.45869430631717
 31
0.0
  0
LINE
  5
294
  8
DATA
  6
CONTINUOUS
 62
     7
 10
161.28609500598381
 20
18.833695196502148
 30
0.0
 11
165.49343652481889
 21
30.45869430631717
 31
0.0
  0
LINE
  5
295
  8
DATA
  6
CONTINUOUS
 62
     7
 10
168.3589494478189
 20
63.135695621912191
 30
0.0
 11
168.3589494478189
 21
65.553363994122208
 31
0.0
  0
LINE
  5
296
  8
DATA
  6
CONTINUOUS
 62
     7
 10
149.96240737936861
 20
23.968332984327152
 30
0.0
 11
149.96197475308369
 21
23.967925806647159
 31
0.0
  0
LINE
  5
297
  8
DATA
  6
CONTINUOUS
 62
     7
 10
179.3849392931441
 20
-17.25245214210247
 30
0.0
 11
180.9627528031441
 21
-17.252553936522471
 31
0.0
  0
LINE
  5
298
  8
DATA
  6
CONTINUOUS
 62
     7
 10
179.384583012674
 20
-22.49486477210246
 30
0.0
 11
179.3849392931441
 21
-17.25245214210247
 31
0.0
  0
LINE
  5
299
  8
DATA
  6
CONTINUOUS
 62
     7
 10
180.96239652267411
 20
-22.494966566522461
 30
0.0
 11
179.384583012674
 21
-22.49486477210246
 31
0.0
  0
LINE
  5
29A
  8
DATA
  6
CONTINUOUS
 62
     7
 10
180.9627528031441
 20
-17.252553936522471
 30
0.0
 11
180.96239652267411
 21
-22.494966566522461
 31
0.0
  0
LINE
  5
29B
  8
DATA
  6
CONTINUOUS
 62
     7
 10
176.839722512674
 20
-22.49468663186747
 30
0.0
 11
176.8400787931441
 21
-17.252274001867448
 31
0.0
  0
LINE
  5
29C
  8
DATA
  6
CONTINUOUS
 62
     7
 10
198.93297984063409
 20
35.292020610942153
 30
0.0
 11
198.1123641238041
 21
44.636239394842093
 31
0.0
  0
LINE
  5
29D
  8
DATA
  6
CONTINUOUS
 62
     7
 10
151.6712303079087
 20
60.776279106547193
 30
0.0
 11
151.03229218217359
 21
60.137340980812169
 31
0.0
  0
LINE
  5
29E
  8
DATA
  6
CONTINUOUS
 62
     7
 10
163.8710625074639
 20
57.206221554122173
 30
0.0
 11
201.88118309423569
 21
57.206221554122173
 31
0.0
  0
LINE
  5
29F
  8
DATA
  6
CONTINUOUS
 62
     7
 10
175.81747749842901
 20
-16.96999807520746
 30
0.0
 11
175.817067201496
 21
-22.919303602767119
 31
0.0
  0
LINE
  5
2A0
  8
DATA
  6
CONTINUOUS
 62
     7
 10
165.50170732144389
 20
48.592352285117087
 30
0.0
 11
165.50145283539379
 21
48.595355220507088
 31
0.0
  0
LINE
  5
2A1
  8
DATA
  6
CONTINUOUS
 62
     7
 10
188.85143862406909
 20
-16.202951671902461
 30
0.0
 11
176.58521101406899
 21
-16.202951671902461
 31
0.0
  0
LINE
  5
2A2
  8
DATA
  6
CONTINUOUS
 62
     7
 10
216.72394690450389
 20
20.856019490037159
 30
0.0
 11
216.72394690450389
 21
16.56408680818215
 31
0.0
  0
LINE
  5
2A3
  8
DATA
  6
CONTINUOUS
 62
     7
 10
148.9289649789236
 20
16.600411778730741
 30
0.0
 11
148.9289649789236
 21
16.600376518912139
 31
0.0
  0
LINE
  5
2A4
  8
DATA
  6
CONTINUOUS
 62
     7
 10
215.43665466918389
 20
-18.81112830114245
 30
0.0
 11
215.474267707374
 21
-18.848715890727441
 31
0.0
  0
LINE
  5
2A5
  8
DATA
  6
CONTINUOUS
 62
     7
 10
149.96131308935369
 20
25.01930947361716
 30
0.0
 11
149.96240737936861
 21
25.01818973499714
 31
0.0
  0
LINE
  5
2A6
  8
DATA
  6
CONTINUOUS
 62
     7
 10
215.47536199738889
 20
58.177009489057163
 30
0.0
 11
215.474267707374
 21
58.177009489057163
 31
0.0
  0
LINE
  5
2A7
  8
DATA
  6
CONTINUOUS
 62
     7
 10
166.5613363364339
 20
35.292020610942153
 30
0.0
 11
167.3819775018689
 21
44.636239394842093
 31
0.0
  0
LINE
  5
2A8
  8
DATA
  6
CONTINUOUS
 62
     7
 10
152.39405151
 20
61.074409514122173
 30
0.0
 11
213.02405150999999
 21
61.074409514122173
 31
0.0
  0
LINE
  5
2A9
  8
DATA
  6
CONTINUOUS
 62
     7
 10
158.3321990778187
 20
65.553363994122208
 30
0.0
 11
168.3589494478189
 21
65.553363994122208
 31
0.0
  0
LINE
  5
2AA
  8
DATA
  6
CONTINUOUS
 62
     7
 10
158.3321990778187
 20
65.553363994122208
 30
0.0
 11
158.3321990778187
 21
63.135695621912191
 31
0.0
  0
LINE
  5
2AB
  8
DATA
  6
CONTINUOUS
 62
     7
 10
148.71405150969861
 20
16.600656453567169
 30
0.0
 11
148.71405150969861
 21
20.892589135422149
 31
0.0
  0
LINE
  5
2AC
  8
DATA
  6
CONTINUOUS
 62
     7
 10
98.921869097378661
 20
65.5533709803222
 30
0.0
 11
98.921869097378661
 21
63.135702608112183
 31
0.0
  0
LINE
  5
2AD
  8
DATA
  6
CONTINUOUS
 62
     7
 10
111.6385879130886
 20
61.074467397532182
 30
0.0
 11
111.6385879130886
 21
63.135753505322178
 31
0.0
  0
LINE
  5
2AE
  8
DATA
  6
CONTINUOUS
 62
     7
 10
97.33647190308865
 20
63.135753505322178
 30
0.0
 11
97.33647190308865
 21
61.074467397532182
 31
0.0
  0
LINE
  5
2AF
  8
DATA
  6
CONTINUOUS
 62
     7
 10
100.76997224108359
 20
-11.99672290548753
 30
0.0
 11
100.76997224108359
 21
-11.99723187758752
 31
0.0
  0
LINE
  5
2B0
  8
DATA
  6
CONTINUOUS
 62
     7
 10
105.55430998108361
 20
-11.997308223402509
 30
0.0
 11
105.55430998108361
 21
-11.996773802697531
 31
0.0
  0
LINE
  5
2B1
  8
DATA
  6
CONTINUOUS
 62
     7
 10
91.239258611484857
 20
49.694385662237082
 30
0.0
 11
91.090078888974844
 21
49.676571638737109
 31
0.0
  0
LINE
  5
2B2
  8
DATA
  6
CONTINUOUS
 62
     7
 10
90.050936001009887
 20
30.124408417237149
 30
0.0
 11
91.067989499834809
 21
18.499409307422141
 31
0.0
  0
LINE
  5
2B3
  8
DATA
  6
CONTINUOUS
 62
     7
 10
92.635012801314829
 20
18.636500942557131
 30
0.0
 11
91.758868228374837
 21
28.65090873913217
 31
0.0
  0
LINE
  5
2B4
  8
DATA
  6
CONTINUOUS
 62
     7
 10
91.962085368334854
 20
28.02499999995247
 30
0.0
 11
92.014601260019859
 21
28.620879385232161
 31
0.0
  0
LINE
  5
2B5
  8
DATA
  6
CONTINUOUS
 62
     7
 10
92.574419672809867
 20
34.971807800427158
 30
0.0
 11
93.649394196614864
 21
47.167110148292068
 31
0.0
  0
LINE
  5
2B6
  8
DATA
  6
CONTINUOUS
 62
     7
 10
91.067989499834809
 20
18.499409307422141
 30
0.0
 11
91.487636996284877
 21
13.70265264818214
 31
0.0
  0
LINE
  5
2B7
  8
DATA
  6
CONTINUOUS
 62
     7
 10
93.054660297764869
 20
13.839769731922139
 30
0.0
 11
92.635012801314829
 21
18.636500942557131
 31
0.0
  0
LINE
  5
2B8
  8
DATA
  6
CONTINUOUS
 62
     7
 10
88.509488547554824
 20
47.743266565492078
 30
0.0
 11
88.793291390514852
 21
44.499409231957102
 31
0.0
  0
LINE
  5
2B9
  8
DATA
  6
CONTINUOUS
 62
     7
 10
90.360314691994873
 20
44.636500867092089
 30
0.0
 11
90.071707574079966
 21
47.935296787677864
 31
0.0
  0
LINE
  5
2BA
  8
DATA
  6
CONTINUOUS
 62
     7
 10
89.610802377534853
 20
35.155190448057162
 30
0.0
 11
90.050936001009887
 21
30.124408417237149
 31
0.0
  0
LINE
  5
2BB
  8
DATA
  6
CONTINUOUS
 62
     7
 10
92.014601260019859
 20
28.620879385232161
 30
0.0
 11
92.130341515559849
 21
29.93374746857716
 31
0.0
  0
LINE
  5
2BC
  8
DATA
  6
CONTINUOUS
 62
     7
 10
116.1883731827668
 20
24.56917618650624
 30
0.0
 11
116.6894488932535
 21
24.072475662187131
 31
0.0
  0
LINE
  5
2BD
  8
DATA
  6
CONTINUOUS
 62
     7
 10
116.6894488932535
 20
24.072475662187131
 30
0.0
 11
116.6894488932535
 21
21.15917025899715
 31
0.0
  0
LINE
  5
2BE
  8
DATA
  6
CONTINUOUS
 62
     7
 10
110.92803735077381
 20
63.135753505322178
 30
0.0
 11
111.6385879130886
 21
63.135753505322178
 31
0.0
  0
LINE
  5
2BF
  8
DATA
  6
CONTINUOUS
 62
     7
 10
91.096670077669856
 20
36.219705595207152
 30
0.0
 11
90.360314691994873
 21
44.636500867092089
 31
0.0
  0
LINE
  5
2C0
  8
DATA
  6
CONTINUOUS
 62
     7
 10
91.54805198455486
 20
1.2238273920121681
 30
0.0
 11
92.100846582364866
 21
4.3596299487171564
 31
0.0
  0
LINE
  5
2C1
  8
DATA
  6
CONTINUOUS
 62
     7
 10
115.9603463600035
 20
60.137347967012147
 30
0.0
 11
115.3214082342686
 21
60.776286092747171
 31
0.0
  0
LINE
  5
2C2
  8
DATA
  6
CONTINUOUS
 62
     7
 10
115.9603463600035
 20
60.137347967012147
 30
0.0
 11
115.96485076308861
 21
59.878332065322169
 31
0.0
  0
LINE
  5
2C3
  8
DATA
  6
CONTINUOUS
 62
     7
 10
112.26447090445861
 20
25.085788216077152
 30
0.0
 11
112.26447090445861
 21
58.17701647525714
 31
0.0
  0
LINE
  5
2C4
  8
DATA
  6
CONTINUOUS
 62
     7
 10
115.6702831602135
 20
59.878332065322169
 30
0.0
 11
116.29191623454859
 21
59.256724439592148
 31
0.0
  0
LINE
  5
2C5
  8
DATA
  6
CONTINUOUS
 62
     7
 10
116.1883731827668
 20
24.56917618650624
 30
0.0
 11
116.73912457021351
 21
25.124775478937138
 31
0.0
  0
LINE
  5
2C6
  8
DATA
  6
CONTINUOUS
 62
     7
 10
116.73912457021351
 20
25.57361252532213
 30
0.0
 11
116.73912457021351
 21
25.574223291842131
 31
0.0
  0
LINE
  5
2C7
  8
DATA
  6
CONTINUOUS
 62
     7
 10
116.7400661685986
 20
25.574554123707131
 30
0.0
 11
117.12086072617311
 21
25.95534868128172
 31
0.0
  0
LINE
  5
2C8
  8
DATA
  6
CONTINUOUS
 62
     7
 10
107.2502304668886
 20
15.421884056167141
 30
0.0
 11
107.2502304668886
 21
22.034780411232148
 31
0.0
  0
LINE
  5
2C9
  8
DATA
  6
CONTINUOUS
 62
     7
 10
112.2160931063536
 20
-18.374066972672459
 30
0.0
 11
115.69367042820861
 21
16.810818019857141
 31
0.0
  0
LINE
  5
2CA
  8
DATA
  6
CONTINUOUS
 62
     7
 10
112.2160931063536
 20
24.031936034422149
 30
0.0
 11
112.2160931063536
 21
-18.374066972672459
 31
0.0
  0
LINE
  5
2CB
  8
DATA
  6
CONTINUOUS
 62
     7
 10
112.87495748980361
 20
-20.397994528322471
 30
0.0
 11
116.3979605715836
 21
15.246390476087139
 31
0.0
  0
LINE
  5
2CC
  8
DATA
  6
CONTINUOUS
 62
     7
 10
115.90804947672861
 20
21.15917025899715
 30
0.0
 11
115.90804947672861
 21
24.065808127677158
 31
0.0
  0
LINE
  5
2CD
  8
DATA
  6
CONTINUOUS
 62
     7
 10
102.0687926944686
 20
63.135753505322178
 30
0.0
 11
97.33647190308865
 21
63.135753505322178
 31
0.0
  0
LINE
  5
2CE
  8
DATA
  6
CONTINUOUS
 62
     7
 10
93.720988590738614
 20
6.130878305322141
 30
0.0
 11
93.720174235378593
 21
6.130878305322141
 31
0.0
  0
LINE
  5
2CF
  8
DATA
  6
CONTINUOUS
 62
     7
 10
93.750000000438604
 20
58.168820878718883
 30
0.0
 11
93.750000000438604
 21
-22.49930753660411
 31
0.0
  0
LINE
  5
2D0
  8
DATA
  6
CONTINUOUS
 62
     7
 10
89.979247280724849
 20
1.423853427312167
 30
0.0
 11
90.54502066708487
 21
4.6332024524671729
 31
0.0
  0
LINE
  5
2D1
  8
DATA
  6
CONTINUOUS
 62
     7
 10
88.793291390514852
 20
44.499409231957102
 30
0.0
 11
89.610802377534853
 21
35.155190448057162
 31
0.0
  0
LINE
  5
2D2
  8
DATA
  6
CONTINUOUS
 62
     7
 10
94.923384279778631
 20
60.137347967012147
 30
0.0
 11
94.918854428088636
 21
59.878332065322169
 31
0.0
  0
LINE
  5
2D3
  8
DATA
  6
CONTINUOUS
 62
     7
 10
91.264325487409863
 20
49.693978484557093
 30
0.0
 11
91.239258611484857
 21
49.694385662237082
 31
0.0
  0
LINE
  5
2D4
  8
DATA
  6
CONTINUOUS
 62
     7
 10
94.869255096943647
 20
27.754532525217162
 30
0.0
 11
94.869255096943647
 21
29.27638455282214
 31
0.0
  0
LINE
  5
2D5
  8
DATA
  6
CONTINUOUS
 62
     7
 10
94.702032313488587
 20
29.27638455282214
 30
0.0
 11
94.702032313488587
 21
32.457816458292157
 31
0.0
  0
LINE
  5
2D6
  8
DATA
  6
CONTINUOUS
 62
     7
 10
94.173315118704323
 20
59.252987265442371
 30
0.0
 11
94.711324077009351
 21
59.79570421567238
 31
0.0
  0
LINE
  5
2D7
  8
DATA
  6
CONTINUOUS
 62
     7
 10
95.079307882613605
 20
29.27638455282214
 30
0.0
 11
95.857831606773587
 21
29.27638455282214
 31
0.0
  0
LINE
  5
2D8
  8
DATA
  6
CONTINUOUS
 62
     7
 10
100.7980373507737
 20
65.5533709803222
 30
0.0
 11
98.921869097378661
 21
65.5533709803222
 31
0.0
  0
LINE
  5
2D9
  8
DATA
  6
CONTINUOUS
 62
     7
 10
88.456827102887885
 20
48.34500000001465
 30
0.0
 11
88.509488547554824
 21
47.743266565492078
 31
0.0
  0
LINE
  5
2DA
  8
DATA
  6
CONTINUOUS
 62
     7
 10
2.9201750222494378
 20
216.28929886999251
 30
0.0
 11
-4.7234916297355047
 21
216.34757617544261
 31
0.0
  0
LINE
  5
2DB
  8
DATA
  6
CONTINUOUS
 62
     7
 10
-4.7354779226904631
 20
214.77462334899749
 30
0.0
 11
2.908188729294451
 21
214.7163460435475
 31
0.0
  0
LINE
  5
2DC
  8
DATA
  6
CONTINUOUS
 62
     7
 10
5.4177777063961523
 20
213.88098261155949
 30
0.0
 11
6.2015944967644003
 21
214.66180968303249
 31
0.0
  0
LINE
  5
2DD
  8
DATA
  6
CONTINUOUS
 62
     7
 10
-0.3081841108405143
 20
212.17983268598761
 30
0.0
 11
3.9142008274581159
 21
213.20052267648589
 31
0.0
  0
LINE
  5
2DE
  8
DATA
  6
CONTINUOUS
 62
     7
 10
3.4330000000001202
 20
214.70250689334989
 30
0.0
 11
-0.6777996498605177
 21
213.7087848743875
 31
0.0
  0
LINE
  5
2DF
  8
DATA
  6
CONTINUOUS
 62
     7
 10
8.4793973358944026
 20
190.01924083537401
 30
0.0
 11
32.048750099669512
 21
190.01924083537401
 31
0.0
  0
LINE
  5
2E0
  8
DATA
  6
CONTINUOUS
 62
     7
 10
52.988803892054818
 20
197.076139001874
 30
0.0
 11
53.014048908214818
 21
199.96984897921391
 31
0.0
  0
LINE
  5
2E1
  8
DATA
  6
CONTINUOUS
 62
     7
 10
40.83203073215963
 20
196.31481853469401
 30
0.0
 11
40.809508716734641
 21
196.31481853469401
 31
0.0
  0
LINE
  5
2E2
  8
DATA
  6
CONTINUOUS
 62
     7
 10
38.450117649974622
 20
196.31481853469401
 30
0.0
 11
38.427519288734601
 21
196.31481853469401
 31
0.0
  0
LINE
  5
2E3
  8
DATA
  6
CONTINUOUS
 62
     7
 10
32.048750099669512
 20
188.66051436581901
 30
0.0
 11
8.4793973358944026
 21
188.66051436581901
 31
0.0
  0
LINE
  5
2E4
  8
DATA
  6
CONTINUOUS
 62
     7
 10
54.261310487869842
 20
195.16085154096891
 30
0.0
 11
54.261310487869842
 21
194.876819660564
 31
0.0
  0
LINE
  5
2E5
  8
DATA
  6
CONTINUOUS
 62
     7
 10
40.832081629369632
 20
196.3218677982789
 30
0.0
 11
40.832081629369632
 21
196.04783721963901
 31
0.0
  0
LINE
  5
2E6
  8
DATA
  6
CONTINUOUS
 62
     7
 10
49.31041162814477
 20
193.22802999121899
 30
0.0
 11
38.348730407654607
 21
189.66003377579889
 31
0.0
  0
LINE
  5
2E7
  8
DATA
  6
CONTINUOUS
 62
     7
 10
2.1794170279094232
 20
189.66003377579889
 30
0.0
 11
-8.7822641925804827
 21
193.22802999121899
 31
0.0
  0
LINE
  5
2E8
  8
DATA
  6
CONTINUOUS
 62
     7
 10
38.427493840129607
 20
196.04783721963901
 30
0.0
 11
38.427493840129607
 21
196.3218677982789
 31
0.0
  0
LINE
  5
2E9
  8
DATA
  6
CONTINUOUS
 62
     7
 10
51.9430698153948
 20
205.9300377531539
 30
0.0
 11
51.9430698153948
 21
196.85359095114899
 31
0.0
  0
LINE
  5
2EA
  8
DATA
  6
CONTINUOUS
 62
     7
 10
-11.414922379830459
 20
196.85359095114899
 30
0.0
 11
-11.414922379830459
 21
206.25
 31
0.0
  0
LINE
  5
2EB
  8
DATA
  6
CONTINUOUS
 62
     7
 10
46.737863045904717
 20
200.92223757273391
 30
0.0
 11
45.141166670994728
 21
200.92223757273391
 31
0.0
  0
LINE
  5
2EC
  8
DATA
  6
CONTINUOUS
 62
     7
 10
34.11975757456954
 20
200.92223757273391
 30
0.0
 11
32.523035751054508
 21
200.92223757273391
 31
0.0
  0
LINE
  5
2ED
  8
DATA
  6
CONTINUOUS
 62
     7
 10
32.523035751054508
 20
199.34442406273391
 30
0.0
 11
34.11975757456954
 21
199.34442406273391
 31
0.0
  0
LINE
  5
2EE
  8
DATA
  6
CONTINUOUS
 62
     7
 10
45.141166670994728
 20
199.34442406273391
 30
0.0
 11
46.737863045904717
 21
199.34442406273391
 31
0.0
  0
LINE
  5
2EF
  8
DATA
  6
CONTINUOUS
 62
     7
 10
-8.7822641925804827
 20
193.22802999121899
 30
0.0
 11
-8.7836638658554733
 21
193.22372917697399
 31
0.0
  0
LINE
  5
2F0
  8
DATA
  6
CONTINUOUS
 62
     7
 10
38.348730407654607
 20
189.66003377579889
 30
0.0
 11
38.350130080929603
 21
189.65573296155389
 31
0.0
  0
LINE
  5
2F1
  8
DATA
  6
CONTINUOUS
 62
     7
 10
-12.474729535055459
 20
197.076139001874
 30
0.0
 11
-12.499999999820441
 21
199.96984897921391
 31
0.0
  0
LINE
  5
2F2
  8
DATA
  6
CONTINUOUS
 62
     7
 10
38.474726451009609
 20
188.75691368155901
 30
0.0
 11
49.530313023949773
 21
192.35638982136399
 31
0.0
  0
LINE
  5
2F3
  8
DATA
  6
CONTINUOUS
 62
     7
 10
2.0393224573844431
 20
188.75691368155901
 30
0.0
 11
-9.0162641155554724
 21
192.35638982136399
 31
0.0
  0
LINE
  5
2F4
  8
DATA
  6
CONTINUOUS
 62
     7
 10
4.4346724030094284
 20
188.15701371589401
 30
0.0
 11
4.439482189354421
 21
187.88173615560899
 31
0.0
  0
LINE
  5
2F5
  8
DATA
  6
CONTINUOUS
 62
     7
 10
36.079401953989588
 20
188.15701371589401
 30
0.0
 11
36.074592167644589
 21
187.88173615560899
 31
0.0
  0
LINE
  5
2F6
  8
DATA
  6
CONTINUOUS
 62
     7
 10
32.959759261459503
 20
187.88173615560899
 30
0.0
 11
7.5542896469344063
 21
187.88173615560899
 31
0.0
  0
LINE
  5
2F7
  8
DATA
  6
CONTINUOUS
 62
     7
 10
36.074592167644589
 20
187.881659809794
 30
0.0
 11
36.074592167644589
 21
187.88173615560899
 31
0.0
  0
LINE
  5
2F8
  8
DATA
  6
CONTINUOUS
 62
     7
 10
36.074592167644589
 20
187.88173615560899
 30
0.0
 11
35.436639431087933
 21
187.49892821996229
 31
0.0
  0
LINE
  5
2F9
  8
DATA
  6
CONTINUOUS
 62
     7
 10
4.439482189354421
 20
187.88173615560899
 30
0.0
 11
5.0756487957900731
 21
187.49999999964939
 31
0.0
  0
LINE
  5
2FA
  8
DATA
  6
CONTINUOUS
 62
     7
 10
53.01298006680485
 20
201.24128673361889
 30
0.0
 11
52.383228887474807
 21
200.60603865560901
 31
0.0
  0
LINE
  5
2FB
  8
DATA
  6
CONTINUOUS
 62
     7
 10
-10.056195910275459
 20
205.9379794165155
 30
0.0
 11
-10.056195910275459
 21
196.85359095114899
 31
0.0
  0
LINE
  5
2FC
  8
DATA
  6
CONTINUOUS
 62
     7
 10
50.584343345839777
 20
196.85359095114899
 30
0.0
 11
50.584343345839777
 21
205.9300377531539
 31
0.0
  0
LINE
  5
2FD
  8
DATA
  6
CONTINUOUS
 62
     7
 10
18.991630743479352
 20
204.4086964577339
 30
0.0
 11
21.5364912434794
 21
204.4086964577339
 31
0.0
  0
LINE
  5
2FE
  8
DATA
  6
CONTINUOUS
 62
     7
 10
21.5364912434794
 20
201.35486385773399
 30
0.0
 11
18.991630743479352
 21
201.35486385773399
 31
0.0
  0
LINE
  5
2FF
  8
DATA
  6
CONTINUOUS
 62
     7
 10
-8.3617259949554779
 20
194.52005566706899
 30
0.0
 11
2.5999552255344578
 21
190.95203400304399
 31
0.0
  0
LINE
  5
300
  8
DATA
  6
CONTINUOUS
 62
     7
 10
37.9281922100296
 20
190.95203400304399
 30
0.0
 11
48.889847981914762
 21
194.52005566706899
 31
0.0
  0
LINE
  5
301
  8
DATA
  6
CONTINUOUS
 62
     7
 10
-13.533671437710449
 20
195.95586596116891
 30
0.0
 11
-12.985813869270469
 21
196.89502128008891
 31
0.0
  0
LINE
  5
302
  8
DATA
  6
CONTINUOUS
 62
     7
 10
26.774068638529439
 20
211.65182575553891
 30
0.0
 11
26.77366146084945
 21
211.65047697947389
 31
0.0
  0
LINE
  5
303
  8
DATA
  6
CONTINUOUS
 62
     7
 10
19.468104974894391
 20
211.90402143108889
 30
0.0
 11
19.468257666524391
 21
211.9027998980489
 31
0.0
  0
LINE
  5
304
  8
DATA
  6
CONTINUOUS
 62
     7
 10
22.01296547489439
 20
211.90402143108889
 30
0.0
 11
22.0131181665244
 21
211.9027998980489
 31
0.0
  0
LINE
  5
305
  8
DATA
  6
CONTINUOUS
 62
     7
 10
24.55782597489441
 20
211.90402143108889
 30
0.0
 11
24.55797866652442
 21
211.9027998980489
 31
0.0
  0
LINE
  5
306
  8
DATA
  6
CONTINUOUS
 62
     7
 10
1.1776835892944599
 20
210.2974764460439
 30
0.0
 11
39.350438397664632
 21
210.2974764460439
 31
0.0
  0
LINE
  5
307
  8
DATA
  6
CONTINUOUS
 62
     7
 10
39.350438397664632
 20
210.2974764460439
 30
0.0
 11
48.017749737169758
 21
209.99481618677879
 31
0.0
  0
LINE
  5
308
  8
DATA
  6
CONTINUOUS
 62
     7
 10
-7.4896023016054709
 20
209.99481618677879
 30
0.0
 11
1.1776835892944599
 21
210.2974764460439
 31
0.0
  0
LINE
  5
309
  8
DATA
  6
CONTINUOUS
 62
     7
 10
52.383381579104821
 20
200.60603865560901
 30
0.0
 11
53.014048908214818
 21
199.96984897921391
 31
0.0
  0
LINE
  5
30A
  8
DATA
  6
CONTINUOUS
 62
     7
 10
-8.1775765003333607
 20
214.16001646780899
 30
0.0
 11
-8.9122047697104705
 21
214.14968195601261
 31
0.0
  0
LINE
  5
30B
  8
DATA
  6
CONTINUOUS
 62
     7
 10
-8.5662309847354692
 20
213.1255282963925
 30
0.0
 11
-9.7841248742204385
 21
214.0512467518725
 31
0.0
  0
LINE
  5
30C
  8
DATA
  6
CONTINUOUS
 62
     7
 10
-1.351449672815519
 20
214.25598077909751
 30
0.0
 11
-1.389648028920518
 21
214.3363983708976
 31
0.0
  0
LINE
  5
30D
  8
DATA
  6
CONTINUOUS
 62
     7
 10
-2.351834335365496
 20
212.74530068908749
 30
0.0
 11
-2.3880222516755079
 21
212.51015557888749
 31
0.0
  0
LINE
  5
30E
  8
DATA
  6
CONTINUOUS
 62
     7
 10
-12.77044232515545
 20
197.02122091228401
 30
0.0
 11
-12.474049871518289
 21
197.02641550376001
 31
0.0
  0
LINE
  5
30F
  8
DATA
  6
CONTINUOUS
 62
     7
 10
39.328069073869621
 20
208.93874997648891
 30
0.0
 11
1.201401689154451
 21
208.93874997648891
 31
0.0
  0
LINE
  5
310
  8
DATA
  6
CONTINUOUS
 62
     7
 10
1.4097494182894501
 20
211.50068649044391
 30
0.0
 11
39.104299490104623
 21
211.50068649044391
 31
0.0
  0
LINE
  5
311
  8
DATA
  6
CONTINUOUS
 62
     7
 10
53.498539450204817
 20
196.89502128008891
 30
0.0
 11
54.046397018644853
 21
195.95586596116891
 31
0.0
  0
LINE
  5
312
  8
DATA
  6
CONTINUOUS
 62
     7
 10
52.988117936026569
 20
197.0263763553092
 30
0.0
 11
53.28316790608983
 21
197.02122091228401
 31
0.0
  0
LINE
  5
313
  8
DATA
  6
CONTINUOUS
 62
     7
 10
-12.499999999820441
 20
199.96984897921391
 30
0.0
 11
-11.869332670710451
 21
200.60603865560901
 31
0.0
  0
LINE
  5
314
  8
DATA
  6
CONTINUOUS
 62
     7
 10
47.970338986054763
 20
208.63690407258389
 30
0.0
 11
39.328069073869621
 21
208.9386990792789
 31
0.0
  0
LINE
  5
315
  8
DATA
  6
CONTINUOUS
 62
     7
 10
1.201401689154451
 20
208.93874997648891
 30
0.0
 11
-7.4421915504904756
 21
208.63690407258389
 31
0.0
  0
LINE
  5
316
  8
DATA
  6
CONTINUOUS
 62
     7
 10
-13.74858490693545
 20
194.876819660564
 30
0.0
 11
-13.74858490693545
 21
195.16085154096891
 31
0.0
  0
LINE
  5
317
  8
DATA
  6
CONTINUOUS
 62
     7
 10
-11.432482480731281
 20
22.13572804099984
 30
0.0
 11
-11.432482480731281
 21
15.28069153723898
 31
0.0
  0
LINE
  5
318
  8
DATA
  6
CONTINUOUS
 62
     7
 10
1.321874821773789
 20
92.053777714661933
 30
0.0
 11
1.321874821773789
 21
150.25966456935481
 31
0.0
  0
LINE
  5
319
  8
DATA
  6
CONTINUOUS
 62
     7
 10
-0.2559386882262373
 20
150.25966456935481
 30
0.0
 11
-0.2559386882262373
 21
92.053777714661933
 31
0.0
  0
LINE
  5
31A
  8
DATA
  6
CONTINUOUS
 62
     7
 10
2.0598843667737858
 20
150.25966456935481
 30
0.0
 11
2.0598843667737858
 21
159.54840539435489
 31
0.0
  0
LINE
  5
31B
  8
DATA
  6
CONTINUOUS
 62
     7
 10
-0.9939482332262343
 20
159.54840539435489
 30
0.0
 11
-0.9939482332262343
 21
150.25966456935481
 31
0.0
  0
LINE
  5
31C
  8
DATA
  6
CONTINUOUS
 62
     7
 10
2.3112656869637642
 20
86.771538017836875
 30
0.0
 11
2.0470837184587931
 21
91.812626733681853
 31
0.0
  0
LINE
  5
31D
  8
DATA
  6
CONTINUOUS
 62
     7
 10
-0.9811221363061976
 20
91.812626733681853
 30
0.0
 11
-1.2453295534162401
 21
86.771538017836875
 31
0.0
  0
LINE
  5
31E
  8
DATA
  6
CONTINUOUS
 62
     7
 10
46.782168503759017
 20
61.074434962659979
 30
0.0
 11
46.782168503759017
 21
63.135746519055019
 31
0.0
  0
LINE
  5
31F
  8
DATA
  6
CONTINUOUS
 62
     7
 10
32.48005249375899
 20
63.135746519055019
 30
0.0
 11
32.48005249375899
 21
61.074434962659979
 31
0.0
  0
LINE
  5
320
  8
DATA
  6
CONTINUOUS
 62
     7
 10
-13.74792380665629
 20
16.564086808114851
 30
0.0
 11
-13.74792380665629
 21
20.856019489969849
 31
0.0
  0
LINE
  5
321
  8
DATA
  6
CONTINUOUS
 62
     7
 10
44.643824020029022
 20
63.135695621845016
 30
0.0
 11
44.643824020029022
 21
65.553363994055019
 31
0.0
  0
LINE
  5
322
  8
DATA
  6
CONTINUOUS
 62
     7
 10
34.617073650028992
 20
65.553363994055019
 30
0.0
 11
34.617073650028992
 21
63.135695621845016
 31
0.0
  0
LINE
  5
323
  8
DATA
  6
CONTINUOUS
 62
     7
 10
34.617073650028992
 20
65.553363994055019
 30
0.0
 11
44.643824020029022
 21
65.553363994055019
 31
0.0
  0
LINE
  5
324
  8
DATA
  6
CONTINUOUS
 62
     7
 10
32.48005249375899
 20
63.135746519055019
 30
0.0
 11
46.782168503759017
 21
63.135746519055019
 31
0.0
  0
LINE
  5
325
  8
DATA
  6
CONTINUOUS
 62
     7
 10
-12.500000000171021
 20
22.128289794426941
 30
0.0
 11
-11.432482480731281
 21
22.13572804099984
 31
0.0
  0
LINE
  5
326
  8
DATA
  6
CONTINUOUS
 62
     7
 10
-12.474068434776299
 20
58.177009488989967
 30
0.0
 11
-12.49933889954128
 21
58.177009488989967
 31
0.0
  0
LINE
  5
327
  8
DATA
  6
CONTINUOUS
 62
     7
 10
49.530974124229047
 20
24.634235133455508
 30
0.0
 11
49.530974124229047
 21
58.177009488989967
 31
0.0
  0
LINE
  5
328
  8
DATA
  6
CONTINUOUS
 62
     7
 10
-9.0156030152762696
 20
24.634235133455508
 30
0.0
 11
-9.0156030152762696
 21
58.177009488989967
 31
0.0
  0
LINE
  5
329
  8
DATA
  6
CONTINUOUS
 62
     7
 10
2.0399835576637741
 20
24.634235133455508
 30
0.0
 11
2.0399835576637741
 21
58.177009488989967
 31
0.0
  0
LINE
  5
32A
  8
DATA
  6
CONTINUOUS
 62
     7
 10
38.475387551289018
 20
24.634235133455508
 30
0.0
 11
38.475387551289018
 21
58.177009488989967
 31
0.0
  0
LINE
  5
32B
  8
DATA
  6
CONTINUOUS
 62
     7
 10
36.080063054269012
 20
54.744323506354952
 30
0.0
 11
36.075253267924033
 21
54.744323506354952
 31
0.0
  0
LINE
  5
32C
  8
DATA
  6
CONTINUOUS
 62
     7
 10
52.609491871079037
 20
24.37403464516985
 30
0.0
 11
52.989617683963999
 21
23.993908832284841
 31
0.0
  0
LINE
  5
32D
  8
DATA
  6
CONTINUOUS
 62
     7
 10
-12.47562079968132
 20
-18.37407395893996
 30
0.0
 11
-12.47556943089854
 21
15.29158792744362
 31
0.0
  0
LINE
  5
32E
  8
DATA
  6
CONTINUOUS
 62
     7
 10
52.989668581174023
 20
-18.37407395893996
 30
0.0
 11
52.989617683963999
 21
14.982532353179851
 31
0.0
  0
LINE
  5
32F
  8
DATA
  6
CONTINUOUS
 62
     7
 10
-9.0171299315762656
 20
-18.37407395893996
 30
0.0
 11
1.663980418788781
 21
16.81081103358984
 31
0.0
  0
LINE
  5
330
  8
DATA
  6
CONTINUOUS
 62
     7
 10
-9.0171299315762656
 20
24.374009196564842
 30
0.0
 11
-9.0171299315762656
 21
-18.37407395893996
 31
0.0
  0
LINE
  5
331
  8
DATA
  6
CONTINUOUS
 62
     7
 10
49.531177713069027
 20
-18.37407395893996
 30
0.0
 11
38.850067362704017
 21
16.81081103358984
 31
0.0
  0
LINE
  5
332
  8
DATA
  6
CONTINUOUS
 62
     7
 10
49.531177713069027
 20
24.374009196564842
 30
0.0
 11
49.531177713069027
 21
-18.37407395893996
 31
0.0
  0
LINE
  5
333
  8
DATA
  6
CONTINUOUS
 62
     7
 10
44.746585487018997
 20
-20.398001514589879
 30
0.0
 11
-4.2325631541312267
 21
-20.398001514589879
 31
0.0
  0
LINE
  5
334
  8
DATA
  6
CONTINUOUS
 62
     7
 10
2.3223867273487562
 20
21.159163272729849
 30
0.0
 11
2.3223867273487562
 21
24.374009196564842
 31
0.0
  0
LINE
  5
335
  8
DATA
  6
CONTINUOUS
 62
     7
 10
38.19163560553902
 20
21.159163272729849
 30
0.0
 11
38.19163560553902
 21
24.374009196564842
 31
0.0
  0
LINE
  5
336
  8
DATA
  6
CONTINUOUS
 62
     7
 10
35.017889178779029
 20
54.394176150159971
 30
0.0
 11
35.017889178779029
 21
28.818328125159852
 31
0.0
  0
LINE
  5
337
  8
DATA
  6
CONTINUOUS
 62
     7
 10
7.7878818287788221
 20
56.68455060015998
 30
0.0
 11
32.727514728778999
 21
56.68455060015998
 31
0.0
  0
LINE
  5
338
  8
DATA
  6
CONTINUOUS
 62
     7
 10
5.4975073787787911
 20
28.818328125159852
 30
0.0
 11
5.4975073787787911
 21
54.394176150159971
 31
0.0
  0
LINE
  5
339
  8
DATA
  6
CONTINUOUS
 62
     7
 10
32.727514728778999
 20
26.52795367515985
 30
0.0
 11
7.7878818287788221
 21
26.52795367515985
 31
0.0
  0
LINE
  5
33A
  8
DATA
  6
CONTINUOUS
 62
     7
 10
7.406152753778783
 20
34.798750300159853
 30
0.0
 11
7.406152753778783
 21
44.978192300159819
 31
0.0
  0
LINE
  5
33B
  8
DATA
  6
CONTINUOUS
 62
     7
 10
33.109243803779002
 20
44.978192300159819
 30
0.0
 11
33.109243803779002
 21
34.798750300159853
 31
0.0
  0
LINE
  5
33C
  8
DATA
  6
CONTINUOUS
 62
     7
 10
8.4240969537788288
 20
45.996136500159849
 30
0.0
 11
32.091299603778992
 21
45.996136500159849
 31
0.0
  0
LINE
  5
33D
  8
DATA
  6
CONTINUOUS
 62
     7
 10
15.486084841278879
 20
30.80331931515984
 30
0.0
 11
15.486084841278879
 21
28.309356025159861
 31
0.0
  0
LINE
  5
33E
  8
DATA
  6
CONTINUOUS
 62
     7
 10
15.99505694127887
 20
27.800383925159871
 30
0.0
 11
24.52033961627896
 21
27.800383925159871
 31
0.0
  0
LINE
  5
33F
  8
DATA
  6
CONTINUOUS
 62
     7
 10
25.029311716278929
 20
28.309356025159861
 30
0.0
 11
25.029311716278929
 21
30.80331931515984
 31
0.0
  0
LINE
  5
340
  8
DATA
  6
CONTINUOUS
 62
     7
 10
24.52033961627896
 20
31.312291415159869
 30
0.0
 11
15.99505694127887
 21
31.312291415159869
 31
0.0
  0
LINE
  5
341
  8
DATA
  6
CONTINUOUS
 62
     7
 10
32.091299603778992
 20
33.78080610015985
 30
0.0
 11
8.4240969537788288
 21
33.78080610015985
 31
0.0
  0
ARC
  5
342
  8
DATA
  6
CONTINUOUS
 62
     7
 10
213.03155790784399
 20
60.056465314122192
 30
0.0
 40
1.017944200000009
 50
44.999999999999417
 51
90.0
  0
ARC
  5
343
  8
DATA
  6
CONTINUOUS
 62
     7
 10
163.93725432906879
 20
24.25027807912214
 30
0.0
 40
1.5778135099999411
 50
180.0
 51
225.77932800000119
  0
ARC
  5
344
  8
DATA
  6
CONTINUOUS
 62
     7
 10
201.499395309069
 20
41.758918319122088
 30
0.0
 40
1.5778135099999979
 50
0.0
 51
90.0
  0
ARC
  5
345
  8
DATA
  6
CONTINUOUS
 62
     7
 10
163.93725432906879
 20
41.758918319122088
 30
0.0
 40
1.5778135099999979
 50
90.0
 51
180.0
  0
ARC
  5
346
  8
DATA
  6
CONTINUOUS
 62
     7
 10
201.499395309069
 20
24.25027807912214
 30
0.0
 40
1.5778135099999731
 50
316.4006840000003
 51
0.0
  0
ARC
  5
347
  8
DATA
  6
CONTINUOUS
 62
     7
 10
149.98648175969871
 20
16.600656453567169
 30
0.0
 40
1.2724302500035769
 50
180.01577000000091
 51
270.60871927716971
  0
ARC
  5
348
  8
DATA
  6
CONTINUOUS
 62
     7
 10
149.98648175969871
 20
20.892589135422149
 30
0.0
 40
1.2724302500001221
 50
89.391280722829023
 51
180.0
  0
ARC
  5
349
  8
DATA
  6
CONTINUOUS
 62
     7
 10
152.3910186517287
 20
60.056465314122192
 30
0.0
 40
1.0179442000000021
 50
90.0
 51
135.00000000000171
  0
ARC
  5
34A
  8
DATA
  6
CONTINUOUS
 62
     7
 10
114.6016198904486
 20
60.05647230032217
 30
0.0
 40
1.017944199999981
 50
45.000000000001009
 51
90.0
  0
CIRCLE
  5
34B
  8
DATA
  6
CONTINUOUS
 62
     7
 10
95.857857055378645
 20
30.866922365322139
 30
0.0
 40
0.9543226874999911
  0
ARC
  5
34C
  8
DATA
  6
CONTINUOUS
 62
     7
 10
96.282110749333611
 20
60.05647230032217
 30
0.0
 40
1.0179442000045209
 50
90.0
 51
134.99999800000029
  0
ARC
  5
34D
  8
DATA
  6
CONTINUOUS
 62
     7
 10
95.247090535378604
 20
58.167422351172149
 30
0.0
 40
1.52691629999991
 50
134.68716869703911
 51
179.9570086752334
  0
ARC
  5
34E
  8
DATA
  6
CONTINUOUS
 62
     7
 10
90.757949145119866
 20
1.286532754732149
 30
0.0
 40
0.7865009737196858
 50
170.0045329999999
 51
260.16349899999818
  0
ARC
  5
34F
  8
DATA
  6
CONTINUOUS
 62
     7
 10
39.629787734749648
 20
200.13210928469391
 30
0.0
 40
3.9954309849999552
 50
252.48726099999959
 51
287.51273900000052
  0
CIRCLE
  5
350
  8
DATA
  6
CONTINUOUS
 62
     7
 10
0.5323069664944599
 20
198.11881924593399
 30
0.0
 40
3.8449999999999989
  0
POLYLINE
  5
351
  8
DATA
  6
CONTINUOUS
 62
     7
 66
     1
 10
0.0
 20
0.0
 30
0.0
 70
     8
  0
VERTEX
  5
352
  8
DATA
  6
CONTINUOUS
 62
     7
 10
21.5364912434794
 20
201.3548638577339
 30
0.0
 70
    32
  0
VERTEX
  5
353
  8
DATA
  6
CONTINUOUS
 62
     7
 10
21.686155212728
 20
201.36221637706711
 30
0.0
 70
    32
  0
VERTEX
  5
354
  8
DATA
  6
CONTINUOUS
 62
     7
 10
21.834377836138071
 20
201.38420312628611
 30
0.0
 70
    32
  0
VERTEX
  5
355
  8
DATA
  6
CONTINUOUS
 62
     7
 10
21.979731648819449
 20
201.42061236097689
 30
0.0
 70
    32
  0
VERTEX
  5
356
  8
DATA
  6
CONTINUOUS
 62
     7
 10
22.120816814097608
 20
201.47109344030599
 30
0.0
 70
    32
  0
VERTEX
  5
357
  8
DATA
  6
CONTINUOUS
 62
     7
 10
22.25627460470584
 20
201.53516020388381
 30
0.0
 70
    32
  0
VERTEX
  5
358
  8
DATA
  6
CONTINUOUS
 62
     7
 10
22.3848004880718
 20
201.6121956537545
 30
0.0
 70
    32
  0
VERTEX
  5
359
  8
DATA
  6
CONTINUOUS
 62
     7
 10
22.505156689679399
 20
201.70145789642399
 30
0.0
 70
    32
  0
VERTEX
  5
35A
  8
DATA
  6
CONTINUOUS
 62
     7
 10
22.616184113513651
 20
201.80208728769961
 30
0.0
 70
    32
  0
VERTEX
  5
35B
  8
DATA
  6
CONTINUOUS
 62
     7
 10
22.716813504789361
 20
201.91311471153389
 30
0.0
 70
    32
  0
VERTEX
  5
35C
  8
DATA
  6
CONTINUOUS
 62
     7
 10
22.806075747458848
 20
202.03347091314151
 30
0.0
 70
    32
  0
VERTEX
  5
35D
  8
DATA
  6
CONTINUOUS
 62
     7
 10
22.883111197329509
 20
202.16199679650751
 30
0.0
 70
    32
  0
VERTEX
  5
35E
  8
DATA
  6
CONTINUOUS
 62
     7
 10
22.94717796090724
 20
202.29745458711571
 30
0.0
 70
    32
  0
VERTEX
  5
35F
  8
DATA
  6
CONTINUOUS
 62
     7
 10
22.997659040236371
 20
202.43853975239381
 30
0.0
 70
    32
  0
VERTEX
  5
360
  8
DATA
  6
CONTINUOUS
 62
     7
 10
23.034068274927151
 20
202.58389356507519
 30
0.0
 70
    32
  0
VERTEX
  5
361
  8
DATA
  6
CONTINUOUS
 62
     7
 10
23.0560550241462
 20
202.73211618848529
 30
0.0
 70
    32
  0
VERTEX
  5
362
  8
DATA
  6
CONTINUOUS
 62
     7
 10
23.063407543479389
 20
202.88178015773391
 30
0.0
 70
    32
  0
VERTEX
  5
363
  8
DATA
  6
CONTINUOUS
 62
     7
 10
23.0560550241462
 20
203.03144412698239
 30
0.0
 70
    32
  0
VERTEX
  5
364
  8
DATA
  6
CONTINUOUS
 62
     7
 10
23.034068274927151
 20
203.17966675039261
 30
0.0
 70
    32
  0
VERTEX
  5
365
  8
DATA
  6
CONTINUOUS
 62
     7
 10
22.997659040236371
 20
203.32502056307399
 30
0.0
 70
    32
  0
VERTEX
  5
366
  8
DATA
  6
CONTINUOUS
 62
     7
 10
22.94717796090724
 20
203.46610572835209
 30
0.0
 70
    32
  0
VERTEX
  5
367
  8
DATA
  6
CONTINUOUS
 62
     7
 10
22.883111197329509
 20
203.60156351896029
 30
0.0
 70
    32
  0
VERTEX
  5
368
  8
DATA
  6
CONTINUOUS
 62
     7
 10
22.806075747458848
 20
203.73008940232631
 30
0.0
 70
    32
  0
VERTEX
  5
369
  8
DATA
  6
CONTINUOUS
 62
     7
 10
22.716813504789361
 20
203.85044560393391
 30
0.0
 70
    32
  0
VERTEX
  5
36A
  8
DATA
  6
CONTINUOUS
 62
     7
 10
22.616184113513651
 20
203.96147302776819
 30
0.0
 70
    32
  0
VERTEX
  5
36B
  8
DATA
  6
CONTINUOUS
 62
     7
 10
22.505156689679399
 20
204.06210241904381
 30
0.0
 70
    32
  0
VERTEX
  5
36C
  8
DATA
  6
CONTINUOUS
 62
     7
 10
22.3848004880718
 20
204.1513646617133
 30
0.0
 70
    32
  0
VERTEX
  5
36D
  8
DATA
  6
CONTINUOUS
 62
     7
 10
22.25627460470584
 20
204.22840011158399
 30
0.0
 70
    32
  0
VERTEX
  5
36E
  8
DATA
  6
CONTINUOUS
 62
     7
 10
22.120816814097608
 20
204.29246687516169
 30
0.0
 70
    32
  0
VERTEX
  5
36F
  8
DATA
  6
CONTINUOUS
 62
     7
 10
21.979731648819449
 20
204.3429479544908
 30
0.0
 70
    32
  0
VERTEX
  5
370
  8
DATA
  6
CONTINUOUS
 62
     7
 10
21.834377836138071
 20
204.3793571891816
 30
0.0
 70
    32
  0
VERTEX
  5
371
  8
DATA
  6
CONTINUOUS
 62
     7
 10
21.686155212728
 20
204.40134393840069
 30
0.0
 70
    32
  0
VERTEX
  5
372
  8
DATA
  6
CONTINUOUS
 62
     7
 10
21.5364912434794
 20
204.4086964577339
 30
0.0
 70
    32
  0
SEQEND
  5
373
  8
DATA
  6
CONTINUOUS
 62
     7
  0
POLYLINE
  5
374
  8
DATA
  6
CONTINUOUS
 62
     7
 66
     1
 10
0.0
 20
0.0
 30
0.0
 70
     8
  0
VERTEX
  5
375
  8
DATA
  6
CONTINUOUS
 62
     7
 10
18.991630743479352
 20
204.4086964577339
 30
0.0
 70
    32
  0
VERTEX
  5
376
  8
DATA
  6
CONTINUOUS
 62
     7
 10
18.841966774230752
 20
204.40134393840069
 30
0.0
 70
    32
  0
VERTEX
  5
377
  8
DATA
  6
CONTINUOUS
 62
     7
 10
18.693744150820681
 20
204.3793571891816
 30
0.0
 70
    32
  0
VERTEX
  5
378
  8
DATA
  6
CONTINUOUS
 62
     7
 10
18.548390338139299
 20
204.3429479544908
 30
0.0
 70
    32
  0
VERTEX
  5
379
  8
DATA
  6
CONTINUOUS
 62
     7
 10
18.407305172861161
 20
204.29246687516169
 30
0.0
 70
    32
  0
VERTEX
  5
37A
  8
DATA
  6
CONTINUOUS
 62
     7
 10
18.271847382252911
 20
204.22840011158399
 30
0.0
 70
    32
  0
VERTEX
  5
37B
  8
DATA
  6
CONTINUOUS
 62
     7
 10
18.143321498886952
 20
204.1513646617133
 30
0.0
 70
    32
  0
VERTEX
  5
37C
  8
DATA
  6
CONTINUOUS
 62
     7
 10
18.022965297279359
 20
204.06210241904381
 30
0.0
 70
    32
  0
VERTEX
  5
37D
  8
DATA
  6
CONTINUOUS
 62
     7
 10
17.911937873445101
 20
203.96147302776819
 30
0.0
 70
    32
  0
VERTEX
  5
37E
  8
DATA
  6
CONTINUOUS
 62
     7
 10
17.81130848216943
 20
203.85044560393391
 30
0.0
 70
    32
  0
VERTEX
  5
37F
  8
DATA
  6
CONTINUOUS
 62
     7
 10
17.722046239499932
 20
203.73008940232631
 30
0.0
 70
    32
  0
VERTEX
  5
380
  8
DATA
  6
CONTINUOUS
 62
     7
 10
17.645010789629239
 20
203.60156351896029
 30
0.0
 70
    32
  0
VERTEX
  5
381
  8
DATA
  6
CONTINUOUS
 62
     7
 10
17.580944026051512
 20
203.46610572835209
 30
0.0
 70
    32
  0
VERTEX
  5
382
  8
DATA
  6
CONTINUOUS
 62
     7
 10
17.53046294672238
 20
203.32502056307399
 30
0.0
 70
    32
  0
VERTEX
  5
383
  8
DATA
  6
CONTINUOUS
 62
     7
 10
17.494053712031601
 20
203.17966675039261
 30
0.0
 70
    32
  0
VERTEX
  5
384
  8
DATA
  6
CONTINUOUS
 62
     7
 10
17.472066962812519
 20
203.03144412698239
 30
0.0
 70
    32
  0
VERTEX
  5
385
  8
DATA
  6
CONTINUOUS
 62
     7
 10
17.464714443479341
 20
202.88178015773391
 30
0.0
 70
    32
  0
VERTEX
  5
386
  8
DATA
  6
CONTINUOUS
 62
     7
 10
17.472066962812519
 20
202.73211618848529
 30
0.0
 70
    32
  0
VERTEX
  5
387
  8
DATA
  6
CONTINUOUS
 62
     7
 10
17.494053712031601
 20
202.58389356507519
 30
0.0
 70
    32
  0
VERTEX
  5
388
  8
DATA
  6
CONTINUOUS
 62
     7
 10
17.53046294672238
 20
202.43853975239381
 30
0.0
 70
    32
  0
VERTEX
  5
389
  8
DATA
  6
CONTINUOUS
 62
     7
 10
17.580944026051512
 20
202.29745458711571
 30
0.0
 70
    32
  0
VERTEX
  5
38A
  8
DATA
  6
CONTINUOUS
 62
     7
 10
17.645010789629239
 20
202.16199679650751
 30
0.0
 70
    32
  0
VERTEX
  5
38B
  8
DATA
  6
CONTINUOUS
 62
     7
 10
17.722046239499932
 20
202.03347091314151
 30
0.0
 70
    32
  0
VERTEX
  5
38C
  8
DATA
  6
CONTINUOUS
 62
     7
 10
17.81130848216943
 20
201.91311471153389
 30
0.0
 70
    32
  0
VERTEX
  5
38D
  8
DATA
  6
CONTINUOUS
 62
     7
 10
17.911937873445101
 20
201.80208728769961
 30
0.0
 70
    32
  0
VERTEX
  5
38E
  8
DATA
  6
CONTINUOUS
 62
     7
 10
18.022965297279359
 20
201.70145789642399
 30
0.0
 70
    32
  0
VERTEX
  5
38F
  8
DATA
  6
CONTINUOUS
 62
     7
 10
18.143321498886952
 20
201.6121956537545
 30
0.0
 70
    32
  0
VERTEX
  5
390
  8
DATA
  6
CONTINUOUS
 62
     7
 10
18.271847382252911
 20
201.53516020388381
 30
0.0
 70
    32
  0
VERTEX
  5
391
  8
DATA
  6
CONTINUOUS
 62
     7
 10
18.407305172861161
 20
201.47109344030599
 30
0.0
 70
    32
  0
VERTEX
  5
392
  8
DATA
  6
CONTINUOUS
 62
     7
 10
18.548390338139299
 20
201.42061236097689
 30
0.0
 70
    32
  0
VERTEX
  5
393
  8
DATA
  6
CONTINUOUS
 62
     7
 10
18.693744150820681
 20
201.38420312628611
 30
0.0
 70
    32
  0
VERTEX
  5
394
  8
DATA
  6
CONTINUOUS
 62
     7
 10
18.841966774230752
 20
201.36221637706711
 30
0.0
 70
    32
  0
VERTEX
  5
395
  8
DATA
  6
CONTINUOUS
 62
     7
 10
18.991630743479352
 20
201.3548638577339
 30
0.0
 70
    32
  0
SEQEND
  5
396
  8
DATA
  6
CONTINUOUS
 62
     7
  0
CIRCLE
  5
397
  8
DATA
  6
CONTINUOUS
 62
     7
 10
0.5323069664944599
 20
198.11881924593399
 30
0.0
 40
5.700000000000002
  0
CIRCLE
  5
398
  8
DATA
  6
CONTINUOUS
 62
     7
 10
20.26406099347939
 20
198.22468544273389
 30
0.0
 40
1.230230580002285
  0
ARC
  5
399
  8
DATA
  6
CONTINUOUS
 62
     7
 10
-7.6021614815204659
 20
196.85359095114899
 30
0.0
 40
2.4540460716209789
 50
180.0
 51
251.9699999999998
  0
ARC
  5
39A
  8
DATA
  6
CONTINUOUS
 62
     7
 10
48.130283468479767
 20
196.85359095114899
 30
0.0
 40
2.4540460716209438
 50
288.0299999999998
 51
0.0
  0
ARC
  5
39B
  8
DATA
  6
CONTINUOUS
 62
     7
 10
32.048750099669512
 20
209.01489396273391
 30
0.0
 40
18.995639321620871
 50
270.0
 51
288.03000000000048
  0
ARC
  5
39C
  8
DATA
  6
CONTINUOUS
 62
     7
 10
8.4793973358944026
 20
209.01489396273391
 30
0.0
 40
18.99563932162085
 50
251.96999999999991
 51
270.0
  0
ARC
  5
39D
  8
DATA
  6
CONTINUOUS
 62
     7
 10
47.87579741847977
 20
205.9300377531539
 30
0.0
 40
2.7085321216209759
 50
0.0
 51
87.999999999999986
  0
ARC
  5
39E
  8
DATA
  6
CONTINUOUS
 62
     7
 10
-7.3476754315204698
 20
205.9300377531539
 30
0.0
 40
2.708532121620959
 50
91.999999999999943
 51
180.0
  0
ARC
  5
39F
  8
DATA
  6
CONTINUOUS
 62
     7
 10
0.5329680667737762
 20
159.54840539435489
 30
0.0
 40
1.5269163000000101
 50
0.0
 51
90.0
  0
ARC
  5
3A0
  8
DATA
  6
CONTINUOUS
 62
     7
 10
0.5329680667737762
 20
159.54840539435489
 30
0.0
 40
1.526916299999981
 50
90.0
 51
180.0
  0
ARC
  5
3A1
  8
DATA
  6
CONTINUOUS
 62
     7
 10
17.952538189273891
 20
77.039100764661924
 30
0.0
 40
21.364103897500229
 50
155.13575200000031
 51
174.533273009677
  0
ARC
  5
3A2
  8
DATA
  6
CONTINUOUS
 62
     7
 10
-16.8866020557263
 20
77.039100764661924
 30
0.0
 40
21.364103897500222
 50
5.4667269903230249
 51
24.86424799999973
  0
ARC
  5
3A3
  8
DATA
  6
CONTINUOUS
 62
     7
 10
-0.7269923667762157
 20
91.799291664661936
 30
0.0
 40
0.2544860500000041
 50
90.0
 51
177.00000000000321
  0
ARC
  5
3A4
  8
DATA
  6
CONTINUOUS
 62
     7
 10
1.7929539489287689
 20
91.799291664661936
 30
0.0
 40
0.25448604999997
 50
2.9999999999970801
 51
90.000000000000028
  0
ARC
  5
3A5
  8
DATA
  6
CONTINUOUS
 62
     7
 10
15.99505694127887
 20
28.309356025159861
 30
0.0
 40
0.508972099999994
 50
180.0
 51
270.0
  0
ARC
  5
3A6
  8
DATA
  6
CONTINUOUS
 62
     7
 10
24.52033961627896
 20
28.309356025159861
 30
0.0
 40
0.508972099999994
 50
270.0
 51
0.0
  0
ARC
  5
3A7
  8
DATA
  6
CONTINUOUS
 62
     7
 10
24.52033961627896
 20
30.80331931515984
 30
0.0
 40
0.5089720999999657
 50
0.0
 51
90.0
  0
ARC
  5
3A8
  8
DATA
  6
CONTINUOUS
 62
     7
 10
15.99505694127887
 20
30.80331931515984
 30
0.0
 40
0.5089721000000225
 50
90.0
 51
180.0
  0
LINE
  5
3A9
  8
DATA
  6
CONTINUOUS
 62
     7
 10
213.8231159478585
 20
31.591552424511221
 30
0.0
 11
211.98548712982389
 21
47.760000000000012
 31
0.0
  0
LINE
  5
3AA
  8
DATA
  6
CONTINUOUS
 62
     7
 10
210.45883693050359
 20
47.260499108260177
 30
0.0
 11
212.25987553692201
 21
31.413991912038611
 31
0.0
  0
LINE
  5
3AB
  8
DATA
  6
CONTINUOUS
 62
     7
 10
202.36547449247041
 20
2.07310053043983
 30
0.0
 11
163.1291093686375
 21
2.07310053043983
 31
0.0
  0
LINE
  5
3AC
  8
DATA
  6
CONTINUOUS
 62
     7
 10
163.12885761633541
 20
0.500118748018025
 30
0.0
 11
202.36522274016909
 21
0.500118748018025
 31
0.0
  0
LINE
  5
3AD
  8
DATA
  6
CONTINUOUS
 62
     7
 10
159.6993578019086
 20
8.6320234357122558
 30
0.0
 11
159.35029356199561
 21
4.5631603274503041
 31
0.0
  0
LINE
  5
3AE
  8
DATA
  6
CONTINUOUS
 62
     7
 10
160.9175322811015
 20
4.4286059029030289
 30
0.0
 11
161.26659652101449
 21
8.4974690111649789
 31
0.0
  0
LINE
  5
3AF
  8
DATA
  6
CONTINUOUS
 62
     7
 10
204.44381113088599
 20
28.464796391294541
 30
0.0
 11
212.00455669941741
 21
29.314931383119401
 31
0.0
  0
LINE
  5
3B0
  8
DATA
  6
CONTINUOUS
 62
     7
 10
211.82882090338151
 20
30.878343983986142
 30
0.0
 11
204.26807533484811
 21
30.02820899218451
 31
0.0
  0
LINE
  5
3B1
  8
DATA
  6
CONTINUOUS
 62
     7
 10
215.4366628976102
 20
58.210188382492028
 30
0.0
 11
215.4366628976102
 21
-18.8111212426146
 31
0.0
  0
LINE
  5
3B2
  8
DATA
  6
CONTINUOUS
 62
     7
 10
213.15440556549859
 20
11.015356712372521
 30
0.0
 11
213.15440556549859
 21
29.830564063781551
 31
0.0
  0
LINE
  5
3B3
  8
DATA
  6
CONTINUOUS
 62
     7
 10
215.2952902879197
 20
49.190920407747562
 30
0.0
 11
215.2952902879197
 21
12.51593361295896
 31
0.0
  0
POLYLINE
  5
3B4
  8
DATA
  6
CONTINUOUS
 62
     7
 66
     1
 10
0.0
 20
0.0
 30
0.0
  0
VERTEX
  5
58D
  8
DATA
  6
CONTINUOUS
 62
     7
 10
213.96381271836421
 20
51.449418672817771
 30
0.0
  0
VERTEX
  5
58E
  8
DATA
  6
CONTINUOUS
 62
     7
 10
213.99589453331899
 20
51.44914763345453
 30
0.0
  0
SEQEND
  5
58F
  8
DATA
  6
CONTINUOUS
 62
     7
  0
LINE
  5
3B9
  8
DATA
  6
CONTINUOUS
 62
     7
 10
213.15440556549859
 20
37.475451413919117
 30
0.0
 11
213.15440556549859
 21
50.691497308334057
 31
0.0
  0
LINE
  5
3BA
  8
DATA
  6
CONTINUOUS
 62
     7
 10
150.00000000236361
 20
58.210178656590742
 30
0.0
 11
150.00000000236361
 21
-18.8111212426146
 31
0.0
  0
LINE
  5
3BB
  8
DATA
  6
CONTINUOUS
 62
     7
 10
152.28225733447519
 20
33.640957406939108
 30
0.0
 11
152.28225733447519
 21
50.691497308334093
 31
0.0
  0
LINE
  5
3BC
  8
DATA
  6
CONTINUOUS
 62
     7
 10
150.14137261205411
 20
49.190920407747562
 30
0.0
 11
150.14137261205411
 21
12.51593361295893
 31
0.0
  0
LINE
  5
3BD
  8
DATA
  6
CONTINUOUS
 62
     7
 10
152.28225733447519
 20
11.015356712372469
 30
0.0
 11
152.28225733447519
 21
28.886054255707471
 31
0.0
  0
LINE
  5
3BE
  8
DATA
  6
CONTINUOUS
 62
     7
 10
92.064082754935058
 20
47.41771097999402
 30
0.0
 11
90.695126033989084
 21
31.57120378377429
 31
0.0
  0
LINE
  5
3BF
  8
DATA
  6
CONTINUOUS
 62
     7
 10
104.651020051069
 20
58.160366203804941
 30
0.0
 11
104.6510200487765
 21
25.019319076857059
 31
0.0
  0
LINE
  5
3C0
  8
DATA
  6
CONTINUOUS
 62
     7
 10
116.7388886191254
 20
57.639103830303142
 30
0.0
 11
116.7391331764134
 21
57.63884643512209
 31
0.0
  0
LINE
  5
3C1
  8
DATA
  6
CONTINUOUS
 62
     7
 10
104.65102005105081
 20
25.019319076857059
 30
0.0
 11
107.5447245780764
 21
25.044587447671361
 31
0.0
  0
POLYLINE
  5
3C2
  8
DATA
  6
CONTINUOUS
 62
     7
 66
     1
 10
0.0
 20
0.0
 30
0.0
 70
   128
  0
VERTEX
  5
590
  8
DATA
  6
CONTINUOUS
 62
     7
 10
107.5447245780764
 20
25.044587450338259
 30
0.0
  0
VERTEX
  5
591
  8
DATA
  6
CONTINUOUS
 62
     7
 10
107.60330960489679
 20
25.045078475011199
 30
0.0
  0
VERTEX
  5
592
  8
DATA
  6
CONTINUOUS
 62
     7
 10
107.6623757854566
 20
25.045574347179748
 30
0.0
  0
VERTEX
  5
593
  8
DATA
  6
CONTINUOUS
 62
     7
 10
107.7219231197557
 20
25.04607506684394
 30
0.0
  0
VERTEX
  5
594
  8
DATA
  6
CONTINUOUS
 62
     7
 10
107.7819516077943
 20
25.04658063400376
 30
0.0
  0
VERTEX
  5
595
  8
DATA
  6
CONTINUOUS
 62
     7
 10
107.8424612495721
 20
25.047091048659201
 30
0.0
  0
VERTEX
  5
596
  8
DATA
  6
CONTINUOUS
 62
     7
 10
107.9034520450893
 20
25.047606310810242
 30
0.0
  0
VERTEX
  5
597
  8
DATA
  6
CONTINUOUS
 62
     7
 10
107.9649239943459
 20
25.048126420456921
 30
0.0
  0
VERTEX
  5
598
  8
DATA
  6
CONTINUOUS
 62
     7
 10
108.0268770973418
 20
25.048651377599199
 30
0.0
  0
VERTEX
  5
599
  8
DATA
  6
CONTINUOUS
 62
     7
 10
108.0893113540771
 20
25.04918118223711
 30
0.0
  0
VERTEX
  5
59A
  8
DATA
  6
CONTINUOUS
 62
     7
 10
108.1522267645517
 20
25.04971583437063
 30
0.0
  0
VERTEX
  5
59B
  8
DATA
  6
CONTINUOUS
 62
     7
 10
108.2156233287657
 20
25.0502553339998
 30
0.0
  0
VERTEX
  5
59C
  8
DATA
  6
CONTINUOUS
 62
     7
 10
108.2795010467191
 20
25.05079968112457
 30
0.0
  0
VERTEX
  5
59D
  8
DATA
  6
CONTINUOUS
 62
     7
 10
108.34385991841179
 20
25.05134887574496
 30
0.0
  0
VERTEX
  5
59E
  8
DATA
  6
CONTINUOUS
 62
     7
 10
108.4086999438438
 20
25.051902917860971
 30
0.0
  0
VERTEX
  5
59F
  8
DATA
  6
CONTINUOUS
 62
     7
 10
108.47402112301521
 20
25.052461807472611
 30
0.0
  0
VERTEX
  5
5A0
  8
DATA
  6
CONTINUOUS
 62
     7
 10
108.539823455926
 20
25.053025544579871
 30
0.0
  0
VERTEX
  5
5A1
  8
DATA
  6
CONTINUOUS
 62
     7
 10
108.6061069425761
 20
25.053594129182759
 30
0.0
  0
VERTEX
  5
5A2
  8
DATA
  6
CONTINUOUS
 62
     7
 10
108.6728715829656
 20
25.05416756128125
 30
0.0
  0
VERTEX
  5
5A3
  8
DATA
  6
CONTINUOUS
 62
     7
 10
108.74011737709441
 20
25.05474584087537
 30
0.0
  0
VERTEX
  5
5A4
  8
DATA
  6
CONTINUOUS
 62
     7
 10
108.8078443249626
 20
25.055328967965099
 30
0.0
  0
VERTEX
  5
5A5
  8
DATA
  6
CONTINUOUS
 62
     7
 10
108.8760524265701
 20
25.05591694255045
 30
0.0
  0
VERTEX
  5
5A6
  8
DATA
  6
CONTINUOUS
 62
     7
 10
108.94474168191699
 20
25.056509764631411
 30
0.0
  0
VERTEX
  5
5A7
  8
DATA
  6
CONTINUOUS
 62
     7
 10
109.01391209100331
 20
25.05710743420801
 30
0.0
  0
VERTEX
  5
5A8
  8
DATA
  6
CONTINUOUS
 62
     7
 10
109.0835636538288
 20
25.057709951280231
 30
0.0
  0
VERTEX
  5
5A9
  8
DATA
  6
CONTINUOUS
 62
     7
 10
109.1536963703938
 20
25.058317315848068
 30
0.0
  0
VERTEX
  5
5AA
  8
DATA
  6
CONTINUOUS
 62
     7
 10
109.2243102406981
 20
25.05892952791152
 30
0.0
  0
VERTEX
  5
5AB
  8
DATA
  6
CONTINUOUS
 62
     7
 10
109.2954052647418
 20
25.05954658747061
 30
0.0
  0
VERTEX
  5
5AC
  8
DATA
  6
CONTINUOUS
 62
     7
 10
109.3669814425248
 20
25.0601684945253
 30
0.0
  0
VERTEX
  5
5AD
  8
DATA
  6
CONTINUOUS
 62
     7
 10
109.43903877404721
 20
25.060795249075628
 30
0.0
  0
VERTEX
  5
5AE
  8
DATA
  6
CONTINUOUS
 62
     7
 10
109.51157725930889
 20
25.061426851121549
 30
0.0
  0
VERTEX
  5
5AF
  8
DATA
  6
CONTINUOUS
 62
     7
 10
109.58459689831
 20
25.06206330066313
 30
0.0
  0
VERTEX
  5
5B0
  8
DATA
  6
CONTINUOUS
 62
     7
 10
109.6580976910504
 20
25.062704597700311
 30
0.0
  0
VERTEX
  5
5B1
  8
DATA
  6
CONTINUOUS
 62
     7
 10
109.73207963753021
 20
25.063350742233101
 30
0.0
  0
VERTEX
  5
5B2
  8
DATA
  6
CONTINUOUS
 62
     7
 10
109.8065427377493
 20
25.064001734261531
 30
0.0
  0
VERTEX
  5
5B3
  8
DATA
  6
CONTINUOUS
 62
     7
 10
109.8814869917078
 20
25.064657573785571
 30
0.0
  0
VERTEX
  5
5B4
  8
DATA
  6
CONTINUOUS
 62
     7
 10
109.9569123994057
 20
25.065318260805231
 30
0.0
  0
VERTEX
  5
5B5
  8
DATA
  6
CONTINUOUS
 62
     7
 10
110.0328189608429
 20
25.065983795320509
 30
0.0
  0
VERTEX
  5
5B6
  8
DATA
  6
CONTINUOUS
 62
     7
 10
110.1092066760195
 20
25.066654177331401
 30
0.0
  0
VERTEX
  5
5B7
  8
DATA
  6
CONTINUOUS
 62
     7
 10
110.18607554493541
 20
25.067329406837931
 30
0.0
  0
VERTEX
  5
5B8
  8
DATA
  6
CONTINUOUS
 62
     7
 10
110.2634255675906
 20
25.068009483840068
 30
0.0
  0
VERTEX
  5
5B9
  8
DATA
  6
CONTINUOUS
 62
     7
 10
110.3412567439853
 20
25.068694408337841
 30
0.0
  0
VERTEX
  5
5BA
  8
DATA
  6
CONTINUOUS
 62
     7
 10
110.4195690741192
 20
25.06938418033123
 30
0.0
  0
VERTEX
  5
5BB
  8
DATA
  6
CONTINUOUS
 62
     7
 10
110.49836255799261
 20
25.070078799820241
 30
0.0
  0
VERTEX
  5
5BC
  8
DATA
  6
CONTINUOUS
 62
     7
 10
110.57763719560521
 20
25.070778266804851
 30
0.0
  0
VERTEX
  5
5BD
  8
DATA
  6
CONTINUOUS
 62
     7
 10
110.6573929869573
 20
25.0714825812851
 30
0.0
  0
VERTEX
  5
5BE
  8
DATA
  6
CONTINUOUS
 62
     7
 10
110.7376299320487
 20
25.072191743260959
 30
0.0
  0
VERTEX
  5
5BF
  8
DATA
  6
CONTINUOUS
 62
     7
 10
110.81834803087941
 20
25.072905752732449
 30
0.0
  0
VERTEX
  5
5C0
  8
DATA
  6
CONTINUOUS
 62
     7
 10
110.89954728344949
 20
25.07362460969955
 30
0.0
  0
VERTEX
  5
5C1
  8
DATA
  6
CONTINUOUS
 62
     7
 10
110.981227689759
 20
25.074348314162279
 30
0.0
  0
VERTEX
  5
5C2
  8
DATA
  6
CONTINUOUS
 62
     7
 10
111.0633892498078
 20
25.075076866120629
 30
0.0
  0
VERTEX
  5
5C3
  8
DATA
  6
CONTINUOUS
 62
     7
 10
111.146031963596
 20
25.07581026557461
 30
0.0
  0
VERTEX
  5
5C4
  8
DATA
  6
CONTINUOUS
 62
     7
 10
111.22915583112351
 20
25.076548512524202
 30
0.0
  0
VERTEX
  5
5C5
  8
DATA
  6
CONTINUOUS
 62
     7
 10
111.3127608523904
 20
25.0772916069694
 30
0.0
  0
VERTEX
  5
5C6
  8
DATA
  6
CONTINUOUS
 62
     7
 10
111.3968470273966
 20
25.07803954891023
 30
0.0
  0
VERTEX
  5
5C7
  8
DATA
  6
CONTINUOUS
 62
     7
 10
111.4814143561422
 20
25.078792338346691
 30
0.0
  0
VERTEX
  5
5C8
  8
DATA
  6
CONTINUOUS
 62
     7
 10
111.5664628386272
 20
25.079549975278749
 30
0.0
  0
VERTEX
  5
5C9
  8
DATA
  6
CONTINUOUS
 62
     7
 10
111.6519924748515
 20
25.080312459706452
 30
0.0
  0
VERTEX
  5
5CA
  8
DATA
  6
CONTINUOUS
 62
     7
 10
111.73800326481511
 20
25.081079791629751
 30
0.0
  0
VERTEX
  5
5CB
  8
DATA
  6
CONTINUOUS
 62
     7
 10
111.8244952085181
 20
25.081851971048678
 30
0.0
  0
VERTEX
  5
5CC
  8
DATA
  6
CONTINUOUS
 62
     7
 10
111.9114683059605
 20
25.082628997963241
 30
0.0
  0
VERTEX
  5
5CD
  8
DATA
  6
CONTINUOUS
 62
     7
 10
111.99892255714219
 20
25.08341087237342
 30
0.0
  0
VERTEX
  5
5CE
  8
DATA
  6
CONTINUOUS
 62
     7
 10
112.08685796206331
 20
25.0841975942792
 30
0.0
  0
VERTEX
  5
5CF
  8
DATA
  6
CONTINUOUS
 62
     7
 10
112.1752745207237
 20
25.084989163680628
 30
0.0
  0
VERTEX
  5
5D0
  8
DATA
  6
CONTINUOUS
 62
     7
 10
112.2641722331235
 20
25.08578558057765
 30
0.0
  0
VERTEX
  5
5D1
  8
DATA
  6
CONTINUOUS
 62
     7
 10
112.2641722331235
 20
25.08578558057765
 30
0.0
  0
VERTEX
  5
5D2
  8
DATA
  6
CONTINUOUS
 62
     7
 10
112.26446341878329
 20
25.08578793531608
 30
0.0
  0
SEQEND
  5
5D3
  8
DATA
  6
CONTINUOUS
 62
     7
  0
LINE
  5
407
  8
DATA
  6
CONTINUOUS
 62
     7
 10
112.2644634187705
 20
25.08578793531597
 30
0.0
 11
115.86395417716879
 21
25.11721936393592
 31
0.0
  0
POLYLINE
  5
408
  8
DATA
  6
CONTINUOUS
 62
     7
 66
     1
 10
0.0
 20
0.0
 30
0.0
  0
VERTEX
  5
5D4
  8
DATA
  6
CONTINUOUS
 62
     7
 10
115.86395417716879
 20
25.11721936399114
 30
0.0
  0
VERTEX
  5
5D5
  8
DATA
  6
CONTINUOUS
 62
     7
 10
116.7391316511731
 20
25.12486018293912
 30
0.0
  0
SEQEND
  5
5D6
  8
DATA
  6
CONTINUOUS
 62
     7
  0
LINE
  5
40D
  8
DATA
  6
CONTINUOUS
 62
     7
 10
116.46384652882421
 20
28.468147878960771
 30
0.0
 11
116.4638465288286
 21
54.744331374458419
 31
0.0
  0
POLYLINE
  5
40E
  8
DATA
  6
CONTINUOUS
 62
     7
 66
     1
 10
0.0
 20
0.0
 30
0.0
  0
VERTEX
  5
5D7
  8
DATA
  6
CONTINUOUS
 62
     7
 10
116.7391316511731
 20
25.12486016729865
 30
0.0
  0
VERTEX
  5
5D8
  8
DATA
  6
CONTINUOUS
 62
     7
 10
116.73889532199939
 20
25.575139094420472
 30
0.0
  0
SEQEND
  5
5D9
  8
DATA
  6
CONTINUOUS
 62
     7
  0
LINE
  5
413
  8
DATA
  6
CONTINUOUS
 62
     7
 10
117.12086072617311
 20
57.257220368032023
 30
0.0
 11
117.12086072617311
 21
25.95534868128172
 31
0.0
  0
POLYLINE
  5
414
  8
DATA
  6
CONTINUOUS
 62
     7
 66
     1
 10
0.0
 20
0.0
 30
0.0
  0
VERTEX
  5
5DA
  8
DATA
  6
CONTINUOUS
 62
     7
 10
107.5013945770247
 20
23.99390801211964
 30
0.0
  0
VERTEX
  5
5DB
  8
DATA
  6
CONTINUOUS
 62
     7
 10
104.7083346952323
 20
23.967969525961809
 30
0.0
  0
VERTEX
  5
5DC
  8
DATA
  6
CONTINUOUS
 62
     7
 10
104.7031334394636
 20
23.967924087189012
 30
0.0
  0
SEQEND
  5
5DD
  8
DATA
  6
CONTINUOUS
 62
     7
  0
POLYLINE
  5
41A
  8
DATA
  6
CONTINUOUS
 62
     7
 66
     1
 10
0.0
 20
0.0
 30
0.0
 70
   128
  0
VERTEX
  5
5DE
  8
DATA
  6
CONTINUOUS
 62
     7
 10
107.5023492099315
 20
14.982472361018081
 30
0.0
  0
VERTEX
  5
5DF
  8
DATA
  6
CONTINUOUS
 62
     7
 10
107.50194400098761
 20
14.982743558484829
 30
0.0
  0
VERTEX
  5
5E0
  8
DATA
  6
CONTINUOUS
 62
     7
 10
107.50148612345041
 20
14.98311360483819
 30
0.0
  0
VERTEX
  5
5E1
  8
DATA
  6
CONTINUOUS
 62
     7
 10
107.50097557731981
 20
14.98358250007821
 30
0.0
  0
VERTEX
  5
5E2
  8
DATA
  6
CONTINUOUS
 62
     7
 10
107.5004123625957
 20
14.984150244204841
 30
0.0
  0
VERTEX
  5
5E3
  8
DATA
  6
CONTINUOUS
 62
     7
 10
107.4997964792783
 20
14.9848168372181
 30
0.0
  0
VERTEX
  5
5E4
  8
DATA
  6
CONTINUOUS
 62
     7
 10
107.4991279273675
 20
14.985582279118001
 30
0.0
  0
VERTEX
  5
5E5
  8
DATA
  6
CONTINUOUS
 62
     7
 10
107.49840670686331
 20
14.98644656990453
 30
0.0
  0
VERTEX
  5
5E6
  8
DATA
  6
CONTINUOUS
 62
     7
 10
107.4976328177658
 20
14.987409709577671
 30
0.0
  0
VERTEX
  5
5E7
  8
DATA
  6
CONTINUOUS
 62
     7
 10
107.49680626007481
 20
14.988471698137459
 30
0.0
  0
VERTEX
  5
5E8
  8
DATA
  6
CONTINUOUS
 62
     7
 10
107.49592703379039
 20
14.98963253558386
 30
0.0
  0
VERTEX
  5
5E9
  8
DATA
  6
CONTINUOUS
 62
     7
 10
107.4949951389127
 20
14.990892221916919
 30
0.0
  0
VERTEX
  5
5EA
  8
DATA
  6
CONTINUOUS
 62
     7
 10
107.49401057544149
 20
14.99225075713659
 30
0.0
  0
VERTEX
  5
5EB
  8
DATA
  6
CONTINUOUS
 62
     7
 10
107.492973343377
 20
14.9937081412429
 30
0.0
  0
VERTEX
  5
5EC
  8
DATA
  6
CONTINUOUS
 62
     7
 10
107.4918834427191
 20
14.99526437423583
 30
0.0
  0
VERTEX
  5
5ED
  8
DATA
  6
CONTINUOUS
 62
     7
 10
107.4907408734679
 20
14.996919456115389
 30
0.0
  0
VERTEX
  5
5EE
  8
DATA
  6
CONTINUOUS
 62
     7
 10
107.4895456356232
 20
14.99867338688159
 30
0.0
  0
VERTEX
  5
5EF
  8
DATA
  6
CONTINUOUS
 62
     7
 10
107.48829772918511
 20
15.00052616653443
 30
0.0
  0
VERTEX
  5
5F0
  8
DATA
  6
CONTINUOUS
 62
     7
 10
107.4869971541537
 20
15.002477795073871
 30
0.0
  0
VERTEX
  5
5F1
  8
DATA
  6
CONTINUOUS
 62
     7
 10
107.48564391052879
 20
15.00452827249995
 30
0.0
  0
VERTEX
  5
5F2
  8
DATA
  6
CONTINUOUS
 62
     7
 10
107.4842379983106
 20
15.00667759881267
 30
0.0
  0
VERTEX
  5
5F3
  8
DATA
  6
CONTINUOUS
 62
     7
 10
107.4827794174989
 20
15.00892577401202
 30
0.0
  0
VERTEX
  5
5F4
  8
DATA
  6
CONTINUOUS
 62
     7
 10
107.48126816809391
 20
15.011272798097989
 30
0.0
  0
VERTEX
  5
5F5
  8
DATA
  6
CONTINUOUS
 62
     7
 10
107.47970425009549
 20
15.01371867107059
 30
0.0
  0
VERTEX
  5
5F6
  8
DATA
  6
CONTINUOUS
 62
     7
 10
107.4780876635037
 20
15.016263392929829
 30
0.0
  0
VERTEX
  5
5F7
  8
DATA
  6
CONTINUOUS
 62
     7
 10
107.47641840831859
 20
15.0189069636757
 30
0.0
  0
VERTEX
  5
5F8
  8
DATA
  6
CONTINUOUS
 62
     7
 10
107.47469648454
 20
15.021649383308191
 30
0.0
  0
VERTEX
  5
5F9
  8
DATA
  6
CONTINUOUS
 62
     7
 10
107.4729218921681
 20
15.024490651827319
 30
0.0
  0
VERTEX
  5
5FA
  8
DATA
  6
CONTINUOUS
 62
     7
 10
107.4710946312027
 20
15.02743076923308
 30
0.0
  0
VERTEX
  5
5FB
  8
DATA
  6
CONTINUOUS
 62
     7
 10
107.46921470164401
 20
15.030469735525459
 30
0.0
  0
VERTEX
  5
5FC
  8
DATA
  6
CONTINUOUS
 62
     7
 10
107.4672821034919
 20
15.03360755070447
 30
0.0
  0
VERTEX
  5
5FD
  8
DATA
  6
CONTINUOUS
 62
     7
 10
107.4652968367464
 20
15.03684421477012
 30
0.0
  0
VERTEX
  5
5FE
  8
DATA
  6
CONTINUOUS
 62
     7
 10
107.4632589014075
 20
15.0401797277224
 30
0.0
  0
VERTEX
  5
5FF
  8
DATA
  6
CONTINUOUS
 62
     7
 10
107.4611682974752
 20
15.043614089561309
 30
0.0
  0
VERTEX
  5
600
  8
DATA
  6
CONTINUOUS
 62
     7
 10
107.4590250249495
 20
15.04714730028684
 30
0.0
  0
VERTEX
  5
601
  8
DATA
  6
CONTINUOUS
 62
     7
 10
107.4568290838305
 20
15.050779359898989
 30
0.0
  0
VERTEX
  5
602
  8
DATA
  6
CONTINUOUS
 62
     7
 10
107.454580474118
 20
15.05451026839779
 30
0.0
  0
VERTEX
  5
603
  8
DATA
  6
CONTINUOUS
 62
     7
 10
107.4522791958122
 20
15.05834002578322
 30
0.0
  0
VERTEX
  5
604
  8
DATA
  6
CONTINUOUS
 62
     7
 10
107.449925248913
 20
15.062268632055281
 30
0.0
  0
VERTEX
  5
605
  8
DATA
  6
CONTINUOUS
 62
     7
 10
107.4475186334204
 20
15.066296087213971
 30
0.0
  0
VERTEX
  5
606
  8
DATA
  6
CONTINUOUS
 62
     7
 10
107.4450593493344
 20
15.070422391259269
 30
0.0
  0
VERTEX
  5
607
  8
DATA
  6
CONTINUOUS
 62
     7
 10
107.442547396655
 20
15.07464754419121
 30
0.0
  0
VERTEX
  5
608
  8
DATA
  6
CONTINUOUS
 62
     7
 10
107.43998277538221
 20
15.078971546009781
 30
0.0
  0
VERTEX
  5
609
  8
DATA
  6
CONTINUOUS
 62
     7
 10
107.4373654855161
 20
15.08339439671499
 30
0.0
  0
VERTEX
  5
60A
  8
DATA
  6
CONTINUOUS
 62
     7
 10
107.4346955270565
 20
15.087916096306831
 30
0.0
  0
VERTEX
  5
60B
  8
DATA
  6
CONTINUOUS
 62
     7
 10
107.4319729000036
 20
15.092536644785289
 30
0.0
  0
VERTEX
  5
60C
  8
DATA
  6
CONTINUOUS
 62
     7
 10
107.4291976043573
 20
15.09725604215039
 30
0.0
  0
VERTEX
  5
60D
  8
DATA
  6
CONTINUOUS
 62
     7
 10
107.4263696401176
 20
15.10207428840212
 30
0.0
  0
VERTEX
  5
60E
  8
DATA
  6
CONTINUOUS
 62
     7
 10
107.4234890072844
 20
15.106991383540469
 30
0.0
  0
VERTEX
  5
60F
  8
DATA
  6
CONTINUOUS
 62
     7
 10
107.42055570585789
 20
15.112007327565459
 30
0.0
  0
VERTEX
  5
610
  8
DATA
  6
CONTINUOUS
 62
     7
 10
107.4175697358381
 20
15.11712212047707
 30
0.0
  0
VERTEX
  5
611
  8
DATA
  6
CONTINUOUS
 62
     7
 10
107.4145310972248
 20
15.122335762275309
 30
0.0
  0
VERTEX
  5
612
  8
DATA
  6
CONTINUOUS
 62
     7
 10
107.41143979001821
 20
15.12764825296019
 30
0.0
  0
VERTEX
  5
613
  8
DATA
  6
CONTINUOUS
 62
     7
 10
107.40829581421811
 20
15.13305959253168
 30
0.0
  0
VERTEX
  5
614
  8
DATA
  6
CONTINUOUS
 62
     7
 10
107.40509916982469
 20
15.13856978098981
 30
0.0
  0
VERTEX
  5
615
  8
DATA
  6
CONTINUOUS
 62
     7
 10
107.4018498568379
 20
15.144178818334581
 30
0.0
  0
VERTEX
  5
616
  8
DATA
  6
CONTINUOUS
 62
     7
 10
107.39854787525771
 20
15.14988670456597
 30
0.0
  0
VERTEX
  5
617
  8
DATA
  6
CONTINUOUS
 62
     7
 10
107.3951932250841
 20
15.155693439684001
 30
0.0
  0
VERTEX
  5
618
  8
DATA
  6
CONTINUOUS
 62
     7
 10
107.3917859063171
 20
15.16159902368865
 30
0.0
  0
VERTEX
  5
619
  8
DATA
  6
CONTINUOUS
 62
     7
 10
107.3883259189567
 20
15.16760345657994
 30
0.0
  0
VERTEX
  5
61A
  8
DATA
  6
CONTINUOUS
 62
     7
 10
107.3848132630029
 20
15.173706738357851
 30
0.0
  0
VERTEX
  5
61B
  8
DATA
  6
CONTINUOUS
 62
     7
 10
107.3812479384558
 20
15.179908869022389
 30
0.0
  0
VERTEX
  5
61C
  8
DATA
  6
CONTINUOUS
 62
     7
 10
107.37762994531531
 20
15.18620984857357
 30
0.0
  0
VERTEX
  5
61D
  8
DATA
  6
CONTINUOUS
 62
     7
 10
107.3739592835813
 20
15.192609677011371
 30
0.0
  0
VERTEX
  5
61E
  8
DATA
  6
CONTINUOUS
 62
     7
 10
107.370235953254
 20
15.19910835433582
 30
0.0
  0
VERTEX
  5
61F
  8
DATA
  6
CONTINUOUS
 62
     7
 10
107.36651558101531
 20
15.205608460522379
 30
0.0
  0
VERTEX
  5
620
  8
DATA
  6
CONTINUOUS
 62
     7
 10
107.3628537935473
 20
15.212012575546529
 30
0.0
  0
VERTEX
  5
621
  8
DATA
  6
CONTINUOUS
 62
     7
 10
107.3592505908499
 20
15.21832069940829
 30
0.0
  0
VERTEX
  5
622
  8
DATA
  6
CONTINUOUS
 62
     7
 10
107.3557059729231
 20
15.22453283210767
 30
0.0
  0
VERTEX
  5
623
  8
DATA
  6
CONTINUOUS
 62
     7
 10
107.352219939767
 20
15.23064897364465
 30
0.0
  0
VERTEX
  5
624
  8
DATA
  6
CONTINUOUS
 62
     7
 10
107.3487924913816
 20
15.23666912401921
 30
0.0
  0
VERTEX
  5
625
  8
DATA
  6
CONTINUOUS
 62
     7
 10
107.34542362776671
 20
15.2425932832314
 30
0.0
  0
VERTEX
  5
626
  8
DATA
  6
CONTINUOUS
 62
     7
 10
107.3421133489225
 20
15.248421451281191
 30
0.0
  0
VERTEX
  5
627
  8
DATA
  6
CONTINUOUS
 62
     7
 10
107.3388616548489
 20
15.254153628168581
 30
0.0
  0
VERTEX
  5
628
  8
DATA
  6
CONTINUOUS
 62
     7
 10
107.335668545546
 20
15.259789813893571
 30
0.0
  0
VERTEX
  5
629
  8
DATA
  6
CONTINUOUS
 62
     7
 10
107.3325340210138
 20
15.265330008456189
 30
0.0
  0
VERTEX
  5
62A
  8
DATA
  6
CONTINUOUS
 62
     7
 10
107.3294580812521
 20
15.2707742118564
 30
0.0
  0
VERTEX
  5
62B
  8
DATA
  6
CONTINUOUS
 62
     7
 10
107.3264407262612
 20
15.27612242409422
 30
0.0
  0
VERTEX
  5
62C
  8
DATA
  6
CONTINUOUS
 62
     7
 10
107.32348195604079
 20
15.281374645169651
 30
0.0
  0
VERTEX
  5
62D
  8
DATA
  6
CONTINUOUS
 62
     7
 10
107.3205817705911
 20
15.28653087508267
 30
0.0
  0
VERTEX
  5
62E
  8
DATA
  6
CONTINUOUS
 62
     7
 10
107.317740169912
 20
15.2915911138333
 30
0.0
  0
VERTEX
  5
62F
  8
DATA
  6
CONTINUOUS
 62
     7
 10
107.31495715400359
 20
15.296555361421539
 30
0.0
  0
VERTEX
  5
630
  8
DATA
  6
CONTINUOUS
 62
     7
 10
107.3122327228658
 20
15.30142361784738
 30
0.0
  0
VERTEX
  5
631
  8
DATA
  6
CONTINUOUS
 62
     7
 10
107.30956687649871
 20
15.30619588311083
 30
0.0
  0
VERTEX
  5
632
  8
DATA
  6
CONTINUOUS
 62
     7
 10
107.3069596149022
 20
15.31087215721187
 30
0.0
  0
VERTEX
  5
633
  8
DATA
  6
CONTINUOUS
 62
     7
 10
107.3044109380764
 20
15.31545244015053
 30
0.0
  0
VERTEX
  5
634
  8
DATA
  6
CONTINUOUS
 62
     7
 10
107.3019208460212
 20
15.3199367319268
 30
0.0
  0
VERTEX
  5
635
  8
DATA
  6
CONTINUOUS
 62
     7
 10
107.29948933873661
 20
15.324325032540671
 30
0.0
  0
VERTEX
  5
636
  8
DATA
  6
CONTINUOUS
 62
     7
 10
107.29711641622271
 20
15.328617341992141
 30
0.0
  0
VERTEX
  5
637
  8
DATA
  6
CONTINUOUS
 62
     7
 10
107.29480207847941
 20
15.33281366028122
 30
0.0
  0
VERTEX
  5
638
  8
DATA
  6
CONTINUOUS
 62
     7
 10
107.29254632550671
 20
15.336913987407909
 30
0.0
  0
VERTEX
  5
639
  8
DATA
  6
CONTINUOUS
 62
     7
 10
107.2903491573047
 20
15.340918323372209
 30
0.0
  0
VERTEX
  5
63A
  8
DATA
  6
CONTINUOUS
 62
     7
 10
107.2882105738733
 20
15.3448266681741
 30
0.0
  0
VERTEX
  5
63B
  8
DATA
  6
CONTINUOUS
 62
     7
 10
107.2861305752126
 20
15.348639021813611
 30
0.0
  0
VERTEX
  5
63C
  8
DATA
  6
CONTINUOUS
 62
     7
 10
107.2841091613226
 20
15.352355384290711
 30
0.0
  0
VERTEX
  5
63D
  8
DATA
  6
CONTINUOUS
 62
     7
 10
107.2821463322031
 20
15.35597575560543
 30
0.0
  0
VERTEX
  5
63E
  8
DATA
  6
CONTINUOUS
 62
     7
 10
107.2802420878543
 20
15.35950013575774
 30
0.0
  0
VERTEX
  5
63F
  8
DATA
  6
CONTINUOUS
 62
     7
 10
107.2783964282762
 20
15.362928524747661
 30
0.0
  0
VERTEX
  5
640
  8
DATA
  6
CONTINUOUS
 62
     7
 10
107.2766093534687
 20
15.366260922575179
 30
0.0
  0
VERTEX
  5
641
  8
DATA
  6
CONTINUOUS
 62
     7
 10
107.2748808634318
 20
15.369497329240319
 30
0.0
  0
VERTEX
  5
642
  8
DATA
  6
CONTINUOUS
 62
     7
 10
107.27321095816551
 20
15.372637744743059
 30
0.0
  0
VERTEX
  5
643
  8
DATA
  6
CONTINUOUS
 62
     7
 10
107.27159963766999
 20
15.375682169083399
 30
0.0
  0
VERTEX
  5
644
  8
DATA
  6
CONTINUOUS
 62
     7
 10
107.27004690194499
 20
15.378630602261349
 30
0.0
  0
VERTEX
  5
645
  8
DATA
  6
CONTINUOUS
 62
     7
 10
107.26855275099069
 20
15.3814830442769
 30
0.0
  0
VERTEX
  5
646
  8
DATA
  6
CONTINUOUS
 62
     7
 10
107.26711718480711
 20
15.384239495130061
 30
0.0
  0
VERTEX
  5
647
  8
DATA
  6
CONTINUOUS
 62
     7
 10
107.265740203394
 20
15.38689995482083
 30
0.0
  0
VERTEX
  5
648
  8
DATA
  6
CONTINUOUS
 62
     7
 10
107.2644218067516
 20
15.38946442334921
 30
0.0
  0
VERTEX
  5
649
  8
DATA
  6
CONTINUOUS
 62
     7
 10
107.26316199487989
 20
15.391932900715171
 30
0.0
  0
VERTEX
  5
64A
  8
DATA
  6
CONTINUOUS
 62
     7
 10
107.2619607677788
 20
15.394305386918759
 30
0.0
  0
VERTEX
  5
64B
  8
DATA
  6
CONTINUOUS
 62
     7
 10
107.2608181254483
 20
15.396581881959939
 30
0.0
  0
VERTEX
  5
64C
  8
DATA
  6
CONTINUOUS
 62
     7
 10
107.2597340678885
 20
15.398762385838751
 30
0.0
  0
VERTEX
  5
64D
  8
DATA
  6
CONTINUOUS
 62
     7
 10
107.25870859509941
 20
15.400846898555139
 30
0.0
  0
VERTEX
  5
64E
  8
DATA
  6
CONTINUOUS
 62
     7
 10
107.2577417070808
 20
15.40283542010914
 30
0.0
  0
VERTEX
  5
64F
  8
DATA
  6
CONTINUOUS
 62
     7
 10
107.2568334038329
 20
15.40472795050075
 30
0.0
  0
VERTEX
  5
650
  8
DATA
  6
CONTINUOUS
 62
     7
 10
107.2559836853557
 20
15.406524489729961
 30
0.0
  0
VERTEX
  5
651
  8
DATA
  6
CONTINUOUS
 62
     7
 10
107.2551925516491
 20
15.408225037796781
 30
0.0
  0
VERTEX
  5
652
  8
DATA
  6
CONTINUOUS
 62
     7
 10
107.2544600027131
 20
15.409829594701201
 30
0.0
  0
VERTEX
  5
653
  8
DATA
  6
CONTINUOUS
 62
     7
 10
107.2537860385478
 20
15.411338160443229
 30
0.0
  0
VERTEX
  5
654
  8
DATA
  6
CONTINUOUS
 62
     7
 10
107.2531706591531
 20
15.412750735022859
 30
0.0
  0
VERTEX
  5
655
  8
DATA
  6
CONTINUOUS
 62
     7
 10
107.2526138645291
 20
15.4140673184401
 30
0.0
  0
VERTEX
  5
656
  8
DATA
  6
CONTINUOUS
 62
     7
 10
107.25211565467571
 20
15.41528791069495
 30
0.0
  0
VERTEX
  5
657
  8
DATA
  6
CONTINUOUS
 62
     7
 10
107.2516760295929
 20
15.41641251178741
 30
0.0
  0
VERTEX
  5
658
  8
DATA
  6
CONTINUOUS
 62
     7
 10
107.25129498928079
 20
15.41744112171747
 30
0.0
  0
VERTEX
  5
659
  8
DATA
  6
CONTINUOUS
 62
     7
 10
107.2509725337393
 20
15.41837374048513
 30
0.0
  0
VERTEX
  5
65A
  8
DATA
  6
CONTINUOUS
 62
     7
 10
107.25070866296851
 20
15.4192103680904
 30
0.0
  0
VERTEX
  5
65B
  8
DATA
  6
CONTINUOUS
 62
     7
 10
107.2505033769683
 20
15.419951004533271
 30
0.0
  0
VERTEX
  5
65C
  8
DATA
  6
CONTINUOUS
 62
     7
 10
107.2503566757388
 20
15.42059564981375
 30
0.0
  0
VERTEX
  5
65D
  8
DATA
  6
CONTINUOUS
 62
     7
 10
107.2502685592799
 20
15.42114430393182
 30
0.0
  0
VERTEX
  5
65E
  8
DATA
  6
CONTINUOUS
 62
     7
 10
107.2502390275916
 20
15.42159696688752
 30
0.0
  0
VERTEX
  5
65F
  8
DATA
  6
CONTINUOUS
 62
     7
 10
107.2502390275916
 20
15.42159696688752
 30
0.0
  0
VERTEX
  5
660
  8
DATA
  6
CONTINUOUS
 62
     7
 10
107.2502389461353
 20
15.421872436311521
 30
0.0
  0
SEQEND
  5
661
  8
DATA
  6
CONTINUOUS
 62
     7
  0
LINE
  5
49F
  8
DATA
  6
CONTINUOUS
 62
     7
 10
112.21609996344689
 20
24.03192972108765
 30
0.0
 11
107.50139455495589
 21
23.993904683030639
 31
0.0
  0
LINE
  5
4A0
  8
DATA
  6
CONTINUOUS
 62
     7
 10
109.0735917020649
 20
22.543599263295349
 30
0.0
 11
109.0735917020649
 21
22.909562045727441
 31
0.0
  0
LINE
  5
4A1
  8
DATA
  6
CONTINUOUS
 62
     7
 10
110.5838598837273
 20
22.900562751187369
 30
0.0
 11
110.5838598837273
 21
14.556114316163679
 31
0.0
  0
POLYLINE
  5
4A2
  8
DATA
  6
CONTINUOUS
 62
     7
 66
     1
 10
0.0
 20
0.0
 30
0.0
  0
VERTEX
  5
662
  8
DATA
  6
CONTINUOUS
 62
     7
 10
115.90804216065339
 20
24.065806529899572
 30
0.0
  0
VERTEX
  5
663
  8
DATA
  6
CONTINUOUS
 62
     7
 10
112.223634542097
 20
24.031995580957549
 30
0.0
  0
VERTEX
  5
664
  8
DATA
  6
CONTINUOUS
 62
     7
 10
112.21609996344689
 20
24.03192972109586
 30
0.0
  0
SEQEND
  5
665
  8
DATA
  6
CONTINUOUS
 62
     7
  0
LINE
  5
4A8
  8
DATA
  6
CONTINUOUS
 62
     7
 10
116.6894506195861
 20
24.072463757103279
 30
0.0
 11
115.90804216065339
 21
24.065806529953949
 31
0.0
  0
LINE
  5
4A9
  8
DATA
  6
CONTINUOUS
 62
     7
 10
95.562312626860674
 20
60.77627351800853
 30
0.0
 11
94.923384061157805
 21
60.137345070820061
 31
0.0
  0
LINE
  5
4AA
  8
DATA
  6
CONTINUOUS
 62
     7
 10
94.869245472843687
 20
29.276390523818911
 30
0.0
 11
94.702039918675183
 21
29.276390523818911
 31
0.0
  0
LINE
  5
4AB
  8
DATA
  6
CONTINUOUS
 62
     7
 10
103.378638251295
 20
-24.99930753660411
 30
0.0
 11
103.378638251295
 21
58.161320923156211
 31
0.0
  0
LINE
  5
4AC
  8
DATA
  6
CONTINUOUS
 62
     7
 10
104.7031334394636
 20
23.967924087189012
 30
0.0
 11
104.7031334394636
 21
-24.99930753660411
 31
0.0
  0
LINE
  5
4AD
  8
DATA
  6
CONTINUOUS
 62
     7
 10
94.869245472843687
 20
11.015363698572511
 30
0.0
 11
94.869245472843687
 21
27.75454144163751
 31
0.0
  0
LINE
  5
4AE
  8
DATA
  6
CONTINUOUS
 62
     7
 10
97.922704071943016
 20
49.190927393947533
 30
0.0
 11
97.922704071943016
 21
12.515940599158951
 31
0.0
  0
LINE
  5
4AF
  8
DATA
  6
CONTINUOUS
 62
     7
 10
94.869245472843687
 20
32.457765275597403
 30
0.0
 11
94.869245472843687
 21
50.691504294534063
 31
0.0
  0
LINE
  5
4B0
  8
DATA
  6
CONTINUOUS
 62
     7
 10
95.07930101917978
 20
27.75454144163751
 30
0.0
 11
94.869245472843687
 21
27.75454144163751
 31
0.0
  0
LINE
  5
4B1
  8
DATA
  6
CONTINUOUS
 62
     7
 10
95.07930101917978
 20
27.75454144163756
 30
0.0
 11
95.079301028808942
 21
29.276395081055611
 31
0.0
  0
LINE
  5
4B2
  8
DATA
  6
CONTINUOUS
 62
     7
 10
-11.86933103799781
 20
200.60603157464939
 30
0.0
 11
-12.499991674403169
 21
199.96984323171031
 31
0.0
  0
LINE
  5
4B3
  8
DATA
  6
CONTINUOUS
 62
     7
 10
-10.56769154243425
 20
212.70463418187279
 30
0.0
 11
-8.7666529360369765
 21
211.33567746092689
 31
0.0
  0
LINE
  5
4B4
  8
DATA
  6
CONTINUOUS
 62
     7
 10
-7.0532273246943609
 20
212.67735653128349
 30
0.0
 11
-1.370733729289654
 21
212.7572516820666
 31
0.0
  0
LINE
  5
4B5
  8
DATA
  6
CONTINUOUS
 62
     7
 10
-1.389759764633723
 20
214.33640899544989
 30
0.0
 11
-6.1588227625155554
 21
214.26935656490269
 31
0.0
  0
LINE
  5
4B6
  8
DATA
  6
CONTINUOUS
 62
     7
 10
-8.1416482997889101
 20
214.24147828531531
 30
0.0
 11
-8.9505053331651965
 21
214.23010585637539
 31
0.0
  0
LINE
  5
4B7
  8
DATA
  6
CONTINUOUS
 62
     7
 10
4.196085793243312
 20
213.25427283309159
 30
0.0
 11
36.333590758433949
 21
213.2542156073699
 31
0.0
  0
LINE
  5
4B8
  8
DATA
  6
CONTINUOUS
 62
     7
 10
34.184920682354999
 20
214.82159159670741
 30
0.0
 11
6.3264182140225236
 21
214.82147423067229
 31
0.0
  0
LINE
  5
4B9
  8
DATA
  6
CONTINUOUS
 62
     7
 10
35.438365239606483
 20
187.49999999964939
 30
0.0
 11
5.0756487957900731
 21
187.49999999964939
 31
0.0
  0
LINE
  5
4BA
  8
DATA
  6
CONTINUOUS
 62
     7
 10
-12.487359816518801
 20
201.23058244713241
 30
0.0
 11
-11.86823553504005
 21
200.60603157464979
 31
0.0
  0
LINE
  5
4BB
  8
DATA
  6
CONTINUOUS
 62
     7
 10
38.427491295269952
 20
196.0479705061631
 30
0.0
 11
38.427491295269952
 21
196.04784325041359
 31
0.0
  0
LINE
  5
4BC
  8
DATA
  6
CONTINUOUS
 62
     7
 10
53.0129598675694
 20
201.24221488426741
 30
0.0
 11
52.970089906280002
 21
206.15462587951561
 31
0.0
  0
LINE
  5
4BD
  8
DATA
  6
CONTINUOUS
 62
     7
 10
-12.498898706167081
 20
201.2422224745286
 30
0.0
 11
-12.456064738694289
 21
206.1505089869159
 31
0.0
  0
LINE
  5
4BE
  8
DATA
  6
CONTINUOUS
 62
     7
 10
-0.9713066760442785
 20
211.4535197453086
 30
0.0
 11
-7.573370601141348
 21
211.19181563915231
 31
0.0
  0
LINE
  5
4BF
  8
DATA
  6
CONTINUOUS
 62
     7
 10
41.485367771207109
 20
211.4535197453086
 30
0.0
 11
48.08743169665393
 21
211.19181563913841
 31
0.0
  0
LINE
  5
4C0
  8
DATA
  6
CONTINUOUS
 62
     7
 10
-12.499330551809701
 20
58.177020199983318
 30
0.0
 11
-12.49933055182983
 21
25.019312090589771
 31
0.0
  0
LINE
  5
4C1
  8
DATA
  6
CONTINUOUS
 62
     7
 10
4.4353294561413881
 20
28.468140892693491
 30
0.0
 11
4.4353294561660732
 21
54.744324388191259
 31
0.0
  0
LINE
  5
4C2
  8
DATA
  6
CONTINUOUS
 62
     7
 10
32.960424153405327
 20
25.573612057685231
 30
0.0
 11
7.4625282184387336
 21
25.57540971281982
 31
0.0
  0
LINE
  5
4C3
  8
DATA
  6
CONTINUOUS
 62
     7
 10
7.507000624146186
 20
57.638856442346132
 30
0.0
 11
33.052863389676148
 21
57.637056131124737
 31
0.0
  0
LINE
  5
4C4
  8
DATA
  6
CONTINUOUS
 62
     7
 10
36.075248719895157
 20
28.468140892693491
 30
0.0
 11
36.075248719895157
 21
54.744324387630819
 31
0.0
  0
LINE
  5
4C5
  8
DATA
  6
CONTINUOUS
 62
     7
 10
-9.017139036860355
 20
-18.374064975409279
 30
0.0
 11
-8.9486573467869874
 21
-18.937661881826049
 31
0.0
  0
LINE
  5
4C6
  8
DATA
  6
CONTINUOUS
 62
     7
 10
53.014713832050717
 20
58.177020199983318
 30
0.0
 11
53.01471384754484
 21
25.019312090781039
 31
0.0
  0
LINE
  5
4C7
  8
DATA
  6
CONTINUOUS
 62
     7
 10
-12.500000000171021
 20
23.967917100921731
 30
0.0
 11
-12.500000000171021
 21
22.12744331732948
 31
0.0
  0
LINE
  5
4C8
  8
DATA
  6
CONTINUOUS
 62
     7
 10
-0.9939482332262343
 20
150.25966456935481
 30
0.0
 11
2.0598843667737858
 21
150.25966456935481
 31
0.0
  0
LINE
  5
4C9
  8
DATA
  6
CONTINUOUS
 62
     7
 10
-0.7269923667762157
 20
92.053777714661933
 30
0.0
 11
1.7929539489287689
 21
92.053777714661891
 31
0.0
  0
LINE
  5
4CA
  8
DATA
  6
CONTINUOUS
 62
     7
 10
49.528477933238307
 20
-18.374064975409279
 30
0.0
 11
49.459996243164952
 21
-18.937661881826049
 31
0.0
  0
LINE
  5
4CB
  8
DATA
  6
CONTINUOUS
 62
     7
 10
51.943821377109252
 20
22.13572804099984
 30
0.0
 11
51.943821377109252
 21
15.28069153723898
 31
0.0
  0
LINE
  5
4CC
  8
DATA
  6
CONTINUOUS
 62
     7
 10
54.259262703034238
 20
16.564086808114851
 30
0.0
 11
54.259262703034238
 21
20.856019489969849
 31
0.0
  0
LINE
  5
4CD
  8
DATA
  6
CONTINUOUS
 62
     7
 10
53.011338896548999
 20
22.128289794426941
 30
0.0
 11
51.943821377109252
 21
22.13572804099984
 31
0.0
  0
LINE
  5
4CE
  8
DATA
  6
CONTINUOUS
 62
     7
 10
37.591151506310659
 20
216.28944493653179
 30
0.0
 11
45.234817666987382
 21
216.34778664650759
 31
0.0
  0
LINE
  5
4CF
  8
DATA
  6
CONTINUOUS
 62
     7
 10
45.246817213435129
 20
214.7748339211133
 30
0.0
 11
37.60315105275842
 21
214.71649221113759
 31
0.0
  0
LINE
  5
4D0
  8
DATA
  6
CONTINUOUS
 62
     7
 10
35.093569114407998
 20
213.88110763371321
 30
0.0
 11
34.309745744921592
 21
214.6619281008216
 31
0.0
  0
LINE
  5
4D1
  8
DATA
  6
CONTINUOUS
 62
     7
 10
40.819545265106477
 20
212.1800059544012
 30
0.0
 11
36.597151726758391
 21
213.20066036760431
 31
0.0
  0
LINE
  5
4D2
  8
DATA
  6
CONTINUOUS
 62
     7
 10
37.078339898678237
 20
214.70264863894991
 30
0.0
 11
41.18914792136372
 21
213.70896125707881
 31
0.0
  0
LINE
  5
4D3
  8
DATA
  6
CONTINUOUS
 62
     7
 10
48.68892096955242
 20
214.1602560426156
 30
0.0
 11
49.42354932598068
 21
214.14992772070039
 31
0.0
  0
LINE
  5
4D4
  8
DATA
  6
CONTINUOUS
 62
     7
 10
49.0775841704017
 20
213.12577114598719
 30
0.0
 11
50.295470259861737
 21
214.05149986324781
 31
0.0
  0
LINE
  5
4D5
  8
DATA
  6
CONTINUOUS
 62
     7
 10
41.862793333694249
 20
214.25616283785561
 30
0.0
 11
41.900991012209872
 21
214.33658075150711
 31
0.0
  0
LINE
  5
4D6
  8
DATA
  6
CONTINUOUS
 62
     7
 10
42.863190725000038
 20
212.7454911770086
 30
0.0
 11
42.899380622610487
 21
212.5103463717316
 31
0.0
  0
LINE
  5
4D7
  8
DATA
  6
CONTINUOUS
 62
     7
 10
51.079048274427798
 20
212.7048938955254
 30
0.0
 11
49.278021202743361
 21
211.33592199931411
 31
0.0
  0
LINE
  5
4D8
  8
DATA
  6
CONTINUOUS
 62
     7
 10
47.564584286650543
 20
212.67758663252471
 30
0.0
 11
41.882090018261529
 21
212.7574339033628
 31
0.0
  0
LINE
  5
4D9
  8
DATA
  6
CONTINUOUS
 62
     7
 10
41.901102747833527
 20
214.3365913770009
 30
0.0
 11
46.670166310521033
 21
214.2695791299524
 31
0.0
  0
LINE
  5
4DA
  8
DATA
  6
CONTINUOUS
 62
     7
 10
48.65299208262271
 20
214.2417175573926
 30
0.0
 11
49.46184921179286
 21
214.23035194377599
 31
0.0
  0
LINE
  5
4DB
  8
DATA
  6
CONTINUOUS
 62
     7
 10
107.2869441057737
 20
92.053777714661933
 30
0.0
 11
107.2869441057737
 21
150.25966456935481
 31
0.0
  0
LINE
  5
4DC
  8
DATA
  6
CONTINUOUS
 62
     7
 10
105.7091305957738
 20
150.25966456935481
 30
0.0
 11
105.7091305957738
 21
92.053777714661933
 31
0.0
  0
LINE
  5
4DD
  8
DATA
  6
CONTINUOUS
 62
     7
 10
108.0249536507738
 20
150.25966456935481
 30
0.0
 11
108.0249536507738
 21
159.54840539435489
 31
0.0
  0
LINE
  5
4DE
  8
DATA
  6
CONTINUOUS
 62
     7
 10
104.9711210507737
 20
159.54840539435489
 30
0.0
 11
104.9711210507737
 21
150.25966456935481
 31
0.0
  0
LINE
  5
4DF
  8
DATA
  6
CONTINUOUS
 62
     7
 10
108.2763349709637
 20
86.771538017836875
 30
0.0
 11
108.0121530024588
 21
91.812626733681853
 31
0.0
  0
LINE
  5
4E0
  8
DATA
  6
CONTINUOUS
 62
     7
 10
104.9839471476938
 20
91.812626733681853
 30
0.0
 11
104.7197397305837
 21
86.771538017836875
 31
0.0
  0
ARC
  5
4E1
  8
DATA
  6
CONTINUOUS
 62
     7
 10
106.4980373507737
 20
159.54840539435489
 30
0.0
 40
1.5269163000000101
 50
0.0
 51
90.0
  0
ARC
  5
4E2
  8
DATA
  6
CONTINUOUS
 62
     7
 10
106.4980373507737
 20
159.54840539435489
 30
0.0
 40
1.526916299999981
 50
90.0
 51
180.0
  0
ARC
  5
4E3
  8
DATA
  6
CONTINUOUS
 62
     7
 10
123.9176074732739
 20
77.039100764661924
 30
0.0
 40
21.364103897500229
 50
155.13575200000031
 51
174.533273009677
  0
ARC
  5
4E4
  8
DATA
  6
CONTINUOUS
 62
     7
 10
89.078467228273695
 20
77.039100764661924
 30
0.0
 40
21.364103897500222
 50
5.4667269903230249
 51
24.86424799999973
  0
ARC
  5
4E5
  8
DATA
  6
CONTINUOUS
 62
     7
 10
105.23807691722369
 20
91.799291664661936
 30
0.0
 40
0.2544860500000041
 50
90.0
 51
177.00000000000321
  0
ARC
  5
4E6
  8
DATA
  6
CONTINUOUS
 62
     7
 10
107.75802323292881
 20
91.799291664661936
 30
0.0
 40
0.25448604999997
 50
2.9999999999970801
 51
90.000000000000028
  0
LINE
  5
4E7
  8
DATA
  6
CONTINUOUS
 62
     7
 10
104.9711210507737
 20
150.25966456935481
 30
0.0
 11
108.0249536507738
 21
150.25966456935481
 31
0.0
  0
LINE
  5
4E8
  8
DATA
  6
CONTINUOUS
 62
     7
 10
105.23807691722369
 20
92.053777714661933
 30
0.0
 11
107.75802323292881
 21
92.053777714661891
 31
0.0
  0
LINE
  5
4E9
  8
DATA
  6
CONTINUOUS
 62
     7
 10
109.0735917020649
 20
14.91306520410394
 30
0.0
 11
109.0735917020649
 21
14.54710242167185
 31
0.0
  0
LINE
  5
4EA
  8
DATA
  6
CONTINUOUS
 62
     7
 10
203.2359263317737
 20
92.128214884361896
 30
0.0
 11
203.2359263317737
 21
150.25461175891061
 31
0.0
  0
LINE
  5
4EB
  8
DATA
  6
CONTINUOUS
 62
     7
 10
201.65811282177381
 20
150.25461175891061
 30
0.0
 11
201.65811282177381
 21
92.128214884361896
 31
0.0
  0
LINE
  5
4EC
  8
DATA
  6
CONTINUOUS
 62
     7
 10
203.97393587677379
 20
150.25461175891061
 30
0.0
 11
203.97393587677379
 21
159.54335258391069
 31
0.0
  0
LINE
  5
4ED
  8
DATA
  6
CONTINUOUS
 62
     7
 10
200.92010327677369
 20
159.54335258391069
 30
0.0
 11
200.92010327677369
 21
150.25461175891061
 31
0.0
  0
LINE
  5
4EE
  8
DATA
  6
CONTINUOUS
 62
     7
 10
204.2253171969638
 20
86.845975187536851
 30
0.0
 11
203.9611352284588
 21
91.887063903381886
 31
0.0
  0
LINE
  5
4EF
  8
DATA
  6
CONTINUOUS
 62
     7
 10
200.93292937369381
 20
91.887063903381886
 30
0.0
 11
200.66872195658371
 21
86.845975187536851
 31
0.0
  0
ARC
  5
4F0
  8
DATA
  6
CONTINUOUS
 62
     7
 10
202.44701957677381
 20
159.54335258391069
 30
0.0
 40
1.5269163000000101
 50
0.0
 51
90.0
  0
ARC
  5
4F1
  8
DATA
  6
CONTINUOUS
 62
     7
 10
202.44701957677381
 20
159.54335258391069
 30
0.0
 40
1.526916299999981
 50
90.0
 51
180.0
  0
ARC
  5
4F2
  8
DATA
  6
CONTINUOUS
 62
     7
 10
219.8665896992739
 20
77.113537934361901
 30
0.0
 40
21.364103897500229
 50
155.13575200000031
 51
174.533273009677
  0
ARC
  5
4F3
  8
DATA
  6
CONTINUOUS
 62
     7
 10
185.02744945427369
 20
77.113537934361901
 30
0.0
 40
21.364103897500222
 50
5.4667269903230249
 51
24.86424799999973
  0
ARC
  5
4F4
  8
DATA
  6
CONTINUOUS
 62
     7
 10
201.18705914322371
 20
91.873728834361913
 30
0.0
 40
0.2544860500000041
 50
90.0
 51
177.00000000000321
  0
ARC
  5
4F5
  8
DATA
  6
CONTINUOUS
 62
     7
 10
203.70700545892879
 20
91.873728834361913
 30
0.0
 40
0.25448604999997
 50
2.9999999999970801
 51
90.000000000000028
  0
LINE
  5
4F6
  8
DATA
  6
CONTINUOUS
 62
     7
 10
200.92010327677369
 20
150.25461175891061
 30
0.0
 11
203.97393587677379
 21
150.25461175891061
 31
0.0
  0
LINE
  5
4F7
  8
DATA
  6
CONTINUOUS
 62
     7
 10
201.18705914322371
 20
92.128214884361896
 30
0.0
 11
203.70700545892879
 21
92.128214884361896
 31
0.0
  0
LINE
  5
4F8
  8
DATA
  6
CONTINUOUS
 62
     7
 10
152.3032531716797
 20
53.974547053714382
 30
0.0
 11
152.30292233981459
 21
53.976481147694358
 31
0.0
  0
LINE
  5
4F9
  8
DATA
  6
CONTINUOUS
 62
     7
 10
210.3032531716797
 20
53.974547053714382
 30
0.0
 11
210.30292233981459
 21
53.976481147694358
 31
0.0
  0
LINE
  5
4FA
  8
DATA
  6
CONTINUOUS
 62
     7
 10
158.37062802107761
 20
18.835104132836531
 30
0.0
 11
158.37029718921261
 21
18.837038226816532
 31
0.0
  0
ENDSEC
  0
EOF
