  0
SECTION
  2
HEADER
  9
$ACADVER
  1
AC1009
  9
$INSBASE
 10
0.0
 20
0.0
 30
0.0
  9
$EXTMIN
 10
-170.0164782349211
 20
-265.74833863455001
 30
-0.0015258207003583
  9
$EXTMAX
 10
370.0164807494923
 20
537.09174839639525
 30
0.0000000349246037
  9
$LIMMIN
 10
0.0
 20
0.0
  9
$LIMMAX
 10
0.0
 20
0.0
  9
$ORTHOMODE
 70
     0
  9
$REGENMODE
 70
     1
  9
$FILLMODE
 70
     1
  9
$QTEXTMODE
 70
     0
  9
$MIRRTEXT
 70
     1
  9
$DRAGMODE
 70
     2
  9
$LTSCALE
 40
15.24
  9
$OSMODE
 70
   231
  9
$ATTMODE
 70
     1
  9
$TEXTSIZE
 40
0.0
  9
$TRACEWID
 40
1.0
  9
$TEXTSTYLE
  7
STANDARD
  9
$CLAYER
  8
DATA
  9
$CELTYPE
  6
BYLAYER
  9
$CECOLOR
 62
   256
  9
$DIMSCALE
 40
1.0
  9
$DIMASZ
 40
0.18
  9
$DIMEXO
 40
0.0625
  9
$DIMDLI
 40
0.38
  9
$DIMRND
 40
0.0
  9
$DIMDLE
 40
0.0
  9
$DIMEXE
 40
0.18
  9
$DIMTP
 40
0.0
  9
$DIMTM
 40
0.0
  9
$DIMTXT
 40
0.18
  9
$DIMCEN
 40
0.09
  9
$DIMTSZ
 40
0.0
  9
$DIMTOL
 70
     0
  9
$DIMLIM
 70
     0
  9
$DIMTIH
 70
     1
  9
$DIMTOH
 70
     1
  9
$DIMSE1
 70
     0
  9
$DIMSE2
 70
     0
  9
$DIMTAD
 70
     0
  9
$DIMZIN
 70
     0
  9
$DIMBLK
  1

  9
$DIMASO
 70
     1
  9
$DIMSHO
 70
     1
  9
$DIMPOST
  1

  9
$DIMAPOST
  1

  9
$DIMALT
 70
     0
  9
$DIMALTD
 70
     2
  9
$DIMALTF
 40
25.399999999999999
  9
$DIMLFAC
 40
1.0
  9
$DIMTOFL
 70
     0
  9
$DIMTVP
 40
0.0
  9
$DIMTIX
 70
     0
  9
$DIMSOXD
 70
     0
  9
$DIMSAH
 70
     0
  9
$DIMBLK1
  1

  9
$DIMBLK2
  1

  9
$DIMSTYLE
  2
STANDARD
  9
$DIMCLRD
 70
     0
  9
$DIMCLRE
 70
     0
  9
$DIMCLRT
 70
     0
  9
$DIMTFAC
 40
1.0
  9
$DIMGAP
 40
0.09
  9
$LUNITS
 70
     2
  9
$LUPREC
 70
     4
  9
$SKETCHINC
 40
0.1
  9
$FILLETRAD
 40
0.0
  9
$AUNITS
 70
     0
  9
$AUPREC
 70
     0
  9
$MENU
  1
acad
  9
$ELEVATION
 40
0.0
  9
$PELEVATION
 40
0.0
  9
$THICKNESS
 40
0.0
  9
$LIMCHECK
 70
     0
  9
$BLIPMODE
 70
     0
  9
$CHAMFERA
 40
0.0
  9
$CHAMFERB
 40
0.0
  9
$SKPOLY
 70
     0
  9
$TDCREATE
 40
2456059.7415277781
  9
$TDUPDATE
 40
2456059.7531201742
  9
$TDINDWG
 40
0.0002861111
  9
$TDUSRTIMER
 40
0.0002861111
  9
$USRTIMER
 70
     1
  9
$ANGBASE
 50
0.0
  9
$ANGDIR
 70
     0
  9
$PDMODE
 70
     1
  9
$PDSIZE
 40
-2.0
  9
$PLINEWID
 40
0.0
  9
$COORDS
 70
     2
  9
$SPLFRAME
 70
     0
  9
$SPLINETYPE
 70
     6
  9
$SPLINESEGS
 70
     8
  9
$ATTDIA
 70
     0
  9
$ATTREQ
 70
     1
  9
$HANDLING
 70
     1
  9
$HANDSEED
  5
2D7
  9
$SURFTAB1
 70
     6
  9
$SURFTAB2
 70
     6
  9
$SURFTYPE
 70
     6
  9
$SURFU
 70
     6
  9
$SURFV
 70
     6
  9
$UCSNAME
  2

  9
$UCSORG
 10
0.0
 20
0.0
 30
0.0
  9
$UCSXDIR
 10
1.0
 20
0.0
 30
0.0
  9
$UCSYDIR
 10
0.0
 20
1.0
 30
0.0
  9
$PUCSNAME
  2

  9
$PUCSORG
 10
0.0
 20
0.0
 30
0.0
  9
$PUCSXDIR
 10
1.0
 20
0.0
 30
0.0
  9
$PUCSYDIR
 10
0.0
 20
1.0
 30
0.0
  9
$USERI1
 70
     0
  9
$USERI2
 70
     0
  9
$USERI3
 70
     0
  9
$USERI4
 70
     0
  9
$USERI5
 70
     0
  9
$USERR1
 40
0.0
  9
$USERR2
 40
0.0
  9
$USERR3
 40
0.0
  9
$USERR4
 40
0.0
  9
$USERR5
 40
0.0
  9
$WORLDVIEW
 70
     1
  9
$SHADEDGE
 70
     3
  9
$SHADEDIF
 70
    70
  9
$TILEMODE
 70
     1
  9
$MAXACTVP
 70
    64
  9
$PLIMCHECK
 70
     0
  9
$PEXTMIN
 10
1.0000000000000000E+020
 20
1.0000000000000000E+020
 30
1.0000000000000000E+020
  9
$PEXTMAX
 10
-1.0000000000000000E+020
 20
-1.0000000000000000E+020
 30
-1.0000000000000000E+020
  9
$PLIMMIN
 10
0.0
 20
0.0
  9
$PLIMMAX
 10
12.0
 20
9.0
  9
$UNITMODE
 70
     0
  9
$VISRETAIN
 70
     0
  9
$PLINEGEN
 70
     1
  9
$PSLTSCALE
 70
     0
  0
ENDSEC
  0
SECTION
  2
TABLES
  0
TABLE
  2
VPORT
 70
     1
  0
VPORT
  2
*ACTIVE
 70
     0
 10
0.0
 20
0.0
 11
1.0
 21
1.0
 12
100.0000012572856
 22
135.6717048809227
 13
0.0
 23
0.0
 14
1.0
 24
1.0
 15
0.0
 25
0.0
 16
0.0
 26
0.0
 36
1.0
 17
0.0
 27
0.0
 37
0.0
 40
809.12045277043126
 41
2.1540469973890342
 42
50.0
 43
0.0
 44
0.0
 50
0.0
 51
0.0
 71
     0
 72
  2000
 73
     1
 74
     1
 75
     0
 76
     0
 77
     0
 78
     0
  0
ENDTAB
  0
TABLE
  2
LTYPE
 70
    11
  0
LTYPE
  2
CONTINUOUS
 70
     0
  3
Solid line
 72
    65
 73
     0
 40
0.0
  0
ENDTAB
  0
TABLE
  2
LAYER
 70
     6
  0
LAYER
  2
0
 70
     0
 62
     7
  6
CONTINUOUS
  0
LAYER
  2
DATA
 70
     0
 62
     7
  6
CONTINUOUS
  0
LAYER
  2
HIBINO-BASE
 70
     0
 62
     7
  6
CONTINUOUS
  0
LAYER
  2
PATTERN_FILL
 70
     0
 62
     7
  6
CONTINUOUS
  0
LAYER
  2
SPEC
 70
     0
 62
     7
  6
CONTINUOUS
  0
LAYER
  2
DIMNSIONS
 70
     0
 62
     7
  6
CONTINUOUS
  0
ENDTAB
  0
TABLE
  2
STYLE
 70
     3
  0
STYLE
  2
STANDARD
 70
     0
 40
0.0
 41
1.0
 50
0.0
 71
     0
 42
0.0
  3
txt
  4
BIGFONT.SHX
  0
ENDTAB
  0
TABLE
  2
VIEW
 70
     0
  0
ENDTAB
  0
TABLE
  2
UCS
 70
     0
  0
ENDTAB
  0
TABLE
  2
APPID
 70
     4
  0
APPID
  2
ACAD
 70
     0
  0
APPID
  2
ACADANNOTATIVE
 70
     0
  0
APPID
  2
ACAD_NAV_VCDISPLAY
 70
     0
  0
APPID
  2
ACAD_MLEADERVER
 70
     0
  0
ENDTAB
  0
TABLE
  2
DIMSTYLE
 70
     2
  0
DIMSTYLE
  2
STANDARD
 70
     0
  3

  4

  5

  6

  7

 40
1.0
 41
0.18
 42
0.0625
 43
0.38
 44
0.18
 45
0.0
 46
0.0
 47
0.0
 48
0.0
140
0.18
141
0.09
142
0.0
143
25.399999999999999
144
1.0
145
0.0
146
1.0
147
0.09
 71
     0
 72
     0
 73
     1
 74
     1
 75
     0
 76
     0
 77
     0
 78
     0
170
     0
171
     2
172
     0
173
     0
174
     0
175
     0
176
     0
177
     0
178
     0
  0
ENDTAB
  0
ENDSEC
  0
SECTION
  2
BLOCKS
  0
BLOCK
  8
0
  2
$MODEL_SPACE
 70
     0
 10
0.0
 20
0.0
 30
0.0
  3
$MODEL_SPACE
  1

  0
ENDBLK
  5
275
  8
0
  0
BLOCK
 67
     1
  8
0
  2
$PAPER_SPACE
 70
     0
 10
0.0
 20
0.0
 30
0.0
  3
$PAPER_SPACE
  1

  0
ENDBLK
  5
271
 67
     1
  8
0
  0
ENDSEC
  0
SECTION
  2
ENTITIES
  0
LINE
  5
2D
  8
HIBINO-BASE
  6
CONTINUOUS
 62
     7
 10
-169.99999999999989
 20
537.06729578973182
 30
0.0
 11
370.0
 21
537.06729578973182
 31
0.0
  0
LINE
  5
2E
  8
HIBINO-BASE
  6
CONTINUOUS
 62
     7
 10
370.0
 20
-242.93270421026821
 30
0.0
 11
-169.99999999999989
 21
-242.93270421026821
 31
0.0
  0
LINE
  5
2F
  8
HIBINO-BASE
  6
CONTINUOUS
 62
     7
 10
-169.99999999999989
 20
-242.93270421026821
 30
0.0
 11
-169.99999999999989
 21
537.06729578973182
 31
0.0
  0
LINE
  5
30
  8
HIBINO-BASE
  6
CONTINUOUS
 62
     7
 10
370.0
 20
537.06729578973182
 30
0.0
 11
370.0
 21
-242.93270421026821
 31
0.0
  0
LINE
  5
31
  8
HIBINO-BASE
  6
CONTINUOUS
 62
     7
 10
100.0
 20
-175.4327042102681
 30
0.0
 11
370.0
 21
-175.4327042102681
 31
0.0
  0
LINE
  5
32
  8
HIBINO-BASE
  6
CONTINUOUS
 62
     7
 10
100.0
 20
-242.93270421026821
 30
0.0
 11
100.0
 21
-175.4327042102681
 31
0.0
  0
TEXT
  5
33
  8
HIBINO-BASE
 62
     7
 10
102.7
 20
-182.95878421026811
 30
0.0
 40
4.8865234374999993
  1
NOTE
 41
0.7
 11
102.7
 21
-178.0722607727682
 31
0.0
 73
     3
  0
LINE
  5
34
  8
HIBINO-BASE
  6
CONTINUOUS
 62
     7
 10
205.0
 20
-242.93270421026821
 30
0.0
 11
205.0
 21
-175.4327042102681
 31
0.0
  0
TEXT
  5
35
  8
HIBINO-BASE
 62
     7
 10
207.69999999999999
 20
-182.95878421026811
 30
0.0
 40
4.8865234374999993
  1
TITLE
 41
0.7
 11
207.69999999999999
 21
-178.0722607727682
 31
0.0
 73
     3
  0
LINE
  5
36
  8
HIBINO-BASE
  6
CONTINUOUS
 62
     7
 10
100.0
 20
-212.9327042102681
 30
0.0
 11
370.0
 21
-212.9327042102681
 31
0.0
  0
TEXT
  5
37
  8
HIBINO-BASE
 62
     7
 10
245.19999999999999
 20
-220.28982421026819
 30
0.0
 40
4.8865234374999993
  1
DRAWN
 41
0.7
 11
245.19999999999999
 21
-215.4033007727682
 31
0.0
 73
     3
  0
TEXT
  5
38
  8
HIBINO-BASE
 62
     7
 10
170.19999999999999
 20
-220.28982421026819
 30
0.0
 40
4.8865234374999993
  1
DATE
 41
0.7
 11
170.19999999999999
 21
-215.4033007727682
 31
0.0
 73
     3
  0
TEXT
  5
39
  8
HIBINO-BASE
 62
     7
 10
140.19999999999999
 20
-220.28982421026819
 30
0.0
 40
4.8865234374999993
  1
SCALE
 41
0.7
 11
140.19999999999999
 21
-215.4033007727682
 31
0.0
 73
     3
  0
TEXT
  5
3A
  8
HIBINO-BASE
 62
     7
 10
207.69999999999999
 20
-220.28982421026819
 30
0.0
 40
4.8865234374999993
  1
DESIGN
 41
0.7
 11
207.69999999999999
 21
-215.4033007727682
 31
0.0
 73
     3
  0
TEXT
  5
3B
  8
HIBINO-BASE
 62
     7
 10
320.19999999999999
 20
-220.28982421026819
 30
0.0
 40
4.8865234374999993
  1
DRAWING NO.
 41
0.7
 11
320.19999999999999
 21
-215.4033007727682
 31
0.0
 73
     3
  0
TEXT
  5
3C
  8
HIBINO-BASE
 62
     7
 10
282.69999999999999
 20
-220.28982421026819
 30
0.0
 40
4.8865234374999993
  1
CHECK
 41
0.7
 11
282.69999999999999
 21
-215.4033007727682
 31
0.0
 73
     3
  0
LINE
  5
3D
  8
HIBINO-BASE
  6
CONTINUOUS
 62
     7
 10
143.12499999999989
 20
-239.18270421026821
 30
0.0
 11
154.375
 21
-227.9327042102681
 31
0.0
  0
TEXT
  5
3E
  8
HIBINO-BASE
 62
     7
 10
141.24999999999989
 20
-231.25953421026821
 30
0.0
 40
4.8865234374999993
  1
1
 41
0.7
 11
141.24999999999989
 21
-226.3730107727682
 31
0.0
 73
     3
  0
LINE
  5
3F
  8
HIBINO-BASE
  6
CONTINUOUS
 62
     7
 10
137.5
 20
-242.93270421026821
 30
0.0
 11
137.5
 21
-212.9327042102681
 31
0.0
  0
LINE
  5
40
  8
HIBINO-BASE
  6
CONTINUOUS
 62
     7
 10
167.5
 20
-242.93270421026821
 30
0.0
 11
167.5
 21
-212.9327042102681
 31
0.0
  0
LINE
  5
41
  8
HIBINO-BASE
  6
CONTINUOUS
 62
     7
 10
242.5
 20
-212.9327042102681
 30
0.0
 11
242.5
 21
-242.93270421026821
 31
0.0
  0
LINE
  5
42
  8
HIBINO-BASE
  6
CONTINUOUS
 62
     7
 10
317.5
 20
-212.9327042102681
 30
0.0
 11
317.5
 21
-242.93270421026821
 31
0.0
  0
LINE
  5
43
  8
HIBINO-BASE
  6
CONTINUOUS
 62
     7
 10
279.99999999999989
 20
-242.93270421026821
 30
0.0
 11
279.99999999999989
 21
-212.9327042102681
 31
0.0
  0
TEXT
  5
44
  8
HIBINO-BASE
 62
     7
 10
173.557168171363
 20
-234.3417642102682
 30
0.0
 40
4.8865234374999993
  1
'12.05.
 41
0.7
 11
173.557168171363
 21
-229.45524077276821
 31
0.0
 73
     3
  0
TEXT
  5
45
  8
HIBINO-BASE
 62
     7
 10
152.5
 20
-236.88453421026821
 30
0.0
 40
4.8865234374999993
  1
3
 41
0.7
 11
152.5
 21
-231.9980107727682
 31
0.0
 73
     3
  0
TEXT
  5
46
  8
HIBINO-BASE
 62
     7
 10
251.84634288576009
 20
-234.3417642102682
 30
0.0
 40
4.8865234374999993
  1
Ootake
 41
0.7
 11
251.84634288576009
 21
-229.45524077276821
 31
0.0
 73
     3
  0
TEXT
  5
47
  8
HIBINO-BASE
 62
     7
 10
111.65000000000001
 20
-237.0047042102681
 30
0.0
 40
9.7730468749999986
  1
A4
 41
0.7
 11
111.65000000000001
 21
-227.2316573352681
 31
0.0
 73
     3
  0
TEXT
  5
48
  8
HIBINO-BASE
 62
     7
 10
102.875
 20
-220.79106921026809
 30
0.0
 40
4.8865234374999993
  1
PAPER SIZE
 41
0.7
 11
102.875
 21
-215.9045457727681
 31
0.0
 73
     3
  0
TEXT
  5
49
  8
HIBINO-BASE
 62
     7
 10
-161.7210942293294
 20
-262.20842491279689
 30
0.0
 40
10.58746744791666
  1
Hibino-Intersound Corporation
 41
0.7
 11
-161.7210942293294
 21
-251.62095746488029
 31
0.0
 73
     3
  0
TEXT
  5
4A
  8
HIBINO-BASE
 62
     7
 10
160.54182904064169
 20
-261.15516015292872
 30
0.0
 40
10.58746744791666
  1
ヒビノインターサウンド株式会社
 41
0.7
 11
160.54182904064169
 21
-250.56769270501201
 31
0.0
 73
     3
  0
LINE
  5
4B
  8
PATTERN_FILL
  6
CONTINUOUS
 62
     7
 10
61.50000000015735
 20
-92.892329999903779
 30
0.0
 11
42.892330000157351
 21
-111.4999899999038
 31
0.0
  0
LINE
  5
4C
  8
PATTERN_FILL
  6
CONTINUOUS
 62
     7
 10
30.767470000157331
 20
-63.840949999903813
 30
0.0
 11
13.840950000157379
 21
-80.767469999903767
 31
0.0
  0
LINE
  5
4D
  8
PATTERN_FILL
  6
CONTINUOUS
 62
     7
 10
29.000000000157389
 20
-110.3923399999038
 30
0.0
 11
14.30923000015737
 21
-95.701569999903768
 31
0.0
  0
LINE
  5
4E
  8
PATTERN_FILL
  6
CONTINUOUS
 62
     7
 10
60.531370000157381
 20
-78.860949999903767
 30
0.0
 11
56.457980000157349
 21
-82.934359999903791
 31
0.0
  0
LINE
  5
4F
  8
PATTERN_FILL
  6
CONTINUOUS
 62
     7
 10
58.943850000157397
 20
-75.448489999903813
 30
0.0
 11
55.16038000015736
 21
-79.231939999903787
 31
0.0
  0
LINE
  5
50
  8
PATTERN_FILL
  6
CONTINUOUS
 62
     7
 10
56.950590000157369
 20
-72.441729999903785
 30
0.0
 11
53.308730000157347
 21
-76.083609999903786
 31
0.0
  0
LINE
  5
51
  8
PATTERN_FILL
  6
CONTINUOUS
 62
     7
 10
54.587150000157337
 20
-69.805169999903796
 30
0.0
 11
50.981390000157369
 21
-73.410929999903786
 31
0.0
  0
LINE
  5
52
  8
PATTERN_FILL
  6
CONTINUOUS
 62
     7
 10
51.862320000157347
 20
-67.529999999903794
 30
0.0
 11
48.196660000157337
 21
-71.195659999903796
 31
0.0
  0
LINE
  5
53
  8
PATTERN_FILL
  6
CONTINUOUS
 62
     7
 10
48.761440000157378
 20
-65.630899999903804
 30
0.0
 11
44.923870000157351
 21
-69.468469999903789
 31
0.0
  0
LINE
  5
54
  8
PATTERN_FILL
  6
CONTINUOUS
 62
     7
 10
61.50000000015735
 20
-82.892329999903794
 30
0.0
 11
56.999690000157379
 21
-87.392639999903793
 31
0.0
  0
LINE
  5
55
  8
PATTERN_FILL
  6
CONTINUOUS
 62
     7
 10
60.311520000157373
 20
-96.703869999903787
 30
0.0
 11
56.296860000157373
 21
-92.689199999903778
 31
0.0
  0
LINE
  5
56
  8
PATTERN_FILL
  6
CONTINUOUS
 62
     7
 10
62.098310000157362
 20
-87.499999999903807
 30
0.0
 11
56.032590000157363
 21
-93.565719999903806
 31
0.0
  0
LINE
  5
57
  8
PATTERN_FILL
  6
CONTINUOUS
 62
     7
 10
58.769150000157353
 20
-99.857199999903784
 30
0.0
 11
55.004690000157382
 21
-96.092759999903819
 31
0.0
  0
LINE
  5
58
  8
PATTERN_FILL
  6
CONTINUOUS
 62
     7
 10
56.603680000157382
 20
-102.99600999990381
 30
0.0
 11
52.97390000015735
 21
-99.366239999903812
 31
0.0
  0
LINE
  5
59
  8
PATTERN_FILL
  6
CONTINUOUS
 62
     7
 10
54.183530000157347
 20
-105.5758599999038
 30
0.0
 11
50.574830000157363
 21
-101.9671599999038
 31
0.0
  0
LINE
  5
5A
  8
PATTERN_FILL
  6
CONTINUOUS
 62
     7
 10
42.592860000157373
 20
-68.676789999903804
 30
0.0
 11
37.15886000015734
 21
-63.242809999903812
 31
0.0
  0
LINE
  5
5B
  8
PATTERN_FILL
  6
CONTINUOUS
 62
     7
 10
45.240900000157353
 20
-64.151419999903794
 30
0.0
 11
41.06389000015735
 21
-68.328439999903821
 31
0.0
  0
LINE
  5
5C
  8
PATTERN_FILL
  6
CONTINUOUS
 62
     7
 10
36.924540000157357
 20
-68.008489999903816
 30
0.0
 11
32.360610000157337
 21
-63.444559999903817
 31
0.0
  0
LINE
  5
5D
  8
PATTERN_FILL
  6
CONTINUOUS
 62
     7
 10
32.553790000157377
 20
-68.637719999903823
 30
0.0
 11
28.51675000015733
 21
-64.600679999903818
 31
0.0
  0
LINE
  5
5E
  8
PATTERN_FILL
  6
CONTINUOUS
 62
     7
 10
28.91000000015736
 20
-69.993929999903798
 30
0.0
 11
25.416050000157369
 21
-66.499999999903821
 31
0.0
  0
LINE
  5
5F
  8
PATTERN_FILL
  6
CONTINUOUS
 62
     7
 10
36.469040000157342
 20
-62.92328999990383
 30
0.0
 11
29.81349000015733
 21
-69.578839999903778
 31
0.0
  0
LINE
  5
60
  8
PATTERN_FILL
  6
CONTINUOUS
 62
     7
 10
25.809180000157351
 20
-71.8931099999038
 30
0.0
 11
22.174950000157381
 21
-68.258879999903797
 31
0.0
  0
LINE
  5
61
  8
PATTERN_FILL
  6
CONTINUOUS
 62
     7
 10
23.180090000157328
 20
-74.264039999903787
 30
0.0
 11
19.572830000157371
 21
-70.65677999990379
 31
0.0
  0
LINE
  5
62
  8
PATTERN_FILL
  6
CONTINUOUS
 62
     7
 10
21.00918000015735
 20
-77.093119999903806
 30
0.0
 11
17.332460000157379
 21
-73.416389999903814
 31
0.0
  0
LINE
  5
63
  8
PATTERN_FILL
  6
CONTINUOUS
 62
     7
 10
19.424430000157379
 20
-80.18399999990379
 30
0.0
 11
13.21221000015735
 21
-86.396219999903806
 31
0.0
  0
LINE
  5
64
  8
PATTERN_FILL
  6
CONTINUOUS
 62
     7
 10
19.33220000015741
 20
-80.416129999903788
 30
0.0
 11
15.47091000015733
 21
-76.554839999903777
 31
0.0
  0
LINE
  5
65
  8
PATTERN_FILL
  6
CONTINUOUS
 62
     7
 10
18.25751000015736
 20
-84.341449999903773
 30
0.0
 11
14.262240000157369
 21
-80.346179999903796
 31
0.0
  0
LINE
  5
66
  8
PATTERN_FILL
  6
CONTINUOUS
 62
     7
 10
18.02138000015735
 20
-86.587039999903766
 30
0.0
 11
13.21221000015735
 21
-91.396219999903806
 31
0.0
  0
LINE
  5
67
  8
PATTERN_FILL
  6
CONTINUOUS
 62
     7
 10
18.06393000015736
 20
-89.077659999903815
 30
0.0
 11
13.12309000015737
 21
-84.207019999903807
 31
0.0
  0
LINE
  5
68
  8
PATTERN_FILL
  6
CONTINUOUS
 62
     7
 10
18.328440000157379
 20
-91.063889999903765
 30
0.0
 11
14.39233000015737
 21
-94.999999999903807
 31
0.0
  0
LINE
  5
69
  8
PATTERN_FILL
  6
CONTINUOUS
 62
     7
 10
19.468470000157389
 20
-94.923869999903786
 30
0.0
 11
15.63090000015738
 21
-98.761439999903814
 31
0.0
  0
LINE
  5
6A
  8
PATTERN_FILL
  6
CONTINUOUS
 62
     7
 10
21.195660000157361
 20
-98.196659999903844
 30
0.0
 11
17.530010000157329
 21
-101.8623199999038
 31
0.0
  0
LINE
  5
6B
  8
PATTERN_FILL
  6
CONTINUOUS
 62
     7
 10
20.30556000015735
 20
-96.697899999903782
 30
0.0
 11
12.972460000157341
 21
-89.364799999903781
 31
0.0
  0
LINE
  5
6C
  8
PATTERN_FILL
  6
CONTINUOUS
 62
     7
 10
35.635190000157351
 20
-112.02752999990381
 30
0.0
 11
28.302090000157349
 21
-104.6944199999038
 31
0.0
  0
LINE
  5
6D
  8
PATTERN_FILL
  6
CONTINUOUS
 62
     7
 10
23.410930000157329
 20
-100.9813899999038
 30
0.0
 11
19.941730000157332
 21
-104.4505899999038
 31
0.0
  0
LINE
  5
6E
  8
PATTERN_FILL
  6
CONTINUOUS
 62
     7
 10
26.08361000015735
 20
-103.3087299999038
 30
0.0
 11
22.44173000015736
 21
-106.9505899999038
 31
0.0
  0
LINE
  5
6F
  8
PATTERN_FILL
  6
CONTINUOUS
 62
     7
 10
29.231940000157341
 20
-105.1603799999038
 30
0.0
 11
25.448490000157381
 21
-108.9438499999038
 31
0.0
  0
LINE
  5
70
  8
PATTERN_FILL
  6
CONTINUOUS
 62
     7
 10
32.934360000157362
 20
-106.4579799999037
 30
0.0
 11
28.860950000157331
 21
-110.53137999990381
 31
0.0
  0
LINE
  5
71
  8
PATTERN_FILL
  6
CONTINUOUS
 62
     7
 10
40.519890000157361
 20
-111.9122399999038
 30
0.0
 11
35.505380000157331
 21
-106.8977199999038
 31
0.0
  0
LINE
  5
72
  8
PATTERN_FILL
  6
CONTINUOUS
 62
     7
 10
37.392640000157371
 20
-106.9996999999038
 30
0.0
 11
32.892330000157337
 21
-111.4999899999038
 31
0.0
  0
LINE
  5
73
  8
PATTERN_FILL
  6
CONTINUOUS
 62
     7
 10
48.024420000157349
 20
-109.41676999990381
 30
0.0
 11
44.360840000157381
 21
-105.7531899999037
 31
0.0
  0
LINE
  5
74
  8
PATTERN_FILL
  6
CONTINUOUS
 62
     7
 10
43.565730000157359
 20
-106.03258999990381
 30
0.0
 11
37.500000000157343
 21
-112.0983099999038
 31
0.0
  0
LINE
  5
75
  8
PATTERN_FILL
  6
CONTINUOUS
 62
     7
 10
25.416050000157369
 20
-66.499999999903821
 30
0.0
 11
25.149990000157452
 21
-66.226672252428557
 31
0.0
  0
LINE
  5
76
  8
PATTERN_FILL
  6
CONTINUOUS
 62
     7
 10
37.15886000015734
 20
-63.242809999903812
 30
0.0
 11
36.854990000157443
 21
-62.910140656030002
 31
0.0
  0
LINE
  5
77
  8
PATTERN_FILL
  6
CONTINUOUS
 62
     7
 10
42.107650000157363
 20
-63.499989999903782
 30
0.0
 11
41.94499000015746
 21
-63.299999999903832
 31
0.0
  0
LINE
  5
78
  8
PATTERN_FILL
  6
CONTINUOUS
 62
     7
 10
50.000000000157343
 20
-66.504639999903816
 30
0.0
 11
49.654990000157447
 21
-66.114644296724649
 31
0.0
  0
LINE
  5
79
  8
PATTERN_FILL
  6
CONTINUOUS
 62
     7
 10
60.000000000157343
 20
-97.441179999903795
 30
0.0
 11
47.441180000157367
 21
-109.9999899999038
 31
0.0
  0
LINE
  5
7A
  8
PATTERN_FILL
  6
CONTINUOUS
 62
     7
 10
61.50000000015735
 20
-82.892329999903794
 30
0.0
 11
42.107650000157363
 21
-63.499989999903782
 31
0.0
  0
LINE
  5
7B
  8
PATTERN_FILL
  6
CONTINUOUS
 62
     7
 10
58.943850000157397
 20
-75.448489999903813
 30
0.0
 11
50.000000000157343
 21
-66.504639999903816
 31
0.0
  0
LINE
  5
7C
  8
PATTERN_FILL
  6
CONTINUOUS
 62
     7
 10
62.098310000157362
 20
-87.499999999903807
 30
0.0
 11
56.032590000157363
 21
-81.434269999903805
 31
0.0
  0
LINE
  5
7D
  8
PATTERN_FILL
  6
CONTINUOUS
 62
     7
 10
61.50000000015735
 20
-92.892329999903779
 30
0.0
 11
56.980460000157393
 21
-88.372789999903773
 31
0.0
  0
LINE
  5
7E
  8
PATTERN_FILL
  6
CONTINUOUS
 62
     7
 10
41.209360000157339
 20
-63.182959999903787
 30
0.0
 11
36.358920000157347
 21
-68.033399999903793
 31
0.0
  0
LINE
  5
7F
  8
PATTERN_FILL
  6
CONTINUOUS
 62
     7
 10
44.64533000015733
 20
-111.0376699999038
 30
0.0
 11
40.392010000157363
 21
-106.7843499999037
 31
0.0
  0
LINE
  5
80
  8
PATTERN_FILL
  6
CONTINUOUS
 62
     7
 10
51.401280000157392
 20
-107.7936199999038
 30
0.0
 11
47.716860000157382
 21
-104.10918999990371
 31
0.0
  0
ARC
  5
81
  8
PATTERN_FILL
  6
CONTINUOUS
 62
     7
 10
37.497502076571479
 20
202.4738517902104
 30
0.0
 40
10.00000000000002
 50
53.380529869726438
 51
126.6194701302713
  0
ARC
  5
82
  8
PATTERN_FILL
  6
CONTINUOUS
 62
     7
 10
37.497502076571479
 20
202.4738517902104
 30
0.0
 40
12.000000000000011
 50
41.978036550102637
 51
138.02196344989591
  0
LINE
  5
83
  8
PATTERN_FILL
  6
CONTINUOUS
 62
     7
 10
37.497502076571479
 20
236.49999999990479
 30
0.0
 11
37.497502076571479
 21
210.4738517902104
 31
0.0
  0
ARC
  5
84
  8
PATTERN_FILL
  6
CONTINUOUS
 62
     7
 10
664.74750207657291
 20
208.4738517902106
 30
0.0
 40
625.25000000000159
 50
177.43091849221719
 51
179.8143303570364
  0
ARC
  5
85
  8
PATTERN_FILL
  6
CONTINUOUS
 62
     7
 10
664.65261603720944
 20
197.60098862344029
 30
0.0
 40
623.25000000000125
 50
176.4216627334753
 51
178.81410078891639
  0
ARC
  5
86
  8
PATTERN_FILL
  6
CONTINUOUS
 62
     7
 10
664.36900166074963
 20
186.76927431026749
 30
0.0
 40
621.25000000000125
 50
175.40859142077261
 51
177.81086310428731
  0
ARC
  5
87
  8
PATTERN_FILL
  6
CONTINUOUS
 62
     7
 10
663.89794780891714
 20
175.98031136113019
 30
0.0
 40
619.25000000000125
 50
174.3914953990521
 51
176.80442755867421
  0
ARC
  5
88
  8
PATTERN_FILL
  6
CONTINUOUS
 62
     7
 10
663.24080343040612
 20
165.2360957455432
 30
0.0
 40
617.25000000000114
 50
173.37019546087191
 51
175.79463638621979
  0
ARC
  5
89
  8
PATTERN_FILL
  6
CONTINUOUS
 62
     7
 10
-589.75249792342868
 20
208.4738517902106
 30
0.0
 40
625.25000000000011
 50
0.1856696429635522
 51
2.5690815077827649
  0
ARC
  5
8A
  8
PATTERN_FILL
  6
CONTINUOUS
 62
     7
 10
-589.6576118840652
 20
197.60098862344029
 30
0.0
 40
623.25000000000011
 50
1.1858992110835971
 51
3.5783372665247128
  0
ARC
  5
8B
  8
PATTERN_FILL
  6
CONTINUOUS
 62
     7
 10
-589.37399750760528
 20
186.76927431026749
 30
0.0
 40
621.25
 50
2.189136895712688
 51
4.5914085792273793
  0
ARC
  5
8C
  8
PATTERN_FILL
  6
CONTINUOUS
 62
     7
 10
-588.9029436557729
 20
175.98031136113019
 30
0.0
 40
619.24999999999989
 50
3.1955724413257629
 51
5.6085046009478496
  0
ARC
  5
8D
  8
PATTERN_FILL
  6
CONTINUOUS
 62
     7
 10
37.497502076571529
 20
214.54847730896839
 30
0.0
 40
10.000000000000011
 50
233.38052986972841
 51
306.61947013027333
  0
ARC
  5
8E
  8
PATTERN_FILL
  6
CONTINUOUS
 62
     7
 10
37.497502076571529
 20
214.54847730896839
 30
0.0
 40
12.00000000000002
 50
221.97803655010389
 51
318.02196344989721
  0
LINE
  5
8F
  8
PATTERN_FILL
  6
CONTINUOUS
 62
     7
 10
37.497502076571529
 20
182.49999999990479
 30
0.0
 11
37.497502076571529
 21
206.54847730896839
 31
0.0
  0
ARC
  5
90
  8
PATTERN_FILL
  6
CONTINUOUS
 62
     7
 10
664.74750207657291
 20
208.5484773089683
 30
0.0
 40
625.25000000000136
 50
180.18566964296349
 51
182.38768473231389
  0
ARC
  5
91
  8
PATTERN_FILL
  6
CONTINUOUS
 62
     7
 10
664.65261603720944
 20
219.42134047573859
 30
0.0
 40
623.25000000000148
 50
181.18589921108361
 51
183.39619134088559
  0
ARC
  5
92
  8
PATTERN_FILL
  6
CONTINUOUS
 62
     7
 10
664.36900166074963
 20
230.25305478891141
 30
0.0
 40
621.25000000000125
 50
182.18913689571269
 51
184.40845064446299
  0
ARC
  5
93
  8
PATTERN_FILL
  6
CONTINUOUS
 62
     7
 10
663.89794780891714
 20
241.0420177380486
 30
0.0
 40
619.25000000000125
 50
183.19557244132571
 51
185.4246701197066
  0
ARC
  5
94
  8
PATTERN_FILL
  6
CONTINUOUS
 62
     7
 10
663.24080343040612
 20
251.78623335363559
 30
0.0
 40
617.25000000000125
 50
184.20536361378009
 51
186.4450271309166
  0
ARC
  5
95
  8
PATTERN_FILL
  6
CONTINUOUS
 62
     7
 10
662.39898323464251
 20
262.48257311205413
 30
0.0
 40
615.25000000000102
 50
185.2185667674392
 51
187.46959918333249
  0
ARC
  5
96
  8
PATTERN_FILL
  6
CONTINUOUS
 62
     7
 10
-589.75249792342868
 20
208.5484773089683
 30
0.0
 40
625.25000000000011
 50
357.61231526768461
 51
359.81433035703651
  0
ARC
  5
97
  8
PATTERN_FILL
  6
CONTINUOUS
 62
     7
 10
-589.6576118840652
 20
219.42134047573859
 30
0.0
 40
623.24999999999989
 50
356.60380865911111
 51
358.81410078891639
  0
ARC
  5
98
  8
PATTERN_FILL
  6
CONTINUOUS
 62
     7
 10
-589.37399750760528
 20
230.25305478891141
 30
0.0
 40
621.25
 50
355.59154935553681
 51
357.81086310428719
  0
ARC
  5
99
  8
PATTERN_FILL
  6
CONTINUOUS
 62
     7
 10
-588.9029436557729
 20
241.0420177380486
 30
0.0
 40
619.24999999999989
 50
354.57532988029573
 51
356.80442755867432
  0
ARC
  5
9A
  8
PATTERN_FILL
  6
CONTINUOUS
 62
     7
 10
37.497502076571479
 20
202.4738517902104
 30
0.0
 40
14.000000000000011
 50
34.980408191510747
 51
145.01959180848829
  0
ARC
  5
9B
  8
PATTERN_FILL
  6
CONTINUOUS
 62
     7
 10
37.497502076571479
 20
202.4738517902104
 30
0.0
 40
16.000000000000021
 50
30.108181005260828
 51
149.89181899473161
  0
ARC
  5
9C
  8
PATTERN_FILL
  6
CONTINUOUS
 62
     7
 10
37.497502076571479
 20
202.4738517902104
 30
0.0
 40
17.999999999999989
 50
26.480750716242749
 51
153.51924928375681
  0
ARC
  5
9D
  8
PATTERN_FILL
  6
CONTINUOUS
 62
     7
 10
37.497502076571479
 20
202.4738517902104
 30
0.0
 40
19.999999999999979
 50
23.65993649611913
 51
156.34006350388009
  0
ARC
  5
9E
  8
PATTERN_FILL
  6
CONTINUOUS
 62
     7
 10
37.497502076571479
 20
202.4738517902104
 30
0.0
 40
22.000000000000011
 50
21.396808296465249
 51
158.603191703541
  0
ARC
  5
9F
  8
PATTERN_FILL
  6
CONTINUOUS
 62
     7
 10
37.497502076571479
 20
202.4738517902104
 30
0.0
 40
23.999999999999972
 50
19.53744509878786
 51
160.4625549012118
  0
ARC
  5
A0
  8
PATTERN_FILL
  6
CONTINUOUS
 62
     7
 10
37.497502076571479
 20
202.4738517902104
 30
0.0
 40
26.0
 50
26.27342213849969
 51
153.72657786151419
  0
ARC
  5
A1
  8
PATTERN_FILL
  6
CONTINUOUS
 62
     7
 10
37.497502076571479
 20
202.4738517902104
 30
0.0
 40
27.999999999999972
 50
35.26374363946551
 51
144.73625636052671
  0
ARC
  5
A2
  8
PATTERN_FILL
  6
CONTINUOUS
 62
     7
 10
37.497502076571479
 20
202.4738517902104
 30
0.0
 40
31.999999999999972
 50
47.649690532571697
 51
132.11121881360779
  0
ARC
  5
A3
  8
PATTERN_FILL
  6
CONTINUOUS
 62
     7
 10
37.497502076571479
 20
202.4738517902104
 30
0.0
 40
33.999999999999993
 50
52.384916499729023
 51
127.4767181662519
  0
ARC
  5
A4
  8
PATTERN_FILL
  6
CONTINUOUS
 62
     7
 10
37.497502076571479
 20
202.4738517902104
 30
0.0
 40
35.999999999999957
 50
56.523331261749497
 51
70.938887752911356
  0
ARC
  5
A5
  8
PATTERN_FILL
  6
CONTINUOUS
 62
     7
 10
37.497502076571529
 20
214.54847730896839
 30
0.0
 40
14.00000000000003
 50
214.9804081915116
 51
325.01959180848922
  0
ARC
  5
A6
  8
PATTERN_FILL
  6
CONTINUOUS
 62
     7
 10
37.497502076571529
 20
214.54847730896839
 30
0.0
 40
16.00000000000005
 50
210.10818100526831
 51
329.89181899473908
  0
ARC
  5
A7
  8
PATTERN_FILL
  6
CONTINUOUS
 62
     7
 10
37.497502076571529
 20
214.54847730896839
 30
0.0
 40
18.000000000000039
 50
206.48075071624311
 51
333.51924928375718
  0
ARC
  5
A8
  8
PATTERN_FILL
  6
CONTINUOUS
 62
     7
 10
37.497502076571529
 20
214.54847730896839
 30
0.0
 40
20.000000000000028
 50
203.65993649611971
 51
336.34006350388091
  0
ARC
  5
A9
  8
PATTERN_FILL
  6
CONTINUOUS
 62
     7
 10
37.497502076571529
 20
214.54847730896839
 30
0.0
 40
21.999999999999989
 50
201.396808296459
 51
338.60319170353461
  0
ARC
  5
AA
  8
PATTERN_FILL
  6
CONTINUOUS
 62
     7
 10
37.497502076571529
 20
214.54847730896839
 30
0.0
 40
24.0
 50
199.53744509878811
 51
340.462554901212
  0
ARC
  5
AB
  8
PATTERN_FILL
  6
CONTINUOUS
 62
     7
 10
37.497502076571529
 20
214.54847730896839
 30
0.0
 40
26.000000000000039
 50
206.27342213848581
 51
333.72657786150029
  0
ARC
  5
AC
  8
PATTERN_FILL
  6
CONTINUOUS
 62
     7
 10
37.497502076571529
 20
214.54847730896839
 30
0.0
 40
28.0
 50
217.63026380579359
 51
322.3697361942061
  0
ARC
  5
AD
  8
PATTERN_FILL
  6
CONTINUOUS
 62
     7
 10
37.497502076571529
 20
214.54847730896839
 30
0.0
 40
30.0
 50
225.4328148638254
 51
314.56718513617432
  0
ARC
  5
AE
  8
PATTERN_FILL
  6
CONTINUOUS
 62
     7
 10
37.497502076571529
 20
214.54847730896839
 30
0.0
 40
31.999999999999989
 50
231.01039525000209
 51
308.98960474999768
  0
ARC
  5
AF
  8
PATTERN_FILL
  6
CONTINUOUS
 62
     7
 10
37.497502076571529
 20
214.54847730896839
 30
0.0
 40
33.999999999999979
 50
289.50673027795568
 51
304.62387013236747
  0
ARC
  5
B0
  8
PATTERN_FILL
  6
CONTINUOUS
 62
     7
 10
662.39898323464251
 20
154.53975598712481
 30
0.0
 40
615.25000000000068
 50
172.3446121221065
 51
174.78143323256069
  0
ARC
  5
B1
  8
PATTERN_FILL
  6
CONTINUOUS
 62
     7
 10
661.37395731334959
 20
143.89445477706531
 30
0.0
 40
613.25000000000136
 50
171.3655831741824
 51
173.76476214715041
  0
ARC
  5
B2
  8
PATTERN_FILL
  6
CONTINUOUS
 62
     7
 10
660.16724971263216
 20
133.3033180928893
 30
0.0
 40
611.25000000000136
 50
170.59413001108419
 51
172.74456088062021
  0
ARC
  5
B3
  8
PATTERN_FILL
  6
CONTINUOUS
 62
     7
 10
658.78043759960622
 20
122.76943428179619
 30
0.0
 40
609.25000000000125
 50
170.07082346998831
 51
171.72076060684969
  0
ARC
  5
B4
  8
PATTERN_FILL
  6
CONTINUOUS
 62
     7
 10
657.2151504135262
 20
112.29585316189861
 30
0.0
 40
607.25000000000136
 50
169.61753968622691
 51
170.69328561139409
  0
ARC
  5
B5
  8
PATTERN_FILL
  6
CONTINUOUS
 62
     7
 10
655.47306900177637
 20
101.88558514162381
 30
0.0
 40
605.25000000000125
 50
169.28324397585041
 51
169.66205294322091
  0
ARC
  5
B6
  8
PATTERN_FILL
  6
CONTINUOUS
 62
     7
 10
37.497502076571479
 20
202.4738517902104
 30
0.0
 40
29.999999999999961
 50
42.08274258968919
 51
137.91725741031391
  0
ARC
  5
B7
  8
PATTERN_FILL
  6
CONTINUOUS
 62
     7
 10
-588.24579927726188
 20
165.2360957455432
 30
0.0
 40
617.25
 50
4.2053636137802224
 51
6.6298045391281084
  0
ARC
  5
B8
  8
PATTERN_FILL
  6
CONTINUOUS
 62
     7
 10
-587.40397908149828
 20
154.53975598712481
 30
0.0
 40
615.24999999999977
 50
5.2185667674393086
 51
7.6553878778935411
  0
ARC
  5
B9
  8
PATTERN_FILL
  6
CONTINUOUS
 62
     7
 10
-586.37895316020558
 20
143.89445477706531
 30
0.0
 40
613.25000000000011
 50
6.2352378528496004
 51
8.6344168258175493
  0
ARC
  5
BA
  8
PATTERN_FILL
  6
CONTINUOUS
 62
     7
 10
-585.17224555948803
 20
133.3033180928893
 30
0.0
 40
611.25000000000011
 50
7.255439119379802
 51
9.4058699889158568
  0
ARC
  5
BB
  8
PATTERN_FILL
  6
CONTINUOUS
 62
     7
 10
-583.78543344646187
 20
122.76943428179619
 30
0.0
 40
609.25000000000011
 50
8.2792393931503181
 51
9.9291765300117518
  0
ARC
  5
BC
  8
PATTERN_FILL
  6
CONTINUOUS
 62
     7
 10
-582.22014626038185
 20
112.29585316189861
 30
0.0
 40
607.25000000000011
 50
9.3067143886059007
 51
10.38246031377316
  0
ARC
  5
BD
  8
PATTERN_FILL
  6
CONTINUOUS
 62
     7
 10
-580.47806484863213
 20
101.88558514162381
 30
0.0
 40
605.25000000000011
 50
10.337947056779139
 51
10.7167560241496
  0
ARC
  5
BE
  8
PATTERN_FILL
  6
CONTINUOUS
 62
     7
 10
37.497502076571479
 20
202.4738517902104
 30
0.0
 40
35.99999999999995
 50
109.0611122470885
 51
123.4766687382504
  0
ARC
  5
BF
  8
PATTERN_FILL
  6
CONTINUOUS
 62
     7
 10
661.37395731334959
 20
273.12787432211371
 30
0.0
 40
613.25000000000125
 50
186.23523785284951
 51
188.49846518672601
  0
ARC
  5
C0
  8
PATTERN_FILL
  6
CONTINUOUS
 62
     7
 10
660.16724971263216
 20
283.71901100628958
 30
0.0
 40
611.25000000000136
 50
187.25543911937979
 51
189.1740024782768
  0
ARC
  5
C1
  8
PATTERN_FILL
  6
CONTINUOUS
 62
     7
 10
658.78043759960622
 20
294.25289481738281
 30
0.0
 40
609.25000000000148
 50
188.27923939315031
 51
189.6770638443727
  0
ARC
  5
C2
  8
PATTERN_FILL
  6
CONTINUOUS
 62
     7
 10
657.2151504135262
 20
304.72647593728021
 30
0.0
 40
607.25000000000136
 50
189.3067143886058
 51
190.209039367896
  0
ARC
  5
C3
  8
PATTERN_FILL
  6
CONTINUOUS
 62
     7
 10
655.47306900177637
 20
315.1367439575551
 30
0.0
 40
605.25000000000125
 50
190.33794705677909
 51
190.71675602414959
  0
ARC
  5
C4
  8
PATTERN_FILL
  6
CONTINUOUS
 62
     7
 10
37.497502076571529
 20
214.54847730896839
 30
0.0
 40
33.999999999999979
 50
235.37612986763239
 51
250.49326972204409
  0
ARC
  5
C5
  8
PATTERN_FILL
  6
CONTINUOUS
 62
     7
 10
37.497502076571529
 20
214.54847730896839
 30
0.0
 40
35.999999999999929
 50
297.09714778166568
 51
301.0465854398804
  0
ARC
  5
C6
  8
PATTERN_FILL
  6
CONTINUOUS
 62
     7
 10
-588.24579927726188
 20
251.78623335363559
 30
0.0
 40
617.25
 50
353.55497286908439
 51
355.79463638621979
  0
ARC
  5
C7
  8
PATTERN_FILL
  6
CONTINUOUS
 62
     7
 10
-587.40397908149828
 20
262.48257311205413
 30
0.0
 40
615.24999999999955
 50
352.5304008166608
 51
354.78143323256057
  0
ARC
  5
C8
  8
PATTERN_FILL
  6
CONTINUOUS
 62
     7
 10
-586.37895316020558
 20
273.12787432211371
 30
0.0
 40
613.25000000000011
 50
351.50153481327112
 51
353.76476214715029
  0
ARC
  5
C9
  8
PATTERN_FILL
  6
CONTINUOUS
 62
     7
 10
-585.17224555948803
 20
283.71901100628958
 30
0.0
 40
611.25000000000034
 50
350.82599752172177
 51
352.74456088062021
  0
ARC
  5
CA
  8
PATTERN_FILL
  6
CONTINUOUS
 62
     7
 10
-583.78543344646187
 20
294.25289481738281
 30
0.0
 40
609.25000000000011
 50
350.32293615562548
 51
351.72076060684969
  0
ARC
  5
CB
  8
PATTERN_FILL
  6
CONTINUOUS
 62
     7
 10
-582.22014626038185
 20
304.72647593728021
 30
0.0
 40
607.25000000000011
 50
349.79096063210358
 51
350.693285611394
  0
ARC
  5
CC
  8
PATTERN_FILL
  6
CONTINUOUS
 62
     7
 10
-580.47806484863213
 20
315.1367439575551
 30
0.0
 40
605.25000000000011
 50
349.28324397585038
 51
349.66205294322077
  0
ARC
  5
CD
  8
PATTERN_FILL
  6
CONTINUOUS
 62
     7
 10
37.497502076571479
 20
214.54847730896839
 30
0.0
 40
35.999999999999993
 50
238.9534145601194
 51
242.90285221833409
  0
ARC
  5
CE
  8
PATTERN_FILL
  6
CONTINUOUS
 62
     7
 10
174.99750207657141
 20
202.4738517902104
 30
0.0
 40
14.000000000000011
 50
34.980408191510747
 51
145.01959180848829
  0
ARC
  5
CF
  8
PATTERN_FILL
  6
CONTINUOUS
 62
     7
 10
174.99750207657141
 20
202.4738517902104
 30
0.0
 40
16.000000000000021
 50
30.108181005260828
 51
149.89181899473161
  0
ARC
  5
D0
  8
PATTERN_FILL
  6
CONTINUOUS
 62
     7
 10
174.99750207657141
 20
202.4738517902104
 30
0.0
 40
17.999999999999989
 50
26.480750716242749
 51
153.51924928375681
  0
ARC
  5
D1
  8
PATTERN_FILL
  6
CONTINUOUS
 62
     7
 10
174.99750207657141
 20
202.4738517902104
 30
0.0
 40
19.999999999999979
 50
23.65993649611913
 51
156.34006350388009
  0
ARC
  5
D2
  8
PATTERN_FILL
  6
CONTINUOUS
 62
     7
 10
174.99750207657141
 20
202.4738517902104
 30
0.0
 40
22.000000000000011
 50
21.396808296465249
 51
158.603191703541
  0
ARC
  5
D3
  8
PATTERN_FILL
  6
CONTINUOUS
 62
     7
 10
174.99750207657141
 20
202.4738517902104
 30
0.0
 40
23.999999999999972
 50
19.53744509878786
 51
160.4625549012118
  0
ARC
  5
D4
  8
PATTERN_FILL
  6
CONTINUOUS
 62
     7
 10
174.99750207657141
 20
202.4738517902104
 30
0.0
 40
26.0
 50
26.27342213849969
 51
153.72657786151419
  0
ARC
  5
D5
  8
PATTERN_FILL
  6
CONTINUOUS
 62
     7
 10
174.99750207657141
 20
202.4738517902104
 30
0.0
 40
27.999999999999972
 50
35.26374363946551
 51
144.73625636052671
  0
ARC
  5
D6
  8
PATTERN_FILL
  6
CONTINUOUS
 62
     7
 10
174.99750207657141
 20
202.4738517902104
 30
0.0
 40
29.999999999999961
 50
42.08274258968919
 51
137.91725741031391
  0
ARC
  5
D7
  8
PATTERN_FILL
  6
CONTINUOUS
 62
     7
 10
174.99750207657141
 20
202.4738517902104
 30
0.0
 40
31.999999999999972
 50
47.649690532571697
 51
132.11121881360779
  0
ARC
  5
D8
  8
PATTERN_FILL
  6
CONTINUOUS
 62
     7
 10
174.99750207657141
 20
202.4738517902104
 30
0.0
 40
33.999999999999993
 50
52.384916499729023
 51
127.4767181662519
  0
ARC
  5
D9
  8
PATTERN_FILL
  6
CONTINUOUS
 62
     7
 10
174.99750207657161
 20
214.54847730896839
 30
0.0
 40
14.00000000000003
 50
214.9804081915116
 51
325.01959180848922
  0
ARC
  5
DA
  8
PATTERN_FILL
  6
CONTINUOUS
 62
     7
 10
174.99750207657161
 20
214.54847730896839
 30
0.0
 40
16.00000000000005
 50
210.10818100526831
 51
329.89181899473908
  0
ARC
  5
DB
  8
PATTERN_FILL
  6
CONTINUOUS
 62
     7
 10
174.99750207657161
 20
214.54847730896839
 30
0.0
 40
18.000000000000039
 50
206.48075071624311
 51
333.51924928375718
  0
ARC
  5
DC
  8
PATTERN_FILL
  6
CONTINUOUS
 62
     7
 10
174.99750207657161
 20
214.54847730896839
 30
0.0
 40
20.000000000000028
 50
203.65993649611971
 51
336.34006350388091
  0
ARC
  5
DD
  8
PATTERN_FILL
  6
CONTINUOUS
 62
     7
 10
174.99750207657161
 20
214.54847730896839
 30
0.0
 40
21.999999999999989
 50
201.396808296459
 51
338.60319170353461
  0
ARC
  5
DE
  8
PATTERN_FILL
  6
CONTINUOUS
 62
     7
 10
174.99750207657161
 20
214.54847730896839
 30
0.0
 40
24.0
 50
199.53744509878811
 51
340.462554901212
  0
ARC
  5
DF
  8
PATTERN_FILL
  6
CONTINUOUS
 62
     7
 10
174.99750207657161
 20
214.54847730896839
 30
0.0
 40
26.000000000000039
 50
206.27342213848581
 51
333.72657786150029
  0
ARC
  5
E0
  8
PATTERN_FILL
  6
CONTINUOUS
 62
     7
 10
174.99750207657161
 20
214.54847730896839
 30
0.0
 40
28.0
 50
217.63026380579359
 51
322.3697361942061
  0
ARC
  5
E1
  8
PATTERN_FILL
  6
CONTINUOUS
 62
     7
 10
174.99750207657161
 20
214.54847730896839
 30
0.0
 40
30.0
 50
225.4328148638254
 51
314.56718513617432
  0
ARC
  5
E2
  8
PATTERN_FILL
  6
CONTINUOUS
 62
     7
 10
174.99750207657161
 20
214.54847730896839
 30
0.0
 40
31.999999999999989
 50
231.01039525000209
 51
308.98960474999768
  0
ARC
  5
E3
  8
PATTERN_FILL
  6
CONTINUOUS
 62
     7
 10
799.89898323464251
 20
154.53975598712481
 30
0.0
 40
615.25000000000068
 50
172.3446121221065
 51
174.78143323256069
  0
ARC
  5
E4
  8
PATTERN_FILL
  6
CONTINUOUS
 62
     7
 10
798.87395731334959
 20
143.89445477706531
 30
0.0
 40
613.25000000000136
 50
171.3655831741824
 51
173.76476214715041
  0
ARC
  5
E5
  8
PATTERN_FILL
  6
CONTINUOUS
 62
     7
 10
797.66724971263216
 20
133.3033180928893
 30
0.0
 40
611.25000000000136
 50
170.59413001108419
 51
172.74456088062021
  0
ARC
  5
E6
  8
PATTERN_FILL
  6
CONTINUOUS
 62
     7
 10
796.28043759960633
 20
122.76943428179619
 30
0.0
 40
609.25000000000125
 50
170.07082346998831
 51
171.72076060684969
  0
ARC
  5
E7
  8
PATTERN_FILL
  6
CONTINUOUS
 62
     7
 10
794.71515041352632
 20
112.29585316189861
 30
0.0
 40
607.25000000000136
 50
169.61753968622691
 51
170.69328561139409
  0
ARC
  5
E8
  8
PATTERN_FILL
  6
CONTINUOUS
 62
     7
 10
792.97306900177637
 20
101.88558514162381
 30
0.0
 40
605.25000000000125
 50
169.28324397585041
 51
169.66205294322091
  0
ARC
  5
E9
  8
PATTERN_FILL
  6
CONTINUOUS
 62
     7
 10
174.99750207657141
 20
202.4738517902104
 30
0.0
 40
35.999999999999957
 50
56.523331261749497
 51
70.938887752911356
  0
ARC
  5
EA
  8
PATTERN_FILL
  6
CONTINUOUS
 62
     7
 10
-450.74579927726182
 20
165.2360957455432
 30
0.0
 40
617.25
 50
4.2053636137802224
 51
6.6298045391281084
  0
ARC
  5
EB
  8
PATTERN_FILL
  6
CONTINUOUS
 62
     7
 10
-449.90397908149828
 20
154.53975598712481
 30
0.0
 40
615.24999999999977
 50
5.2185667674393086
 51
7.6553878778935411
  0
ARC
  5
EC
  8
PATTERN_FILL
  6
CONTINUOUS
 62
     7
 10
-448.87895316020553
 20
143.89445477706531
 30
0.0
 40
613.25000000000011
 50
6.2352378528496004
 51
8.6344168258175493
  0
ARC
  5
ED
  8
PATTERN_FILL
  6
CONTINUOUS
 62
     7
 10
-447.67224555948792
 20
133.3033180928893
 30
0.0
 40
611.25000000000011
 50
7.255439119379802
 51
9.4058699889158568
  0
ARC
  5
EE
  8
PATTERN_FILL
  6
CONTINUOUS
 62
     7
 10
-446.28543344646198
 20
122.76943428179619
 30
0.0
 40
609.25000000000011
 50
8.2792393931503181
 51
9.9291765300117518
  0
ARC
  5
EF
  8
PATTERN_FILL
  6
CONTINUOUS
 62
     7
 10
-444.72014626038202
 20
112.29585316189861
 30
0.0
 40
607.25000000000011
 50
9.3067143886059007
 51
10.38246031377316
  0
ARC
  5
F0
  8
PATTERN_FILL
  6
CONTINUOUS
 62
     7
 10
-442.97806484863207
 20
101.88558514162381
 30
0.0
 40
605.25000000000011
 50
10.337947056779139
 51
10.7167560241496
  0
ARC
  5
F1
  8
PATTERN_FILL
  6
CONTINUOUS
 62
     7
 10
174.99750207657141
 20
202.4738517902104
 30
0.0
 40
35.99999999999995
 50
109.0611122470885
 51
123.4766687382504
  0
ARC
  5
F2
  8
PATTERN_FILL
  6
CONTINUOUS
 62
     7
 10
174.99750207657161
 20
214.54847730896839
 30
0.0
 40
33.999999999999979
 50
235.37612986763239
 51
250.49326972204409
  0
ARC
  5
F3
  8
PATTERN_FILL
  6
CONTINUOUS
 62
     7
 10
174.99750207657161
 20
214.54847730896839
 30
0.0
 40
33.999999999999979
 50
289.50673027795568
 51
304.62387013236747
  0
ARC
  5
F4
  8
PATTERN_FILL
  6
CONTINUOUS
 62
     7
 10
174.99750207657161
 20
214.54847730896839
 30
0.0
 40
35.999999999999929
 50
297.09714778166568
 51
301.0465854398804
  0
ARC
  5
F5
  8
PATTERN_FILL
  6
CONTINUOUS
 62
     7
 10
174.99750207657141
 20
214.54847730896839
 30
0.0
 40
35.999999999999993
 50
238.9534145601194
 51
242.90285221833409
  0
ARC
  5
F6
  8
PATTERN_FILL
  6
CONTINUOUS
 62
     7
 10
799.89898323464251
 20
262.48257311205413
 30
0.0
 40
615.25000000000102
 50
185.2185667674392
 51
187.46959918333249
  0
ARC
  5
F7
  8
PATTERN_FILL
  6
CONTINUOUS
 62
     7
 10
798.87395731334959
 20
273.12787432211371
 30
0.0
 40
613.25000000000125
 50
186.23523785284951
 51
188.49846518672601
  0
ARC
  5
F8
  8
PATTERN_FILL
  6
CONTINUOUS
 62
     7
 10
797.66724971263216
 20
283.71901100628958
 30
0.0
 40
611.25000000000136
 50
187.25543911937979
 51
189.1740024782768
  0
ARC
  5
F9
  8
PATTERN_FILL
  6
CONTINUOUS
 62
     7
 10
796.28043759960633
 20
294.25289481738281
 30
0.0
 40
609.25000000000148
 50
188.27923939315031
 51
189.6770638443727
  0
ARC
  5
FA
  8
PATTERN_FILL
  6
CONTINUOUS
 62
     7
 10
794.71515041352632
 20
304.72647593728021
 30
0.0
 40
607.25000000000136
 50
189.3067143886058
 51
190.209039367896
  0
ARC
  5
FB
  8
PATTERN_FILL
  6
CONTINUOUS
 62
     7
 10
792.97306900177637
 20
315.1367439575551
 30
0.0
 40
605.25000000000125
 50
190.33794705677909
 51
190.71675602414959
  0
ARC
  5
FC
  8
PATTERN_FILL
  6
CONTINUOUS
 62
     7
 10
-450.74579927726182
 20
251.78623335363559
 30
0.0
 40
617.25
 50
353.55497286908439
 51
355.79463638621979
  0
ARC
  5
FD
  8
PATTERN_FILL
  6
CONTINUOUS
 62
     7
 10
-449.90397908149828
 20
262.48257311205413
 30
0.0
 40
615.24999999999955
 50
352.5304008166608
 51
354.78143323256057
  0
ARC
  5
FE
  8
PATTERN_FILL
  6
CONTINUOUS
 62
     7
 10
-448.87895316020553
 20
273.12787432211371
 30
0.0
 40
613.25000000000011
 50
351.50153481327112
 51
353.76476214715029
  0
ARC
  5
FF
  8
PATTERN_FILL
  6
CONTINUOUS
 62
     7
 10
-447.67224555948792
 20
283.71901100628958
 30
0.0
 40
611.25000000000034
 50
350.82599752172177
 51
352.74456088062021
  0
ARC
  5
100
  8
PATTERN_FILL
  6
CONTINUOUS
 62
     7
 10
-446.28543344646198
 20
294.25289481738281
 30
0.0
 40
609.25000000000011
 50
350.32293615562548
 51
351.72076060684969
  0
ARC
  5
101
  8
PATTERN_FILL
  6
CONTINUOUS
 62
     7
 10
-444.72014626038202
 20
304.72647593728021
 30
0.0
 40
607.25000000000011
 50
349.79096063210358
 51
350.693285611394
  0
ARC
  5
102
  8
PATTERN_FILL
  6
CONTINUOUS
 62
     7
 10
-442.97806484863207
 20
315.1367439575551
 30
0.0
 40
605.25000000000011
 50
349.28324397585038
 51
349.66205294322077
  0
ARC
  5
103
  8
PATTERN_FILL
  6
CONTINUOUS
 62
     7
 10
174.99750207657141
 20
202.4738517902104
 30
0.0
 40
10.00000000000002
 50
53.380529869726438
 51
126.6194701302713
  0
ARC
  5
104
  8
PATTERN_FILL
  6
CONTINUOUS
 62
     7
 10
174.99750207657141
 20
202.4738517902104
 30
0.0
 40
12.000000000000011
 50
41.978036550102637
 51
138.02196344989591
  0
LINE
  5
105
  8
PATTERN_FILL
  6
CONTINUOUS
 62
     7
 10
174.99750207657141
 20
236.49999999990479
 30
0.0
 11
174.99750207657141
 21
210.4738517902104
 31
0.0
  0
ARC
  5
106
  8
PATTERN_FILL
  6
CONTINUOUS
 62
     7
 10
802.24750207657303
 20
208.4738517902106
 30
0.0
 40
625.25000000000159
 50
177.43091849221719
 51
179.8143303570364
  0
ARC
  5
107
  8
PATTERN_FILL
  6
CONTINUOUS
 62
     7
 10
802.15261603720933
 20
197.60098862344029
 30
0.0
 40
623.25000000000125
 50
176.4216627334753
 51
178.81410078891639
  0
ARC
  5
108
  8
PATTERN_FILL
  6
CONTINUOUS
 62
     7
 10
801.86900166074975
 20
186.76927431026749
 30
0.0
 40
621.25000000000125
 50
175.40859142077261
 51
177.81086310428731
  0
ARC
  5
109
  8
PATTERN_FILL
  6
CONTINUOUS
 62
     7
 10
801.39794780891702
 20
175.98031136113019
 30
0.0
 40
619.25000000000125
 50
174.3914953990521
 51
176.80442755867421
  0
ARC
  5
10A
  8
PATTERN_FILL
  6
CONTINUOUS
 62
     7
 10
800.74080343040612
 20
165.2360957455432
 30
0.0
 40
617.25000000000114
 50
173.37019546087191
 51
175.79463638621979
  0
ARC
  5
10B
  8
PATTERN_FILL
  6
CONTINUOUS
 62
     7
 10
-452.25249792342868
 20
208.4738517902106
 30
0.0
 40
625.25000000000011
 50
0.1856696429635522
 51
2.5690815077827649
  0
ARC
  5
10C
  8
PATTERN_FILL
  6
CONTINUOUS
 62
     7
 10
-452.15761188406509
 20
197.60098862344029
 30
0.0
 40
623.25000000000011
 50
1.1858992110835971
 51
3.5783372665247128
  0
ARC
  5
10D
  8
PATTERN_FILL
  6
CONTINUOUS
 62
     7
 10
-451.87399750760528
 20
186.76927431026749
 30
0.0
 40
621.25
 50
2.189136895712688
 51
4.5914085792273793
  0
ARC
  5
10E
  8
PATTERN_FILL
  6
CONTINUOUS
 62
     7
 10
-451.40294365577279
 20
175.98031136113019
 30
0.0
 40
619.24999999999989
 50
3.1955724413257629
 51
5.6085046009478496
  0
ARC
  5
10F
  8
PATTERN_FILL
  6
CONTINUOUS
 62
     7
 10
174.99750207657161
 20
214.54847730896839
 30
0.0
 40
10.000000000000011
 50
233.38052986972841
 51
306.61947013027333
  0
ARC
  5
110
  8
PATTERN_FILL
  6
CONTINUOUS
 62
     7
 10
174.99750207657161
 20
214.54847730896839
 30
0.0
 40
12.00000000000002
 50
221.97803655010389
 51
318.02196344989721
  0
LINE
  5
111
  8
PATTERN_FILL
  6
CONTINUOUS
 62
     7
 10
174.99750207657161
 20
182.49999999990479
 30
0.0
 11
174.99750207657161
 21
206.54847730896839
 31
0.0
  0
ARC
  5
112
  8
PATTERN_FILL
  6
CONTINUOUS
 62
     7
 10
802.24750207657303
 20
208.5484773089683
 30
0.0
 40
625.25000000000136
 50
180.18566964296349
 51
182.38768473231389
  0
ARC
  5
113
  8
PATTERN_FILL
  6
CONTINUOUS
 62
     7
 10
802.15261603720933
 20
219.42134047573859
 30
0.0
 40
623.25000000000148
 50
181.18589921108361
 51
183.39619134088559
  0
ARC
  5
114
  8
PATTERN_FILL
  6
CONTINUOUS
 62
     7
 10
801.86900166074975
 20
230.25305478891141
 30
0.0
 40
621.25000000000125
 50
182.18913689571269
 51
184.40845064446299
  0
ARC
  5
115
  8
PATTERN_FILL
  6
CONTINUOUS
 62
     7
 10
801.39794780891702
 20
241.0420177380486
 30
0.0
 40
619.25000000000125
 50
183.19557244132571
 51
185.4246701197066
  0
ARC
  5
116
  8
PATTERN_FILL
  6
CONTINUOUS
 62
     7
 10
800.74080343040612
 20
251.78623335363559
 30
0.0
 40
617.25000000000125
 50
184.20536361378009
 51
186.4450271309166
  0
ARC
  5
117
  8
PATTERN_FILL
  6
CONTINUOUS
 62
     7
 10
-452.25249792342868
 20
208.5484773089683
 30
0.0
 40
625.25000000000011
 50
357.61231526768461
 51
359.81433035703651
  0
ARC
  5
118
  8
PATTERN_FILL
  6
CONTINUOUS
 62
     7
 10
-452.15761188406509
 20
219.42134047573859
 30
0.0
 40
623.24999999999989
 50
356.60380865911111
 51
358.81410078891639
  0
ARC
  5
119
  8
PATTERN_FILL
  6
CONTINUOUS
 62
     7
 10
-451.87399750760528
 20
230.25305478891141
 30
0.0
 40
621.25
 50
355.59154935553681
 51
357.81086310428719
  0
ARC
  5
11A
  8
PATTERN_FILL
  6
CONTINUOUS
 62
     7
 10
-451.40294365577279
 20
241.0420177380486
 30
0.0
 40
619.24999999999989
 50
354.57532988029573
 51
356.80442755867432
  0
LINE
  5
11B
  8
SPEC
  6
CONTINUOUS
 62
     7
 10
-147.49999999999989
 20
507.0672957897317
 30
0.0
 11
295.0
 21
507.0672957897317
 31
0.0
  0
LINE
  5
11C
  8
SPEC
  6
CONTINUOUS
 62
     7
 10
-29.999999999999961
 20
495.8172957897317
 30
0.0
 11
295.0
 21
495.8172957897317
 31
0.0
  0
LINE
  5
11D
  8
SPEC
  6
CONTINUOUS
 62
     7
 10
-147.49999999999989
 20
473.3172957897317
 30
0.0
 11
295.0
 21
473.3172957897317
 31
0.0
  0
LINE
  5
11E
  8
SPEC
  6
CONTINUOUS
 62
     7
 10
-29.999999999999961
 20
484.5672957897317
 30
0.0
 11
295.0
 21
484.5672957897317
 31
0.0
  0
LINE
  5
11F
  8
SPEC
  6
CONTINUOUS
 62
     7
 10
-147.49999999999989
 20
507.0672957897317
 30
0.0
 11
-147.49999999999989
 21
338.3172957897317
 31
0.0
  0
TEXT
  5
120
  8
SPEC
 62
     7
 10
-143.74999999999989
 20
511.24710578973179
 30
0.0
 40
7.3297851562499989
  1
仕様
 41
0.7
 11
-143.74999999999989
 21
518.57689094598175
 31
0.0
 73
     3
  0
LINE
  5
121
  8
SPEC
  6
CONTINUOUS
 62
     7
 10
-29.999999999999989
 20
507.0672957897317
 30
0.0
 11
-29.999999999999989
 21
338.3172957897317
 31
0.0
  0
LINE
  5
122
  8
SPEC
  6
CONTINUOUS
 62
     7
 10
295.0
 20
507.0672957897317
 30
0.0
 11
295.0
 21
338.3172957897317
 31
0.0
  0
LINE
  5
123
  8
SPEC
  6
CONTINUOUS
 62
     7
 10
-147.49999999999989
 20
462.0672957897317
 30
0.0
 11
295.0
 21
462.0672957897317
 31
0.0
  0
LINE
  5
124
  8
SPEC
  6
CONTINUOUS
 62
     7
 10
-147.49999999999989
 20
450.8172957897317
 30
0.0
 11
295.0
 21
450.8172957897317
 31
0.0
  0
LINE
  5
125
  8
SPEC
  6
CONTINUOUS
 62
     7
 10
-147.49999999999989
 20
439.5672957897317
 30
0.0
 11
295.0
 21
439.5672957897317
 31
0.0
  0
LINE
  5
126
  8
SPEC
  6
CONTINUOUS
 62
     7
 10
-147.49999999999989
 20
428.3172957897317
 30
0.0
 11
295.0
 21
428.3172957897317
 31
0.0
  0
LINE
  5
127
  8
SPEC
  6
CONTINUOUS
 62
     7
 10
-147.49999999999989
 20
417.0672957897317
 30
0.0
 11
295.0
 21
417.0672957897317
 31
0.0
  0
LINE
  5
128
  8
SPEC
  6
CONTINUOUS
 62
     7
 10
-147.49999999999989
 20
405.8172957897317
 30
0.0
 11
295.0
 21
405.8172957897317
 31
0.0
  0
LINE
  5
129
  8
SPEC
  6
CONTINUOUS
 62
     7
 10
-147.49999999999989
 20
394.5672957897317
 30
0.0
 11
295.0
 21
394.5672957897317
 31
0.0
  0
TEXT
  5
12A
  8
SPEC
 62
     7
 10
-145.07200049759629
 20
363.82190854053363
 30
0.0
 40
5.7009440104166673
  1
寸法
 41
0.7
 11
-145.07200049759629
 21
369.52285255095018
 31
0.0
 73
     3
  0
TEXT
  5
12B
  8
SPEC
 62
     7
 10
-28.116646899474588
 20
363.5767534146899
 30
0.0
 40
5.7009440104166673
  1
\U+03A651\U+00D7249mm(突起部含まず）
 41
0.7
 11
-28.116646899474588
 21
369.27769742510662
 31
0.0
 73
     3
  0
TEXT
  5
12C
  8
SPEC
 62
     7
 10
-27.504783587110111
 20
352.17261457215221
 30
0.0
 40
5.7009440104166673
  1
約308g(除電池)
 41
0.7
 11
-27.504783587110111
 21
357.87355858256882
 31
0.0
 73
     3
  0
TEXT
  5
12D
  8
SPEC
 62
     7
 10
-145.01257198372519
 20
352.39658973724278
 30
0.0
 40
5.7009440104166673
  1
重量
 41
0.7
 11
-145.01257198372519
 21
358.0975337476595
 31
0.0
 73
     3
  0
TEXT
  5
12E
  8
SPEC
 62
     7
 10
-145.0367965653102
 20
375.1251424351218
 30
0.0
 40
5.7009440104166673
  1
電池寿命
 41
0.7
 11
-145.0367965653102
 21
380.82608644553852
 31
0.0
 73
     3
  0
TEXT
  5
12F
  8
SPEC
 62
     7
 10
-145.05678133878951
 20
386.33432583340078
 30
0.0
 40
5.7009440104166673
  1
電源
 41
0.7
 11
-145.05678133878951
 21
392.0352698438175
 31
0.0
 73
     3
  0
TEXT
  5
130
  8
SPEC
 62
     7
 10
-27.387501908574318
 20
386.26848256027182
 30
0.0
 40
5.7009440104166673
  1
単3形アルカリ乾電池\U+00D72、もしくは専用リチウムイオンバッテリーSB900
 41
0.7
 11
-27.387501908574318
 21
391.96942657068843
 31
0.0
 73
     3
  0
TEXT
  5
131
  8
SPEC
 62
     7
 10
-144.84413734977269
 20
408.94487196247781
 30
0.0
 40
5.7009440104166673
  1
最大入力レベル(1kHz、THD1%%%）
 41
0.7
 11
-144.84413734977269
 21
414.64581597289452
 31
0.0
 73
     3
  0
TEXT
  5
132
  8
SPEC
 62
     7
 10
-27.613559210508068
 20
408.8931155428067
 30
0.0
 40
5.7009440104166673
  1
145dB SPL(SM58：代表値）＊マイクヘッドにより変動
 41
0.7
 11
-27.613559210508068
 21
414.5940595532233
 31
0.0
 73
     3
  0
TEXT
  5
133
  8
SPEC
 62
     7
 10
-145.1942879150958
 20
442.49646611390108
 30
0.0
 40
5.7009440104166673
  1
アンテナ形式
 41
0.7
 11
-145.1942879150958
 21
448.1974101243178
 31
0.0
 73
     3
  0
TEXT
  5
134
  8
SPEC
 62
     7
 10
-27.777183058738331
 20
442.67245593557368
 30
0.0
 40
5.7009440104166673
  1
内蔵型ヘリカル
 41
0.7
 11
-27.777183058738331
 21
448.3733999459904
 31
0.0
 73
     3
  0
TEXT
  5
135
  8
SPEC
 62
     7
 10
-144.8305921259641
 20
453.90472940134339
 30
0.0
 40
5.7009440104166673
  1
送信出力
 41
0.7
 11
-144.8305921259641
 21
459.60567341175999
 31
0.0
 73
     3
  0
TEXT
  5
136
  8
SPEC
 62
     7
 10
-145.0797572481172
 20
464.99824551085362
 30
0.0
 40
5.7009440104166673
  1
電波方式
 41
0.7
 11
-145.0797572481172
 21
470.69918952127023
 31
0.0
 73
     3
  0
TEXT
  5
137
  8
SPEC
 62
     7
 10
-27.191503869429809
 20
464.77462069334661
 30
0.0
 40
5.7009440104166673
  1
G1D、G1E
 41
0.7
 11
-27.191503869429809
 21
470.47556470376333
 31
0.0
 73
     3
  0
TEXT
  5
138
  8
SPEC
 62
     7
 10
-144.757622742618
 20
498.44662649060399
 30
0.0
 40
5.7009440104166673
  1
送信周波数
 41
0.7
 11
-144.757622742618
 21
504.1475705010206
 31
0.0
 73
     3
  0
TEXT
  5
139
  8
SPEC
 62
     7
 10
-27.365275776450108
 20
375.1585098890564
 30
0.0
 40
5.7009440104166673
  1
約11時間(アルカリ乾電池)、約12時間(SB900)＊使用環境によって異なる
 41
0.7
 11
-27.365275776450108
 21
380.85945389947301
 31
0.0
 73
     3
  0
LINE
  5
13A
  8
SPEC
  6
CONTINUOUS
 62
     7
 10
-147.49999999999989
 20
383.31729578973182
 30
0.0
 11
295.0
 21
383.31729578973182
 31
0.0
  0
TEXT
  5
13B
  8
SPEC
 62
     7
 10
-144.8719811237435
 20
341.35760796110822
 30
0.0
 40
5.7009440104166673
  1
付属品
 41
0.7
 11
-144.8719811237435
 21
347.05855197152482
 31
0.0
 73
     3
  0
TEXT
  5
13C
  8
SPEC
 62
     7
 10
-27.336575091516021
 20
340.61086804487837
 30
0.0
 40
5.7009440104166673
  1
単3型 アルカリ乾電池\U+00D72、マイクホルダー、3/8"ー 5/8"変換ねじ、マイクポーチ
 41
0.7
 11
-27.336575091516021
 21
346.31181205529498
 31
0.0
 73
     3
  0
TEXT
  5
13D
  8
SPEC
 62
     7
 10
-27.309630869562501
 20
487.38915510622172
 30
0.0
 40
5.7009440104166647
  1
ULXD2-AB：A1～A4帯(770～806MHz)284チャンネル、B帯(806～810MHz)30チャンネル、
 41
0.7
 11
-27.309630869562501
 21
493.09009911663833
 31
0.0
 73
     3
  0
TEXT
  5
13E
  8
SPEC
 62
     7
 10
-27.362506451169601
 20
476.32173213215088
 30
0.0
 40
5.7009440104166647
  1
合計314チャンネルのうち任意の1チャンネル
 41
0.7
 11
-27.362506451169601
 21
482.0226761425676
 31
0.0
 73
     3
  0
TEXT
  5
13F
  8
SPEC
 62
     7
 10
-27.259631983678201
 20
498.59552144420769
 30
0.0
 40
5.7009440104166647
  1
ULXD2-JB：B帯(806～810MHz)30チャンネルのうち任意の1チャンネル
 41
0.7
 11
-27.259631983678201
 21
504.2964654546243
 31
0.0
 73
     3
  0
TEXT
  5
140
  8
SPEC
 62
     7
 10
-27.0704450789476
 20
453.5901685701761
 30
0.0
 40
5.7009440104166647
  1
A帯：1mW、10mW、20mW　B帯：1mW、10mW
 41
0.7
 11
-27.0704450789476
 21
459.29111258059282
 31
0.0
 73
     3
  0
TEXT
  5
141
  8
SPEC
 62
     7
 10
-145.01118838872091
 20
431.30820921700172
 30
0.0
 40
5.7009440104166673
  1
到達距離
 41
0.7
 11
-145.01118838872091
 21
437.00915322741838
 31
0.0
 73
     3
  0
TEXT
  5
142
  8
SPEC
 62
     7
 10
-27.496921928738079
 20
431.57746000452272
 30
0.0
 40
5.7009440104166673
  1
空中線電力10mW約100m　＊見通しの良い屋外で使用した場合。使用環境によって異なる
 41
0.7
 11
-27.496921928738079
 21
437.27840401493933
 31
0.0
 73
     3
  0
TEXT
  5
143
  8
SPEC
 62
     7
 10
-144.78360470727841
 20
419.9466271555072
 30
0.0
 40
5.7009440104166647
  1
周波数特性
 41
0.7
 11
-144.78360470727841
 21
425.64757116592392
 31
0.0
 73
     3
  0
TEXT
  5
144
  8
SPEC
 62
     7
 10
-27.29529379208563
 20
420.26482402898648
 30
0.0
 40
5.7009440104166647
  1
30Hz～20kHz(\U+00B11dB）＊システム全体の帯域幅はマイクヘッドにより変動
 41
0.7
 11
-27.29529379208563
 21
425.9657680394032
 31
0.0
 73
     3
  0
TEXT
  5
145
  8
SPEC
 62
     7
 10
-145.11058984802449
 20
397.44397421237392
 30
0.0
 40
5.7009440104166673
  1
ゲイン調整範囲
 41
0.7
 11
-145.11058984802449
 21
403.14491822279052
 31
0.0
 73
     3
  0
TEXT
  5
146
  8
SPEC
 62
     7
 10
-27.10549449497314
 20
397.58529685155952
 30
0.0
 40
5.7009440104166673
  1
0～+21dB(3dBステップ）
 41
0.7
 11
-27.10549449497314
 21
403.28624086197613
 31
0.0
 73
     3
  0
LINE
  5
147
  8
SPEC
  6
CONTINUOUS
 62
     7
 10
-147.49999999999989
 20
372.0672957897317
 30
0.0
 11
295.0
 21
372.0672957897317
 31
0.0
  0
LINE
  5
148
  8
SPEC
  6
CONTINUOUS
 62
     7
 10
-147.49999999999989
 20
360.81729578973182
 30
0.0
 11
295.0
 21
360.81729578973182
 31
0.0
  0
LINE
  5
149
  8
SPEC
  6
CONTINUOUS
 62
     7
 10
-147.49999999999989
 20
349.56729578973182
 30
0.0
 11
295.0
 21
349.56729578973182
 31
0.0
  0
LINE
  5
14A
  8
SPEC
  6
CONTINUOUS
 62
     7
 10
-147.49999999999989
 20
338.3172957897317
 30
0.0
 11
295.0
 21
338.3172957897317
 31
0.0
  0
TEXT
  5
14B
  8
DIMNSIONS
 62
     7
 10
40.0
 20
-206.12423421026821
 30
0.0
 40
7.3297851562499989
  1
(単位：mm)
 41
0.7
 11
40.0
 21
-198.79444905401809
 31
0.0
 73
     3
  0
LINE
  5
14C
  8
DIMNSIONS
  6
CONTINUOUS
 62
     7
 10
14.5
 20
17.5
 30
0.0
 11
-31.000000000000011
 21
17.5
 31
0.0
  0
LINE
  5
14D
  8
DIMNSIONS
  6
CONTINUOUS
 62
     7
 10
12.997502076257399
 20
165.49999999988461
 30
0.0
 11
-30.999999999999989
 21
165.49999999988461
 31
0.0
  0
LINE
  5
14E
  8
DIMNSIONS
  6
CONTINUOUS
 62
     7
 10
-25.0
 20
17.5
 30
0.0
 11
-25.0
 21
165.49999999988461
 31
0.0
  0
LINE
  5
14F
  8
DIMNSIONS
  6
CONTINUOUS
 62
     7
 10
-25.0
 20
17.5
 30
0.0
 11
-27.010119385450739
 21
25.001867675781259
 31
0.0
  0
LINE
  5
150
  8
DIMNSIONS
  6
CONTINUOUS
 62
     7
 10
-25.0
 20
17.5
 30
0.0
 11
-22.989880614549278
 21
25.001867675781259
 31
0.0
  0
LINE
  5
151
  8
DIMNSIONS
  6
CONTINUOUS
 62
     7
 10
-25.0
 20
165.49999999988461
 30
0.0
 11
-22.989880614549278
 21
157.9981323241033
 31
0.0
  0
LINE
  5
152
  8
DIMNSIONS
  6
CONTINUOUS
 62
     7
 10
-25.0
 20
165.49999999988461
 30
0.0
 11
-27.010119385450739
 21
157.9981323241033
 31
0.0
  0
TEXT
  5
153
  8
DIMNSIONS
 62
     7
 10
-27.981666666666669
 20
92.0625
 30
0.0
 40
8.1442057291666661
  1
148
 50
90.0
 41
0.7
 11
-36.125872395833341
 21
92.0625
 31
0.0
 73
     3
  0
LINE
  5
154
  8
DIMNSIONS
  6
CONTINUOUS
 62
     7
 10
18.5
 20
-12.5
 30
0.0
 11
-31.000000000000011
 21
-12.5
 31
0.0
  0
LINE
  5
155
  8
DIMNSIONS
  6
CONTINUOUS
 62
     7
 10
14.5
 20
17.5
 30
0.0
 11
-30.999999999999989
 21
17.5
 31
0.0
  0
LINE
  5
156
  8
DIMNSIONS
  6
CONTINUOUS
 62
     7
 10
-25.0
 20
-12.5
 30
0.0
 11
-25.0
 21
17.5
 31
0.0
  0
LINE
  5
157
  8
DIMNSIONS
  6
CONTINUOUS
 62
     7
 10
-25.0
 20
-12.5
 30
0.0
 11
-27.010119385450739
 21
-4.9981323242187443
 31
0.0
  0
LINE
  5
158
  8
DIMNSIONS
  6
CONTINUOUS
 62
     7
 10
-25.0
 20
-12.5
 30
0.0
 11
-22.989880614549278
 21
-4.9981323242187443
 31
0.0
  0
LINE
  5
159
  8
DIMNSIONS
  6
CONTINUOUS
 62
     7
 10
-25.0
 20
17.5
 30
0.0
 11
-22.989880614549278
 21
9.9981323242187443
 31
0.0
  0
LINE
  5
15A
  8
DIMNSIONS
  6
CONTINUOUS
 62
     7
 10
-25.0
 20
17.5
 30
0.0
 11
-27.010119385450739
 21
9.9981323242187443
 31
0.0
  0
TEXT
  5
15B
  8
DIMNSIONS
 62
     7
 10
-27.981666666666669
 20
-2.7916666666666572
 30
0.0
 40
8.1442057291666661
  1
30
 50
90.0
 41
0.7
 11
-36.125872395833341
 21
-2.7916666666666559
 31
0.0
 73
     3
  0
LINE
  5
15C
  8
DIMNSIONS
  6
CONTINUOUS
 62
     7
 10
49.244902279699133
 20
-64.865794238622755
 30
0.0
 11
59.0
 21
-46.066243270259349
 31
0.0
  0
LINE
  5
15D
  8
DIMNSIONS
  6
CONTINUOUS
 62
     7
 10
49.244902279699133
 20
-64.865794238622755
 30
0.0
 11
50.991985748518331
 21
-57.298344343071719
 31
0.0
  0
LINE
  5
15E
  8
DIMNSIONS
  6
CONTINUOUS
 62
     7
 10
49.244902279699133
 20
-64.865794238622755
 30
0.0
 11
54.541645894003899
 21
-59.185732121619282
 31
0.0
  0
LINE
  5
15F
  8
DIMNSIONS
  6
CONTINUOUS
 62
     7
 10
59.0
 20
-46.066243270259349
 30
0.0
 11
86.166666666666643
 21
-46.066243270259349
 31
0.0
  0
TEXT
  5
160
  8
DIMNSIONS
 62
     7
 10
65.0
 20
-43.084576603592673
 30
0.0
 40
8.1442057291666661
  1
\U+03C651
 41
0.7
 11
65.0
 21
-34.940370874426009
 31
0.0
 73
     3
  0
LINE
  5
161
  8
DIMNSIONS
  6
CONTINUOUS
 62
     7
 10
12.997502076257399
 20
165.49999999988461
 30
0.0
 11
-31.000000000000011
 21
165.49999999988461
 31
0.0
  0
LINE
  5
162
  8
DIMNSIONS
  6
CONTINUOUS
 62
     7
 10
15.62225409185428
 20
236.49999999988449
 30
0.0
 11
-30.999999999999989
 21
236.49999999988449
 31
0.0
  0
LINE
  5
163
  8
DIMNSIONS
  6
CONTINUOUS
 62
     7
 10
-25.0
 20
165.49999999988461
 30
0.0
 11
-25.0
 21
236.49999999988449
 31
0.0
  0
LINE
  5
164
  8
DIMNSIONS
  6
CONTINUOUS
 62
     7
 10
-25.0
 20
165.49999999988461
 30
0.0
 11
-27.010119385450739
 21
173.00186767566581
 31
0.0
  0
LINE
  5
165
  8
DIMNSIONS
  6
CONTINUOUS
 62
     7
 10
-25.0
 20
165.49999999988461
 30
0.0
 11
-22.989880614549278
 21
173.00186767566581
 31
0.0
  0
LINE
  5
166
  8
DIMNSIONS
  6
CONTINUOUS
 62
     7
 10
-25.0
 20
236.49999999988449
 30
0.0
 11
-22.989880614549278
 21
228.9981323241033
 31
0.0
  0
LINE
  5
167
  8
DIMNSIONS
  6
CONTINUOUS
 62
     7
 10
-25.0
 20
236.49999999988449
 30
0.0
 11
-27.010119385450739
 21
228.9981323241033
 31
0.0
  0
TEXT
  5
168
  8
DIMNSIONS
 62
     7
 10
-27.981666666666669
 20
195.70833333321789
 30
0.0
 40
8.1442057291666661
  1
71
 50
90.0
 41
0.7
 11
-36.125872395833341
 21
195.70833333321789
 31
0.0
 73
     3
  0
TEXT
  5
169
  8
DATA
 62
     7
 10
227.6280206998695
 20
-209.3847865573556
 30
0.0
 40
7.3297851562499989
  1
ULXD2/B87A-AB 、ULXD2/B87A-JB
 41
0.7
 11
227.6280206998695
 21
-202.05500140110561
 31
0.0
 73
     3
  0
TEXT
  5
16A
  8
DATA
 62
     7
 10
250.0
 20
-186.54155672812971
 30
0.0
 40
7.3297851562499989
  1
SHURE
 41
0.7
 11
250.0
 21
-179.21177157187969
 31
0.0
 73
     3
  0
TEXT
  5
16B
  8
DATA
 62
     7
 10
-139.99999999999989
 20
-230.21870421026821
 30
0.0
 40
4.8865234374999993
  1
仕様および外観は予告なく変更されることがありますので、ご了承ください。
 41
0.7
 11
-139.99999999999989
 21
-225.3321807727682
 31
0.0
 73
     3
  0
CIRCLE
  5
16C
  8
DATA
  6
CONTINUOUS
 62
     7
 10
37.500000000157343
 20
-87.499999999903807
 30
0.0
 40
24.598317431312271
  0
CIRCLE
  5
16D
  8
DATA
  6
CONTINUOUS
 62
     7
 10
37.500000000157343
 20
-87.499999999903807
 30
0.0
 40
18.5
  0
CIRCLE
  5
16E
  8
DATA
  6
CONTINUOUS
 62
     7
 10
37.500000000157343
 20
-87.499999999903807
 30
0.0
 40
25.499999999999989
  0
LINE
  5
16F
  8
DATA
  6
CONTINUOUS
 62
     7
 10
55.997502076257319
 20
165.49999999988461
 30
0.0
 11
18.997502076257401
 21
165.49999999988461
 31
0.0
  0
CIRCLE
  5
170
  8
DATA
  6
CONTINUOUS
 62
     7
 10
37.500000000157343
 20
-87.499999999903807
 30
0.0
 40
19.5
  0
LINE
  5
171
  8
DATA
  6
CONTINUOUS
 62
     7
 10
20.000000000055099
 20
166.00000000004539
 30
0.0
 11
20.000000000055099
 21
165.49999999988461
 31
0.0
  0
LINE
  5
172
  8
DATA
  6
CONTINUOUS
 62
     7
 10
55.000000000055103
 20
166.00000000004539
 30
0.0
 11
55.000000000055103
 21
165.49999999988461
 31
0.0
  0
TEXT
  5
173
  8
DATA
 62
     7
 10
227.91106529982929
 20
-196.39870204144091
 30
0.0
 40
4.8865234374999993
  1
ハンドヘルド型送信機
 41
0.7
 11
227.91106529982929
 21
-191.5121786039409
 31
0.0
 73
     3
  0
LINE
  5
174
  8
DATA
  6
CONTINUOUS
 62
     7
 10
26.958680531446241
 20
-12.5
 30
0.0
 11
48.041319468553752
 21
-12.5
 31
0.0
  0
LINE
  5
175
  8
DATA
  6
CONTINUOUS
 62
     7
 10
20.5
 20
17.5
 30
0.0
 11
54.5
 21
17.5
 31
0.0
  0
LINE
  5
176
  8
DATA
  6
CONTINUOUS
 62
     7
 10
20.5
 20
17.5
 30
0.0
 11
19.591394836656121
 21
106.99999999988449
 31
0.0
  0
LINE
  5
177
  8
DATA
  6
CONTINUOUS
 62
     7
 10
19.58631883015698
 20
107.49999999988449
 30
0.0
 11
18.997502076257401
 21
165.49999999988461
 31
0.0
  0
LINE
  5
178
  8
DATA
  6
CONTINUOUS
 62
     7
 10
55.997502076257319
 20
165.49999999988461
 30
0.0
 11
55.410643154480361
 21
107.49999999988449
 31
0.0
  0
LINE
  5
179
  8
DATA
  6
CONTINUOUS
 62
     7
 10
55.405584025844341
 20
106.99999999988449
 30
0.0
 11
54.5
 21
17.5
 31
0.0
  0
LINE
  5
17A
  8
DATA
  6
CONTINUOUS
 62
     7
 10
24.459027681347241
 20
-10.041660880834989
 30
0.0
 11
24.0
 21
17.5
 31
0.0
  0
LINE
  5
17B
  8
DATA
  6
CONTINUOUS
 62
     7
 10
50.540972318652742
 20
-10.041660880834989
 30
0.0
 11
51.0
 21
17.5
 31
0.0
  0
ARC
  5
17C
  8
DATA
  6
CONTINUOUS
 62
     7
 10
37.5000000001573
 20
-87.499999999903764
 30
0.0
 40
13.00000000000005
 50
313.04907980023631
 51
226.95092019976369
  0
ARC
  5
17D
  8
DATA
  6
CONTINUOUS
 62
     7
 10
37.500000000157343
 20
-87.499999999903807
 30
0.0
 40
13.499999999999989
 50
315.27508684506631
 51
224.72491315493389
  0
CIRCLE
  5
17E
  8
DATA
  6
CONTINUOUS
 62
     7
 10
37.500000000157343
 20
-87.499999999903807
 30
0.0
 40
17.0
  0
LINE
  5
17F
  8
DATA
  6
CONTINUOUS
 62
     7
 10
27.90833695353184
 20
-96.999999999903821
 30
0.0
 11
47.09166304678282
 21
-96.999999999903821
 31
0.0
  0
LINE
  5
180
  8
DATA
  6
CONTINUOUS
 62
     7
 10
27.5
 20
129.49999999988449
 30
0.0
 11
47.5
 21
129.49999999988449
 31
0.0
  0
LINE
  5
181
  8
DATA
  6
CONTINUOUS
 62
     7
 10
24.0
 20
110.79999999988451
 30
0.0
 11
24.0
 21
142.19999999988451
 31
0.0
  0
ARC
  5
182
  8
DATA
  6
CONTINUOUS
 62
     7
 10
24.300000000000001
 20
110.79999999988451
 30
0.0
 40
0.2999999999999972
 50
180.0
 51
270.0
  0
LINE
  5
183
  8
DATA
  6
CONTINUOUS
 62
     7
 10
50.700000000000003
 20
110.49999999988449
 30
0.0
 11
24.300000000000001
 21
110.49999999988449
 31
0.0
  0
ARC
  5
184
  8
DATA
  6
CONTINUOUS
 62
     7
 10
50.700000000000003
 20
110.79999999988451
 30
0.0
 40
0.2999999999999972
 50
270.0
 51
0.0000000000006821
  0
LINE
  5
185
  8
DATA
  6
CONTINUOUS
 62
     7
 10
51.0
 20
142.19999999988451
 30
0.0
 11
51.0
 21
110.79999999988451
 31
0.0
  0
ARC
  5
186
  8
DATA
  6
CONTINUOUS
 62
     7
 10
50.700000000000003
 20
142.19999999988451
 30
0.0
 40
0.2999999999999972
 50
0.0
 51
90.0
  0
LINE
  5
187
  8
DATA
  6
CONTINUOUS
 62
     7
 10
24.300000000000001
 20
142.49999999988461
 30
0.0
 11
50.700000000000003
 21
142.49999999988461
 31
0.0
  0
ARC
  5
188
  8
DATA
  6
CONTINUOUS
 62
     7
 10
24.300000000000001
 20
142.19999999988451
 30
0.0
 40
0.3000000000000114
 50
90.0
 51
179.99999999999781
  0
LINE
  5
189
  8
DATA
  6
CONTINUOUS
 62
     7
 10
27.5
 20
139.49999999988461
 30
0.0
 11
27.5
 21
129.49999999988449
 31
0.0
  0
LINE
  5
18A
  8
DATA
  6
CONTINUOUS
 62
     7
 10
47.5
 20
139.49999999988461
 30
0.0
 11
47.5
 21
129.49999999988449
 31
0.0
  0
LINE
  5
18B
  8
DATA
  6
CONTINUOUS
 62
     7
 10
47.5
 20
139.49999999988461
 30
0.0
 11
27.5
 21
139.49999999988461
 31
0.0
  0
LINE
  5
18C
  8
DATA
  6
CONTINUOUS
 62
     7
 10
28.0
 20
127.49999999988449
 30
0.0
 11
47.0
 21
127.49999999988449
 31
0.0
  0
LINE
  5
18D
  8
DATA
  6
CONTINUOUS
 62
     7
 10
28.0
 20
123.49999999988449
 30
0.0
 11
47.0
 21
123.49999999988449
 31
0.0
  0
LINE
  5
18E
  8
DATA
  6
CONTINUOUS
 62
     7
 10
27.5
 20
123.99999999988449
 30
0.0
 11
27.5
 21
126.99999999988449
 31
0.0
  0
LINE
  5
18F
  8
DATA
  6
CONTINUOUS
 62
     7
 10
47.5
 20
123.99999999988449
 30
0.0
 11
47.5
 21
126.99999999988449
 31
0.0
  0
LINE
  5
190
  8
DATA
  6
CONTINUOUS
 62
     7
 10
31.0
 20
112.99999999988449
 30
0.0
 11
31.0
 21
119.99999999988449
 31
0.0
  0
ARC
  5
191
  8
DATA
  6
CONTINUOUS
 62
     7
 10
31.5
 20
112.99999999988449
 30
0.0
 40
0.5
 50
180.0
 51
270.0
  0
LINE
  5
192
  8
DATA
  6
CONTINUOUS
 62
     7
 10
43.5
 20
112.49999999988449
 30
0.0
 11
31.5
 21
112.49999999988449
 31
0.0
  0
ARC
  5
193
  8
DATA
  6
CONTINUOUS
 62
     7
 10
43.5
 20
112.99999999988449
 30
0.0
 40
0.5
 50
270.0
 51
0.0
  0
LINE
  5
194
  8
DATA
  6
CONTINUOUS
 62
     7
 10
44.0
 20
119.99999999988449
 30
0.0
 11
44.0
 21
112.99999999988449
 31
0.0
  0
ARC
  5
195
  8
DATA
  6
CONTINUOUS
 62
     7
 10
43.5
 20
119.99999999988449
 30
0.0
 40
0.5
 50
0.0
 51
90.0
  0
LINE
  5
196
  8
DATA
  6
CONTINUOUS
 62
     7
 10
31.5
 20
120.49999999988449
 30
0.0
 11
43.5
 21
120.49999999988449
 31
0.0
  0
ARC
  5
197
  8
DATA
  6
CONTINUOUS
 62
     7
 10
31.5
 20
119.99999999988449
 30
0.0
 40
0.5
 50
90.0
 51
180.0
  0
LINE
  5
198
  8
DATA
  6
CONTINUOUS
 62
     7
 10
55.410643154480361
 20
107.49999999988449
 30
0.0
 11
19.586318830157001
 21
107.49999999988449
 31
0.0
  0
LINE
  5
199
  8
DATA
  6
CONTINUOUS
 62
     7
 10
55.405584025844341
 20
106.99999999988449
 30
0.0
 11
19.591394836656121
 21
106.99999999988449
 31
0.0
  0
LINE
  5
19A
  8
DATA
  6
CONTINUOUS
 62
     7
 10
20.899999999999991
 20
106.99999999988449
 30
0.0
 11
20.899999999999991
 21
107.49999999988449
 31
0.0
  0
LINE
  5
19B
  8
DATA
  6
CONTINUOUS
 62
     7
 10
54.096978862500471
 20
106.99999999988449
 30
0.0
 11
54.096978862500471
 21
107.49999999988449
 31
0.0
  0
LINE
  5
19C
  8
DATA
  6
CONTINUOUS
 62
     7
 10
31.0
 20
113.55
 30
0.0
 11
44.0
 21
113.55
 31
0.0
  0
LINE
  5
19D
  8
DATA
  6
CONTINUOUS
 62
     7
 10
31.0
 20
115.75
 30
0.0
 11
44.0
 21
115.75
 31
0.0
  0
ARC
  5
19E
  8
DATA
  6
CONTINUOUS
 62
     7
 10
28.0
 20
126.99999999988449
 30
0.0
 40
0.5
 50
90.0
 51
180.0
  0
ARC
  5
19F
  8
DATA
  6
CONTINUOUS
 62
     7
 10
47.0
 20
126.99999999988449
 30
0.0
 40
0.5
 50
0.0
 51
90.0
  0
ARC
  5
1A0
  8
DATA
  6
CONTINUOUS
 62
     7
 10
28.0
 20
123.99999999988449
 30
0.0
 40
0.5
 50
180.0
 51
270.0
  0
ARC
  5
1A1
  8
DATA
  6
CONTINUOUS
 62
     7
 10
47.0
 20
123.99999999988449
 30
0.0
 40
0.5
 50
270.0
 51
0.0
  0
TEXT
  5
1A2
  8
DATA
 62
     7
 10
34.537752689267641
 20
140.07699681767201
 30
0.0
 40
1.8324462890625
  1
ULXD2
 41
0.7
 11
34.537752689267641
 21
141.9094431067345
 31
0.0
 73
     3
  0
TEXT
  5
1A3
  8
DATA
 62
     7
 10
36.316759040932887
 20
121.25212500000001
 30
0.0
 40
1.8324462890625
  1
on
 41
0.7
 11
36.316759040932887
 21
123.0845712890625
 31
0.0
 73
     3
  0
LINE
  5
1A4
  8
DATA
  6
CONTINUOUS
 62
     7
 10
193.49750207625729
 20
165.49999999988461
 30
0.0
 11
156.4975020762574
 21
165.49999999988461
 31
0.0
  0
LINE
  5
1A5
  8
DATA
  6
CONTINUOUS
 62
     7
 10
157.50000000005511
 20
166.00000000004539
 30
0.0
 11
157.50000000005511
 21
165.49999999988461
 31
0.0
  0
LINE
  5
1A6
  8
DATA
  6
CONTINUOUS
 62
     7
 10
192.50000000005511
 20
166.00000000004539
 30
0.0
 11
192.50000000005511
 21
165.49999999988461
 31
0.0
  0
LINE
  5
1A7
  8
DATA
  6
CONTINUOUS
 62
     7
 10
164.45868053144619
 20
-12.5
 30
0.0
 11
185.5413194685537
 21
-12.5
 31
0.0
  0
LINE
  5
1A8
  8
DATA
  6
CONTINUOUS
 62
     7
 10
158.0
 20
17.5
 30
0.0
 11
192.0
 21
17.5
 31
0.0
  0
LINE
  5
1A9
  8
DATA
  6
CONTINUOUS
 62
     7
 10
158.0
 20
17.5
 30
0.0
 11
157.09139483665609
 21
106.99999999988449
 31
0.0
  0
LINE
  5
1AA
  8
DATA
  6
CONTINUOUS
 62
     7
 10
157.08631883015701
 20
107.49999999988449
 30
0.0
 11
156.4975020762574
 21
165.49999999988461
 31
0.0
  0
LINE
  5
1AB
  8
DATA
  6
CONTINUOUS
 62
     7
 10
193.49750207625729
 20
165.49999999988461
 30
0.0
 11
192.91064315448031
 21
107.49999999988449
 31
0.0
  0
LINE
  5
1AC
  8
DATA
  6
CONTINUOUS
 62
     7
 10
192.90558402584441
 20
106.99999999988449
 30
0.0
 11
192.0
 21
17.5
 31
0.0
  0
LINE
  5
1AD
  8
DATA
  6
CONTINUOUS
 62
     7
 10
161.95902768134721
 20
-10.041660880834989
 30
0.0
 11
161.5
 21
17.5
 31
0.0
  0
LINE
  5
1AE
  8
DATA
  6
CONTINUOUS
 62
     7
 10
188.04097231865271
 20
-10.041660880834989
 30
0.0
 11
188.5
 21
17.5
 31
0.0
  0
LINE
  5
1AF
  8
DATA
  6
CONTINUOUS
 62
     7
 10
192.91064315448031
 20
107.49999999988449
 30
0.0
 11
157.08631883015701
 21
107.49999999988449
 31
0.0
  0
LINE
  5
1B0
  8
DATA
  6
CONTINUOUS
 62
     7
 10
192.90558402584441
 20
106.99999999988449
 30
0.0
 11
157.09139483665609
 21
106.99999999988449
 31
0.0
  0
LINE
  5
1B1
  8
DATA
  6
CONTINUOUS
 62
     7
 10
158.39999999999989
 20
106.99999999988449
 30
0.0
 11
158.39999999999989
 21
107.49999999988449
 31
0.0
  0
LINE
  5
1B2
  8
DATA
  6
CONTINUOUS
 62
     7
 10
191.59697886250041
 20
106.99999999988449
 30
0.0
 11
191.59697886250041
 21
107.49999999988449
 31
0.0
  0
LINE
  5
1B3
  8
DATA
  6
CONTINUOUS
 62
     7
 10
179.300636104765
 20
10.482508603794651
 30
0.0
 11
179.30111302165599
 21
17.5
 31
0.0
  0
LINE
  5
1B4
  8
DATA
  6
CONTINUOUS
 62
     7
 10
180.878449614765
 20
10.48240680937468
 30
0.0
 11
179.300636104765
 21
10.482508603794651
 31
0.0
  0
LINE
  5
1B5
  8
DATA
  6
CONTINUOUS
 62
     7
 10
180.87892653857409
 20
17.5
 30
0.0
 11
180.878449614765
 21
10.48240680937468
 31
0.0
  0
LINE
  5
1B6
  8
DATA
  6
CONTINUOUS
 62
     7
 10
176.75577560476501
 20
10.48268674402965
 30
0.0
 11
176.7562525095494
 21
17.5
 31
0.0
  0
LINE
  5
1B7
  8
DATA
  6
CONTINUOUS
 62
     7
 10
178.333589114765
 20
10.48258494960967
 30
0.0
 11
176.75577560476501
 21
10.48268674402965
 31
0.0
  0
LINE
  5
1B8
  8
DATA
  6
CONTINUOUS
 62
     7
 10
178.33406602646741
 20
17.5
 30
0.0
 11
178.333589114765
 21
10.48258494960967
 31
0.0
  0
LINE
  5
1B9
  8
DATA
  6
CONTINUOUS
 62
     7
 10
174.21091510476501
 20
10.48286488426467
 30
0.0
 11
174.21139199744269
 21
17.5
 31
0.0
  0
LINE
  5
1BA
  8
DATA
  6
CONTINUOUS
 62
     7
 10
175.78872861476501
 20
10.48276308984466
 30
0.0
 11
174.21091510476501
 21
10.48286488426467
 31
0.0
  0
LINE
  5
1BB
  8
DATA
  6
CONTINUOUS
 62
     7
 10
175.7892055143609
 20
17.5
 30
0.0
 11
175.78872861476501
 21
10.48276308984466
 31
0.0
  0
LINE
  5
1BC
  8
DATA
  6
CONTINUOUS
 62
     7
 10
170.69900761476501
 20
10.48311937031465
 30
0.0
 11
169.12119410476501
 21
10.48322116473466
 31
0.0
  0
LINE
  5
1BD
  8
DATA
  6
CONTINUOUS
 62
     7
 10
170.6994844901476
 20
17.5
 30
0.0
 11
170.69900761476501
 21
10.48311937031465
 31
0.0
  0
LINE
  5
1BE
  8
DATA
  6
CONTINUOUS
 62
     7
 10
171.66605460476501
 20
10.48304302449966
 30
0.0
 11
171.66653148533621
 21
17.5
 31
0.0
  0
LINE
  5
1BF
  8
DATA
  6
CONTINUOUS
 62
     7
 10
173.24386811476501
 20
10.48294123007966
 30
0.0
 11
171.66605460476501
 21
10.48304302449966
 31
0.0
  0
LINE
  5
1C0
  8
DATA
  6
CONTINUOUS
 62
     7
 10
173.24434500225419
 20
17.5
 30
0.0
 11
173.24386811476501
 21
10.48294123007966
 31
0.0
  0
LINE
  5
1C1
  8
DATA
  6
CONTINUOUS
 62
     7
 10
169.12119410476501
 20
10.48322116473466
 30
0.0
 11
169.1216709732295
 21
17.5
 31
0.0
  0
ARC
  5
1C2
  8
DATA
  6
CONTINUOUS
 62
     7
 10
26.958680531446252
 20
-10.0
 30
0.0
 40
2.5000000000000111
 50
180.95484125387239
 51
269.9999999999996
  0
ARC
  5
1C3
  8
DATA
  6
CONTINUOUS
 62
     7
 10
48.041319468553752
 20
-10.00000000000002
 30
0.0
 40
2.499999999999972
 50
270.0
 51
359.04515874612821
  0
ARC
  5
1C4
  8
DATA
  6
CONTINUOUS
 62
     7
 10
164.45868053144619
 20
-10.0
 30
0.0
 40
2.499999999999996
 50
180.95484125387239
 51
270.0
  0
ARC
  5
1C5
  8
DATA
  6
CONTINUOUS
 62
     7
 10
185.5413194685537
 20
-10.00000000000002
 30
0.0
 40
2.499999999999972
 50
270.0
 51
359.04515874612821
  0
LINE
  5
1C6
  8
DATA
  6
CONTINUOUS
 62
     7
 10
18.997502076570111
 20
166.00000000004539
 30
0.0
 11
55.997502076570122
 21
166.00000000004539
 31
0.0
  0
LINE
  5
1C7
  8
DATA
  6
CONTINUOUS
 62
     7
 10
18.997502076570111
 20
166.00000000004539
 30
0.0
 11
18.997502076570111
 21
173.5000000000453
 31
0.0
  0
LINE
  5
1C8
  8
DATA
  6
CONTINUOUS
 62
     7
 10
55.997502076570122
 20
166.00000000004539
 30
0.0
 11
55.997502076570122
 21
173.5000000000453
 31
0.0
  0
LINE
  5
1C9
  8
DATA
  6
CONTINUOUS
 62
     7
 10
18.997502076570111
 20
173.5000000000453
 30
0.0
 11
55.997502076570122
 21
173.5000000000453
 31
0.0
  0
LINE
  5
1CA
  8
DATA
  6
CONTINUOUS
 62
     7
 10
19.497502076570111
 20
176.0000000000453
 30
0.0
 11
55.497502076570122
 21
176.0000000000453
 31
0.0
  0
LINE
  5
1CB
  8
DATA
  6
CONTINUOUS
 62
     7
 10
19.497502076570111
 20
176.0000000000453
 30
0.0
 11
18.997502076570111
 21
173.5000000000453
 31
0.0
  0
LINE
  5
1CC
  8
DATA
  6
CONTINUOUS
 62
     7
 10
55.497502076570122
 20
176.0000000000453
 30
0.0
 11
55.997502076570122
 21
173.5000000000453
 31
0.0
  0
LINE
  5
1CD
  8
DATA
  6
CONTINUOUS
 62
     7
 10
18.247502076570111
 20
182.5000000000453
 30
0.0
 11
56.747502076570122
 21
182.5000000000453
 31
0.0
  0
LINE
  5
1CE
  8
DATA
  6
CONTINUOUS
 62
     7
 10
18.247502076570111
 20
182.5000000000453
 30
0.0
 11
19.497502076570111
 21
176.0000000000453
 31
0.0
  0
LINE
  5
1CF
  8
DATA
  6
CONTINUOUS
 62
     7
 10
56.747502076570122
 20
182.5000000000453
 30
0.0
 11
55.497502076570122
 21
176.0000000000453
 31
0.0
  0
LINE
  5
1D0
  8
DATA
  6
CONTINUOUS
 62
     7
 10
12.497502076570109
 20
210.5000000000453
 30
0.0
 11
62.497502076570122
 21
210.5000000000453
 31
0.0
  0
LINE
  5
1D1
  8
DATA
  6
CONTINUOUS
 62
     7
 10
12.497502076570109
 20
206.5000000000453
 30
0.0
 11
62.497502076570122
 21
206.5000000000453
 31
0.0
  0
LINE
  5
1D2
  8
DATA
  6
CONTINUOUS
 62
     7
 10
12.497502076570109
 20
209.5000000000453
 30
0.0
 11
62.497502076570122
 21
209.5000000000453
 31
0.0
  0
LINE
  5
1D3
  8
DATA
  6
CONTINUOUS
 62
     7
 10
12.497502076570109
 20
207.5000000000453
 30
0.0
 11
62.497502076570122
 21
207.5000000000453
 31
0.0
  0
LINE
  5
1D4
  8
DATA
  6
CONTINUOUS
 62
     7
 10
14.497502076570109
 20
210.5000000000453
 30
0.0
 11
60.497502076570122
 21
210.5000000000453
 31
0.0
  0
LINE
  5
1D5
  8
DATA
  6
CONTINUOUS
 62
     7
 10
55.747502076570122
 20
182.5000000000453
 30
0.0
 11
60.22742976298683
 21
199.56639118639461
 31
0.0
  0
LINE
  5
1D6
  8
DATA
  6
CONTINUOUS
 62
     7
 10
62.497502076570122
 20
210.5000000000453
 30
0.0
 11
62.497502076570122
 21
209.5000000000453
 31
0.0
  0
LINE
  5
1D7
  8
DATA
  6
CONTINUOUS
 62
     7
 10
62.497502076570122
 20
207.5000000000453
 30
0.0
 11
62.497502076570122
 21
206.5000000000453
 31
0.0
  0
LINE
  5
1D8
  8
DATA
  6
CONTINUOUS
 62
     7
 10
12.497502076570109
 20
210.5000000000453
 30
0.0
 11
12.497502076570109
 21
209.5000000000453
 31
0.0
  0
LINE
  5
1D9
  8
DATA
  6
CONTINUOUS
 62
     7
 10
12.497502076570109
 20
207.5000000000453
 30
0.0
 11
12.497502076570109
 21
206.5000000000453
 31
0.0
  0
ARC
  5
1DA
  8
DATA
  6
CONTINUOUS
 62
     7
 10
13.09418991305715
 20
208.5111645497299
 30
0.0
 40
1.1549164134308569
 50
121.1078229189672
 51
241.10782291896751
  0
ARC
  5
1DB
  8
DATA
  6
CONTINUOUS
 62
     7
 10
61.900814240083072
 20
208.51116454973001
 30
0.0
 40
1.154916413430862
 50
298.89217708103178
 51
58.89217708103206
  0
ARC
  5
1DC
  8
DATA
  6
CONTINUOUS
 62
     7
 10
-19.90249792342992
 20
208.5000000000453
 30
0.0
 40
80.900000000000034
 50
1.4166036433805931
 51
18.18544762886933
  0
LINE
  5
1DD
  8
DATA
  6
CONTINUOUS
 62
     7
 10
60.997502076570122
 20
206.5000000000453
 30
0.0
 11
60.997502076570122
 21
205.53299720407901
 31
0.0
  0
ARC
  5
1DE
  8
DATA
  6
CONTINUOUS
 62
     7
 10
37.497502076570122
 20
205.53299720407901
 30
0.0
 40
23.500000000000011
 50
345.29169610031721
 51
0.0
  0
ARC
  5
1DF
  8
DATA
  6
CONTINUOUS
 62
     7
 10
53.156450878205632
 20
232.50000000004539
 30
0.0
 40
4.0000000000000488
 50
18.18544762886869
 51
90.0
  0
LINE
  5
1E0
  8
DATA
  6
CONTINUOUS
 62
     7
 10
19.247502076570111
 20
182.5000000000453
 30
0.0
 11
14.767574390153399
 21
199.56639118639461
 31
0.0
  0
ARC
  5
1E1
  8
DATA
  6
CONTINUOUS
 62
     7
 10
94.897502076570078
 20
208.5000000000453
 30
0.0
 40
80.900000000000034
 50
161.81455237113059
 51
178.5833963566194
  0
LINE
  5
1E2
  8
DATA
  6
CONTINUOUS
 62
     7
 10
13.997502076570109
 20
206.5000000000453
 30
0.0
 11
13.997502076570109
 21
205.53299720407901
 31
0.0
  0
ARC
  5
1E3
  8
DATA
  6
CONTINUOUS
 62
     7
 10
37.497502076570122
 20
205.53299720407901
 30
0.0
 40
23.5
 50
180.0
 51
194.70830389968279
  0
ARC
  5
1E4
  8
DATA
  6
CONTINUOUS
 62
     7
 10
21.838553274934601
 20
232.50000000004539
 30
0.0
 40
3.9999999999999711
 50
90.0
 51
161.8145523711313
  0
LINE
  5
1E5
  8
DATA
  6
CONTINUOUS
 62
     7
 10
21.838553274934601
 20
236.5000000000453
 30
0.0
 11
53.156450878205632
 21
236.5000000000453
 31
0.0
  0
TEXT
  5
1E6
  8
DATA
 62
     7
 10
29.310119035634429
 20
168.07912500004531
 30
0.0
 40
3.2576822916666659
  1
BETA 87A
 41
0.7
 11
29.310119035634429
 21
171.33680729171189
 31
0.0
 73
     3
  0
LINE
  5
1E7
  8
DATA
  6
CONTINUOUS
 62
     7
 10
156.4975020765701
 20
166.00000000004539
 30
0.0
 11
193.4975020765701
 21
166.00000000004539
 31
0.0
  0
LINE
  5
1E8
  8
DATA
  6
CONTINUOUS
 62
     7
 10
156.4975020765701
 20
166.00000000004539
 30
0.0
 11
156.4975020765701
 21
173.5000000000453
 31
0.0
  0
LINE
  5
1E9
  8
DATA
  6
CONTINUOUS
 62
     7
 10
193.4975020765701
 20
166.00000000004539
 30
0.0
 11
193.4975020765701
 21
173.5000000000453
 31
0.0
  0
LINE
  5
1EA
  8
DATA
  6
CONTINUOUS
 62
     7
 10
156.4975020765701
 20
173.5000000000453
 30
0.0
 11
193.4975020765701
 21
173.5000000000453
 31
0.0
  0
LINE
  5
1EB
  8
DATA
  6
CONTINUOUS
 62
     7
 10
156.9975020765701
 20
176.0000000000453
 30
0.0
 11
192.9975020765701
 21
176.0000000000453
 31
0.0
  0
LINE
  5
1EC
  8
DATA
  6
CONTINUOUS
 62
     7
 10
156.9975020765701
 20
176.0000000000453
 30
0.0
 11
156.4975020765701
 21
173.5000000000453
 31
0.0
  0
LINE
  5
1ED
  8
DATA
  6
CONTINUOUS
 62
     7
 10
192.9975020765701
 20
176.0000000000453
 30
0.0
 11
193.4975020765701
 21
173.5000000000453
 31
0.0
  0
LINE
  5
1EE
  8
DATA
  6
CONTINUOUS
 62
     7
 10
155.7475020765701
 20
182.5000000000453
 30
0.0
 11
194.2475020765701
 21
182.5000000000453
 31
0.0
  0
LINE
  5
1EF
  8
DATA
  6
CONTINUOUS
 62
     7
 10
155.7475020765701
 20
182.5000000000453
 30
0.0
 11
156.9975020765701
 21
176.0000000000453
 31
0.0
  0
LINE
  5
1F0
  8
DATA
  6
CONTINUOUS
 62
     7
 10
194.2475020765701
 20
182.5000000000453
 30
0.0
 11
192.9975020765701
 21
176.0000000000453
 31
0.0
  0
LINE
  5
1F1
  8
DATA
  6
CONTINUOUS
 62
     7
 10
149.9975020765701
 20
210.5000000000453
 30
0.0
 11
199.9975020765701
 21
210.5000000000453
 31
0.0
  0
LINE
  5
1F2
  8
DATA
  6
CONTINUOUS
 62
     7
 10
149.9975020765701
 20
206.5000000000453
 30
0.0
 11
199.9975020765701
 21
206.5000000000453
 31
0.0
  0
LINE
  5
1F3
  8
DATA
  6
CONTINUOUS
 62
     7
 10
149.9975020765701
 20
209.5000000000453
 30
0.0
 11
199.9975020765701
 21
209.5000000000453
 31
0.0
  0
LINE
  5
1F4
  8
DATA
  6
CONTINUOUS
 62
     7
 10
149.9975020765701
 20
207.5000000000453
 30
0.0
 11
199.9975020765701
 21
207.5000000000453
 31
0.0
  0
LINE
  5
1F5
  8
DATA
  6
CONTINUOUS
 62
     7
 10
151.9975020765701
 20
210.5000000000453
 30
0.0
 11
197.9975020765701
 21
210.5000000000453
 31
0.0
  0
LINE
  5
1F6
  8
DATA
  6
CONTINUOUS
 62
     7
 10
193.2475020765701
 20
182.5000000000453
 30
0.0
 11
197.72742976298679
 21
199.56639118639461
 31
0.0
  0
LINE
  5
1F7
  8
DATA
  6
CONTINUOUS
 62
     7
 10
199.9975020765701
 20
210.5000000000453
 30
0.0
 11
199.9975020765701
 21
209.5000000000453
 31
0.0
  0
LINE
  5
1F8
  8
DATA
  6
CONTINUOUS
 62
     7
 10
199.9975020765701
 20
207.5000000000453
 30
0.0
 11
199.9975020765701
 21
206.5000000000453
 31
0.0
  0
LINE
  5
1F9
  8
DATA
  6
CONTINUOUS
 62
     7
 10
149.9975020765701
 20
210.5000000000453
 30
0.0
 11
149.9975020765701
 21
209.5000000000453
 31
0.0
  0
LINE
  5
1FA
  8
DATA
  6
CONTINUOUS
 62
     7
 10
149.9975020765701
 20
207.5000000000453
 30
0.0
 11
149.9975020765701
 21
206.5000000000453
 31
0.0
  0
ARC
  5
1FB
  8
DATA
  6
CONTINUOUS
 62
     7
 10
150.59418991305711
 20
208.5111645497299
 30
0.0
 40
1.1549164134308569
 50
121.1078229189672
 51
241.10782291896751
  0
ARC
  5
1FC
  8
DATA
  6
CONTINUOUS
 62
     7
 10
199.40081424008309
 20
208.51116454973001
 30
0.0
 40
1.154916413430862
 50
298.89217708103178
 51
58.89217708103206
  0
ARC
  5
1FD
  8
DATA
  6
CONTINUOUS
 62
     7
 10
117.59750207657
 20
208.5000000000453
 30
0.0
 40
80.900000000000034
 50
1.4166036433805931
 51
18.18544762886933
  0
LINE
  5
1FE
  8
DATA
  6
CONTINUOUS
 62
     7
 10
198.4975020765701
 20
206.5000000000453
 30
0.0
 11
198.4975020765701
 21
205.53299720407901
 31
0.0
  0
ARC
  5
1FF
  8
DATA
  6
CONTINUOUS
 62
     7
 10
174.9975020765701
 20
205.53299720407901
 30
0.0
 40
23.500000000000011
 50
345.29169610031721
 51
0.0
  0
ARC
  5
200
  8
DATA
  6
CONTINUOUS
 62
     7
 10
190.65645087820559
 20
232.50000000004539
 30
0.0
 40
4.0000000000000488
 50
18.18544762886869
 51
90.0
  0
LINE
  5
201
  8
DATA
  6
CONTINUOUS
 62
     7
 10
156.7475020765701
 20
182.5000000000453
 30
0.0
 11
152.26757439015341
 21
199.56639118639461
 31
0.0
  0
ARC
  5
202
  8
DATA
  6
CONTINUOUS
 62
     7
 10
232.39750207657011
 20
208.5000000000453
 30
0.0
 40
80.900000000000034
 50
161.81455237113059
 51
178.5833963566194
  0
LINE
  5
203
  8
DATA
  6
CONTINUOUS
 62
     7
 10
151.4975020765701
 20
206.5000000000453
 30
0.0
 11
151.4975020765701
 21
205.53299720407901
 31
0.0
  0
ARC
  5
204
  8
DATA
  6
CONTINUOUS
 62
     7
 10
174.9975020765701
 20
205.53299720407901
 30
0.0
 40
23.5
 50
180.0
 51
194.70830389968279
  0
ARC
  5
205
  8
DATA
  6
CONTINUOUS
 62
     7
 10
159.33855327493461
 20
232.50000000004539
 30
0.0
 40
3.9999999999999711
 50
90.0
 51
161.8145523711313
  0
LINE
  5
206
  8
DATA
  6
CONTINUOUS
 62
     7
 10
159.33855327493461
 20
236.5000000000453
 30
0.0
 11
190.65645087820559
 21
236.5000000000453
 31
0.0
  0
ENDSEC
  0
EOF
