  0
SECTION
  2
HEADER
  9
$ACADVER
  1
AC1015
  9
$ACADMAINTVER
 70
    20
  9
$DWGCODEPAGE
  3
ANSI_932
  9
$INSBASE
 10
0.0
 20
0.0
 30
0.0
  9
$EXTMIN
 10
-170.0164782349211
 20
-265.7375807287692
 30
-0.0015258207003583
  9
$EXTMAX
 10
428.5697900271845
 20
537.0917483963953
 30
0.0000000349246037
  9
$LIMMIN
 10
0.0
 20
0.0
  9
$LIMMAX
 10
0.0
 20
0.0
  9
$ORTHOMODE
 70
     0
  9
$REGENMODE
 70
     1
  9
$FILLMODE
 70
     1
  9
$QTEXTMODE
 70
     0
  9
$MIRRTEXT
 70
     1
  9
$LTSCALE
 40
15.24
  9
$ATTMODE
 70
     1
  9
$TEXTSIZE
 40
0.0
  9
$TRACEWID
 40
1.0
  9
$TEXTSTYLE
  7
STANDARD
  9
$CLAYER
  8
DATA
  9
$CELTYPE
  6
ByLayer
  9
$CECOLOR
 62
   256
  9
$CELTSCALE
 40
1.0
  9
$DISPSILH
 70
     0
  9
$DIMSCALE
 40
1.0
  9
$DIMASZ
 40
0.18
  9
$DIMEXO
 40
0.0625
  9
$DIMDLI
 40
0.38
  9
$DIMRND
 40
0.0
  9
$DIMDLE
 40
0.0
  9
$DIMEXE
 40
0.18
  9
$DIMTP
 40
0.0
  9
$DIMTM
 40
0.0
  9
$DIMTXT
 40
0.18
  9
$DIMCEN
 40
0.09
  9
$DIMTSZ
 40
0.0
  9
$DIMTOL
 70
     0
  9
$DIMLIM
 70
     0
  9
$DIMTIH
 70
     1
  9
$DIMTOH
 70
     1
  9
$DIMSE1
 70
     0
  9
$DIMSE2
 70
     0
  9
$DIMTAD
 70
     0
  9
$DIMZIN
 70
     0
  9
$DIMBLK
  1

  9
$DIMASO
 70
     1
  9
$DIMSHO
 70
     1
  9
$DIMPOST
  1

  9
$DIMAPOST
  1

  9
$DIMALT
 70
     0
  9
$DIMALTD
 70
     2
  9
$DIMALTF
 40
25.4
  9
$DIMLFAC
 40
1.0
  9
$DIMTOFL
 70
     0
  9
$DIMTVP
 40
0.0
  9
$DIMTIX
 70
     0
  9
$DIMSOXD
 70
     0
  9
$DIMSAH
 70
     0
  9
$DIMBLK1
  1

  9
$DIMBLK2
  1

  9
$DIMSTYLE
  2
STANDARD
  9
$DIMCLRD
 70
     0
  9
$DIMCLRE
 70
     0
  9
$DIMCLRT
 70
     0
  9
$DIMTFAC
 40
1.0
  9
$DIMGAP
 40
0.09
  9
$DIMJUST
 70
     0
  9
$DIMSD1
 70
     0
  9
$DIMSD2
 70
     0
  9
$DIMTOLJ
 70
     1
  9
$DIMTZIN
 70
     0
  9
$DIMALTZ
 70
     0
  9
$DIMALTTZ
 70
     0
  9
$DIMUPT
 70
     0
  9
$DIMDEC
 70
     4
  9
$DIMTDEC
 70
     4
  9
$DIMALTU
 70
     2
  9
$DIMALTTD
 70
     2
  9
$DIMTXSTY
  7
STANDARD
  9
$DIMAUNIT
 70
     0
  9
$DIMADEC
 70
     0
  9
$DIMALTRND
 40
0.0
  9
$DIMAZIN
 70
     0
  9
$DIMDSEP
 70
    46
  9
$DIMATFIT
 70
     3
  9
$DIMFRAC
 70
     0
  9
$DIMLDRBLK
  1

  9
$DIMLUNIT
 70
     2
  9
$DIMLWD
 70
    -2
  9
$DIMLWE
 70
    -2
  9
$DIMTMOVE
 70
     0
  9
$LUNITS
 70
     2
  9
$LUPREC
 70
     4
  9
$SKETCHINC
 40
0.1
  9
$FILLETRAD
 40
0.0
  9
$AUNITS
 70
     0
  9
$AUPREC
 70
     0
  9
$MENU
  1
acad
  9
$ELEVATION
 40
0.0
  9
$PELEVATION
 40
0.0
  9
$THICKNESS
 40
0.0
  9
$LIMCHECK
 70
     0
  9
$CHAMFERA
 40
0.0
  9
$CHAMFERB
 40
0.0
  9
$CHAMFERC
 40
0.0
  9
$CHAMFERD
 40
0.0
  9
$SKPOLY
 70
     0
  9
$TDCREATE
 40
2456059.742152778
  9
$TDUCREATE
 40
2456059.367152778
  9
$TDUPDATE
 40
2456059.753581887
  9
$TDUUPDATE
 40
2456059.378581887
  9
$TDINDWG
 40
0.0003336690
  9
$TDUSRTIMER
 40
0.0003336690
  9
$USRTIMER
 70
     1
  9
$ANGBASE
 50
0.0
  9
$ANGDIR
 70
     0
  9
$PDMODE
 70
     1
  9
$PDSIZE
 40
-2.0
  9
$PLINEWID
 40
0.0
  9
$SPLFRAME
 70
     0
  9
$SPLINETYPE
 70
     6
  9
$SPLINESEGS
 70
     8
  9
$HANDSEED
  5
2D3
  9
$SURFTAB1
 70
     6
  9
$SURFTAB2
 70
     6
  9
$SURFTYPE
 70
     6
  9
$SURFU
 70
     6
  9
$SURFV
 70
     6
  9
$UCSBASE
  2

  9
$UCSNAME
  2

  9
$UCSORG
 10
0.0
 20
0.0
 30
0.0
  9
$UCSXDIR
 10
1.0
 20
0.0
 30
0.0
  9
$UCSYDIR
 10
0.0
 20
1.0
 30
0.0
  9
$UCSORTHOREF
  2

  9
$UCSORTHOVIEW
 70
     0
  9
$UCSORGTOP
 10
0.0
 20
0.0
 30
0.0
  9
$UCSORGBOTTOM
 10
0.0
 20
0.0
 30
0.0
  9
$UCSORGLEFT
 10
0.0
 20
0.0
 30
0.0
  9
$UCSORGRIGHT
 10
0.0
 20
0.0
 30
0.0
  9
$UCSORGFRONT
 10
0.0
 20
0.0
 30
0.0
  9
$UCSORGBACK
 10
0.0
 20
0.0
 30
0.0
  9
$PUCSBASE
  2

  9
$PUCSNAME
  2

  9
$PUCSORG
 10
0.0
 20
0.0
 30
0.0
  9
$PUCSXDIR
 10
1.0
 20
0.0
 30
0.0
  9
$PUCSYDIR
 10
0.0
 20
1.0
 30
0.0
  9
$PUCSORTHOREF
  2

  9
$PUCSORTHOVIEW
 70
     0
  9
$PUCSORGTOP
 10
0.0
 20
0.0
 30
0.0
  9
$PUCSORGBOTTOM
 10
0.0
 20
0.0
 30
0.0
  9
$PUCSORGLEFT
 10
0.0
 20
0.0
 30
0.0
  9
$PUCSORGRIGHT
 10
0.0
 20
0.0
 30
0.0
  9
$PUCSORGFRONT
 10
0.0
 20
0.0
 30
0.0
  9
$PUCSORGBACK
 10
0.0
 20
0.0
 30
0.0
  9
$USERI1
 70
     0
  9
$USERI2
 70
     0
  9
$USERI3
 70
     0
  9
$USERI4
 70
     0
  9
$USERI5
 70
     0
  9
$USERR1
 40
0.0
  9
$USERR2
 40
0.0
  9
$USERR3
 40
0.0
  9
$USERR4
 40
0.0
  9
$USERR5
 40
0.0
  9
$WORLDVIEW
 70
     1
  9
$SHADEDGE
 70
     3
  9
$SHADEDIF
 70
    70
  9
$TILEMODE
 70
     1
  9
$MAXACTVP
 70
    64
  9
$PINSBASE
 10
0.0
 20
0.0
 30
0.0
  9
$PLIMCHECK
 70
     0
  9
$PEXTMIN
 10
1.000000000000000E+20
 20
1.000000000000000E+20
 30
1.000000000000000E+20
  9
$PEXTMAX
 10
-1.000000000000000E+20
 20
-1.000000000000000E+20
 30
-1.000000000000000E+20
  9
$PLIMMIN
 10
0.0
 20
0.0
  9
$PLIMMAX
 10
12.0
 20
9.0
  9
$UNITMODE
 70
     0
  9
$VISRETAIN
 70
     0
  9
$PLINEGEN
 70
     1
  9
$PSLTSCALE
 70
     0
  9
$TREEDEPTH
 70
  3020
  9
$CMLSTYLE
  2
Standard
  9
$CMLJUST
 70
     0
  9
$CMLSCALE
 40
1.0
  9
$PROXYGRAPHICS
 70
     1
  9
$MEASUREMENT
 70
     0
  9
$CELWEIGHT
370
    -1
  9
$ENDCAPS
280
     0
  9
$JOINSTYLE
280
     0
  9
$LWDISPLAY
290
     0
  9
$INSUNITS
 70
     0
  9
$HYPERLINKBASE
  1

  9
$STYLESHEET
  1

  9
$XEDIT
290
     1
  9
$CEPSNTYPE
380
     0
  9
$PSTYLEMODE
290
     1
  9
$FINGERPRINTGUID
  2
{BC4AF0F3-4A0B-4D28-AC38-C39950E76EC9}
  9
$VERSIONGUID
  2
{FAFAABC9-6800-4687-A015-C6B933A88C83}
  9
$EXTNAMES
290
     1
  9
$PSVPSCALE
 40
0.0
  9
$OLESTARTUP
290
     0
  0
ENDSEC
  0
SECTION
  2
CLASSES
  0
CLASS
  1
ACDBDICTIONARYWDFLT
  2
AcDbDictionaryWithDefault
  3
ObjectDBX Classes
 90
        0
280
     0
281
     0
  0
CLASS
  1
MATERIAL
  2
AcDbMaterial
  3
ObjectDBX Classes
 90
     1153
280
     0
281
     0
  0
CLASS
  1
VISUALSTYLE
  2
AcDbVisualStyle
  3
ObjectDBX Classes
 90
     4095
280
     0
281
     0
  0
CLASS
  1
SCALE
  2
AcDbScale
  3
ObjectDBX Classes
 90
     1153
280
     0
281
     0
  0
CLASS
  1
TABLESTYLE
  2
AcDbTableStyle
  3
ObjectDBX Classes
 90
     4095
280
     0
281
     0
  0
CLASS
  1
MLEADERSTYLE
  2
AcDbMLeaderStyle
  3
ACDB_MLEADERSTYLE_CLASS
 90
     4095
280
     0
281
     0
  0
CLASS
  1
DICTIONARYVAR
  2
AcDbDictionaryVar
  3
ObjectDBX Classes
 90
        0
280
     0
281
     0
  0
CLASS
  1
CELLSTYLEMAP
  2
AcDbCellStyleMap
  3
ObjectDBX Classes
 90
     1152
280
     0
281
     0
  0
CLASS
  1
ACDBPLACEHOLDER
  2
AcDbPlaceHolder
  3
ObjectDBX Classes
 90
        0
280
     0
281
     0
  0
CLASS
  1
LAYOUT
  2
AcDbLayout
  3
ObjectDBX Classes
 90
        0
280
     0
281
     0
  0
ENDSEC
  0
SECTION
  2
TABLES
  0
TABLE
  2
VPORT
  5
210
330
0
100
AcDbSymbolTable
 70
     1
  0
VPORT
  5
278
330
210
100
AcDbSymbolTableRecord
100
AcDbViewportTableRecord
  2
*ACTIVE
 70
     0
 10
0.0
 20
0.0
 11
1.0
 21
1.0
 12
100.0000012572856
 22
136.4663539705775
 13
0.0
 23
0.0
 14
1.0
 24
1.0
 15
0.0
 25
0.0
 16
0.0
 26
0.0
 36
1.0
 17
0.0
 27
0.0
 37
0.0
 40
807.51872201084
 41
2.154046997389034
 42
50.0
 43
0.0
 44
0.0
 50
0.0
 51
0.0
 71
     0
 72
  2000
 73
     1
 74
     1
 75
     0
 76
     0
 77
     0
 78
     0
281
     0
 65
     1
110
0.0
120
0.0
130
0.0
111
1.0
121
0.0
131
0.0
112
0.0
122
1.0
132
0.0
 79
     0
146
0.0
1001
ACAD_NAV_VCDISPLAY
1070
     3
  0
ENDTAB
  0
TABLE
  2
LTYPE
  5
20D
330
0
100
AcDbSymbolTable
 70
    11
  0
LTYPE
  5
262
330
20D
100
AcDbSymbolTableRecord
100
AcDbLinetypeTableRecord
  2
ByBlock
 70
     0
  3

 72
    65
 73
     0
 40
0.0
  0
LTYPE
  5
263
330
20D
100
AcDbSymbolTableRecord
100
AcDbLinetypeTableRecord
  2
ByLayer
 70
     0
  3

 72
    65
 73
     0
 40
0.0
  0
LTYPE
  5
264
330
20D
100
AcDbSymbolTableRecord
100
AcDbLinetypeTableRecord
  2
CONTINUOUS
 70
     0
  3
Solid line
 72
    65
 73
     0
 40
0.0
  0
ENDTAB
  0
TABLE
  2
LAYER
  5
20A
330
0
100
AcDbSymbolTable
 70
     6
  0
LAYER
  5
25C
330
20A
100
AcDbSymbolTableRecord
100
AcDbLayerTableRecord
  2
0
 70
     0
 62
     7
  6
CONTINUOUS
370
    -3
390
217
  0
LAYER
  5
277
330
20A
100
AcDbSymbolTableRecord
100
AcDbLayerTableRecord
  2
DATA
 70
     0
 62
     7
  6
CONTINUOUS
370
    -3
390
217
  0
LAYER
  5
283
330
20A
100
AcDbSymbolTableRecord
100
AcDbLayerTableRecord
  2
HIBINO-BASE
 70
     0
 62
     7
  6
CONTINUOUS
370
    -3
390
217
  0
LAYER
  5
284
330
20A
100
AcDbSymbolTableRecord
100
AcDbLayerTableRecord
  2
PATTERN_FILL
 70
     0
 62
     7
  6
CONTINUOUS
370
    -3
390
217
  0
LAYER
  5
285
330
20A
100
AcDbSymbolTableRecord
100
AcDbLayerTableRecord
  2
SPEC
 70
     0
 62
     7
  6
CONTINUOUS
370
    -3
390
217
  0
LAYER
  5
286
330
20A
100
AcDbSymbolTableRecord
100
AcDbLayerTableRecord
  2
DIMNSIONS
 70
     0
 62
     7
  6
CONTINUOUS
370
    -3
390
217
  0
ENDTAB
  0
TABLE
  2
STYLE
  5
20B
330
0
100
AcDbSymbolTable
 70
     3
  0
STYLE
  5
25D
330
20B
100
AcDbSymbolTableRecord
100
AcDbTextStyleTableRecord
  2
STANDARD
 70
     0
 40
0.0
 41
1.0
 50
0.0
 71
     0
 42
0.0
  3
txt
  4
BIGFONT.SHX
  0
ENDTAB
  0
TABLE
  2
VIEW
  5
20E
330
0
100
AcDbSymbolTable
 70
     0
  0
ENDTAB
  0
TABLE
  2
UCS
  5
20F
330
0
100
AcDbSymbolTable
 70
     0
  0
ENDTAB
  0
TABLE
  2
APPID
  5
211
330
0
100
AcDbSymbolTable
 70
     4
  0
APPID
  5
25E
330
211
100
AcDbSymbolTableRecord
100
AcDbRegAppTableRecord
  2
ACAD
 70
     0
  0
APPID
  5
265
330
211
100
AcDbSymbolTableRecord
100
AcDbRegAppTableRecord
  2
AcadAnnotative
 70
     0
  0
APPID
  5
295
330
211
100
AcDbSymbolTableRecord
100
AcDbRegAppTableRecord
  2
ACAD_NAV_VCDISPLAY
 70
     0
  0
APPID
  5
2CE
330
211
100
AcDbSymbolTableRecord
100
AcDbRegAppTableRecord
  2
ACAD_MLEADERVER
 70
     0
  0
ENDTAB
  0
TABLE
  2
DIMSTYLE
  5
212
330
0
100
AcDbSymbolTable
 70
     2
100
AcDbDimStyleTable
 71
     0
  0
DIMSTYLE
105
25F
330
212
100
AcDbSymbolTableRecord
100
AcDbDimStyleTableRecord
  2
STANDARD
 70
     0
279
     2
340
25D
  0
ENDTAB
  0
TABLE
  2
BLOCK_RECORD
  5
209
330
0
100
AcDbSymbolTable
 70
     0
  0
BLOCK_RECORD
  5
273
330
209
100
AcDbSymbolTableRecord
100
AcDbBlockTableRecord
  2
*Model_Space
340
276
  0
BLOCK_RECORD
  5
26F
330
209
100
AcDbSymbolTableRecord
100
AcDbBlockTableRecord
  2
*Paper_Space
340
272
  0
ENDTAB
  0
ENDSEC
  0
SECTION
  2
BLOCKS
  0
BLOCK
  5
274
330
273
100
AcDbEntity
  8
0
100
AcDbBlockBegin
  2
*Model_Space
 70
     0
 10
0.0
 20
0.0
 30
0.0
  3
*Model_Space
  1

  0
ENDBLK
  5
275
330
273
100
AcDbEntity
  8
0
100
AcDbBlockEnd
  0
BLOCK
  5
270
330
26F
100
AcDbEntity
 67
     1
  8
0
100
AcDbBlockBegin
  2
*Paper_Space
 70
     0
 10
0.0
 20
0.0
 30
0.0
  3
*Paper_Space
  1

  0
ENDBLK
  5
271
330
26F
100
AcDbEntity
 67
     1
  8
0
100
AcDbBlockEnd
  0
ENDSEC
  0
SECTION
  2
ENTITIES
  0
LINE
  5
2D
330
273
100
AcDbEntity
  8
HIBINO-BASE
  6
Continuous
 62
     7
100
AcDbLine
 10
-169.9999999999999
 20
537.0672957897318
 30
0.0
 11
370.0
 21
537.0672957897318
 31
0.0
  0
LINE
  5
2E
330
273
100
AcDbEntity
  8
HIBINO-BASE
  6
Continuous
 62
     7
100
AcDbLine
 10
370.0
 20
-242.9327042102682
 30
0.0
 11
-169.9999999999999
 21
-242.9327042102682
 31
0.0
  0
LINE
  5
2F
330
273
100
AcDbEntity
  8
HIBINO-BASE
  6
Continuous
 62
     7
100
AcDbLine
 10
-169.9999999999999
 20
-242.9327042102682
 30
0.0
 11
-169.9999999999999
 21
537.0672957897318
 31
0.0
  0
LINE
  5
30
330
273
100
AcDbEntity
  8
HIBINO-BASE
  6
Continuous
 62
     7
100
AcDbLine
 10
370.0
 20
537.0672957897318
 30
0.0
 11
370.0
 21
-242.9327042102682
 31
0.0
  0
LINE
  5
31
330
273
100
AcDbEntity
  8
HIBINO-BASE
  6
Continuous
 62
     7
100
AcDbLine
 10
100.0
 20
-175.4327042102681
 30
0.0
 11
370.0
 21
-175.4327042102681
 31
0.0
  0
LINE
  5
32
330
273
100
AcDbEntity
  8
HIBINO-BASE
  6
Continuous
 62
     7
100
AcDbLine
 10
100.0
 20
-242.9327042102682
 30
0.0
 11
100.0
 21
-175.4327042102681
 31
0.0
  0
TEXT
  5
33
330
273
100
AcDbEntity
  8
HIBINO-BASE
 62
     7
100
AcDbText
 10
102.7
 20
-182.9587842102681
 30
0.0
 40
4.886523437499999
  1
NOTE
 41
0.7
 11
102.7
 21
-178.0722607727682
 31
0.0
100
AcDbText
 73
     3
  0
LINE
  5
34
330
273
100
AcDbEntity
  8
HIBINO-BASE
  6
Continuous
 62
     7
100
AcDbLine
 10
205.0
 20
-242.9327042102682
 30
0.0
 11
205.0
 21
-175.4327042102681
 31
0.0
  0
TEXT
  5
35
330
273
100
AcDbEntity
  8
HIBINO-BASE
 62
     7
100
AcDbText
 10
207.7
 20
-182.9587842102681
 30
0.0
 40
4.886523437499999
  1
TITLE
 41
0.7
 11
207.7
 21
-178.0722607727682
 31
0.0
100
AcDbText
 73
     3
  0
LINE
  5
36
330
273
100
AcDbEntity
  8
HIBINO-BASE
  6
Continuous
 62
     7
100
AcDbLine
 10
100.0
 20
-212.9327042102681
 30
0.0
 11
370.0
 21
-212.9327042102681
 31
0.0
  0
TEXT
  5
37
330
273
100
AcDbEntity
  8
HIBINO-BASE
 62
     7
100
AcDbText
 10
245.2
 20
-220.2898242102682
 30
0.0
 40
4.886523437499999
  1
DRAWN
 41
0.7
 11
245.2
 21
-215.4033007727682
 31
0.0
100
AcDbText
 73
     3
  0
TEXT
  5
38
330
273
100
AcDbEntity
  8
HIBINO-BASE
 62
     7
100
AcDbText
 10
170.2
 20
-220.2898242102682
 30
0.0
 40
4.886523437499999
  1
DATE
 41
0.7
 11
170.2
 21
-215.4033007727682
 31
0.0
100
AcDbText
 73
     3
  0
TEXT
  5
39
330
273
100
AcDbEntity
  8
HIBINO-BASE
 62
     7
100
AcDbText
 10
140.2
 20
-220.2898242102682
 30
0.0
 40
4.886523437499999
  1
SCALE
 41
0.7
 11
140.2
 21
-215.4033007727682
 31
0.0
100
AcDbText
 73
     3
  0
TEXT
  5
3A
330
273
100
AcDbEntity
  8
HIBINO-BASE
 62
     7
100
AcDbText
 10
207.7
 20
-220.2898242102682
 30
0.0
 40
4.886523437499999
  1
DESIGN
 41
0.7
 11
207.7
 21
-215.4033007727682
 31
0.0
100
AcDbText
 73
     3
  0
TEXT
  5
3B
330
273
100
AcDbEntity
  8
HIBINO-BASE
 62
     7
100
AcDbText
 10
320.2
 20
-220.2898242102682
 30
0.0
 40
4.886523437499999
  1
DRAWING NO.
 41
0.7
 11
320.2
 21
-215.4033007727682
 31
0.0
100
AcDbText
 73
     3
  0
TEXT
  5
3C
330
273
100
AcDbEntity
  8
HIBINO-BASE
 62
     7
100
AcDbText
 10
282.7
 20
-220.2898242102682
 30
0.0
 40
4.886523437499999
  1
CHECK
 41
0.7
 11
282.7
 21
-215.4033007727682
 31
0.0
100
AcDbText
 73
     3
  0
LINE
  5
3D
330
273
100
AcDbEntity
  8
HIBINO-BASE
  6
Continuous
 62
     7
100
AcDbLine
 10
143.1249999999999
 20
-239.1827042102682
 30
0.0
 11
154.375
 21
-227.9327042102681
 31
0.0
  0
TEXT
  5
3E
330
273
100
AcDbEntity
  8
HIBINO-BASE
 62
     7
100
AcDbText
 10
141.2499999999999
 20
-231.2595342102682
 30
0.0
 40
4.886523437499999
  1
1
 41
0.7
 11
141.2499999999999
 21
-226.3730107727682
 31
0.0
100
AcDbText
 73
     3
  0
LINE
  5
3F
330
273
100
AcDbEntity
  8
HIBINO-BASE
  6
Continuous
 62
     7
100
AcDbLine
 10
137.5
 20
-242.9327042102682
 30
0.0
 11
137.5
 21
-212.9327042102681
 31
0.0
  0
LINE
  5
40
330
273
100
AcDbEntity
  8
HIBINO-BASE
  6
Continuous
 62
     7
100
AcDbLine
 10
167.5
 20
-242.9327042102682
 30
0.0
 11
167.5
 21
-212.9327042102681
 31
0.0
  0
LINE
  5
41
330
273
100
AcDbEntity
  8
HIBINO-BASE
  6
Continuous
 62
     7
100
AcDbLine
 10
242.5
 20
-212.9327042102681
 30
0.0
 11
242.5
 21
-242.9327042102682
 31
0.0
  0
LINE
  5
42
330
273
100
AcDbEntity
  8
HIBINO-BASE
  6
Continuous
 62
     7
100
AcDbLine
 10
317.5
 20
-212.9327042102681
 30
0.0
 11
317.5
 21
-242.9327042102682
 31
0.0
  0
LINE
  5
43
330
273
100
AcDbEntity
  8
HIBINO-BASE
  6
Continuous
 62
     7
100
AcDbLine
 10
279.9999999999999
 20
-242.9327042102682
 30
0.0
 11
279.9999999999999
 21
-212.9327042102681
 31
0.0
  0
TEXT
  5
44
330
273
100
AcDbEntity
  8
HIBINO-BASE
 62
     7
100
AcDbText
 10
173.557168171363
 20
-234.3417642102682
 30
0.0
 40
4.886523437499999
  1
'12.05.
 41
0.7
 11
173.557168171363
 21
-229.4552407727682
 31
0.0
100
AcDbText
 73
     3
  0
TEXT
  5
45
330
273
100
AcDbEntity
  8
HIBINO-BASE
 62
     7
100
AcDbText
 10
152.5
 20
-236.8845342102682
 30
0.0
 40
4.886523437499999
  1
3
 41
0.7
 11
152.5
 21
-231.9980107727682
 31
0.0
100
AcDbText
 73
     3
  0
TEXT
  5
46
330
273
100
AcDbEntity
  8
HIBINO-BASE
 62
     7
100
AcDbText
 10
251.8463428857601
 20
-234.3417642102682
 30
0.0
 40
4.886523437499999
  1
Ootake
 41
0.7
 11
251.8463428857601
 21
-229.4552407727682
 31
0.0
100
AcDbText
 73
     3
  0
TEXT
  5
47
330
273
100
AcDbEntity
  8
HIBINO-BASE
 62
     7
100
AcDbText
 10
111.65
 20
-237.0047042102681
 30
0.0
 40
9.773046874999998
  1
A4
 41
0.7
 11
111.65
 21
-227.2316573352681
 31
0.0
100
AcDbText
 73
     3
  0
TEXT
  5
48
330
273
100
AcDbEntity
  8
HIBINO-BASE
 62
     7
100
AcDbText
 10
102.875
 20
-220.7910692102681
 30
0.0
 40
4.886523437499999
  1
PAPER SIZE
 41
0.7
 11
102.875
 21
-215.9045457727681
 31
0.0
100
AcDbText
 73
     3
  0
TEXT
  5
49
330
273
100
AcDbEntity
  8
HIBINO-BASE
 62
     7
100
AcDbText
 10
-161.7210942293294
 20
-262.2084249127969
 30
0.0
 40
10.58746744791666
  1
Hibino-Intersound Corporation
 41
0.7
 11
-161.7210942293294
 21
-251.6209574648803
 31
0.0
100
AcDbText
 73
     3
  0
TEXT
  5
4A
330
273
100
AcDbEntity
  8
HIBINO-BASE
 62
     7
100
AcDbText
 10
160.5418290406417
 20
-261.1551601529287
 30
0.0
 40
10.58746744791666
  1
ヒビノインターサウンド株式会社
 41
0.7
 11
160.5418290406417
 21
-250.567692705012
 31
0.0
100
AcDbText
 73
     3
  0
LINE
  5
4B
330
273
100
AcDbEntity
  8
PATTERN_FILL
  6
Continuous
 62
     7
100
AcDbLine
 10
61.50000000015735
 20
-92.89232999990378
 30
0.0
 11
42.89233000015735
 21
-111.4999899999038
 31
0.0
  0
LINE
  5
4C
330
273
100
AcDbEntity
  8
PATTERN_FILL
  6
Continuous
 62
     7
100
AcDbLine
 10
30.76747000015733
 20
-63.84094999990381
 30
0.0
 11
13.84095000015738
 21
-80.76746999990376
 31
0.0
  0
LINE
  5
4D
330
273
100
AcDbEntity
  8
PATTERN_FILL
  6
Continuous
 62
     7
100
AcDbLine
 10
29.00000000015739
 20
-110.3923399999038
 30
0.0
 11
14.30923000015737
 21
-95.70156999990377
 31
0.0
  0
LINE
  5
4E
330
273
100
AcDbEntity
  8
PATTERN_FILL
  6
Continuous
 62
     7
100
AcDbLine
 10
60.53137000015738
 20
-78.86094999990376
 30
0.0
 11
56.45798000015735
 21
-82.93435999990379
 31
0.0
  0
LINE
  5
4F
330
273
100
AcDbEntity
  8
PATTERN_FILL
  6
Continuous
 62
     7
100
AcDbLine
 10
58.9438500001574
 20
-75.44848999990382
 30
0.0
 11
55.16038000015736
 21
-79.23193999990378
 31
0.0
  0
LINE
  5
50
330
273
100
AcDbEntity
  8
PATTERN_FILL
  6
Continuous
 62
     7
100
AcDbLine
 10
56.95059000015737
 20
-72.44172999990379
 30
0.0
 11
53.30873000015735
 21
-76.08360999990378
 31
0.0
  0
LINE
  5
51
330
273
100
AcDbEntity
  8
PATTERN_FILL
  6
Continuous
 62
     7
100
AcDbLine
 10
54.58715000015734
 20
-69.8051699999038
 30
0.0
 11
50.98139000015737
 21
-73.41092999990379
 31
0.0
  0
LINE
  5
52
330
273
100
AcDbEntity
  8
PATTERN_FILL
  6
Continuous
 62
     7
100
AcDbLine
 10
51.86232000015735
 20
-67.52999999990379
 30
0.0
 11
48.19666000015734
 21
-71.19565999990379
 31
0.0
  0
LINE
  5
53
330
273
100
AcDbEntity
  8
PATTERN_FILL
  6
Continuous
 62
     7
100
AcDbLine
 10
48.76144000015738
 20
-65.63089999990381
 30
0.0
 11
44.92387000015735
 21
-69.46846999990379
 31
0.0
  0
LINE
  5
54
330
273
100
AcDbEntity
  8
PATTERN_FILL
  6
Continuous
 62
     7
100
AcDbLine
 10
61.50000000015735
 20
-82.8923299999038
 30
0.0
 11
56.99969000015738
 21
-87.39263999990379
 31
0.0
  0
LINE
  5
55
330
273
100
AcDbEntity
  8
PATTERN_FILL
  6
Continuous
 62
     7
100
AcDbLine
 10
60.31152000015737
 20
-96.70386999990379
 30
0.0
 11
56.29686000015737
 21
-92.68919999990378
 31
0.0
  0
LINE
  5
56
330
273
100
AcDbEntity
  8
PATTERN_FILL
  6
Continuous
 62
     7
100
AcDbLine
 10
62.09831000015736
 20
-87.49999999990381
 30
0.0
 11
56.03259000015736
 21
-93.5657199999038
 31
0.0
  0
LINE
  5
57
330
273
100
AcDbEntity
  8
PATTERN_FILL
  6
Continuous
 62
     7
100
AcDbLine
 10
58.76915000015735
 20
-99.85719999990379
 30
0.0
 11
55.00469000015738
 21
-96.09275999990382
 31
0.0
  0
LINE
  5
58
330
273
100
AcDbEntity
  8
PATTERN_FILL
  6
Continuous
 62
     7
100
AcDbLine
 10
56.60368000015738
 20
-102.9960099999038
 30
0.0
 11
52.97390000015735
 21
-99.36623999990381
 31
0.0
  0
LINE
  5
59
330
273
100
AcDbEntity
  8
PATTERN_FILL
  6
Continuous
 62
     7
100
AcDbLine
 10
54.18353000015735
 20
-105.5758599999038
 30
0.0
 11
50.57483000015736
 21
-101.9671599999038
 31
0.0
  0
LINE
  5
5A
330
273
100
AcDbEntity
  8
PATTERN_FILL
  6
Continuous
 62
     7
100
AcDbLine
 10
42.59286000015737
 20
-68.67678999990381
 30
0.0
 11
37.15886000015734
 21
-63.24280999990381
 31
0.0
  0
LINE
  5
5B
330
273
100
AcDbEntity
  8
PATTERN_FILL
  6
Continuous
 62
     7
100
AcDbLine
 10
45.24090000015735
 20
-64.15141999990379
 30
0.0
 11
41.06389000015735
 21
-68.32843999990382
 31
0.0
  0
LINE
  5
5C
330
273
100
AcDbEntity
  8
PATTERN_FILL
  6
Continuous
 62
     7
100
AcDbLine
 10
36.92454000015736
 20
-68.00848999990382
 30
0.0
 11
32.36061000015734
 21
-63.44455999990382
 31
0.0
  0
LINE
  5
5D
330
273
100
AcDbEntity
  8
PATTERN_FILL
  6
Continuous
 62
     7
100
AcDbLine
 10
32.55379000015738
 20
-68.63771999990382
 30
0.0
 11
28.51675000015733
 21
-64.60067999990382
 31
0.0
  0
LINE
  5
5E
330
273
100
AcDbEntity
  8
PATTERN_FILL
  6
Continuous
 62
     7
100
AcDbLine
 10
28.91000000015736
 20
-69.9939299999038
 30
0.0
 11
25.41605000015737
 21
-66.49999999990382
 31
0.0
  0
LINE
  5
5F
330
273
100
AcDbEntity
  8
PATTERN_FILL
  6
Continuous
 62
     7
100
AcDbLine
 10
36.46904000015734
 20
-62.92328999990383
 30
0.0
 11
29.81349000015733
 21
-69.57883999990378
 31
0.0
  0
LINE
  5
60
330
273
100
AcDbEntity
  8
PATTERN_FILL
  6
Continuous
 62
     7
100
AcDbLine
 10
25.80918000015735
 20
-71.8931099999038
 30
0.0
 11
22.17495000015738
 21
-68.2588799999038
 31
0.0
  0
LINE
  5
61
330
273
100
AcDbEntity
  8
PATTERN_FILL
  6
Continuous
 62
     7
100
AcDbLine
 10
23.18009000015733
 20
-74.26403999990379
 30
0.0
 11
19.57283000015737
 21
-70.65677999990379
 31
0.0
  0
LINE
  5
62
330
273
100
AcDbEntity
  8
PATTERN_FILL
  6
Continuous
 62
     7
100
AcDbLine
 10
21.00918000015735
 20
-77.0931199999038
 30
0.0
 11
17.33246000015738
 21
-73.41638999990381
 31
0.0
  0
LINE
  5
63
330
273
100
AcDbEntity
  8
PATTERN_FILL
  6
Continuous
 62
     7
100
AcDbLine
 10
19.42443000015738
 20
-80.18399999990379
 30
0.0
 11
13.21221000015735
 21
-86.3962199999038
 31
0.0
  0
LINE
  5
64
330
273
100
AcDbEntity
  8
PATTERN_FILL
  6
Continuous
 62
     7
100
AcDbLine
 10
19.33220000015741
 20
-80.41612999990379
 30
0.0
 11
15.47091000015733
 21
-76.55483999990377
 31
0.0
  0
LINE
  5
65
330
273
100
AcDbEntity
  8
PATTERN_FILL
  6
Continuous
 62
     7
100
AcDbLine
 10
18.25751000015736
 20
-84.34144999990378
 30
0.0
 11
14.26224000015737
 21
-80.34617999990379
 31
0.0
  0
LINE
  5
66
330
273
100
AcDbEntity
  8
PATTERN_FILL
  6
Continuous
 62
     7
100
AcDbLine
 10
18.02138000015735
 20
-86.58703999990377
 30
0.0
 11
13.21221000015735
 21
-91.3962199999038
 31
0.0
  0
LINE
  5
67
330
273
100
AcDbEntity
  8
PATTERN_FILL
  6
Continuous
 62
     7
100
AcDbLine
 10
18.06393000015736
 20
-89.07765999990381
 30
0.0
 11
13.12309000015737
 21
-84.20701999990381
 31
0.0
  0
LINE
  5
68
330
273
100
AcDbEntity
  8
PATTERN_FILL
  6
Continuous
 62
     7
100
AcDbLine
 10
18.32844000015738
 20
-91.06388999990377
 30
0.0
 11
14.39233000015737
 21
-94.99999999990381
 31
0.0
  0
LINE
  5
69
330
273
100
AcDbEntity
  8
PATTERN_FILL
  6
Continuous
 62
     7
100
AcDbLine
 10
19.46847000015739
 20
-94.92386999990378
 30
0.0
 11
15.63090000015738
 21
-98.76143999990381
 31
0.0
  0
LINE
  5
6A
330
273
100
AcDbEntity
  8
PATTERN_FILL
  6
Continuous
 62
     7
100
AcDbLine
 10
21.19566000015736
 20
-98.19665999990384
 30
0.0
 11
17.53001000015733
 21
-101.8623199999038
 31
0.0
  0
LINE
  5
6B
330
273
100
AcDbEntity
  8
PATTERN_FILL
  6
Continuous
 62
     7
100
AcDbLine
 10
20.30556000015735
 20
-96.69789999990378
 30
0.0
 11
12.97246000015734
 21
-89.36479999990378
 31
0.0
  0
LINE
  5
6C
330
273
100
AcDbEntity
  8
PATTERN_FILL
  6
Continuous
 62
     7
100
AcDbLine
 10
35.63519000015735
 20
-112.0275299999038
 30
0.0
 11
28.30209000015735
 21
-104.6944199999038
 31
0.0
  0
LINE
  5
6D
330
273
100
AcDbEntity
  8
PATTERN_FILL
  6
Continuous
 62
     7
100
AcDbLine
 10
23.41093000015733
 20
-100.9813899999038
 30
0.0
 11
19.94173000015733
 21
-104.4505899999038
 31
0.0
  0
LINE
  5
6E
330
273
100
AcDbEntity
  8
PATTERN_FILL
  6
Continuous
 62
     7
100
AcDbLine
 10
26.08361000015735
 20
-103.3087299999038
 30
0.0
 11
22.44173000015736
 21
-106.9505899999038
 31
0.0
  0
LINE
  5
6F
330
273
100
AcDbEntity
  8
PATTERN_FILL
  6
Continuous
 62
     7
100
AcDbLine
 10
29.23194000015734
 20
-105.1603799999038
 30
0.0
 11
25.44849000015738
 21
-108.9438499999038
 31
0.0
  0
LINE
  5
70
330
273
100
AcDbEntity
  8
PATTERN_FILL
  6
Continuous
 62
     7
100
AcDbLine
 10
32.93436000015736
 20
-106.4579799999037
 30
0.0
 11
28.86095000015733
 21
-110.5313799999038
 31
0.0
  0
LINE
  5
71
330
273
100
AcDbEntity
  8
PATTERN_FILL
  6
Continuous
 62
     7
100
AcDbLine
 10
40.51989000015736
 20
-111.9122399999038
 30
0.0
 11
35.50538000015733
 21
-106.8977199999038
 31
0.0
  0
LINE
  5
72
330
273
100
AcDbEntity
  8
PATTERN_FILL
  6
Continuous
 62
     7
100
AcDbLine
 10
37.39264000015737
 20
-106.9996999999038
 30
0.0
 11
32.89233000015734
 21
-111.4999899999038
 31
0.0
  0
LINE
  5
73
330
273
100
AcDbEntity
  8
PATTERN_FILL
  6
Continuous
 62
     7
100
AcDbLine
 10
48.02442000015735
 20
-109.4167699999038
 30
0.0
 11
44.36084000015738
 21
-105.7531899999037
 31
0.0
  0
LINE
  5
74
330
273
100
AcDbEntity
  8
PATTERN_FILL
  6
Continuous
 62
     7
100
AcDbLine
 10
43.56573000015736
 20
-106.0325899999038
 30
0.0
 11
37.50000000015734
 21
-112.0983099999038
 31
0.0
  0
LINE
  5
75
330
273
100
AcDbEntity
  8
PATTERN_FILL
  6
Continuous
 62
     7
100
AcDbLine
 10
25.41605000015737
 20
-66.49999999990382
 30
0.0
 11
25.14999000015745
 21
-66.22667225242856
 31
0.0
  0
LINE
  5
76
330
273
100
AcDbEntity
  8
PATTERN_FILL
  6
Continuous
 62
     7
100
AcDbLine
 10
37.15886000015734
 20
-63.24280999990381
 30
0.0
 11
36.85499000015744
 21
-62.91014065603
 31
0.0
  0
LINE
  5
77
330
273
100
AcDbEntity
  8
PATTERN_FILL
  6
Continuous
 62
     7
100
AcDbLine
 10
42.10765000015736
 20
-63.49998999990378
 30
0.0
 11
41.94499000015746
 21
-63.29999999990383
 31
0.0
  0
LINE
  5
78
330
273
100
AcDbEntity
  8
PATTERN_FILL
  6
Continuous
 62
     7
100
AcDbLine
 10
50.00000000015734
 20
-66.50463999990382
 30
0.0
 11
49.65499000015745
 21
-66.11464429672465
 31
0.0
  0
LINE
  5
79
330
273
100
AcDbEntity
  8
PATTERN_FILL
  6
Continuous
 62
     7
100
AcDbLine
 10
60.00000000015734
 20
-97.44117999990379
 30
0.0
 11
47.44118000015737
 21
-109.9999899999038
 31
0.0
  0
LINE
  5
7A
330
273
100
AcDbEntity
  8
PATTERN_FILL
  6
Continuous
 62
     7
100
AcDbLine
 10
61.50000000015735
 20
-82.8923299999038
 30
0.0
 11
42.10765000015736
 21
-63.49998999990378
 31
0.0
  0
LINE
  5
7B
330
273
100
AcDbEntity
  8
PATTERN_FILL
  6
Continuous
 62
     7
100
AcDbLine
 10
58.9438500001574
 20
-75.44848999990382
 30
0.0
 11
50.00000000015734
 21
-66.50463999990382
 31
0.0
  0
LINE
  5
7C
330
273
100
AcDbEntity
  8
PATTERN_FILL
  6
Continuous
 62
     7
100
AcDbLine
 10
62.09831000015736
 20
-87.49999999990381
 30
0.0
 11
56.03259000015736
 21
-81.4342699999038
 31
0.0
  0
LINE
  5
7D
330
273
100
AcDbEntity
  8
PATTERN_FILL
  6
Continuous
 62
     7
100
AcDbLine
 10
61.50000000015735
 20
-92.89232999990378
 30
0.0
 11
56.98046000015739
 21
-88.37278999990378
 31
0.0
  0
LINE
  5
7E
330
273
100
AcDbEntity
  8
PATTERN_FILL
  6
Continuous
 62
     7
100
AcDbLine
 10
41.20936000015734
 20
-63.18295999990379
 30
0.0
 11
36.35892000015735
 21
-68.03339999990379
 31
0.0
  0
LINE
  5
7F
330
273
100
AcDbEntity
  8
PATTERN_FILL
  6
Continuous
 62
     7
100
AcDbLine
 10
44.64533000015733
 20
-111.0376699999038
 30
0.0
 11
40.39201000015736
 21
-106.7843499999037
 31
0.0
  0
LINE
  5
80
330
273
100
AcDbEntity
  8
PATTERN_FILL
  6
Continuous
 62
     7
100
AcDbLine
 10
51.40128000015739
 20
-107.7936199999038
 30
0.0
 11
47.71686000015738
 21
-104.1091899999037
 31
0.0
  0
ARC
  5
81
330
273
100
AcDbEntity
  8
PATTERN_FILL
  6
Continuous
 62
     7
100
AcDbCircle
 10
37.49750207657148
 20
202.4738517902104
 30
0.0
 40
10.00000000000002
100
AcDbArc
 50
53.38052986972644
 51
126.6194701302713
  0
ARC
  5
82
330
273
100
AcDbEntity
  8
PATTERN_FILL
  6
Continuous
 62
     7
100
AcDbCircle
 10
37.49750207657148
 20
202.4738517902104
 30
0.0
 40
12.00000000000001
100
AcDbArc
 50
41.97803655010264
 51
138.0219634498959
  0
LINE
  5
83
330
273
100
AcDbEntity
  8
PATTERN_FILL
  6
Continuous
 62
     7
100
AcDbLine
 10
37.49750207657148
 20
236.4999999999048
 30
0.0
 11
37.49750207657148
 21
210.4738517902104
 31
0.0
  0
ARC
  5
84
330
273
100
AcDbEntity
  8
PATTERN_FILL
  6
Continuous
 62
     7
100
AcDbCircle
 10
664.7475020765729
 20
208.4738517902106
 30
0.0
 40
625.2500000000016
100
AcDbArc
 50
177.4309184922172
 51
179.8143303570364
  0
ARC
  5
85
330
273
100
AcDbEntity
  8
PATTERN_FILL
  6
Continuous
 62
     7
100
AcDbCircle
 10
664.6526160372094
 20
197.6009886234403
 30
0.0
 40
623.2500000000012
100
AcDbArc
 50
176.4216627334753
 51
178.8141007889164
  0
ARC
  5
86
330
273
100
AcDbEntity
  8
PATTERN_FILL
  6
Continuous
 62
     7
100
AcDbCircle
 10
664.3690016607496
 20
186.7692743102675
 30
0.0
 40
621.2500000000012
100
AcDbArc
 50
175.4085914207726
 51
177.8108631042873
  0
ARC
  5
87
330
273
100
AcDbEntity
  8
PATTERN_FILL
  6
Continuous
 62
     7
100
AcDbCircle
 10
663.8979478089171
 20
175.9803113611302
 30
0.0
 40
619.2500000000012
100
AcDbArc
 50
174.3914953990521
 51
176.8044275586742
  0
ARC
  5
88
330
273
100
AcDbEntity
  8
PATTERN_FILL
  6
Continuous
 62
     7
100
AcDbCircle
 10
663.2408034304061
 20
165.2360957455432
 30
0.0
 40
617.2500000000011
100
AcDbArc
 50
173.3701954608719
 51
175.7946363862198
  0
ARC
  5
89
330
273
100
AcDbEntity
  8
PATTERN_FILL
  6
Continuous
 62
     7
100
AcDbCircle
 10
-589.7524979234287
 20
208.4738517902106
 30
0.0
 40
625.2500000000001
100
AcDbArc
 50
0.1856696429635522
 51
2.569081507782765
  0
ARC
  5
8A
330
273
100
AcDbEntity
  8
PATTERN_FILL
  6
Continuous
 62
     7
100
AcDbCircle
 10
-589.6576118840652
 20
197.6009886234403
 30
0.0
 40
623.2500000000001
100
AcDbArc
 50
1.185899211083597
 51
3.578337266524713
  0
ARC
  5
8B
330
273
100
AcDbEntity
  8
PATTERN_FILL
  6
Continuous
 62
     7
100
AcDbCircle
 10
-589.3739975076053
 20
186.7692743102675
 30
0.0
 40
621.25
100
AcDbArc
 50
2.189136895712688
 51
4.591408579227379
  0
ARC
  5
8C
330
273
100
AcDbEntity
  8
PATTERN_FILL
  6
Continuous
 62
     7
100
AcDbCircle
 10
-588.9029436557729
 20
175.9803113611302
 30
0.0
 40
619.2499999999999
100
AcDbArc
 50
3.195572441325763
 51
5.60850460094785
  0
ARC
  5
8D
330
273
100
AcDbEntity
  8
PATTERN_FILL
  6
Continuous
 62
     7
100
AcDbCircle
 10
37.49750207657153
 20
214.5484773089684
 30
0.0
 40
10.00000000000001
100
AcDbArc
 50
233.3805298697284
 51
306.6194701302733
  0
ARC
  5
8E
330
273
100
AcDbEntity
  8
PATTERN_FILL
  6
Continuous
 62
     7
100
AcDbCircle
 10
37.49750207657153
 20
214.5484773089684
 30
0.0
 40
12.00000000000002
100
AcDbArc
 50
221.9780365501039
 51
318.0219634498972
  0
LINE
  5
8F
330
273
100
AcDbEntity
  8
PATTERN_FILL
  6
Continuous
 62
     7
100
AcDbLine
 10
37.49750207657153
 20
182.4999999999048
 30
0.0
 11
37.49750207657153
 21
206.5484773089684
 31
0.0
  0
ARC
  5
90
330
273
100
AcDbEntity
  8
PATTERN_FILL
  6
Continuous
 62
     7
100
AcDbCircle
 10
664.7475020765729
 20
208.5484773089683
 30
0.0
 40
625.2500000000014
100
AcDbArc
 50
180.1856696429635
 51
182.3876847323139
  0
ARC
  5
91
330
273
100
AcDbEntity
  8
PATTERN_FILL
  6
Continuous
 62
     7
100
AcDbCircle
 10
664.6526160372094
 20
219.4213404757386
 30
0.0
 40
623.2500000000015
100
AcDbArc
 50
181.1858992110836
 51
183.3961913408856
  0
ARC
  5
92
330
273
100
AcDbEntity
  8
PATTERN_FILL
  6
Continuous
 62
     7
100
AcDbCircle
 10
664.3690016607496
 20
230.2530547889114
 30
0.0
 40
621.2500000000012
100
AcDbArc
 50
182.1891368957127
 51
184.408450644463
  0
ARC
  5
93
330
273
100
AcDbEntity
  8
PATTERN_FILL
  6
Continuous
 62
     7
100
AcDbCircle
 10
663.8979478089171
 20
241.0420177380486
 30
0.0
 40
619.2500000000012
100
AcDbArc
 50
183.1955724413257
 51
185.4246701197066
  0
ARC
  5
94
330
273
100
AcDbEntity
  8
PATTERN_FILL
  6
Continuous
 62
     7
100
AcDbCircle
 10
663.2408034304061
 20
251.7862333536356
 30
0.0
 40
617.2500000000012
100
AcDbArc
 50
184.2053636137801
 51
186.4450271309166
  0
ARC
  5
95
330
273
100
AcDbEntity
  8
PATTERN_FILL
  6
Continuous
 62
     7
100
AcDbCircle
 10
662.3989832346425
 20
262.4825731120541
 30
0.0
 40
615.250000000001
100
AcDbArc
 50
185.2185667674392
 51
187.4695991833325
  0
ARC
  5
96
330
273
100
AcDbEntity
  8
PATTERN_FILL
  6
Continuous
 62
     7
100
AcDbCircle
 10
-589.7524979234287
 20
208.5484773089683
 30
0.0
 40
625.2500000000001
100
AcDbArc
 50
357.6123152676846
 51
359.8143303570365
  0
ARC
  5
97
330
273
100
AcDbEntity
  8
PATTERN_FILL
  6
Continuous
 62
     7
100
AcDbCircle
 10
-589.6576118840652
 20
219.4213404757386
 30
0.0
 40
623.2499999999999
100
AcDbArc
 50
356.6038086591111
 51
358.8141007889164
  0
ARC
  5
98
330
273
100
AcDbEntity
  8
PATTERN_FILL
  6
Continuous
 62
     7
100
AcDbCircle
 10
-589.3739975076053
 20
230.2530547889114
 30
0.0
 40
621.25
100
AcDbArc
 50
355.5915493555368
 51
357.8108631042872
  0
ARC
  5
99
330
273
100
AcDbEntity
  8
PATTERN_FILL
  6
Continuous
 62
     7
100
AcDbCircle
 10
-588.9029436557729
 20
241.0420177380486
 30
0.0
 40
619.2499999999999
100
AcDbArc
 50
354.5753298802957
 51
356.8044275586743
  0
ARC
  5
9A
330
273
100
AcDbEntity
  8
PATTERN_FILL
  6
Continuous
 62
     7
100
AcDbCircle
 10
37.49750207657148
 20
202.4738517902104
 30
0.0
 40
14.00000000000001
100
AcDbArc
 50
34.98040819151075
 51
145.0195918084883
  0
ARC
  5
9B
330
273
100
AcDbEntity
  8
PATTERN_FILL
  6
Continuous
 62
     7
100
AcDbCircle
 10
37.49750207657148
 20
202.4738517902104
 30
0.0
 40
16.00000000000002
100
AcDbArc
 50
30.10818100526083
 51
149.8918189947316
  0
ARC
  5
9C
330
273
100
AcDbEntity
  8
PATTERN_FILL
  6
Continuous
 62
     7
100
AcDbCircle
 10
37.49750207657148
 20
202.4738517902104
 30
0.0
 40
17.99999999999999
100
AcDbArc
 50
26.48075071624275
 51
153.5192492837568
  0
ARC
  5
9D
330
273
100
AcDbEntity
  8
PATTERN_FILL
  6
Continuous
 62
     7
100
AcDbCircle
 10
37.49750207657148
 20
202.4738517902104
 30
0.0
 40
19.99999999999998
100
AcDbArc
 50
23.65993649611913
 51
156.3400635038801
  0
ARC
  5
9E
330
273
100
AcDbEntity
  8
PATTERN_FILL
  6
Continuous
 62
     7
100
AcDbCircle
 10
37.49750207657148
 20
202.4738517902104
 30
0.0
 40
22.00000000000001
100
AcDbArc
 50
21.39680829646525
 51
158.603191703541
  0
ARC
  5
9F
330
273
100
AcDbEntity
  8
PATTERN_FILL
  6
Continuous
 62
     7
100
AcDbCircle
 10
37.49750207657148
 20
202.4738517902104
 30
0.0
 40
23.99999999999997
100
AcDbArc
 50
19.53744509878786
 51
160.4625549012118
  0
ARC
  5
A0
330
273
100
AcDbEntity
  8
PATTERN_FILL
  6
Continuous
 62
     7
100
AcDbCircle
 10
37.49750207657148
 20
202.4738517902104
 30
0.0
 40
26.0
100
AcDbArc
 50
26.27342213849969
 51
153.7265778615142
  0
ARC
  5
A1
330
273
100
AcDbEntity
  8
PATTERN_FILL
  6
Continuous
 62
     7
100
AcDbCircle
 10
37.49750207657148
 20
202.4738517902104
 30
0.0
 40
27.99999999999997
100
AcDbArc
 50
35.26374363946551
 51
144.7362563605267
  0
ARC
  5
A2
330
273
100
AcDbEntity
  8
PATTERN_FILL
  6
Continuous
 62
     7
100
AcDbCircle
 10
37.49750207657148
 20
202.4738517902104
 30
0.0
 40
31.99999999999997
100
AcDbArc
 50
47.6496905325717
 51
132.1112188136078
  0
ARC
  5
A3
330
273
100
AcDbEntity
  8
PATTERN_FILL
  6
Continuous
 62
     7
100
AcDbCircle
 10
37.49750207657148
 20
202.4738517902104
 30
0.0
 40
33.99999999999999
100
AcDbArc
 50
52.38491649972902
 51
127.4767181662519
  0
ARC
  5
A4
330
273
100
AcDbEntity
  8
PATTERN_FILL
  6
Continuous
 62
     7
100
AcDbCircle
 10
37.49750207657148
 20
202.4738517902104
 30
0.0
 40
35.99999999999996
100
AcDbArc
 50
56.5233312617495
 51
70.93888775291135
  0
ARC
  5
A5
330
273
100
AcDbEntity
  8
PATTERN_FILL
  6
Continuous
 62
     7
100
AcDbCircle
 10
37.49750207657153
 20
214.5484773089684
 30
0.0
 40
14.00000000000003
100
AcDbArc
 50
214.9804081915116
 51
325.0195918084892
  0
ARC
  5
A6
330
273
100
AcDbEntity
  8
PATTERN_FILL
  6
Continuous
 62
     7
100
AcDbCircle
 10
37.49750207657153
 20
214.5484773089684
 30
0.0
 40
16.00000000000005
100
AcDbArc
 50
210.1081810052683
 51
329.8918189947391
  0
ARC
  5
A7
330
273
100
AcDbEntity
  8
PATTERN_FILL
  6
Continuous
 62
     7
100
AcDbCircle
 10
37.49750207657153
 20
214.5484773089684
 30
0.0
 40
18.00000000000004
100
AcDbArc
 50
206.4807507162431
 51
333.5192492837572
  0
ARC
  5
A8
330
273
100
AcDbEntity
  8
PATTERN_FILL
  6
Continuous
 62
     7
100
AcDbCircle
 10
37.49750207657153
 20
214.5484773089684
 30
0.0
 40
20.00000000000003
100
AcDbArc
 50
203.6599364961197
 51
336.3400635038809
  0
ARC
  5
A9
330
273
100
AcDbEntity
  8
PATTERN_FILL
  6
Continuous
 62
     7
100
AcDbCircle
 10
37.49750207657153
 20
214.5484773089684
 30
0.0
 40
21.99999999999999
100
AcDbArc
 50
201.396808296459
 51
338.6031917035346
  0
ARC
  5
AA
330
273
100
AcDbEntity
  8
PATTERN_FILL
  6
Continuous
 62
     7
100
AcDbCircle
 10
37.49750207657153
 20
214.5484773089684
 30
0.0
 40
24.0
100
AcDbArc
 50
199.5374450987881
 51
340.462554901212
  0
ARC
  5
AB
330
273
100
AcDbEntity
  8
PATTERN_FILL
  6
Continuous
 62
     7
100
AcDbCircle
 10
37.49750207657153
 20
214.5484773089684
 30
0.0
 40
26.00000000000004
100
AcDbArc
 50
206.2734221384858
 51
333.7265778615003
  0
ARC
  5
AC
330
273
100
AcDbEntity
  8
PATTERN_FILL
  6
Continuous
 62
     7
100
AcDbCircle
 10
37.49750207657153
 20
214.5484773089684
 30
0.0
 40
28.0
100
AcDbArc
 50
217.6302638057936
 51
322.3697361942061
  0
ARC
  5
AD
330
273
100
AcDbEntity
  8
PATTERN_FILL
  6
Continuous
 62
     7
100
AcDbCircle
 10
37.49750207657153
 20
214.5484773089684
 30
0.0
 40
30.0
100
AcDbArc
 50
225.4328148638254
 51
314.5671851361743
  0
ARC
  5
AE
330
273
100
AcDbEntity
  8
PATTERN_FILL
  6
Continuous
 62
     7
100
AcDbCircle
 10
37.49750207657153
 20
214.5484773089684
 30
0.0
 40
31.99999999999999
100
AcDbArc
 50
231.0103952500021
 51
308.9896047499977
  0
ARC
  5
AF
330
273
100
AcDbEntity
  8
PATTERN_FILL
  6
Continuous
 62
     7
100
AcDbCircle
 10
37.49750207657153
 20
214.5484773089684
 30
0.0
 40
33.99999999999998
100
AcDbArc
 50
289.5067302779557
 51
304.6238701323675
  0
ARC
  5
B0
330
273
100
AcDbEntity
  8
PATTERN_FILL
  6
Continuous
 62
     7
100
AcDbCircle
 10
662.3989832346425
 20
154.5397559871248
 30
0.0
 40
615.2500000000007
100
AcDbArc
 50
172.3446121221065
 51
174.7814332325607
  0
ARC
  5
B1
330
273
100
AcDbEntity
  8
PATTERN_FILL
  6
Continuous
 62
     7
100
AcDbCircle
 10
661.3739573133496
 20
143.8944547770653
 30
0.0
 40
613.2500000000014
100
AcDbArc
 50
171.3655831741824
 51
173.7647621471504
  0
ARC
  5
B2
330
273
100
AcDbEntity
  8
PATTERN_FILL
  6
Continuous
 62
     7
100
AcDbCircle
 10
660.1672497126322
 20
133.3033180928893
 30
0.0
 40
611.2500000000014
100
AcDbArc
 50
170.5941300110842
 51
172.7445608806202
  0
ARC
  5
B3
330
273
100
AcDbEntity
  8
PATTERN_FILL
  6
Continuous
 62
     7
100
AcDbCircle
 10
658.7804375996062
 20
122.7694342817962
 30
0.0
 40
609.2500000000013
100
AcDbArc
 50
170.0708234699883
 51
171.7207606068497
  0
ARC
  5
B4
330
273
100
AcDbEntity
  8
PATTERN_FILL
  6
Continuous
 62
     7
100
AcDbCircle
 10
657.2151504135262
 20
112.2958531618986
 30
0.0
 40
607.2500000000014
100
AcDbArc
 50
169.6175396862269
 51
170.6932856113941
  0
ARC
  5
B5
330
273
100
AcDbEntity
  8
PATTERN_FILL
  6
Continuous
 62
     7
100
AcDbCircle
 10
655.4730690017764
 20
101.8855851416238
 30
0.0
 40
605.2500000000013
100
AcDbArc
 50
169.2832439758504
 51
169.6620529432209
  0
ARC
  5
B6
330
273
100
AcDbEntity
  8
PATTERN_FILL
  6
Continuous
 62
     7
100
AcDbCircle
 10
37.49750207657148
 20
202.4738517902104
 30
0.0
 40
29.99999999999996
100
AcDbArc
 50
42.08274258968919
 51
137.9172574103139
  0
ARC
  5
B7
330
273
100
AcDbEntity
  8
PATTERN_FILL
  6
Continuous
 62
     7
100
AcDbCircle
 10
-588.2457992772619
 20
165.2360957455432
 30
0.0
 40
617.25
100
AcDbArc
 50
4.205363613780222
 51
6.629804539128108
  0
ARC
  5
B8
330
273
100
AcDbEntity
  8
PATTERN_FILL
  6
Continuous
 62
     7
100
AcDbCircle
 10
-587.4039790814983
 20
154.5397559871248
 30
0.0
 40
615.2499999999998
100
AcDbArc
 50
5.218566767439309
 51
7.655387877893541
  0
ARC
  5
B9
330
273
100
AcDbEntity
  8
PATTERN_FILL
  6
Continuous
 62
     7
100
AcDbCircle
 10
-586.3789531602056
 20
143.8944547770653
 30
0.0
 40
613.2500000000001
100
AcDbArc
 50
6.2352378528496
 51
8.634416825817549
  0
ARC
  5
BA
330
273
100
AcDbEntity
  8
PATTERN_FILL
  6
Continuous
 62
     7
100
AcDbCircle
 10
-585.172245559488
 20
133.3033180928893
 30
0.0
 40
611.2500000000001
100
AcDbArc
 50
7.255439119379802
 51
9.405869988915856
  0
ARC
  5
BB
330
273
100
AcDbEntity
  8
PATTERN_FILL
  6
Continuous
 62
     7
100
AcDbCircle
 10
-583.7854334464619
 20
122.7694342817962
 30
0.0
 40
609.2500000000001
100
AcDbArc
 50
8.279239393150318
 51
9.929176530011751
  0
ARC
  5
BC
330
273
100
AcDbEntity
  8
PATTERN_FILL
  6
Continuous
 62
     7
100
AcDbCircle
 10
-582.2201462603819
 20
112.2958531618986
 30
0.0
 40
607.2500000000001
100
AcDbArc
 50
9.3067143886059
 51
10.38246031377316
  0
ARC
  5
BD
330
273
100
AcDbEntity
  8
PATTERN_FILL
  6
Continuous
 62
     7
100
AcDbCircle
 10
-580.4780648486321
 20
101.8855851416238
 30
0.0
 40
605.2500000000001
100
AcDbArc
 50
10.33794705677914
 51
10.7167560241496
  0
ARC
  5
BE
330
273
100
AcDbEntity
  8
PATTERN_FILL
  6
Continuous
 62
     7
100
AcDbCircle
 10
37.49750207657148
 20
202.4738517902104
 30
0.0
 40
35.99999999999995
100
AcDbArc
 50
109.0611122470885
 51
123.4766687382504
  0
ARC
  5
BF
330
273
100
AcDbEntity
  8
PATTERN_FILL
  6
Continuous
 62
     7
100
AcDbCircle
 10
661.3739573133496
 20
273.1278743221137
 30
0.0
 40
613.2500000000013
100
AcDbArc
 50
186.2352378528495
 51
188.498465186726
  0
ARC
  5
C0
330
273
100
AcDbEntity
  8
PATTERN_FILL
  6
Continuous
 62
     7
100
AcDbCircle
 10
660.1672497126322
 20
283.7190110062896
 30
0.0
 40
611.2500000000014
100
AcDbArc
 50
187.2554391193798
 51
189.1740024782768
  0
ARC
  5
C1
330
273
100
AcDbEntity
  8
PATTERN_FILL
  6
Continuous
 62
     7
100
AcDbCircle
 10
658.7804375996062
 20
294.2528948173828
 30
0.0
 40
609.2500000000015
100
AcDbArc
 50
188.2792393931503
 51
189.6770638443727
  0
ARC
  5
C2
330
273
100
AcDbEntity
  8
PATTERN_FILL
  6
Continuous
 62
     7
100
AcDbCircle
 10
657.2151504135262
 20
304.7264759372802
 30
0.0
 40
607.2500000000014
100
AcDbArc
 50
189.3067143886058
 51
190.209039367896
  0
ARC
  5
C3
330
273
100
AcDbEntity
  8
PATTERN_FILL
  6
Continuous
 62
     7
100
AcDbCircle
 10
655.4730690017764
 20
315.1367439575551
 30
0.0
 40
605.2500000000013
100
AcDbArc
 50
190.3379470567791
 51
190.7167560241496
  0
ARC
  5
C4
330
273
100
AcDbEntity
  8
PATTERN_FILL
  6
Continuous
 62
     7
100
AcDbCircle
 10
37.49750207657153
 20
214.5484773089684
 30
0.0
 40
33.99999999999998
100
AcDbArc
 50
235.3761298676324
 51
250.4932697220441
  0
ARC
  5
C5
330
273
100
AcDbEntity
  8
PATTERN_FILL
  6
Continuous
 62
     7
100
AcDbCircle
 10
37.49750207657153
 20
214.5484773089684
 30
0.0
 40
35.99999999999993
100
AcDbArc
 50
297.0971477816657
 51
301.0465854398804
  0
ARC
  5
C6
330
273
100
AcDbEntity
  8
PATTERN_FILL
  6
Continuous
 62
     7
100
AcDbCircle
 10
-588.2457992772619
 20
251.7862333536356
 30
0.0
 40
617.25
100
AcDbArc
 50
353.5549728690844
 51
355.7946363862198
  0
ARC
  5
C7
330
273
100
AcDbEntity
  8
PATTERN_FILL
  6
Continuous
 62
     7
100
AcDbCircle
 10
-587.4039790814983
 20
262.4825731120541
 30
0.0
 40
615.2499999999996
100
AcDbArc
 50
352.5304008166608
 51
354.7814332325606
  0
ARC
  5
C8
330
273
100
AcDbEntity
  8
PATTERN_FILL
  6
Continuous
 62
     7
100
AcDbCircle
 10
-586.3789531602056
 20
273.1278743221137
 30
0.0
 40
613.2500000000001
100
AcDbArc
 50
351.5015348132711
 51
353.7647621471503
  0
ARC
  5
C9
330
273
100
AcDbEntity
  8
PATTERN_FILL
  6
Continuous
 62
     7
100
AcDbCircle
 10
-585.172245559488
 20
283.7190110062896
 30
0.0
 40
611.2500000000003
100
AcDbArc
 50
350.8259975217218
 51
352.7445608806202
  0
ARC
  5
CA
330
273
100
AcDbEntity
  8
PATTERN_FILL
  6
Continuous
 62
     7
100
AcDbCircle
 10
-583.7854334464619
 20
294.2528948173828
 30
0.0
 40
609.2500000000001
100
AcDbArc
 50
350.3229361556255
 51
351.7207606068497
  0
ARC
  5
CB
330
273
100
AcDbEntity
  8
PATTERN_FILL
  6
Continuous
 62
     7
100
AcDbCircle
 10
-582.2201462603819
 20
304.7264759372802
 30
0.0
 40
607.2500000000001
100
AcDbArc
 50
349.7909606321036
 51
350.693285611394
  0
ARC
  5
CC
330
273
100
AcDbEntity
  8
PATTERN_FILL
  6
Continuous
 62
     7
100
AcDbCircle
 10
-580.4780648486321
 20
315.1367439575551
 30
0.0
 40
605.2500000000001
100
AcDbArc
 50
349.2832439758504
 51
349.6620529432208
  0
ARC
  5
CD
330
273
100
AcDbEntity
  8
PATTERN_FILL
  6
Continuous
 62
     7
100
AcDbCircle
 10
37.49750207657148
 20
214.5484773089684
 30
0.0
 40
35.99999999999999
100
AcDbArc
 50
238.9534145601194
 51
242.9028522183341
  0
ARC
  5
CE
330
273
100
AcDbEntity
  8
PATTERN_FILL
  6
Continuous
 62
     7
100
AcDbCircle
 10
174.9975020765714
 20
202.4738517902104
 30
0.0
 40
14.00000000000001
100
AcDbArc
 50
34.98040819151075
 51
145.0195918084883
  0
ARC
  5
CF
330
273
100
AcDbEntity
  8
PATTERN_FILL
  6
Continuous
 62
     7
100
AcDbCircle
 10
174.9975020765714
 20
202.4738517902104
 30
0.0
 40
16.00000000000002
100
AcDbArc
 50
30.10818100526083
 51
149.8918189947316
  0
ARC
  5
D0
330
273
100
AcDbEntity
  8
PATTERN_FILL
  6
Continuous
 62
     7
100
AcDbCircle
 10
174.9975020765714
 20
202.4738517902104
 30
0.0
 40
17.99999999999999
100
AcDbArc
 50
26.48075071624275
 51
153.5192492837568
  0
ARC
  5
D1
330
273
100
AcDbEntity
  8
PATTERN_FILL
  6
Continuous
 62
     7
100
AcDbCircle
 10
174.9975020765714
 20
202.4738517902104
 30
0.0
 40
19.99999999999998
100
AcDbArc
 50
23.65993649611913
 51
156.3400635038801
  0
ARC
  5
D2
330
273
100
AcDbEntity
  8
PATTERN_FILL
  6
Continuous
 62
     7
100
AcDbCircle
 10
174.9975020765714
 20
202.4738517902104
 30
0.0
 40
22.00000000000001
100
AcDbArc
 50
21.39680829646525
 51
158.603191703541
  0
ARC
  5
D3
330
273
100
AcDbEntity
  8
PATTERN_FILL
  6
Continuous
 62
     7
100
AcDbCircle
 10
174.9975020765714
 20
202.4738517902104
 30
0.0
 40
23.99999999999997
100
AcDbArc
 50
19.53744509878786
 51
160.4625549012118
  0
ARC
  5
D4
330
273
100
AcDbEntity
  8
PATTERN_FILL
  6
Continuous
 62
     7
100
AcDbCircle
 10
174.9975020765714
 20
202.4738517902104
 30
0.0
 40
26.0
100
AcDbArc
 50
26.27342213849969
 51
153.7265778615142
  0
ARC
  5
D5
330
273
100
AcDbEntity
  8
PATTERN_FILL
  6
Continuous
 62
     7
100
AcDbCircle
 10
174.9975020765714
 20
202.4738517902104
 30
0.0
 40
27.99999999999997
100
AcDbArc
 50
35.26374363946551
 51
144.7362563605267
  0
ARC
  5
D6
330
273
100
AcDbEntity
  8
PATTERN_FILL
  6
Continuous
 62
     7
100
AcDbCircle
 10
174.9975020765714
 20
202.4738517902104
 30
0.0
 40
29.99999999999996
100
AcDbArc
 50
42.08274258968919
 51
137.9172574103139
  0
ARC
  5
D7
330
273
100
AcDbEntity
  8
PATTERN_FILL
  6
Continuous
 62
     7
100
AcDbCircle
 10
174.9975020765714
 20
202.4738517902104
 30
0.0
 40
31.99999999999997
100
AcDbArc
 50
47.6496905325717
 51
132.1112188136078
  0
ARC
  5
D8
330
273
100
AcDbEntity
  8
PATTERN_FILL
  6
Continuous
 62
     7
100
AcDbCircle
 10
174.9975020765714
 20
202.4738517902104
 30
0.0
 40
33.99999999999999
100
AcDbArc
 50
52.38491649972902
 51
127.4767181662519
  0
ARC
  5
D9
330
273
100
AcDbEntity
  8
PATTERN_FILL
  6
Continuous
 62
     7
100
AcDbCircle
 10
174.9975020765716
 20
214.5484773089684
 30
0.0
 40
14.00000000000003
100
AcDbArc
 50
214.9804081915116
 51
325.0195918084892
  0
ARC
  5
DA
330
273
100
AcDbEntity
  8
PATTERN_FILL
  6
Continuous
 62
     7
100
AcDbCircle
 10
174.9975020765716
 20
214.5484773089684
 30
0.0
 40
16.00000000000005
100
AcDbArc
 50
210.1081810052683
 51
329.8918189947391
  0
ARC
  5
DB
330
273
100
AcDbEntity
  8
PATTERN_FILL
  6
Continuous
 62
     7
100
AcDbCircle
 10
174.9975020765716
 20
214.5484773089684
 30
0.0
 40
18.00000000000004
100
AcDbArc
 50
206.4807507162431
 51
333.5192492837572
  0
ARC
  5
DC
330
273
100
AcDbEntity
  8
PATTERN_FILL
  6
Continuous
 62
     7
100
AcDbCircle
 10
174.9975020765716
 20
214.5484773089684
 30
0.0
 40
20.00000000000003
100
AcDbArc
 50
203.6599364961197
 51
336.3400635038809
  0
ARC
  5
DD
330
273
100
AcDbEntity
  8
PATTERN_FILL
  6
Continuous
 62
     7
100
AcDbCircle
 10
174.9975020765716
 20
214.5484773089684
 30
0.0
 40
21.99999999999999
100
AcDbArc
 50
201.396808296459
 51
338.6031917035346
  0
ARC
  5
DE
330
273
100
AcDbEntity
  8
PATTERN_FILL
  6
Continuous
 62
     7
100
AcDbCircle
 10
174.9975020765716
 20
214.5484773089684
 30
0.0
 40
24.0
100
AcDbArc
 50
199.5374450987881
 51
340.462554901212
  0
ARC
  5
DF
330
273
100
AcDbEntity
  8
PATTERN_FILL
  6
Continuous
 62
     7
100
AcDbCircle
 10
174.9975020765716
 20
214.5484773089684
 30
0.0
 40
26.00000000000004
100
AcDbArc
 50
206.2734221384858
 51
333.7265778615003
  0
ARC
  5
E0
330
273
100
AcDbEntity
  8
PATTERN_FILL
  6
Continuous
 62
     7
100
AcDbCircle
 10
174.9975020765716
 20
214.5484773089684
 30
0.0
 40
28.0
100
AcDbArc
 50
217.6302638057936
 51
322.3697361942061
  0
ARC
  5
E1
330
273
100
AcDbEntity
  8
PATTERN_FILL
  6
Continuous
 62
     7
100
AcDbCircle
 10
174.9975020765716
 20
214.5484773089684
 30
0.0
 40
30.0
100
AcDbArc
 50
225.4328148638254
 51
314.5671851361743
  0
ARC
  5
E2
330
273
100
AcDbEntity
  8
PATTERN_FILL
  6
Continuous
 62
     7
100
AcDbCircle
 10
174.9975020765716
 20
214.5484773089684
 30
0.0
 40
31.99999999999999
100
AcDbArc
 50
231.0103952500021
 51
308.9896047499977
  0
ARC
  5
E3
330
273
100
AcDbEntity
  8
PATTERN_FILL
  6
Continuous
 62
     7
100
AcDbCircle
 10
799.8989832346425
 20
154.5397559871248
 30
0.0
 40
615.2500000000007
100
AcDbArc
 50
172.3446121221065
 51
174.7814332325607
  0
ARC
  5
E4
330
273
100
AcDbEntity
  8
PATTERN_FILL
  6
Continuous
 62
     7
100
AcDbCircle
 10
798.8739573133496
 20
143.8944547770653
 30
0.0
 40
613.2500000000014
100
AcDbArc
 50
171.3655831741824
 51
173.7647621471504
  0
ARC
  5
E5
330
273
100
AcDbEntity
  8
PATTERN_FILL
  6
Continuous
 62
     7
100
AcDbCircle
 10
797.6672497126322
 20
133.3033180928893
 30
0.0
 40
611.2500000000014
100
AcDbArc
 50
170.5941300110842
 51
172.7445608806202
  0
ARC
  5
E6
330
273
100
AcDbEntity
  8
PATTERN_FILL
  6
Continuous
 62
     7
100
AcDbCircle
 10
796.2804375996063
 20
122.7694342817962
 30
0.0
 40
609.2500000000013
100
AcDbArc
 50
170.0708234699883
 51
171.7207606068497
  0
ARC
  5
E7
330
273
100
AcDbEntity
  8
PATTERN_FILL
  6
Continuous
 62
     7
100
AcDbCircle
 10
794.7151504135263
 20
112.2958531618986
 30
0.0
 40
607.2500000000014
100
AcDbArc
 50
169.6175396862269
 51
170.6932856113941
  0
ARC
  5
E8
330
273
100
AcDbEntity
  8
PATTERN_FILL
  6
Continuous
 62
     7
100
AcDbCircle
 10
792.9730690017764
 20
101.8855851416238
 30
0.0
 40
605.2500000000013
100
AcDbArc
 50
169.2832439758504
 51
169.6620529432209
  0
ARC
  5
E9
330
273
100
AcDbEntity
  8
PATTERN_FILL
  6
Continuous
 62
     7
100
AcDbCircle
 10
174.9975020765714
 20
202.4738517902104
 30
0.0
 40
35.99999999999996
100
AcDbArc
 50
56.5233312617495
 51
70.93888775291135
  0
ARC
  5
EA
330
273
100
AcDbEntity
  8
PATTERN_FILL
  6
Continuous
 62
     7
100
AcDbCircle
 10
-450.7457992772618
 20
165.2360957455432
 30
0.0
 40
617.25
100
AcDbArc
 50
4.205363613780222
 51
6.629804539128108
  0
ARC
  5
EB
330
273
100
AcDbEntity
  8
PATTERN_FILL
  6
Continuous
 62
     7
100
AcDbCircle
 10
-449.9039790814983
 20
154.5397559871248
 30
0.0
 40
615.2499999999998
100
AcDbArc
 50
5.218566767439309
 51
7.655387877893541
  0
ARC
  5
EC
330
273
100
AcDbEntity
  8
PATTERN_FILL
  6
Continuous
 62
     7
100
AcDbCircle
 10
-448.8789531602055
 20
143.8944547770653
 30
0.0
 40
613.2500000000001
100
AcDbArc
 50
6.2352378528496
 51
8.634416825817549
  0
ARC
  5
ED
330
273
100
AcDbEntity
  8
PATTERN_FILL
  6
Continuous
 62
     7
100
AcDbCircle
 10
-447.6722455594879
 20
133.3033180928893
 30
0.0
 40
611.2500000000001
100
AcDbArc
 50
7.255439119379802
 51
9.405869988915856
  0
ARC
  5
EE
330
273
100
AcDbEntity
  8
PATTERN_FILL
  6
Continuous
 62
     7
100
AcDbCircle
 10
-446.285433446462
 20
122.7694342817962
 30
0.0
 40
609.2500000000001
100
AcDbArc
 50
8.279239393150318
 51
9.929176530011751
  0
ARC
  5
EF
330
273
100
AcDbEntity
  8
PATTERN_FILL
  6
Continuous
 62
     7
100
AcDbCircle
 10
-444.720146260382
 20
112.2958531618986
 30
0.0
 40
607.2500000000001
100
AcDbArc
 50
9.3067143886059
 51
10.38246031377316
  0
ARC
  5
F0
330
273
100
AcDbEntity
  8
PATTERN_FILL
  6
Continuous
 62
     7
100
AcDbCircle
 10
-442.9780648486321
 20
101.8855851416238
 30
0.0
 40
605.2500000000001
100
AcDbArc
 50
10.33794705677914
 51
10.7167560241496
  0
ARC
  5
F1
330
273
100
AcDbEntity
  8
PATTERN_FILL
  6
Continuous
 62
     7
100
AcDbCircle
 10
174.9975020765714
 20
202.4738517902104
 30
0.0
 40
35.99999999999995
100
AcDbArc
 50
109.0611122470885
 51
123.4766687382504
  0
ARC
  5
F2
330
273
100
AcDbEntity
  8
PATTERN_FILL
  6
Continuous
 62
     7
100
AcDbCircle
 10
174.9975020765716
 20
214.5484773089684
 30
0.0
 40
33.99999999999998
100
AcDbArc
 50
235.3761298676324
 51
250.4932697220441
  0
ARC
  5
F3
330
273
100
AcDbEntity
  8
PATTERN_FILL
  6
Continuous
 62
     7
100
AcDbCircle
 10
174.9975020765716
 20
214.5484773089684
 30
0.0
 40
33.99999999999998
100
AcDbArc
 50
289.5067302779557
 51
304.6238701323675
  0
ARC
  5
F4
330
273
100
AcDbEntity
  8
PATTERN_FILL
  6
Continuous
 62
     7
100
AcDbCircle
 10
174.9975020765716
 20
214.5484773089684
 30
0.0
 40
35.99999999999993
100
AcDbArc
 50
297.0971477816657
 51
301.0465854398804
  0
ARC
  5
F5
330
273
100
AcDbEntity
  8
PATTERN_FILL
  6
Continuous
 62
     7
100
AcDbCircle
 10
174.9975020765714
 20
214.5484773089684
 30
0.0
 40
35.99999999999999
100
AcDbArc
 50
238.9534145601194
 51
242.9028522183341
  0
ARC
  5
F6
330
273
100
AcDbEntity
  8
PATTERN_FILL
  6
Continuous
 62
     7
100
AcDbCircle
 10
799.8989832346425
 20
262.4825731120541
 30
0.0
 40
615.250000000001
100
AcDbArc
 50
185.2185667674392
 51
187.4695991833325
  0
ARC
  5
F7
330
273
100
AcDbEntity
  8
PATTERN_FILL
  6
Continuous
 62
     7
100
AcDbCircle
 10
798.8739573133496
 20
273.1278743221137
 30
0.0
 40
613.2500000000013
100
AcDbArc
 50
186.2352378528495
 51
188.498465186726
  0
ARC
  5
F8
330
273
100
AcDbEntity
  8
PATTERN_FILL
  6
Continuous
 62
     7
100
AcDbCircle
 10
797.6672497126322
 20
283.7190110062896
 30
0.0
 40
611.2500000000014
100
AcDbArc
 50
187.2554391193798
 51
189.1740024782768
  0
ARC
  5
F9
330
273
100
AcDbEntity
  8
PATTERN_FILL
  6
Continuous
 62
     7
100
AcDbCircle
 10
796.2804375996063
 20
294.2528948173828
 30
0.0
 40
609.2500000000015
100
AcDbArc
 50
188.2792393931503
 51
189.6770638443727
  0
ARC
  5
FA
330
273
100
AcDbEntity
  8
PATTERN_FILL
  6
Continuous
 62
     7
100
AcDbCircle
 10
794.7151504135263
 20
304.7264759372802
 30
0.0
 40
607.2500000000014
100
AcDbArc
 50
189.3067143886058
 51
190.209039367896
  0
ARC
  5
FB
330
273
100
AcDbEntity
  8
PATTERN_FILL
  6
Continuous
 62
     7
100
AcDbCircle
 10
792.9730690017764
 20
315.1367439575551
 30
0.0
 40
605.2500000000013
100
AcDbArc
 50
190.3379470567791
 51
190.7167560241496
  0
ARC
  5
FC
330
273
100
AcDbEntity
  8
PATTERN_FILL
  6
Continuous
 62
     7
100
AcDbCircle
 10
-450.7457992772618
 20
251.7862333536356
 30
0.0
 40
617.25
100
AcDbArc
 50
353.5549728690844
 51
355.7946363862198
  0
ARC
  5
FD
330
273
100
AcDbEntity
  8
PATTERN_FILL
  6
Continuous
 62
     7
100
AcDbCircle
 10
-449.9039790814983
 20
262.4825731120541
 30
0.0
 40
615.2499999999996
100
AcDbArc
 50
352.5304008166608
 51
354.7814332325606
  0
ARC
  5
FE
330
273
100
AcDbEntity
  8
PATTERN_FILL
  6
Continuous
 62
     7
100
AcDbCircle
 10
-448.8789531602055
 20
273.1278743221137
 30
0.0
 40
613.2500000000001
100
AcDbArc
 50
351.5015348132711
 51
353.7647621471503
  0
ARC
  5
FF
330
273
100
AcDbEntity
  8
PATTERN_FILL
  6
Continuous
 62
     7
100
AcDbCircle
 10
-447.6722455594879
 20
283.7190110062896
 30
0.0
 40
611.2500000000003
100
AcDbArc
 50
350.8259975217218
 51
352.7445608806202
  0
ARC
  5
100
330
273
100
AcDbEntity
  8
PATTERN_FILL
  6
Continuous
 62
     7
100
AcDbCircle
 10
-446.285433446462
 20
294.2528948173828
 30
0.0
 40
609.2500000000001
100
AcDbArc
 50
350.3229361556255
 51
351.7207606068497
  0
ARC
  5
101
330
273
100
AcDbEntity
  8
PATTERN_FILL
  6
Continuous
 62
     7
100
AcDbCircle
 10
-444.720146260382
 20
304.7264759372802
 30
0.0
 40
607.2500000000001
100
AcDbArc
 50
349.7909606321036
 51
350.693285611394
  0
ARC
  5
102
330
273
100
AcDbEntity
  8
PATTERN_FILL
  6
Continuous
 62
     7
100
AcDbCircle
 10
-442.9780648486321
 20
315.1367439575551
 30
0.0
 40
605.2500000000001
100
AcDbArc
 50
349.2832439758504
 51
349.6620529432208
  0
ARC
  5
103
330
273
100
AcDbEntity
  8
PATTERN_FILL
  6
Continuous
 62
     7
100
AcDbCircle
 10
174.9975020765714
 20
202.4738517902104
 30
0.0
 40
10.00000000000002
100
AcDbArc
 50
53.38052986972644
 51
126.6194701302713
  0
ARC
  5
104
330
273
100
AcDbEntity
  8
PATTERN_FILL
  6
Continuous
 62
     7
100
AcDbCircle
 10
174.9975020765714
 20
202.4738517902104
 30
0.0
 40
12.00000000000001
100
AcDbArc
 50
41.97803655010264
 51
138.0219634498959
  0
LINE
  5
105
330
273
100
AcDbEntity
  8
PATTERN_FILL
  6
Continuous
 62
     7
100
AcDbLine
 10
174.9975020765714
 20
236.4999999999048
 30
0.0
 11
174.9975020765714
 21
210.4738517902104
 31
0.0
  0
ARC
  5
106
330
273
100
AcDbEntity
  8
PATTERN_FILL
  6
Continuous
 62
     7
100
AcDbCircle
 10
802.247502076573
 20
208.4738517902106
 30
0.0
 40
625.2500000000016
100
AcDbArc
 50
177.4309184922172
 51
179.8143303570364
  0
ARC
  5
107
330
273
100
AcDbEntity
  8
PATTERN_FILL
  6
Continuous
 62
     7
100
AcDbCircle
 10
802.1526160372093
 20
197.6009886234403
 30
0.0
 40
623.2500000000012
100
AcDbArc
 50
176.4216627334753
 51
178.8141007889164
  0
ARC
  5
108
330
273
100
AcDbEntity
  8
PATTERN_FILL
  6
Continuous
 62
     7
100
AcDbCircle
 10
801.8690016607497
 20
186.7692743102675
 30
0.0
 40
621.2500000000012
100
AcDbArc
 50
175.4085914207726
 51
177.8108631042873
  0
ARC
  5
109
330
273
100
AcDbEntity
  8
PATTERN_FILL
  6
Continuous
 62
     7
100
AcDbCircle
 10
801.397947808917
 20
175.9803113611302
 30
0.0
 40
619.2500000000012
100
AcDbArc
 50
174.3914953990521
 51
176.8044275586742
  0
ARC
  5
10A
330
273
100
AcDbEntity
  8
PATTERN_FILL
  6
Continuous
 62
     7
100
AcDbCircle
 10
800.7408034304061
 20
165.2360957455432
 30
0.0
 40
617.2500000000011
100
AcDbArc
 50
173.3701954608719
 51
175.7946363862198
  0
ARC
  5
10B
330
273
100
AcDbEntity
  8
PATTERN_FILL
  6
Continuous
 62
     7
100
AcDbCircle
 10
-452.2524979234287
 20
208.4738517902106
 30
0.0
 40
625.2500000000001
100
AcDbArc
 50
0.1856696429635522
 51
2.569081507782765
  0
ARC
  5
10C
330
273
100
AcDbEntity
  8
PATTERN_FILL
  6
Continuous
 62
     7
100
AcDbCircle
 10
-452.1576118840651
 20
197.6009886234403
 30
0.0
 40
623.2500000000001
100
AcDbArc
 50
1.185899211083597
 51
3.578337266524713
  0
ARC
  5
10D
330
273
100
AcDbEntity
  8
PATTERN_FILL
  6
Continuous
 62
     7
100
AcDbCircle
 10
-451.8739975076053
 20
186.7692743102675
 30
0.0
 40
621.25
100
AcDbArc
 50
2.189136895712688
 51
4.591408579227379
  0
ARC
  5
10E
330
273
100
AcDbEntity
  8
PATTERN_FILL
  6
Continuous
 62
     7
100
AcDbCircle
 10
-451.4029436557728
 20
175.9803113611302
 30
0.0
 40
619.2499999999999
100
AcDbArc
 50
3.195572441325763
 51
5.60850460094785
  0
ARC
  5
10F
330
273
100
AcDbEntity
  8
PATTERN_FILL
  6
Continuous
 62
     7
100
AcDbCircle
 10
174.9975020765716
 20
214.5484773089684
 30
0.0
 40
10.00000000000001
100
AcDbArc
 50
233.3805298697284
 51
306.6194701302733
  0
ARC
  5
110
330
273
100
AcDbEntity
  8
PATTERN_FILL
  6
Continuous
 62
     7
100
AcDbCircle
 10
174.9975020765716
 20
214.5484773089684
 30
0.0
 40
12.00000000000002
100
AcDbArc
 50
221.9780365501039
 51
318.0219634498972
  0
LINE
  5
111
330
273
100
AcDbEntity
  8
PATTERN_FILL
  6
Continuous
 62
     7
100
AcDbLine
 10
174.9975020765716
 20
182.4999999999048
 30
0.0
 11
174.9975020765716
 21
206.5484773089684
 31
0.0
  0
ARC
  5
112
330
273
100
AcDbEntity
  8
PATTERN_FILL
  6
Continuous
 62
     7
100
AcDbCircle
 10
802.247502076573
 20
208.5484773089683
 30
0.0
 40
625.2500000000014
100
AcDbArc
 50
180.1856696429635
 51
182.3876847323139
  0
ARC
  5
113
330
273
100
AcDbEntity
  8
PATTERN_FILL
  6
Continuous
 62
     7
100
AcDbCircle
 10
802.1526160372093
 20
219.4213404757386
 30
0.0
 40
623.2500000000015
100
AcDbArc
 50
181.1858992110836
 51
183.3961913408856
  0
ARC
  5
114
330
273
100
AcDbEntity
  8
PATTERN_FILL
  6
Continuous
 62
     7
100
AcDbCircle
 10
801.8690016607497
 20
230.2530547889114
 30
0.0
 40
621.2500000000012
100
AcDbArc
 50
182.1891368957127
 51
184.408450644463
  0
ARC
  5
115
330
273
100
AcDbEntity
  8
PATTERN_FILL
  6
Continuous
 62
     7
100
AcDbCircle
 10
801.397947808917
 20
241.0420177380486
 30
0.0
 40
619.2500000000012
100
AcDbArc
 50
183.1955724413257
 51
185.4246701197066
  0
ARC
  5
116
330
273
100
AcDbEntity
  8
PATTERN_FILL
  6
Continuous
 62
     7
100
AcDbCircle
 10
800.7408034304061
 20
251.7862333536356
 30
0.0
 40
617.2500000000012
100
AcDbArc
 50
184.2053636137801
 51
186.4450271309166
  0
ARC
  5
117
330
273
100
AcDbEntity
  8
PATTERN_FILL
  6
Continuous
 62
     7
100
AcDbCircle
 10
-452.2524979234287
 20
208.5484773089683
 30
0.0
 40
625.2500000000001
100
AcDbArc
 50
357.6123152676846
 51
359.8143303570365
  0
ARC
  5
118
330
273
100
AcDbEntity
  8
PATTERN_FILL
  6
Continuous
 62
     7
100
AcDbCircle
 10
-452.1576118840651
 20
219.4213404757386
 30
0.0
 40
623.2499999999999
100
AcDbArc
 50
356.6038086591111
 51
358.8141007889164
  0
ARC
  5
119
330
273
100
AcDbEntity
  8
PATTERN_FILL
  6
Continuous
 62
     7
100
AcDbCircle
 10
-451.8739975076053
 20
230.2530547889114
 30
0.0
 40
621.25
100
AcDbArc
 50
355.5915493555368
 51
357.8108631042872
  0
ARC
  5
11A
330
273
100
AcDbEntity
  8
PATTERN_FILL
  6
Continuous
 62
     7
100
AcDbCircle
 10
-451.4029436557728
 20
241.0420177380486
 30
0.0
 40
619.2499999999999
100
AcDbArc
 50
354.5753298802957
 51
356.8044275586743
  0
LINE
  5
11B
330
273
100
AcDbEntity
  8
SPEC
  6
Continuous
 62
     7
100
AcDbLine
 10
-147.4999999999999
 20
507.0672957897317
 30
0.0
 11
295.0
 21
507.0672957897317
 31
0.0
  0
LINE
  5
11C
330
273
100
AcDbEntity
  8
SPEC
  6
Continuous
 62
     7
100
AcDbLine
 10
-29.99999999999996
 20
495.8172957897317
 30
0.0
 11
295.0
 21
495.8172957897317
 31
0.0
  0
LINE
  5
11D
330
273
100
AcDbEntity
  8
SPEC
  6
Continuous
 62
     7
100
AcDbLine
 10
-147.4999999999999
 20
473.3172957897317
 30
0.0
 11
295.0
 21
473.3172957897317
 31
0.0
  0
LINE
  5
11E
330
273
100
AcDbEntity
  8
SPEC
  6
Continuous
 62
     7
100
AcDbLine
 10
-29.99999999999996
 20
484.5672957897317
 30
0.0
 11
295.0
 21
484.5672957897317
 31
0.0
  0
LINE
  5
11F
330
273
100
AcDbEntity
  8
SPEC
  6
Continuous
 62
     7
100
AcDbLine
 10
-147.4999999999999
 20
507.0672957897317
 30
0.0
 11
-147.4999999999999
 21
338.3172957897317
 31
0.0
  0
TEXT
  5
120
330
273
100
AcDbEntity
  8
SPEC
 62
     7
100
AcDbText
 10
-143.7499999999999
 20
511.2471057897318
 30
0.0
 40
7.329785156249999
  1
仕様
 41
0.7
 11
-143.7499999999999
 21
518.5768909459818
 31
0.0
100
AcDbText
 73
     3
  0
LINE
  5
121
330
273
100
AcDbEntity
  8
SPEC
  6
Continuous
 62
     7
100
AcDbLine
 10
-29.99999999999999
 20
507.0672957897317
 30
0.0
 11
-29.99999999999999
 21
338.3172957897317
 31
0.0
  0
LINE
  5
122
330
273
100
AcDbEntity
  8
SPEC
  6
Continuous
 62
     7
100
AcDbLine
 10
295.0
 20
507.0672957897317
 30
0.0
 11
295.0
 21
338.3172957897317
 31
0.0
  0
LINE
  5
123
330
273
100
AcDbEntity
  8
SPEC
  6
Continuous
 62
     7
100
AcDbLine
 10
-147.4999999999999
 20
462.0672957897317
 30
0.0
 11
295.0
 21
462.0672957897317
 31
0.0
  0
LINE
  5
124
330
273
100
AcDbEntity
  8
SPEC
  6
Continuous
 62
     7
100
AcDbLine
 10
-147.4999999999999
 20
450.8172957897317
 30
0.0
 11
295.0
 21
450.8172957897317
 31
0.0
  0
LINE
  5
125
330
273
100
AcDbEntity
  8
SPEC
  6
Continuous
 62
     7
100
AcDbLine
 10
-147.4999999999999
 20
439.5672957897317
 30
0.0
 11
295.0
 21
439.5672957897317
 31
0.0
  0
LINE
  5
126
330
273
100
AcDbEntity
  8
SPEC
  6
Continuous
 62
     7
100
AcDbLine
 10
-147.4999999999999
 20
428.3172957897317
 30
0.0
 11
295.0
 21
428.3172957897317
 31
0.0
  0
LINE
  5
127
330
273
100
AcDbEntity
  8
SPEC
  6
Continuous
 62
     7
100
AcDbLine
 10
-147.4999999999999
 20
417.0672957897317
 30
0.0
 11
295.0
 21
417.0672957897317
 31
0.0
  0
LINE
  5
128
330
273
100
AcDbEntity
  8
SPEC
  6
Continuous
 62
     7
100
AcDbLine
 10
-147.4999999999999
 20
405.8172957897317
 30
0.0
 11
295.0
 21
405.8172957897317
 31
0.0
  0
LINE
  5
129
330
273
100
AcDbEntity
  8
SPEC
  6
Continuous
 62
     7
100
AcDbLine
 10
-147.4999999999999
 20
394.5672957897317
 30
0.0
 11
295.0
 21
394.5672957897317
 31
0.0
  0
TEXT
  5
12A
330
273
100
AcDbEntity
  8
SPEC
 62
     7
100
AcDbText
 10
-145.0720004975963
 20
363.8219085405336
 30
0.0
 40
5.700944010416667
  1
寸法
 41
0.7
 11
-145.0720004975963
 21
369.5228525509502
 31
0.0
100
AcDbText
 73
     3
  0
TEXT
  5
12B
330
273
100
AcDbEntity
  8
SPEC
 62
     7
100
AcDbText
 10
-28.11664689947459
 20
363.5767534146899
 30
0.0
 40
5.700944010416667
  1
\U+03A651\U+00D7249mm(突起部含まず）
 41
0.7
 11
-28.11664689947459
 21
369.2776974251066
 31
0.0
100
AcDbText
 73
     3
  0
TEXT
  5
12C
330
273
100
AcDbEntity
  8
SPEC
 62
     7
100
AcDbText
 10
-27.50478358711011
 20
352.1726145721522
 30
0.0
 40
5.700944010416667
  1
約308g(除電池)
 41
0.7
 11
-27.50478358711011
 21
357.8735585825688
 31
0.0
100
AcDbText
 73
     3
  0
TEXT
  5
12D
330
273
100
AcDbEntity
  8
SPEC
 62
     7
100
AcDbText
 10
-145.0125719837252
 20
352.3965897372428
 30
0.0
 40
5.700944010416667
  1
重量
 41
0.7
 11
-145.0125719837252
 21
358.0975337476595
 31
0.0
100
AcDbText
 73
     3
  0
TEXT
  5
12E
330
273
100
AcDbEntity
  8
SPEC
 62
     7
100
AcDbText
 10
-145.0367965653102
 20
375.1251424351218
 30
0.0
 40
5.700944010416667
  1
電池寿命
 41
0.7
 11
-145.0367965653102
 21
380.8260864455385
 31
0.0
100
AcDbText
 73
     3
  0
TEXT
  5
12F
330
273
100
AcDbEntity
  8
SPEC
 62
     7
100
AcDbText
 10
-145.0567813387895
 20
386.3343258334008
 30
0.0
 40
5.700944010416667
  1
電源
 41
0.7
 11
-145.0567813387895
 21
392.0352698438175
 31
0.0
100
AcDbText
 73
     3
  0
TEXT
  5
130
330
273
100
AcDbEntity
  8
SPEC
 62
     7
100
AcDbText
 10
-27.38750190857432
 20
386.2684825602718
 30
0.0
 40
5.700944010416667
  1
単3形アルカリ乾電池\U+00D72、もしくは専用リチウムイオンバッテリーSB900
 41
0.7
 11
-27.38750190857432
 21
391.9694265706884
 31
0.0
100
AcDbText
 73
     3
  0
TEXT
  5
131
330
273
100
AcDbEntity
  8
SPEC
 62
     7
100
AcDbText
 10
-144.8441373497727
 20
408.9448719624778
 30
0.0
 40
5.700944010416667
  1
最大入力レベル(1kHz、THD1%%%）
 41
0.7
 11
-144.8441373497727
 21
414.6458159728945
 31
0.0
100
AcDbText
 73
     3
  0
TEXT
  5
132
330
273
100
AcDbEntity
  8
SPEC
 62
     7
100
AcDbText
 10
-27.61355921050807
 20
408.8931155428067
 30
0.0
 40
5.700944010416667
  1
145dB SPL(SM58：代表値）＊マイクヘッドにより変動
 41
0.7
 11
-27.61355921050807
 21
414.5940595532233
 31
0.0
100
AcDbText
 73
     3
  0
TEXT
  5
133
330
273
100
AcDbEntity
  8
SPEC
 62
     7
100
AcDbText
 10
-145.1942879150958
 20
442.4964661139011
 30
0.0
 40
5.700944010416667
  1
アンテナ形式
 41
0.7
 11
-145.1942879150958
 21
448.1974101243178
 31
0.0
100
AcDbText
 73
     3
  0
TEXT
  5
134
330
273
100
AcDbEntity
  8
SPEC
 62
     7
100
AcDbText
 10
-27.77718305873833
 20
442.6724559355737
 30
0.0
 40
5.700944010416667
  1
内蔵型ヘリカル
 41
0.7
 11
-27.77718305873833
 21
448.3733999459904
 31
0.0
100
AcDbText
 73
     3
  0
TEXT
  5
135
330
273
100
AcDbEntity
  8
SPEC
 62
     7
100
AcDbText
 10
-144.8305921259641
 20
453.9047294013434
 30
0.0
 40
5.700944010416667
  1
送信出力
 41
0.7
 11
-144.8305921259641
 21
459.60567341176
 31
0.0
100
AcDbText
 73
     3
  0
TEXT
  5
136
330
273
100
AcDbEntity
  8
SPEC
 62
     7
100
AcDbText
 10
-145.0797572481172
 20
464.9982455108536
 30
0.0
 40
5.700944010416667
  1
電波方式
 41
0.7
 11
-145.0797572481172
 21
470.6991895212702
 31
0.0
100
AcDbText
 73
     3
  0
TEXT
  5
137
330
273
100
AcDbEntity
  8
SPEC
 62
     7
100
AcDbText
 10
-27.19150386942981
 20
464.7746206933466
 30
0.0
 40
5.700944010416667
  1
G1D、G1E
 41
0.7
 11
-27.19150386942981
 21
470.4755647037633
 31
0.0
100
AcDbText
 73
     3
  0
TEXT
  5
138
330
273
100
AcDbEntity
  8
SPEC
 62
     7
100
AcDbText
 10
-144.757622742618
 20
498.446626490604
 30
0.0
 40
5.700944010416667
  1
送信周波数
 41
0.7
 11
-144.757622742618
 21
504.1475705010206
 31
0.0
100
AcDbText
 73
     3
  0
TEXT
  5
139
330
273
100
AcDbEntity
  8
SPEC
 62
     7
100
AcDbText
 10
-27.36527577645011
 20
375.1585098890564
 30
0.0
 40
5.700944010416667
  1
約11時間(アルカリ乾電池)、約12時間(SB900)＊使用環境によって異なる
 41
0.7
 11
-27.36527577645011
 21
380.859453899473
 31
0.0
100
AcDbText
 73
     3
  0
LINE
  5
13A
330
273
100
AcDbEntity
  8
SPEC
  6
Continuous
 62
     7
100
AcDbLine
 10
-147.4999999999999
 20
383.3172957897318
 30
0.0
 11
295.0
 21
383.3172957897318
 31
0.0
  0
TEXT
  5
13B
330
273
100
AcDbEntity
  8
SPEC
 62
     7
100
AcDbText
 10
-144.8719811237435
 20
341.3576079611082
 30
0.0
 40
5.700944010416667
  1
付属品
 41
0.7
 11
-144.8719811237435
 21
347.0585519715248
 31
0.0
100
AcDbText
 73
     3
  0
TEXT
  5
13C
330
273
100
AcDbEntity
  8
SPEC
 62
     7
100
AcDbText
 10
-27.33657509151602
 20
340.6108680448784
 30
0.0
 40
5.700944010416667
  1
単3型 アルカリ乾電池\U+00D72、マイクホルダー、3/8"ー 5/8"変換ねじ、マイクポーチ
 41
0.7
 11
-27.33657509151602
 21
346.311812055295
 31
0.0
100
AcDbText
 73
     3
  0
TEXT
  5
13D
330
273
100
AcDbEntity
  8
SPEC
 62
     7
100
AcDbText
 10
-27.3096308695625
 20
487.3891551062217
 30
0.0
 40
5.700944010416665
  1
ULXD2-AB：A1～A4帯(770～806MHz)284チャンネル、B帯(806～810MHz)30チャンネル、
 41
0.7
 11
-27.3096308695625
 21
493.0900991166383
 31
0.0
100
AcDbText
 73
     3
  0
TEXT
  5
13E
330
273
100
AcDbEntity
  8
SPEC
 62
     7
100
AcDbText
 10
-27.3625064511696
 20
476.3217321321509
 30
0.0
 40
5.700944010416665
  1
合計314チャンネルのうち任意の1チャンネル
 41
0.7
 11
-27.3625064511696
 21
482.0226761425676
 31
0.0
100
AcDbText
 73
     3
  0
TEXT
  5
13F
330
273
100
AcDbEntity
  8
SPEC
 62
     7
100
AcDbText
 10
-27.2596319836782
 20
498.5955214442077
 30
0.0
 40
5.700944010416665
  1
ULXD2-JB：B帯(806～810MHz)30チャンネルのうち任意の1チャンネル
 41
0.7
 11
-27.2596319836782
 21
504.2964654546243
 31
0.0
100
AcDbText
 73
     3
  0
TEXT
  5
140
330
273
100
AcDbEntity
  8
SPEC
 62
     7
100
AcDbText
 10
-27.0704450789476
 20
453.5901685701761
 30
0.0
 40
5.700944010416665
  1
A帯：1mW、10mW、20mW　B帯：1mW、10mW
 41
0.7
 11
-27.0704450789476
 21
459.2911125805928
 31
0.0
100
AcDbText
 73
     3
  0
TEXT
  5
141
330
273
100
AcDbEntity
  8
SPEC
 62
     7
100
AcDbText
 10
-145.0111883887209
 20
431.3082092170017
 30
0.0
 40
5.700944010416667
  1
到達距離
 41
0.7
 11
-145.0111883887209
 21
437.0091532274184
 31
0.0
100
AcDbText
 73
     3
  0
TEXT
  5
142
330
273
100
AcDbEntity
  8
SPEC
 62
     7
100
AcDbText
 10
-27.49692192873808
 20
431.5774600045227
 30
0.0
 40
5.700944010416667
  1
空中線電力10mW約100m　＊見通しの良い屋外で使用した場合。使用環境によって異なる
 41
0.7
 11
-27.49692192873808
 21
437.2784040149393
 31
0.0
100
AcDbText
 73
     3
  0
TEXT
  5
143
330
273
100
AcDbEntity
  8
SPEC
 62
     7
100
AcDbText
 10
-144.7836047072784
 20
419.9466271555072
 30
0.0
 40
5.700944010416665
  1
周波数特性
 41
0.7
 11
-144.7836047072784
 21
425.6475711659239
 31
0.0
100
AcDbText
 73
     3
  0
TEXT
  5
144
330
273
100
AcDbEntity
  8
SPEC
 62
     7
100
AcDbText
 10
-27.29529379208563
 20
420.2648240289865
 30
0.0
 40
5.700944010416665
  1
30Hz～20kHz(\U+00B11dB）＊システム全体の帯域幅はマイクヘッドにより変動
 41
0.7
 11
-27.29529379208563
 21
425.9657680394032
 31
0.0
100
AcDbText
 73
     3
  0
TEXT
  5
145
330
273
100
AcDbEntity
  8
SPEC
 62
     7
100
AcDbText
 10
-145.1105898480245
 20
397.4439742123739
 30
0.0
 40
5.700944010416667
  1
ゲイン調整範囲
 41
0.7
 11
-145.1105898480245
 21
403.1449182227905
 31
0.0
100
AcDbText
 73
     3
  0
TEXT
  5
146
330
273
100
AcDbEntity
  8
SPEC
 62
     7
100
AcDbText
 10
-27.10549449497314
 20
397.5852968515595
 30
0.0
 40
5.700944010416667
  1
0～+21dB(3dBステップ）
 41
0.7
 11
-27.10549449497314
 21
403.2862408619761
 31
0.0
100
AcDbText
 73
     3
  0
LINE
  5
147
330
273
100
AcDbEntity
  8
SPEC
  6
Continuous
 62
     7
100
AcDbLine
 10
-147.4999999999999
 20
372.0672957897317
 30
0.0
 11
295.0
 21
372.0672957897317
 31
0.0
  0
LINE
  5
148
330
273
100
AcDbEntity
  8
SPEC
  6
Continuous
 62
     7
100
AcDbLine
 10
-147.4999999999999
 20
360.8172957897318
 30
0.0
 11
295.0
 21
360.8172957897318
 31
0.0
  0
LINE
  5
149
330
273
100
AcDbEntity
  8
SPEC
  6
Continuous
 62
     7
100
AcDbLine
 10
-147.4999999999999
 20
349.5672957897318
 30
0.0
 11
295.0
 21
349.5672957897318
 31
0.0
  0
LINE
  5
14A
330
273
100
AcDbEntity
  8
SPEC
  6
Continuous
 62
     7
100
AcDbLine
 10
-147.4999999999999
 20
338.3172957897317
 30
0.0
 11
295.0
 21
338.3172957897317
 31
0.0
  0
TEXT
  5
14B
330
273
100
AcDbEntity
  8
DIMNSIONS
 62
     7
100
AcDbText
 10
40.0
 20
-206.1242342102682
 30
0.0
 40
7.329785156249999
  1
(単位：mm)
 41
0.7
 11
40.0
 21
-198.7944490540181
 31
0.0
100
AcDbText
 73
     3
  0
LINE
  5
14C
330
273
100
AcDbEntity
  8
DIMNSIONS
  6
Continuous
 62
     7
100
AcDbLine
 10
14.5
 20
17.5
 30
0.0
 11
-31.00000000000001
 21
17.5
 31
0.0
  0
LINE
  5
14D
330
273
100
AcDbEntity
  8
DIMNSIONS
  6
Continuous
 62
     7
100
AcDbLine
 10
12.9975020762574
 20
165.4999999998846
 30
0.0
 11
-30.99999999999999
 21
165.4999999998846
 31
0.0
  0
LINE
  5
14E
330
273
100
AcDbEntity
  8
DIMNSIONS
  6
Continuous
 62
     7
100
AcDbLine
 10
-25.0
 20
17.5
 30
0.0
 11
-25.0
 21
165.4999999998846
 31
0.0
  0
LINE
  5
14F
330
273
100
AcDbEntity
  8
DIMNSIONS
  6
Continuous
 62
     7
100
AcDbLine
 10
-25.0
 20
17.5
 30
0.0
 11
-27.01011938545074
 21
25.00186767578126
 31
0.0
  0
LINE
  5
150
330
273
100
AcDbEntity
  8
DIMNSIONS
  6
Continuous
 62
     7
100
AcDbLine
 10
-25.0
 20
17.5
 30
0.0
 11
-22.98988061454928
 21
25.00186767578126
 31
0.0
  0
LINE
  5
151
330
273
100
AcDbEntity
  8
DIMNSIONS
  6
Continuous
 62
     7
100
AcDbLine
 10
-25.0
 20
165.4999999998846
 30
0.0
 11
-22.98988061454928
 21
157.9981323241033
 31
0.0
  0
LINE
  5
152
330
273
100
AcDbEntity
  8
DIMNSIONS
  6
Continuous
 62
     7
100
AcDbLine
 10
-25.0
 20
165.4999999998846
 30
0.0
 11
-27.01011938545074
 21
157.9981323241033
 31
0.0
  0
TEXT
  5
153
330
273
100
AcDbEntity
  8
DIMNSIONS
 62
     7
100
AcDbText
 10
-27.98166666666667
 20
92.0625
 30
0.0
 40
8.144205729166666
  1
148
 50
90.0
 41
0.7
 11
-36.12587239583334
 21
92.0625
 31
0.0
100
AcDbText
 73
     3
  0
LINE
  5
154
330
273
100
AcDbEntity
  8
DIMNSIONS
  6
Continuous
 62
     7
100
AcDbLine
 10
18.5
 20
-12.5
 30
0.0
 11
-31.00000000000001
 21
-12.5
 31
0.0
  0
LINE
  5
155
330
273
100
AcDbEntity
  8
DIMNSIONS
  6
Continuous
 62
     7
100
AcDbLine
 10
14.5
 20
17.5
 30
0.0
 11
-30.99999999999999
 21
17.5
 31
0.0
  0
LINE
  5
156
330
273
100
AcDbEntity
  8
DIMNSIONS
  6
Continuous
 62
     7
100
AcDbLine
 10
-25.0
 20
-12.5
 30
0.0
 11
-25.0
 21
17.5
 31
0.0
  0
LINE
  5
157
330
273
100
AcDbEntity
  8
DIMNSIONS
  6
Continuous
 62
     7
100
AcDbLine
 10
-25.0
 20
-12.5
 30
0.0
 11
-27.01011938545074
 21
-4.998132324218744
 31
0.0
  0
LINE
  5
158
330
273
100
AcDbEntity
  8
DIMNSIONS
  6
Continuous
 62
     7
100
AcDbLine
 10
-25.0
 20
-12.5
 30
0.0
 11
-22.98988061454928
 21
-4.998132324218744
 31
0.0
  0
LINE
  5
159
330
273
100
AcDbEntity
  8
DIMNSIONS
  6
Continuous
 62
     7
100
AcDbLine
 10
-25.0
 20
17.5
 30
0.0
 11
-22.98988061454928
 21
9.998132324218744
 31
0.0
  0
LINE
  5
15A
330
273
100
AcDbEntity
  8
DIMNSIONS
  6
Continuous
 62
     7
100
AcDbLine
 10
-25.0
 20
17.5
 30
0.0
 11
-27.01011938545074
 21
9.998132324218744
 31
0.0
  0
TEXT
  5
15B
330
273
100
AcDbEntity
  8
DIMNSIONS
 62
     7
100
AcDbText
 10
-27.98166666666667
 20
-2.791666666666657
 30
0.0
 40
8.144205729166666
  1
30
 50
90.0
 41
0.7
 11
-36.12587239583334
 21
-2.791666666666656
 31
0.0
100
AcDbText
 73
     3
  0
LINE
  5
15C
330
273
100
AcDbEntity
  8
DIMNSIONS
  6
Continuous
 62
     7
100
AcDbLine
 10
49.24490227969913
 20
-64.86579423862275
 30
0.0
 11
59.0
 21
-46.06624327025935
 31
0.0
  0
LINE
  5
15D
330
273
100
AcDbEntity
  8
DIMNSIONS
  6
Continuous
 62
     7
100
AcDbLine
 10
49.24490227969913
 20
-64.86579423862275
 30
0.0
 11
50.99198574851833
 21
-57.29834434307172
 31
0.0
  0
LINE
  5
15E
330
273
100
AcDbEntity
  8
DIMNSIONS
  6
Continuous
 62
     7
100
AcDbLine
 10
49.24490227969913
 20
-64.86579423862275
 30
0.0
 11
54.5416458940039
 21
-59.18573212161928
 31
0.0
  0
LINE
  5
15F
330
273
100
AcDbEntity
  8
DIMNSIONS
  6
Continuous
 62
     7
100
AcDbLine
 10
59.0
 20
-46.06624327025935
 30
0.0
 11
86.16666666666665
 21
-46.06624327025935
 31
0.0
  0
TEXT
  5
160
330
273
100
AcDbEntity
  8
DIMNSIONS
 62
     7
100
AcDbText
 10
65.0
 20
-43.08457660359267
 30
0.0
 40
8.144205729166666
  1
\U+03C651
 41
0.7
 11
65.0
 21
-34.94037087442601
 31
0.0
100
AcDbText
 73
     3
  0
LINE
  5
161
330
273
100
AcDbEntity
  8
DIMNSIONS
  6
Continuous
 62
     7
100
AcDbLine
 10
12.9975020762574
 20
165.4999999998846
 30
0.0
 11
-31.00000000000001
 21
165.4999999998846
 31
0.0
  0
LINE
  5
162
330
273
100
AcDbEntity
  8
DIMNSIONS
  6
Continuous
 62
     7
100
AcDbLine
 10
15.62225409185428
 20
236.4999999998845
 30
0.0
 11
-30.99999999999999
 21
236.4999999998845
 31
0.0
  0
LINE
  5
163
330
273
100
AcDbEntity
  8
DIMNSIONS
  6
Continuous
 62
     7
100
AcDbLine
 10
-25.0
 20
165.4999999998846
 30
0.0
 11
-25.0
 21
236.4999999998845
 31
0.0
  0
LINE
  5
164
330
273
100
AcDbEntity
  8
DIMNSIONS
  6
Continuous
 62
     7
100
AcDbLine
 10
-25.0
 20
165.4999999998846
 30
0.0
 11
-27.01011938545074
 21
173.0018676756658
 31
0.0
  0
LINE
  5
165
330
273
100
AcDbEntity
  8
DIMNSIONS
  6
Continuous
 62
     7
100
AcDbLine
 10
-25.0
 20
165.4999999998846
 30
0.0
 11
-22.98988061454928
 21
173.0018676756658
 31
0.0
  0
LINE
  5
166
330
273
100
AcDbEntity
  8
DIMNSIONS
  6
Continuous
 62
     7
100
AcDbLine
 10
-25.0
 20
236.4999999998845
 30
0.0
 11
-22.98988061454928
 21
228.9981323241033
 31
0.0
  0
LINE
  5
167
330
273
100
AcDbEntity
  8
DIMNSIONS
  6
Continuous
 62
     7
100
AcDbLine
 10
-25.0
 20
236.4999999998845
 30
0.0
 11
-27.01011938545074
 21
228.9981323241033
 31
0.0
  0
TEXT
  5
168
330
273
100
AcDbEntity
  8
DIMNSIONS
 62
     7
100
AcDbText
 10
-27.98166666666667
 20
195.7083333332179
 30
0.0
 40
8.144205729166666
  1
71
 50
90.0
 41
0.7
 11
-36.12587239583334
 21
195.7083333332179
 31
0.0
100
AcDbText
 73
     3
  0
TEXT
  5
169
330
273
100
AcDbEntity
  8
DATA
 62
     7
100
AcDbText
 10
227.2450244021841
 20
-209.6323794015673
 30
0.0
 40
7.329785156249999
  1
ULXD2/B87C-AB 、ULXD2/B87C-JB
 41
0.7
 11
227.2450244021841
 21
-202.3025942453173
 31
0.0
100
AcDbText
 73
     3
  0
TEXT
  5
16A
330
273
100
AcDbEntity
  8
DATA
 62
     7
100
AcDbText
 10
250.0
 20
-186.5415567281297
 30
0.0
 40
7.329785156249999
  1
SHURE
 41
0.7
 11
250.0
 21
-179.2117715718797
 31
0.0
100
AcDbText
 73
     3
  0
TEXT
  5
16B
330
273
100
AcDbEntity
  8
DATA
 62
     7
100
AcDbText
 10
-139.9999999999999
 20
-230.2187042102682
 30
0.0
 40
4.886523437499999
  1
仕様および外観は予告なく変更されることがありますので、ご了承ください。
 41
0.7
 11
-139.9999999999999
 21
-225.3321807727682
 31
0.0
100
AcDbText
 73
     3
  0
CIRCLE
  5
16C
330
273
100
AcDbEntity
  8
DATA
  6
Continuous
 62
     7
100
AcDbCircle
 10
37.50000000015734
 20
-87.49999999990381
 30
0.0
 40
24.59831743131227
  0
CIRCLE
  5
16D
330
273
100
AcDbEntity
  8
DATA
  6
Continuous
 62
     7
100
AcDbCircle
 10
37.50000000015734
 20
-87.49999999990381
 30
0.0
 40
18.5
  0
CIRCLE
  5
16E
330
273
100
AcDbEntity
  8
DATA
  6
Continuous
 62
     7
100
AcDbCircle
 10
37.50000000015734
 20
-87.49999999990381
 30
0.0
 40
25.49999999999999
  0
LINE
  5
16F
330
273
100
AcDbEntity
  8
DATA
  6
Continuous
 62
     7
100
AcDbLine
 10
55.99750207625732
 20
165.4999999998846
 30
0.0
 11
18.9975020762574
 21
165.4999999998846
 31
0.0
  0
CIRCLE
  5
170
330
273
100
AcDbEntity
  8
DATA
  6
Continuous
 62
     7
100
AcDbCircle
 10
37.50000000015734
 20
-87.49999999990381
 30
0.0
 40
19.5
  0
LINE
  5
171
330
273
100
AcDbEntity
  8
DATA
  6
Continuous
 62
     7
100
AcDbLine
 10
20.0000000000551
 20
166.0000000000454
 30
0.0
 11
20.0000000000551
 21
165.4999999998846
 31
0.0
  0
LINE
  5
172
330
273
100
AcDbEntity
  8
DATA
  6
Continuous
 62
     7
100
AcDbLine
 10
55.0000000000551
 20
166.0000000000454
 30
0.0
 11
55.0000000000551
 21
165.4999999998846
 31
0.0
  0
TEXT
  5
173
330
273
100
AcDbEntity
  8
DATA
 62
     7
100
AcDbText
 10
227.3956115775193
 20
-196.6533288126585
 30
0.0
 40
4.886523437499999
  1
ハンドヘルド型送信機
 41
0.7
 11
227.3956115775193
 21
-191.7668053751586
 31
0.0
100
AcDbText
 73
     3
  0
LINE
  5
174
330
273
100
AcDbEntity
  8
DATA
  6
Continuous
 62
     7
100
AcDbLine
 10
26.95868053144624
 20
-12.5
 30
0.0
 11
48.04131946855375
 21
-12.5
 31
0.0
  0
LINE
  5
175
330
273
100
AcDbEntity
  8
DATA
  6
Continuous
 62
     7
100
AcDbLine
 10
20.5
 20
17.5
 30
0.0
 11
54.5
 21
17.5
 31
0.0
  0
LINE
  5
176
330
273
100
AcDbEntity
  8
DATA
  6
Continuous
 62
     7
100
AcDbLine
 10
20.5
 20
17.5
 30
0.0
 11
19.59139483665612
 21
106.9999999998845
 31
0.0
  0
LINE
  5
177
330
273
100
AcDbEntity
  8
DATA
  6
Continuous
 62
     7
100
AcDbLine
 10
19.58631883015698
 20
107.4999999998845
 30
0.0
 11
18.9975020762574
 21
165.4999999998846
 31
0.0
  0
LINE
  5
178
330
273
100
AcDbEntity
  8
DATA
  6
Continuous
 62
     7
100
AcDbLine
 10
55.99750207625732
 20
165.4999999998846
 30
0.0
 11
55.41064315448036
 21
107.4999999998845
 31
0.0
  0
LINE
  5
179
330
273
100
AcDbEntity
  8
DATA
  6
Continuous
 62
     7
100
AcDbLine
 10
55.40558402584434
 20
106.9999999998845
 30
0.0
 11
54.5
 21
17.5
 31
0.0
  0
LINE
  5
17A
330
273
100
AcDbEntity
  8
DATA
  6
Continuous
 62
     7
100
AcDbLine
 10
24.45902768134724
 20
-10.04166088083499
 30
0.0
 11
24.0
 21
17.5
 31
0.0
  0
LINE
  5
17B
330
273
100
AcDbEntity
  8
DATA
  6
Continuous
 62
     7
100
AcDbLine
 10
50.54097231865274
 20
-10.04166088083499
 30
0.0
 11
51.0
 21
17.5
 31
0.0
  0
ARC
  5
17C
330
273
100
AcDbEntity
  8
DATA
  6
Continuous
 62
     7
100
AcDbCircle
 10
37.5000000001573
 20
-87.49999999990377
 30
0.0
 40
13.00000000000005
100
AcDbArc
 50
313.0490798002363
 51
226.9509201997637
  0
ARC
  5
17D
330
273
100
AcDbEntity
  8
DATA
  6
Continuous
 62
     7
100
AcDbCircle
 10
37.50000000015734
 20
-87.49999999990381
 30
0.0
 40
13.49999999999999
100
AcDbArc
 50
315.2750868450663
 51
224.7249131549339
  0
CIRCLE
  5
17E
330
273
100
AcDbEntity
  8
DATA
  6
Continuous
 62
     7
100
AcDbCircle
 10
37.50000000015734
 20
-87.49999999990381
 30
0.0
 40
17.0
  0
LINE
  5
17F
330
273
100
AcDbEntity
  8
DATA
  6
Continuous
 62
     7
100
AcDbLine
 10
27.90833695353184
 20
-96.99999999990382
 30
0.0
 11
47.09166304678282
 21
-96.99999999990382
 31
0.0
  0
LINE
  5
180
330
273
100
AcDbEntity
  8
DATA
  6
Continuous
 62
     7
100
AcDbLine
 10
27.5
 20
129.4999999998845
 30
0.0
 11
47.5
 21
129.4999999998845
 31
0.0
  0
LINE
  5
181
330
273
100
AcDbEntity
  8
DATA
  6
Continuous
 62
     7
100
AcDbLine
 10
24.0
 20
110.7999999998845
 30
0.0
 11
24.0
 21
142.1999999998845
 31
0.0
  0
ARC
  5
182
330
273
100
AcDbEntity
  8
DATA
  6
Continuous
 62
     7
100
AcDbCircle
 10
24.3
 20
110.7999999998845
 30
0.0
 40
0.2999999999999972
100
AcDbArc
 50
180.0
 51
270.0
  0
LINE
  5
183
330
273
100
AcDbEntity
  8
DATA
  6
Continuous
 62
     7
100
AcDbLine
 10
50.7
 20
110.4999999998845
 30
0.0
 11
24.3
 21
110.4999999998845
 31
0.0
  0
ARC
  5
184
330
273
100
AcDbEntity
  8
DATA
  6
Continuous
 62
     7
100
AcDbCircle
 10
50.7
 20
110.7999999998845
 30
0.0
 40
0.2999999999999972
100
AcDbArc
 50
270.0
 51
0.0000000000006821
  0
LINE
  5
185
330
273
100
AcDbEntity
  8
DATA
  6
Continuous
 62
     7
100
AcDbLine
 10
51.0
 20
142.1999999998845
 30
0.0
 11
51.0
 21
110.7999999998845
 31
0.0
  0
ARC
  5
186
330
273
100
AcDbEntity
  8
DATA
  6
Continuous
 62
     7
100
AcDbCircle
 10
50.7
 20
142.1999999998845
 30
0.0
 40
0.2999999999999972
100
AcDbArc
 50
0.0
 51
90.0
  0
LINE
  5
187
330
273
100
AcDbEntity
  8
DATA
  6
Continuous
 62
     7
100
AcDbLine
 10
24.3
 20
142.4999999998846
 30
0.0
 11
50.7
 21
142.4999999998846
 31
0.0
  0
ARC
  5
188
330
273
100
AcDbEntity
  8
DATA
  6
Continuous
 62
     7
100
AcDbCircle
 10
24.3
 20
142.1999999998845
 30
0.0
 40
0.3000000000000114
100
AcDbArc
 50
90.0
 51
179.9999999999978
  0
LINE
  5
189
330
273
100
AcDbEntity
  8
DATA
  6
Continuous
 62
     7
100
AcDbLine
 10
27.5
 20
139.4999999998846
 30
0.0
 11
27.5
 21
129.4999999998845
 31
0.0
  0
LINE
  5
18A
330
273
100
AcDbEntity
  8
DATA
  6
Continuous
 62
     7
100
AcDbLine
 10
47.5
 20
139.4999999998846
 30
0.0
 11
47.5
 21
129.4999999998845
 31
0.0
  0
LINE
  5
18B
330
273
100
AcDbEntity
  8
DATA
  6
Continuous
 62
     7
100
AcDbLine
 10
47.5
 20
139.4999999998846
 30
0.0
 11
27.5
 21
139.4999999998846
 31
0.0
  0
LINE
  5
18C
330
273
100
AcDbEntity
  8
DATA
  6
Continuous
 62
     7
100
AcDbLine
 10
28.0
 20
127.4999999998845
 30
0.0
 11
47.0
 21
127.4999999998845
 31
0.0
  0
LINE
  5
18D
330
273
100
AcDbEntity
  8
DATA
  6
Continuous
 62
     7
100
AcDbLine
 10
28.0
 20
123.4999999998845
 30
0.0
 11
47.0
 21
123.4999999998845
 31
0.0
  0
LINE
  5
18E
330
273
100
AcDbEntity
  8
DATA
  6
Continuous
 62
     7
100
AcDbLine
 10
27.5
 20
123.9999999998845
 30
0.0
 11
27.5
 21
126.9999999998845
 31
0.0
  0
LINE
  5
18F
330
273
100
AcDbEntity
  8
DATA
  6
Continuous
 62
     7
100
AcDbLine
 10
47.5
 20
123.9999999998845
 30
0.0
 11
47.5
 21
126.9999999998845
 31
0.0
  0
LINE
  5
190
330
273
100
AcDbEntity
  8
DATA
  6
Continuous
 62
     7
100
AcDbLine
 10
31.0
 20
112.9999999998845
 30
0.0
 11
31.0
 21
119.9999999998845
 31
0.0
  0
ARC
  5
191
330
273
100
AcDbEntity
  8
DATA
  6
Continuous
 62
     7
100
AcDbCircle
 10
31.5
 20
112.9999999998845
 30
0.0
 40
0.5
100
AcDbArc
 50
180.0
 51
270.0
  0
LINE
  5
192
330
273
100
AcDbEntity
  8
DATA
  6
Continuous
 62
     7
100
AcDbLine
 10
43.5
 20
112.4999999998845
 30
0.0
 11
31.5
 21
112.4999999998845
 31
0.0
  0
ARC
  5
193
330
273
100
AcDbEntity
  8
DATA
  6
Continuous
 62
     7
100
AcDbCircle
 10
43.5
 20
112.9999999998845
 30
0.0
 40
0.5
100
AcDbArc
 50
270.0
 51
0.0
  0
LINE
  5
194
330
273
100
AcDbEntity
  8
DATA
  6
Continuous
 62
     7
100
AcDbLine
 10
44.0
 20
119.9999999998845
 30
0.0
 11
44.0
 21
112.9999999998845
 31
0.0
  0
ARC
  5
195
330
273
100
AcDbEntity
  8
DATA
  6
Continuous
 62
     7
100
AcDbCircle
 10
43.5
 20
119.9999999998845
 30
0.0
 40
0.5
100
AcDbArc
 50
0.0
 51
90.0
  0
LINE
  5
196
330
273
100
AcDbEntity
  8
DATA
  6
Continuous
 62
     7
100
AcDbLine
 10
31.5
 20
120.4999999998845
 30
0.0
 11
43.5
 21
120.4999999998845
 31
0.0
  0
ARC
  5
197
330
273
100
AcDbEntity
  8
DATA
  6
Continuous
 62
     7
100
AcDbCircle
 10
31.5
 20
119.9999999998845
 30
0.0
 40
0.5
100
AcDbArc
 50
90.0
 51
180.0
  0
LINE
  5
198
330
273
100
AcDbEntity
  8
DATA
  6
Continuous
 62
     7
100
AcDbLine
 10
55.41064315448036
 20
107.4999999998845
 30
0.0
 11
19.586318830157
 21
107.4999999998845
 31
0.0
  0
LINE
  5
199
330
273
100
AcDbEntity
  8
DATA
  6
Continuous
 62
     7
100
AcDbLine
 10
55.40558402584434
 20
106.9999999998845
 30
0.0
 11
19.59139483665612
 21
106.9999999998845
 31
0.0
  0
LINE
  5
19A
330
273
100
AcDbEntity
  8
DATA
  6
Continuous
 62
     7
100
AcDbLine
 10
20.89999999999999
 20
106.9999999998845
 30
0.0
 11
20.89999999999999
 21
107.4999999998845
 31
0.0
  0
LINE
  5
19B
330
273
100
AcDbEntity
  8
DATA
  6
Continuous
 62
     7
100
AcDbLine
 10
54.09697886250047
 20
106.9999999998845
 30
0.0
 11
54.09697886250047
 21
107.4999999998845
 31
0.0
  0
LINE
  5
19C
330
273
100
AcDbEntity
  8
DATA
  6
Continuous
 62
     7
100
AcDbLine
 10
31.0
 20
113.55
 30
0.0
 11
44.0
 21
113.55
 31
0.0
  0
LINE
  5
19D
330
273
100
AcDbEntity
  8
DATA
  6
Continuous
 62
     7
100
AcDbLine
 10
31.0
 20
115.75
 30
0.0
 11
44.0
 21
115.75
 31
0.0
  0
ARC
  5
19E
330
273
100
AcDbEntity
  8
DATA
  6
Continuous
 62
     7
100
AcDbCircle
 10
28.0
 20
126.9999999998845
 30
0.0
 40
0.5
100
AcDbArc
 50
90.0
 51
180.0
  0
ARC
  5
19F
330
273
100
AcDbEntity
  8
DATA
  6
Continuous
 62
     7
100
AcDbCircle
 10
47.0
 20
126.9999999998845
 30
0.0
 40
0.5
100
AcDbArc
 50
0.0
 51
90.0
  0
ARC
  5
1A0
330
273
100
AcDbEntity
  8
DATA
  6
Continuous
 62
     7
100
AcDbCircle
 10
28.0
 20
123.9999999998845
 30
0.0
 40
0.5
100
AcDbArc
 50
180.0
 51
270.0
  0
ARC
  5
1A1
330
273
100
AcDbEntity
  8
DATA
  6
Continuous
 62
     7
100
AcDbCircle
 10
47.0
 20
123.9999999998845
 30
0.0
 40
0.5
100
AcDbArc
 50
270.0
 51
0.0
  0
TEXT
  5
1A2
330
273
100
AcDbEntity
  8
DATA
 62
     7
100
AcDbText
 10
34.53775268926764
 20
140.076996817672
 30
0.0
 40
1.8324462890625
  1
ULXD2
 41
0.7
 11
34.53775268926764
 21
141.9094431067345
 31
0.0
100
AcDbText
 73
     3
  0
TEXT
  5
1A3
330
273
100
AcDbEntity
  8
DATA
 62
     7
100
AcDbText
 10
36.31675904093289
 20
121.252125
 30
0.0
 40
1.8324462890625
  1
on
 41
0.7
 11
36.31675904093289
 21
123.0845712890625
 31
0.0
100
AcDbText
 73
     3
  0
LINE
  5
1A4
330
273
100
AcDbEntity
  8
DATA
  6
Continuous
 62
     7
100
AcDbLine
 10
193.4975020762573
 20
165.4999999998846
 30
0.0
 11
156.4975020762574
 21
165.4999999998846
 31
0.0
  0
LINE
  5
1A5
330
273
100
AcDbEntity
  8
DATA
  6
Continuous
 62
     7
100
AcDbLine
 10
157.5000000000551
 20
166.0000000000454
 30
0.0
 11
157.5000000000551
 21
165.4999999998846
 31
0.0
  0
LINE
  5
1A6
330
273
100
AcDbEntity
  8
DATA
  6
Continuous
 62
     7
100
AcDbLine
 10
192.5000000000551
 20
166.0000000000454
 30
0.0
 11
192.5000000000551
 21
165.4999999998846
 31
0.0
  0
LINE
  5
1A7
330
273
100
AcDbEntity
  8
DATA
  6
Continuous
 62
     7
100
AcDbLine
 10
164.4586805314462
 20
-12.5
 30
0.0
 11
185.5413194685537
 21
-12.5
 31
0.0
  0
LINE
  5
1A8
330
273
100
AcDbEntity
  8
DATA
  6
Continuous
 62
     7
100
AcDbLine
 10
158.0
 20
17.5
 30
0.0
 11
192.0
 21
17.5
 31
0.0
  0
LINE
  5
1A9
330
273
100
AcDbEntity
  8
DATA
  6
Continuous
 62
     7
100
AcDbLine
 10
158.0
 20
17.5
 30
0.0
 11
157.0913948366561
 21
106.9999999998845
 31
0.0
  0
LINE
  5
1AA
330
273
100
AcDbEntity
  8
DATA
  6
Continuous
 62
     7
100
AcDbLine
 10
157.086318830157
 20
107.4999999998845
 30
0.0
 11
156.4975020762574
 21
165.4999999998846
 31
0.0
  0
LINE
  5
1AB
330
273
100
AcDbEntity
  8
DATA
  6
Continuous
 62
     7
100
AcDbLine
 10
193.4975020762573
 20
165.4999999998846
 30
0.0
 11
192.9106431544803
 21
107.4999999998845
 31
0.0
  0
LINE
  5
1AC
330
273
100
AcDbEntity
  8
DATA
  6
Continuous
 62
     7
100
AcDbLine
 10
192.9055840258444
 20
106.9999999998845
 30
0.0
 11
192.0
 21
17.5
 31
0.0
  0
LINE
  5
1AD
330
273
100
AcDbEntity
  8
DATA
  6
Continuous
 62
     7
100
AcDbLine
 10
161.9590276813472
 20
-10.04166088083499
 30
0.0
 11
161.5
 21
17.5
 31
0.0
  0
LINE
  5
1AE
330
273
100
AcDbEntity
  8
DATA
  6
Continuous
 62
     7
100
AcDbLine
 10
188.0409723186527
 20
-10.04166088083499
 30
0.0
 11
188.5
 21
17.5
 31
0.0
  0
LINE
  5
1AF
330
273
100
AcDbEntity
  8
DATA
  6
Continuous
 62
     7
100
AcDbLine
 10
192.9106431544803
 20
107.4999999998845
 30
0.0
 11
157.086318830157
 21
107.4999999998845
 31
0.0
  0
LINE
  5
1B0
330
273
100
AcDbEntity
  8
DATA
  6
Continuous
 62
     7
100
AcDbLine
 10
192.9055840258444
 20
106.9999999998845
 30
0.0
 11
157.0913948366561
 21
106.9999999998845
 31
0.0
  0
LINE
  5
1B1
330
273
100
AcDbEntity
  8
DATA
  6
Continuous
 62
     7
100
AcDbLine
 10
158.3999999999999
 20
106.9999999998845
 30
0.0
 11
158.3999999999999
 21
107.4999999998845
 31
0.0
  0
LINE
  5
1B2
330
273
100
AcDbEntity
  8
DATA
  6
Continuous
 62
     7
100
AcDbLine
 10
191.5969788625004
 20
106.9999999998845
 30
0.0
 11
191.5969788625004
 21
107.4999999998845
 31
0.0
  0
LINE
  5
1B3
330
273
100
AcDbEntity
  8
DATA
  6
Continuous
 62
     7
100
AcDbLine
 10
179.300636104765
 20
10.48250860379465
 30
0.0
 11
179.301113021656
 21
17.5
 31
0.0
  0
LINE
  5
1B4
330
273
100
AcDbEntity
  8
DATA
  6
Continuous
 62
     7
100
AcDbLine
 10
180.878449614765
 20
10.48240680937468
 30
0.0
 11
179.300636104765
 21
10.48250860379465
 31
0.0
  0
LINE
  5
1B5
330
273
100
AcDbEntity
  8
DATA
  6
Continuous
 62
     7
100
AcDbLine
 10
180.8789265385741
 20
17.5
 30
0.0
 11
180.878449614765
 21
10.48240680937468
 31
0.0
  0
LINE
  5
1B6
330
273
100
AcDbEntity
  8
DATA
  6
Continuous
 62
     7
100
AcDbLine
 10
176.755775604765
 20
10.48268674402965
 30
0.0
 11
176.7562525095494
 21
17.5
 31
0.0
  0
LINE
  5
1B7
330
273
100
AcDbEntity
  8
DATA
  6
Continuous
 62
     7
100
AcDbLine
 10
178.333589114765
 20
10.48258494960967
 30
0.0
 11
176.755775604765
 21
10.48268674402965
 31
0.0
  0
LINE
  5
1B8
330
273
100
AcDbEntity
  8
DATA
  6
Continuous
 62
     7
100
AcDbLine
 10
178.3340660264674
 20
17.5
 30
0.0
 11
178.333589114765
 21
10.48258494960967
 31
0.0
  0
LINE
  5
1B9
330
273
100
AcDbEntity
  8
DATA
  6
Continuous
 62
     7
100
AcDbLine
 10
174.210915104765
 20
10.48286488426467
 30
0.0
 11
174.2113919974427
 21
17.5
 31
0.0
  0
LINE
  5
1BA
330
273
100
AcDbEntity
  8
DATA
  6
Continuous
 62
     7
100
AcDbLine
 10
175.788728614765
 20
10.48276308984466
 30
0.0
 11
174.210915104765
 21
10.48286488426467
 31
0.0
  0
LINE
  5
1BB
330
273
100
AcDbEntity
  8
DATA
  6
Continuous
 62
     7
100
AcDbLine
 10
175.7892055143609
 20
17.5
 30
0.0
 11
175.788728614765
 21
10.48276308984466
 31
0.0
  0
LINE
  5
1BC
330
273
100
AcDbEntity
  8
DATA
  6
Continuous
 62
     7
100
AcDbLine
 10
170.699007614765
 20
10.48311937031465
 30
0.0
 11
169.121194104765
 21
10.48322116473466
 31
0.0
  0
LINE
  5
1BD
330
273
100
AcDbEntity
  8
DATA
  6
Continuous
 62
     7
100
AcDbLine
 10
170.6994844901476
 20
17.5
 30
0.0
 11
170.699007614765
 21
10.48311937031465
 31
0.0
  0
LINE
  5
1BE
330
273
100
AcDbEntity
  8
DATA
  6
Continuous
 62
     7
100
AcDbLine
 10
171.666054604765
 20
10.48304302449966
 30
0.0
 11
171.6665314853362
 21
17.5
 31
0.0
  0
LINE
  5
1BF
330
273
100
AcDbEntity
  8
DATA
  6
Continuous
 62
     7
100
AcDbLine
 10
173.243868114765
 20
10.48294123007966
 30
0.0
 11
171.666054604765
 21
10.48304302449966
 31
0.0
  0
LINE
  5
1C0
330
273
100
AcDbEntity
  8
DATA
  6
Continuous
 62
     7
100
AcDbLine
 10
173.2443450022542
 20
17.5
 30
0.0
 11
173.243868114765
 21
10.48294123007966
 31
0.0
  0
LINE
  5
1C1
330
273
100
AcDbEntity
  8
DATA
  6
Continuous
 62
     7
100
AcDbLine
 10
169.121194104765
 20
10.48322116473466
 30
0.0
 11
169.1216709732295
 21
17.5
 31
0.0
  0
ARC
  5
1C2
330
273
100
AcDbEntity
  8
DATA
  6
Continuous
 62
     7
100
AcDbCircle
 10
26.95868053144625
 20
-10.0
 30
0.0
 40
2.500000000000011
100
AcDbArc
 50
180.9548412538724
 51
269.9999999999996
  0
ARC
  5
1C3
330
273
100
AcDbEntity
  8
DATA
  6
Continuous
 62
     7
100
AcDbCircle
 10
48.04131946855375
 20
-10.00000000000002
 30
0.0
 40
2.499999999999972
100
AcDbArc
 50
270.0
 51
359.0451587461282
  0
ARC
  5
1C4
330
273
100
AcDbEntity
  8
DATA
  6
Continuous
 62
     7
100
AcDbCircle
 10
164.4586805314462
 20
-10.0
 30
0.0
 40
2.499999999999996
100
AcDbArc
 50
180.9548412538724
 51
270.0
  0
ARC
  5
1C5
330
273
100
AcDbEntity
  8
DATA
  6
Continuous
 62
     7
100
AcDbCircle
 10
185.5413194685537
 20
-10.00000000000002
 30
0.0
 40
2.499999999999972
100
AcDbArc
 50
270.0
 51
359.0451587461282
  0
LINE
  5
1C6
330
273
100
AcDbEntity
  8
DATA
  6
Continuous
 62
     7
100
AcDbLine
 10
18.99750207657011
 20
166.0000000000454
 30
0.0
 11
55.99750207657012
 21
166.0000000000454
 31
0.0
  0
LINE
  5
1C7
330
273
100
AcDbEntity
  8
DATA
  6
Continuous
 62
     7
100
AcDbLine
 10
18.99750207657011
 20
166.0000000000454
 30
0.0
 11
18.99750207657011
 21
173.5000000000453
 31
0.0
  0
LINE
  5
1C8
330
273
100
AcDbEntity
  8
DATA
  6
Continuous
 62
     7
100
AcDbLine
 10
55.99750207657012
 20
166.0000000000454
 30
0.0
 11
55.99750207657012
 21
173.5000000000453
 31
0.0
  0
LINE
  5
1C9
330
273
100
AcDbEntity
  8
DATA
  6
Continuous
 62
     7
100
AcDbLine
 10
18.99750207657011
 20
173.5000000000453
 30
0.0
 11
55.99750207657012
 21
173.5000000000453
 31
0.0
  0
LINE
  5
1CA
330
273
100
AcDbEntity
  8
DATA
  6
Continuous
 62
     7
100
AcDbLine
 10
19.49750207657011
 20
176.0000000000453
 30
0.0
 11
55.49750207657012
 21
176.0000000000453
 31
0.0
  0
LINE
  5
1CB
330
273
100
AcDbEntity
  8
DATA
  6
Continuous
 62
     7
100
AcDbLine
 10
19.49750207657011
 20
176.0000000000453
 30
0.0
 11
18.99750207657011
 21
173.5000000000453
 31
0.0
  0
LINE
  5
1CC
330
273
100
AcDbEntity
  8
DATA
  6
Continuous
 62
     7
100
AcDbLine
 10
55.49750207657012
 20
176.0000000000453
 30
0.0
 11
55.99750207657012
 21
173.5000000000453
 31
0.0
  0
LINE
  5
1CD
330
273
100
AcDbEntity
  8
DATA
  6
Continuous
 62
     7
100
AcDbLine
 10
18.24750207657011
 20
182.5000000000453
 30
0.0
 11
56.74750207657012
 21
182.5000000000453
 31
0.0
  0
LINE
  5
1CE
330
273
100
AcDbEntity
  8
DATA
  6
Continuous
 62
     7
100
AcDbLine
 10
18.24750207657011
 20
182.5000000000453
 30
0.0
 11
19.49750207657011
 21
176.0000000000453
 31
0.0
  0
LINE
  5
1CF
330
273
100
AcDbEntity
  8
DATA
  6
Continuous
 62
     7
100
AcDbLine
 10
56.74750207657012
 20
182.5000000000453
 30
0.0
 11
55.49750207657012
 21
176.0000000000453
 31
0.0
  0
LINE
  5
1D0
330
273
100
AcDbEntity
  8
DATA
  6
Continuous
 62
     7
100
AcDbLine
 10
12.49750207657011
 20
210.5000000000453
 30
0.0
 11
62.49750207657012
 21
210.5000000000453
 31
0.0
  0
LINE
  5
1D1
330
273
100
AcDbEntity
  8
DATA
  6
Continuous
 62
     7
100
AcDbLine
 10
12.49750207657011
 20
206.5000000000453
 30
0.0
 11
62.49750207657012
 21
206.5000000000453
 31
0.0
  0
LINE
  5
1D2
330
273
100
AcDbEntity
  8
DATA
  6
Continuous
 62
     7
100
AcDbLine
 10
12.49750207657011
 20
209.5000000000453
 30
0.0
 11
62.49750207657012
 21
209.5000000000453
 31
0.0
  0
LINE
  5
1D3
330
273
100
AcDbEntity
  8
DATA
  6
Continuous
 62
     7
100
AcDbLine
 10
12.49750207657011
 20
207.5000000000453
 30
0.0
 11
62.49750207657012
 21
207.5000000000453
 31
0.0
  0
LINE
  5
1D4
330
273
100
AcDbEntity
  8
DATA
  6
Continuous
 62
     7
100
AcDbLine
 10
14.49750207657011
 20
210.5000000000453
 30
0.0
 11
60.49750207657012
 21
210.5000000000453
 31
0.0
  0
LINE
  5
1D5
330
273
100
AcDbEntity
  8
DATA
  6
Continuous
 62
     7
100
AcDbLine
 10
55.74750207657012
 20
182.5000000000453
 30
0.0
 11
60.22742976298683
 21
199.5663911863946
 31
0.0
  0
LINE
  5
1D6
330
273
100
AcDbEntity
  8
DATA
  6
Continuous
 62
     7
100
AcDbLine
 10
62.49750207657012
 20
210.5000000000453
 30
0.0
 11
62.49750207657012
 21
209.5000000000453
 31
0.0
  0
LINE
  5
1D7
330
273
100
AcDbEntity
  8
DATA
  6
Continuous
 62
     7
100
AcDbLine
 10
62.49750207657012
 20
207.5000000000453
 30
0.0
 11
62.49750207657012
 21
206.5000000000453
 31
0.0
  0
LINE
  5
1D8
330
273
100
AcDbEntity
  8
DATA
  6
Continuous
 62
     7
100
AcDbLine
 10
12.49750207657011
 20
210.5000000000453
 30
0.0
 11
12.49750207657011
 21
209.5000000000453
 31
0.0
  0
LINE
  5
1D9
330
273
100
AcDbEntity
  8
DATA
  6
Continuous
 62
     7
100
AcDbLine
 10
12.49750207657011
 20
207.5000000000453
 30
0.0
 11
12.49750207657011
 21
206.5000000000453
 31
0.0
  0
ARC
  5
1DA
330
273
100
AcDbEntity
  8
DATA
  6
Continuous
 62
     7
100
AcDbCircle
 10
13.09418991305715
 20
208.5111645497299
 30
0.0
 40
1.154916413430857
100
AcDbArc
 50
121.1078229189672
 51
241.1078229189675
  0
ARC
  5
1DB
330
273
100
AcDbEntity
  8
DATA
  6
Continuous
 62
     7
100
AcDbCircle
 10
61.90081424008307
 20
208.51116454973
 30
0.0
 40
1.154916413430862
100
AcDbArc
 50
298.8921770810318
 51
58.89217708103206
  0
ARC
  5
1DC
330
273
100
AcDbEntity
  8
DATA
  6
Continuous
 62
     7
100
AcDbCircle
 10
-19.90249792342992
 20
208.5000000000453
 30
0.0
 40
80.90000000000003
100
AcDbArc
 50
1.416603643380593
 51
18.18544762886933
  0
LINE
  5
1DD
330
273
100
AcDbEntity
  8
DATA
  6
Continuous
 62
     7
100
AcDbLine
 10
60.99750207657012
 20
206.5000000000453
 30
0.0
 11
60.99750207657012
 21
205.532997204079
 31
0.0
  0
ARC
  5
1DE
330
273
100
AcDbEntity
  8
DATA
  6
Continuous
 62
     7
100
AcDbCircle
 10
37.49750207657012
 20
205.532997204079
 30
0.0
 40
23.50000000000001
100
AcDbArc
 50
345.2916961003172
 51
0.0
  0
ARC
  5
1DF
330
273
100
AcDbEntity
  8
DATA
  6
Continuous
 62
     7
100
AcDbCircle
 10
53.15645087820563
 20
232.5000000000454
 30
0.0
 40
4.000000000000049
100
AcDbArc
 50
18.18544762886869
 51
90.0
  0
LINE
  5
1E0
330
273
100
AcDbEntity
  8
DATA
  6
Continuous
 62
     7
100
AcDbLine
 10
19.24750207657011
 20
182.5000000000453
 30
0.0
 11
14.7675743901534
 21
199.5663911863946
 31
0.0
  0
ARC
  5
1E1
330
273
100
AcDbEntity
  8
DATA
  6
Continuous
 62
     7
100
AcDbCircle
 10
94.89750207657008
 20
208.5000000000453
 30
0.0
 40
80.90000000000003
100
AcDbArc
 50
161.8145523711306
 51
178.5833963566194
  0
LINE
  5
1E2
330
273
100
AcDbEntity
  8
DATA
  6
Continuous
 62
     7
100
AcDbLine
 10
13.99750207657011
 20
206.5000000000453
 30
0.0
 11
13.99750207657011
 21
205.532997204079
 31
0.0
  0
ARC
  5
1E3
330
273
100
AcDbEntity
  8
DATA
  6
Continuous
 62
     7
100
AcDbCircle
 10
37.49750207657012
 20
205.532997204079
 30
0.0
 40
23.5
100
AcDbArc
 50
180.0
 51
194.7083038996828
  0
ARC
  5
1E4
330
273
100
AcDbEntity
  8
DATA
  6
Continuous
 62
     7
100
AcDbCircle
 10
21.8385532749346
 20
232.5000000000454
 30
0.0
 40
3.999999999999971
100
AcDbArc
 50
90.0
 51
161.8145523711313
  0
LINE
  5
1E5
330
273
100
AcDbEntity
  8
DATA
  6
Continuous
 62
     7
100
AcDbLine
 10
21.8385532749346
 20
236.5000000000453
 30
0.0
 11
53.15645087820563
 21
236.5000000000453
 31
0.0
  0
TEXT
  5
1E6
330
273
100
AcDbEntity
  8
DATA
 62
     7
100
AcDbText
 10
29.31011903563443
 20
168.0791250000453
 30
0.0
 40
3.257682291666666
  1
BETA 87C
 41
0.7
 11
29.31011903563443
 21
171.3368072917119
 31
0.0
100
AcDbText
 73
     3
  0
LINE
  5
1E7
330
273
100
AcDbEntity
  8
DATA
  6
Continuous
 62
     7
100
AcDbLine
 10
156.4975020765701
 20
166.0000000000454
 30
0.0
 11
193.4975020765701
 21
166.0000000000454
 31
0.0
  0
LINE
  5
1E8
330
273
100
AcDbEntity
  8
DATA
  6
Continuous
 62
     7
100
AcDbLine
 10
156.4975020765701
 20
166.0000000000454
 30
0.0
 11
156.4975020765701
 21
173.5000000000453
 31
0.0
  0
LINE
  5
1E9
330
273
100
AcDbEntity
  8
DATA
  6
Continuous
 62
     7
100
AcDbLine
 10
193.4975020765701
 20
166.0000000000454
 30
0.0
 11
193.4975020765701
 21
173.5000000000453
 31
0.0
  0
LINE
  5
1EA
330
273
100
AcDbEntity
  8
DATA
  6
Continuous
 62
     7
100
AcDbLine
 10
156.4975020765701
 20
173.5000000000453
 30
0.0
 11
193.4975020765701
 21
173.5000000000453
 31
0.0
  0
LINE
  5
1EB
330
273
100
AcDbEntity
  8
DATA
  6
Continuous
 62
     7
100
AcDbLine
 10
156.9975020765701
 20
176.0000000000453
 30
0.0
 11
192.9975020765701
 21
176.0000000000453
 31
0.0
  0
LINE
  5
1EC
330
273
100
AcDbEntity
  8
DATA
  6
Continuous
 62
     7
100
AcDbLine
 10
156.9975020765701
 20
176.0000000000453
 30
0.0
 11
156.4975020765701
 21
173.5000000000453
 31
0.0
  0
LINE
  5
1ED
330
273
100
AcDbEntity
  8
DATA
  6
Continuous
 62
     7
100
AcDbLine
 10
192.9975020765701
 20
176.0000000000453
 30
0.0
 11
193.4975020765701
 21
173.5000000000453
 31
0.0
  0
LINE
  5
1EE
330
273
100
AcDbEntity
  8
DATA
  6
Continuous
 62
     7
100
AcDbLine
 10
155.7475020765701
 20
182.5000000000453
 30
0.0
 11
194.2475020765701
 21
182.5000000000453
 31
0.0
  0
LINE
  5
1EF
330
273
100
AcDbEntity
  8
DATA
  6
Continuous
 62
     7
100
AcDbLine
 10
155.7475020765701
 20
182.5000000000453
 30
0.0
 11
156.9975020765701
 21
176.0000000000453
 31
0.0
  0
LINE
  5
1F0
330
273
100
AcDbEntity
  8
DATA
  6
Continuous
 62
     7
100
AcDbLine
 10
194.2475020765701
 20
182.5000000000453
 30
0.0
 11
192.9975020765701
 21
176.0000000000453
 31
0.0
  0
LINE
  5
1F1
330
273
100
AcDbEntity
  8
DATA
  6
Continuous
 62
     7
100
AcDbLine
 10
149.9975020765701
 20
210.5000000000453
 30
0.0
 11
199.9975020765701
 21
210.5000000000453
 31
0.0
  0
LINE
  5
1F2
330
273
100
AcDbEntity
  8
DATA
  6
Continuous
 62
     7
100
AcDbLine
 10
149.9975020765701
 20
206.5000000000453
 30
0.0
 11
199.9975020765701
 21
206.5000000000453
 31
0.0
  0
LINE
  5
1F3
330
273
100
AcDbEntity
  8
DATA
  6
Continuous
 62
     7
100
AcDbLine
 10
149.9975020765701
 20
209.5000000000453
 30
0.0
 11
199.9975020765701
 21
209.5000000000453
 31
0.0
  0
LINE
  5
1F4
330
273
100
AcDbEntity
  8
DATA
  6
Continuous
 62
     7
100
AcDbLine
 10
149.9975020765701
 20
207.5000000000453
 30
0.0
 11
199.9975020765701
 21
207.5000000000453
 31
0.0
  0
LINE
  5
1F5
330
273
100
AcDbEntity
  8
DATA
  6
Continuous
 62
     7
100
AcDbLine
 10
151.9975020765701
 20
210.5000000000453
 30
0.0
 11
197.9975020765701
 21
210.5000000000453
 31
0.0
  0
LINE
  5
1F6
330
273
100
AcDbEntity
  8
DATA
  6
Continuous
 62
     7
100
AcDbLine
 10
193.2475020765701
 20
182.5000000000453
 30
0.0
 11
197.7274297629868
 21
199.5663911863946
 31
0.0
  0
LINE
  5
1F7
330
273
100
AcDbEntity
  8
DATA
  6
Continuous
 62
     7
100
AcDbLine
 10
199.9975020765701
 20
210.5000000000453
 30
0.0
 11
199.9975020765701
 21
209.5000000000453
 31
0.0
  0
LINE
  5
1F8
330
273
100
AcDbEntity
  8
DATA
  6
Continuous
 62
     7
100
AcDbLine
 10
199.9975020765701
 20
207.5000000000453
 30
0.0
 11
199.9975020765701
 21
206.5000000000453
 31
0.0
  0
LINE
  5
1F9
330
273
100
AcDbEntity
  8
DATA
  6
Continuous
 62
     7
100
AcDbLine
 10
149.9975020765701
 20
210.5000000000453
 30
0.0
 11
149.9975020765701
 21
209.5000000000453
 31
0.0
  0
LINE
  5
1FA
330
273
100
AcDbEntity
  8
DATA
  6
Continuous
 62
     7
100
AcDbLine
 10
149.9975020765701
 20
207.5000000000453
 30
0.0
 11
149.9975020765701
 21
206.5000000000453
 31
0.0
  0
ARC
  5
1FB
330
273
100
AcDbEntity
  8
DATA
  6
Continuous
 62
     7
100
AcDbCircle
 10
150.5941899130571
 20
208.5111645497299
 30
0.0
 40
1.154916413430857
100
AcDbArc
 50
121.1078229189672
 51
241.1078229189675
  0
ARC
  5
1FC
330
273
100
AcDbEntity
  8
DATA
  6
Continuous
 62
     7
100
AcDbCircle
 10
199.4008142400831
 20
208.51116454973
 30
0.0
 40
1.154916413430862
100
AcDbArc
 50
298.8921770810318
 51
58.89217708103206
  0
ARC
  5
1FD
330
273
100
AcDbEntity
  8
DATA
  6
Continuous
 62
     7
100
AcDbCircle
 10
117.59750207657
 20
208.5000000000453
 30
0.0
 40
80.90000000000003
100
AcDbArc
 50
1.416603643380593
 51
18.18544762886933
  0
LINE
  5
1FE
330
273
100
AcDbEntity
  8
DATA
  6
Continuous
 62
     7
100
AcDbLine
 10
198.4975020765701
 20
206.5000000000453
 30
0.0
 11
198.4975020765701
 21
205.532997204079
 31
0.0
  0
ARC
  5
1FF
330
273
100
AcDbEntity
  8
DATA
  6
Continuous
 62
     7
100
AcDbCircle
 10
174.9975020765701
 20
205.532997204079
 30
0.0
 40
23.50000000000001
100
AcDbArc
 50
345.2916961003172
 51
0.0
  0
ARC
  5
200
330
273
100
AcDbEntity
  8
DATA
  6
Continuous
 62
     7
100
AcDbCircle
 10
190.6564508782056
 20
232.5000000000454
 30
0.0
 40
4.000000000000049
100
AcDbArc
 50
18.18544762886869
 51
90.0
  0
LINE
  5
201
330
273
100
AcDbEntity
  8
DATA
  6
Continuous
 62
     7
100
AcDbLine
 10
156.7475020765701
 20
182.5000000000453
 30
0.0
 11
152.2675743901534
 21
199.5663911863946
 31
0.0
  0
ARC
  5
202
330
273
100
AcDbEntity
  8
DATA
  6
Continuous
 62
     7
100
AcDbCircle
 10
232.3975020765701
 20
208.5000000000453
 30
0.0
 40
80.90000000000003
100
AcDbArc
 50
161.8145523711306
 51
178.5833963566194
  0
LINE
  5
203
330
273
100
AcDbEntity
  8
DATA
  6
Continuous
 62
     7
100
AcDbLine
 10
151.4975020765701
 20
206.5000000000453
 30
0.0
 11
151.4975020765701
 21
205.532997204079
 31
0.0
  0
ARC
  5
204
330
273
100
AcDbEntity
  8
DATA
  6
Continuous
 62
     7
100
AcDbCircle
 10
174.9975020765701
 20
205.532997204079
 30
0.0
 40
23.5
100
AcDbArc
 50
180.0
 51
194.7083038996828
  0
ARC
  5
205
330
273
100
AcDbEntity
  8
DATA
  6
Continuous
 62
     7
100
AcDbCircle
 10
159.3385532749346
 20
232.5000000000454
 30
0.0
 40
3.999999999999971
100
AcDbArc
 50
90.0
 51
161.8145523711313
  0
LINE
  5
206
330
273
100
AcDbEntity
  8
DATA
  6
Continuous
 62
     7
100
AcDbLine
 10
159.3385532749346
 20
236.5000000000453
 30
0.0
 11
190.6564508782056
 21
236.5000000000453
 31
0.0
  0
ENDSEC
  0
SECTION
  2
OBJECTS
  0
DICTIONARY
  5
214
330
0
100
AcDbDictionary
281
     1
  3
ACAD_CIP_PREVIOUS_PRODUCT_INFO
350
28C
  3
ACAD_COLOR
350
26A
  3
ACAD_GROUP
350
215
  3
ACAD_LAYOUT
350
269
  3
ACAD_MATERIAL
350
218
  3
ACAD_MLEADERSTYLE
350
26D
  3
ACAD_MLINESTYLE
350
266
  3
ACAD_PLOTSETTINGS
350
268
  3
ACAD_PLOTSTYLENAME
350
216
  3
ACAD_SCALELIST
350
24A
  3
ACAD_TABLESTYLE
350
26B
  3
ACAD_VISUALSTYLE
350
231
  3
ACDB_RECOMPOSE_DATA
350
298
  3
AcDbVariableDictionary
350
28D
  3
DWGPROPS
350
299
  0
XRECORD
  5
28C
102
{ACAD_REACTORS
330
214
102
}
330
214
100
AcDbXrecord
280
     1
300
ACDLT
300
2012
300
ACDLT_F_S
  0
DICTIONARY
  5
26A
102
{ACAD_REACTORS
330
214
102
}
330
214
100
AcDbDictionary
281
     1
  0
DICTIONARY
  5
215
102
{ACAD_REACTORS
330
214
102
}
330
214
100
AcDbDictionary
281
     1
  0
DICTIONARY
  5
269
102
{ACAD_REACTORS
330
214
102
}
330
214
100
AcDbDictionary
281
     1
  3
Model
350
276
  3
レイアウト1
350
272
  0
DICTIONARY
  5
218
102
{ACAD_REACTORS
330
214
102
}
330
214
100
AcDbDictionary
281
     1
  3
ByBlock
350
221
  3
ByLayer
350
219
  3
Global
350
229
  0
DICTIONARY
  5
26D
102
{ACAD_REACTORS
330
214
102
}
330
214
100
AcDbDictionary
281
     1
  3
Standard
350
26E
  0
DICTIONARY
  5
266
102
{ACAD_REACTORS
330
214
102
}
330
214
100
AcDbDictionary
281
     1
  3
Standard
350
267
  0
DICTIONARY
  5
268
102
{ACAD_REACTORS
330
214
102
}
330
214
100
AcDbDictionary
281
     1
  0
ACDBDICTIONARYWDFLT
  5
216
102
{ACAD_REACTORS
330
214
102
}
330
214
100
AcDbDictionary
281
     1
  3
Normal
350
217
100
AcDbDictionaryWithDefault
340
217
  0
DICTIONARY
  5
24A
102
{ACAD_REACTORS
330
214
102
}
330
214
100
AcDbDictionary
281
     1
  3
A0
350
24B
  3
A1
350
24C
  3
A2
350
24D
  3
A3
350
24E
  3
A4
350
24F
  3
A5
350
250
  3
A6
350
251
  3
A7
350
252
  3
A8
350
253
  3
A9
350
254
  3
B0
350
255
  3
B1
350
256
  3
B2
350
257
  3
B3
350
258
  3
B4
350
259
  3
B5
350
25A
  3
B6
350
25B
  0
DICTIONARY
  5
26B
102
{ACAD_REACTORS
330
214
102
}
330
214
100
AcDbDictionary
281
     1
  3
Standard
350
26C
  0
DICTIONARY
  5
231
102
{ACAD_REACTORS
330
214
102
}
330
214
100
AcDbDictionary
281
     1
  3
2dWireframe
350
237
  3
Basic
350
236
  3
Brighten
350
23D
  3
ColorChange
350
241
  3
Conceptual
350
23A
  3
Dim
350
23C
  3
EdgeColorOff
350
249
  3
Facepattern
350
240
  3
Flat
350
232
  3
FlatWithEdges
350
233
  3
Gouraud
350
234
  3
GouraudWithEdges
350
235
  3
Hidden
350
239
  3
JitterOff
350
247
  3
Linepattern
350
23F
  3
OverhangOff
350
248
  3
Realistic
350
23B
  3
Shaded
350
246
  3
Shaded with edges
350
245
  3
Shades of Gray
350
242
  3
Sketchy
350
243
  3
Thicken
350
23E
  3
Wireframe
350
238
  3
X-Ray
350
244
  0
XRECORD
  5
298
102
{ACAD_REACTORS
330
214
102
}
330
214
100
AcDbXrecord
280
     1
 90
        1
330
26C
  0
DICTIONARY
  5
28D
102
{ACAD_REACTORS
330
214
102
}
330
214
100
AcDbDictionary
281
     1
  3
CANNOSCALE
350
290
  3
CMLEADERSTYLE
350
28F
  3
CTABLESTYLE
350
28E
  3
DIMASSOC
350
293
  3
INDEXCTL
350
292
  3
SORTENTS
350
291
  3
XCLIPFRAME
350
294
  0
XRECORD
  5
299
102
{ACAD_REACTORS
330
214
102
}
330
214
100
AcDbXrecord
280
     1
  1
DWGPROPS COOKIE
  2

  3

  4

  6

  7

  8
sasaki_n
  9

300
=
301
=
302
=
303
=
304
=
305
=
306
=
307
=
308
=
309
=
 40
0.0003336689814815
 41
2456059.742152778
 42
2456059.753581887
  1

 90
        0
  0
LAYOUT
  5
276
102
{ACAD_XDICTIONARY
360
2D1
102
}
102
{ACAD_REACTORS
330
269
102
}
330
269
100
AcDbPlotSettings
  1

  2
Microsoft XPS Document Writer
  4

  6

 40
0.0
 41
0.0
 42
0.0
 43
0.0
 44
0.0
 45
0.0
 46
0.0
 47
0.0
 48
0.0
 49
0.0
140
0.0
141
0.0
142
1.0
143
1.0
 70
  1712
 72
     0
 73
     0
 74
     0
  7

 75
     0
147
1.0
148
0.0
149
0.0
100
AcDbLayout
  1
Model
 70
     1
 71
     0
 10
0.0
 20
0.0
 11
12.0
 21
9.0
 12
0.0
 22
0.0
 32
0.0
 14
0.0
 24
0.0
 34
0.0
 15
0.0
 25
0.0
 35
0.0
146
0.0
 13
0.0
 23
0.0
 33
0.0
 16
1.0
 26
0.0
 36
0.0
 17
0.0
 27
1.0
 37
0.0
 76
     0
330
273
331
278
  0
LAYOUT
  5
272
102
{ACAD_XDICTIONARY
360
2CF
102
}
102
{ACAD_REACTORS
330
269
102
}
330
269
100
AcDbPlotSettings
  1

  2
Microsoft XPS Document Writer
  4

  6

 40
0.0
 41
0.0
 42
0.0
 43
0.0
 44
0.0
 45
0.0
 46
0.0
 47
0.0
 48
0.0
 49
0.0
140
0.0
141
0.0
142
1.0
143
1.0
 70
   688
 72
     0
 73
     0
 74
     5
  7

 75
    16
147
1.0
148
0.0
149
0.0
100
AcDbLayout
  1
レイアウト1
 70
     0
 71
     1
 10
0.0
 20
0.0
 11
12.0
 21
9.0
 12
0.0
 22
0.0
 32
0.0
 14
1.000000000000000E+20
 24
1.000000000000000E+20
 34
1.000000000000000E+20
 15
-1.000000000000000E+20
 25
-1.000000000000000E+20
 35
-1.000000000000000E+20
146
0.0
 13
0.0
 23
0.0
 33
0.0
 16
1.0
 26
0.0
 36
0.0
 17
0.0
 27
1.0
 37
0.0
 76
     0
330
26F
  0
MATERIAL
  5
221
102
{ACAD_XDICTIONARY
360
222
102
}
102
{ACAD_REACTORS
330
218
102
}
330
218
100
AcDbMaterial
  1
ByBlock
 72
     0
 43
0.0208333333333333
 43
0.0
 43
0.0
 43
0.0
 43
0.0
 43
0.0208333333333333
 43
0.0
 43
0.0
 43
0.0
 43
0.0
 43
1.0
 43
0.0
 43
0.0
 43
0.0
 43
0.0
 43
1.0
 77
     0
 47
0.0208333333333333
 47
0.0
 47
0.0
 47
0.0
 47
0.0
 47
0.0208333333333333
 47
0.0
 47
0.0
 47
0.0
 47
0.0
 47
1.0
 47
0.0
 47
0.0
 47
0.0
 47
0.0
 47
1.0
171
     0
 49
0.0208333333333333
 49
0.0
 49
0.0
 49
0.0
 49
0.0
 49
0.0208333333333333
 49
0.0
 49
0.0
 49
0.0
 49
0.0
 49
1.0
 49
0.0
 49
0.0
 49
0.0
 49
0.0
 49
1.0
175
     0
142
0.0208333333333333
142
0.0
142
0.0
142
0.0
142
0.0
142
0.0208333333333333
142
0.0
142
0.0
142
0.0
142
0.0
142
1.0
142
0.0
142
0.0
142
0.0
142
0.0
142
1.0
179
     0
144
0.0208333333333333
144
0.0
144
0.0
144
0.0
144
0.0
144
0.0208333333333333
144
0.0
144
0.0
144
0.0
144
0.0
144
1.0
144
0.0
144
0.0
144
0.0
144
0.0
144
1.0
147
0.0208333333333333
147
0.0
147
0.0
147
0.0
147
0.0
147
0.0208333333333333
147
0.0
147
0.0
147
0.0
147
0.0
147
1.0
147
0.0
147
0.0
147
0.0
147
0.0
147
1.0
  0
MATERIAL
  5
219
102
{ACAD_XDICTIONARY
360
21A
102
}
102
{ACAD_REACTORS
330
218
102
}
330
218
100
AcDbMaterial
  1
ByLayer
 72
     0
 43
0.0208333333333333
 43
0.0
 43
0.0
 43
0.0
 43
0.0
 43
0.0208333333333333
 43
0.0
 43
0.0
 43
0.0
 43
0.0
 43
1.0
 43
0.0
 43
0.0
 43
0.0
 43
0.0
 43
1.0
 77
     0
 47
0.0208333333333333
 47
0.0
 47
0.0
 47
0.0
 47
0.0
 47
0.0208333333333333
 47
0.0
 47
0.0
 47
0.0
 47
0.0
 47
1.0
 47
0.0
 47
0.0
 47
0.0
 47
0.0
 47
1.0
171
     0
 49
0.0208333333333333
 49
0.0
 49
0.0
 49
0.0
 49
0.0
 49
0.0208333333333333
 49
0.0
 49
0.0
 49
0.0
 49
0.0
 49
1.0
 49
0.0
 49
0.0
 49
0.0
 49
0.0
 49
1.0
175
     0
142
0.0208333333333333
142
0.0
142
0.0
142
0.0
142
0.0
142
0.0208333333333333
142
0.0
142
0.0
142
0.0
142
0.0
142
1.0
142
0.0
142
0.0
142
0.0
142
0.0
142
1.0
179
     0
144
0.0208333333333333
144
0.0
144
0.0
144
0.0
144
0.0
144
0.0208333333333333
144
0.0
144
0.0
144
0.0
144
0.0
144
1.0
144
0.0
144
0.0
144
0.0
144
0.0
144
1.0
147
0.0208333333333333
147
0.0
147
0.0
147
0.0
147
0.0
147
0.0208333333333333
147
0.0
147
0.0
147
0.0
147
0.0
147
1.0
147
0.0
147
0.0
147
0.0
147
0.0
147
1.0
  0
MATERIAL
  5
229
102
{ACAD_XDICTIONARY
360
22A
102
}
102
{ACAD_REACTORS
330
218
102
}
330
218
100
AcDbMaterial
  1
Global
 72
     0
 43
0.0208333333333333
 43
0.0
 43
0.0
 43
0.0
 43
0.0
 43
0.0208333333333333
 43
0.0
 43
0.0
 43
0.0
 43
0.0
 43
1.0
 43
0.0
 43
0.0
 43
0.0
 43
0.0
 43
1.0
 77
     0
 47
0.0208333333333333
 47
0.0
 47
0.0
 47
0.0
 47
0.0
 47
0.0208333333333333
 47
0.0
 47
0.0
 47
0.0
 47
0.0
 47
1.0
 47
0.0
 47
0.0
 47
0.0
 47
0.0
 47
1.0
171
     0
 49
0.0208333333333333
 49
0.0
 49
0.0
 49
0.0
 49
0.0
 49
0.0208333333333333
 49
0.0
 49
0.0
 49
0.0
 49
0.0
 49
1.0
 49
0.0
 49
0.0
 49
0.0
 49
0.0
 49
1.0
175
     0
142
0.0208333333333333
142
0.0
142
0.0
142
0.0
142
0.0
142
0.0208333333333333
142
0.0
142
0.0
142
0.0
142
0.0
142
1.0
142
0.0
142
0.0
142
0.0
142
0.0
142
1.0
179
     0
144
0.0208333333333333
144
0.0
144
0.0
144
0.0
144
0.0
144
0.0208333333333333
144
0.0
144
0.0
144
0.0
144
0.0
144
1.0
144
0.0
144
0.0
144
0.0
144
0.0
144
1.0
147
0.0208333333333333
147
0.0
147
0.0
147
0.0
147
0.0
147
0.0208333333333333
147
0.0
147
0.0
147
0.0
147
0.0
147
1.0
147
0.0
147
0.0
147
0.0
147
0.0
147
1.0
  0
MLEADERSTYLE
  5
26E
102
{ACAD_REACTORS
330
26D
102
}
330
26D
100
AcDbMLeaderStyle
170
     2
171
     1
172
     0
 90
        2
 40
0.0
 41
0.0
173
     1
 91
-1056964608
340
262
 92
       -2
290
     1
 42
0.09
291
     1
 43
0.36
  3
Standard
 44
0.18
300

342
25D
174
     1
178
     6
175
     1
176
     0
 93
-1056964608
 45
0.18
292
     0
297
     0
 46
0.18
 94
-1056964608
 47
1.0
 49
1.0
140
1.0
293
     1
141
0.0
294
     1
177
     0
142
1.0
295
     0
296
     0
143
0.125
1001
ACAD_MLEADERVER
1070
     2
  0
MLINESTYLE
  5
267
102
{ACAD_REACTORS
330
266
102
}
330
266
100
AcDbMlineStyle
  2
STANDARD
 70
     0
  3

 62
   256
 51
90.0
 52
90.0
 71
     2
 49
0.5
 62
   256
  6
BYLAYER
 49
-0.5
 62
   256
  6
BYLAYER
  0
ACDBPLACEHOLDER
  5
217
102
{ACAD_REACTORS
330
216
102
}
330
216
  0
SCALE
  5
24B
102
{ACAD_REACTORS
330
24A
102
}
330
24A
100
AcDbScale
 70
     0
300
1:1
140
1.0
141
1.0
290
     1
  0
SCALE
  5
24C
102
{ACAD_REACTORS
330
24A
102
}
330
24A
100
AcDbScale
 70
     0
300
1/128" = 1'-0"
140
0.0078125
141
12.0
290
     0
  0
SCALE
  5
24D
102
{ACAD_REACTORS
330
24A
102
}
330
24A
100
AcDbScale
 70
     0
300
1/64" = 1'-0"
140
0.015625
141
12.0
290
     0
  0
SCALE
  5
24E
102
{ACAD_REACTORS
330
24A
102
}
330
24A
100
AcDbScale
 70
     0
300
1/32" = 1'-0"
140
0.03125
141
12.0
290
     0
  0
SCALE
  5
24F
102
{ACAD_REACTORS
330
24A
102
}
330
24A
100
AcDbScale
 70
     0
300
1/16" = 1'-0"
140
0.0625
141
12.0
290
     0
  0
SCALE
  5
250
102
{ACAD_REACTORS
330
24A
102
}
330
24A
100
AcDbScale
 70
     0
300
3/32" = 1'-0"
140
0.09375
141
12.0
290
     0
  0
SCALE
  5
251
102
{ACAD_REACTORS
330
24A
102
}
330
24A
100
AcDbScale
 70
     0
300
1/8" = 1'-0"
140
0.125
141
12.0
290
     0
  0
SCALE
  5
252
102
{ACAD_REACTORS
330
24A
102
}
330
24A
100
AcDbScale
 70
     0
300
3/16" = 1'-0"
140
0.1875
141
12.0
290
     0
  0
SCALE
  5
253
102
{ACAD_REACTORS
330
24A
102
}
330
24A
100
AcDbScale
 70
     0
300
1/4" = 1'-0"
140
0.25
141
12.0
290
     0
  0
SCALE
  5
254
102
{ACAD_REACTORS
330
24A
102
}
330
24A
100
AcDbScale
 70
     0
300
3/8" = 1'-0"
140
0.375
141
12.0
290
     0
  0
SCALE
  5
255
102
{ACAD_REACTORS
330
24A
102
}
330
24A
100
AcDbScale
 70
     0
300
1/2" = 1'-0"
140
0.5
141
12.0
290
     0
  0
SCALE
  5
256
102
{ACAD_REACTORS
330
24A
102
}
330
24A
100
AcDbScale
 70
     0
300
3/4" = 1'-0"
140
0.75
141
12.0
290
     0
  0
SCALE
  5
257
102
{ACAD_REACTORS
330
24A
102
}
330
24A
100
AcDbScale
 70
     0
300
1" = 1'-0"
140
1.0
141
12.0
290
     0
  0
SCALE
  5
258
102
{ACAD_REACTORS
330
24A
102
}
330
24A
100
AcDbScale
 70
     0
300
1-1/2" = 1'-0"
140
1.5
141
12.0
290
     0
  0
SCALE
  5
259
102
{ACAD_REACTORS
330
24A
102
}
330
24A
100
AcDbScale
 70
     0
300
3" = 1'-0"
140
3.0
141
12.0
290
     0
  0
SCALE
  5
25A
102
{ACAD_REACTORS
330
24A
102
}
330
24A
100
AcDbScale
 70
     0
300
6" = 1'-0"
140
6.0
141
12.0
290
     0
  0
SCALE
  5
25B
102
{ACAD_REACTORS
330
24A
102
}
330
24A
100
AcDbScale
 70
     0
300
1'-0" = 1'-0"
140
12.0
141
12.0
290
     0
  0
TABLESTYLE
  5
26C
102
{ACAD_XDICTIONARY
360
296
102
}
102
{ACAD_REACTORS
330
26B
102
}
330
26B
100
AcDbTableStyle
  3
Standard
 70
     0
 71
     0
 40
0.06
 41
0.06
280
     0
281
     0
  7
STANDARD
140
0.18
170
     2
 62
     0
 63
     7
283
     0
274
    -2
284
     1
 64
     0
275
    -2
285
     1
 65
     0
276
    -2
286
     1
 66
     0
277
    -2
287
     1
 67
     0
278
    -2
288
     1
 68
     0
279
    -2
289
     1
 69
     0
  7
STANDARD
140
0.25
170
     5
 62
     0
 63
     7
283
     0
274
    -2
284
     1
 64
     0
275
    -2
285
     1
 65
     0
276
    -2
286
     1
 66
     0
277
    -2
287
     1
 67
     0
278
    -2
288
     1
 68
     0
279
    -2
289
     1
 69
     0
  7
STANDARD
140
0.18
170
     5
 62
     0
 63
     7
283
     0
274
    -2
284
     1
 64
     0
275
    -2
285
     1
 65
     0
276
    -2
286
     1
 66
     0
277
    -2
287
     1
 67
     0
278
    -2
288
     1
 68
     0
279
    -2
289
     1
 69
     0
  0
VISUALSTYLE
  5
237
102
{ACAD_XDICTIONARY
360
2A7
102
}
102
{ACAD_REACTORS
330
231
102
}
330
231
100
AcDbVisualStyle
  2
2dWireframe
 70
     4
 71
     0
 72
     2
 73
     0
 90
        0
 40
-0.6
 41
-30.0
 62
     5
 63
     7
 74
     1
 91
        4
 64
     7
 65
   257
 75
     1
175
     1
 42
1.0
 92
        0
 66
   257
 43
1.0
 76
     1
 77
     6
 78
     2
 67
     7
 79
     5
170
     0
171
     0
290
     0
174
     0
 93
        1
 44
0.0
173
     0
291
     0
 45
0.0
1001
ACAD
1000
AcDbSavedByObjectVersion
1070
     0
  0
VISUALSTYLE
  5
236
102
{ACAD_XDICTIONARY
360
2A5
102
}
102
{ACAD_REACTORS
330
231
102
}
330
231
100
AcDbVisualStyle
  2
Basic
 70
     7
 71
     1
 72
     0
 73
     1
 90
        0
 40
-0.6
 41
-30.0
 62
     5
 63
     7
 74
     0
 91
        4
 64
     7
 65
   257
 75
     1
175
     1
 42
1.0
 92
        8
 66
     7
 43
1.0
 76
     1
 77
     6
 78
     2
 67
     7
 79
     5
170
     0
171
     0
290
     0
174
     0
 93
        1
 44
0.0
173
     0
291
     1
 45
0.0
1001
ACAD
1000
AcDbSavedByObjectVersion
1070
     0
  0
VISUALSTYLE
  5
23D
102
{ACAD_XDICTIONARY
360
2B3
102
}
102
{ACAD_REACTORS
330
231
102
}
330
231
100
AcDbVisualStyle
  2
Brighten
 70
    12
 71
     2
 72
     2
 73
     0
 90
        0
 40
-0.6
 41
-30.0
 62
     5
 63
     7
 74
     1
 91
        4
 64
     7
 65
   257
 75
     1
175
     1
 42
1.0
 92
        8
 66
     7
 43
1.0
 76
     1
 77
     6
 78
     2
 67
     7
 79
     5
170
     0
171
     0
290
     0
174
     0
 93
        1
 44
50.0
173
     0
291
     1
 45
0.0
1001
ACAD
1000
AcDbSavedByObjectVersion
1070
     0
  0
VISUALSTYLE
  5
241
102
{ACAD_XDICTIONARY
360
2BB
102
}
102
{ACAD_REACTORS
330
231
102
}
330
231
100
AcDbVisualStyle
  2
ColorChange
 70
    16
 71
     2
 72
     2
 73
     3
 90
        0
 40
-0.6
 41
-30.0
 62
     5
 63
     8
 74
     1
 91
        4
 64
     7
 65
   257
 75
     1
175
     1
 42
1.0
 92
        8
 66
     8
 43
1.0
 76
     1
 77
     6
 78
     2
 67
     7
 79
     5
170
     0
171
     0
290
     0
174
     0
 93
        1
 44
0.0
173
     0
291
     1
 45
0.0
1001
ACAD
1000
AcDbSavedByObjectVersion
1070
     0
  0
VISUALSTYLE
  5
23A
102
{ACAD_XDICTIONARY
360
2AD
102
}
102
{ACAD_REACTORS
330
231
102
}
330
231
100
AcDbVisualStyle
  2
Conceptual
 70
     9
 71
     3
 72
     2
 73
     0
 90
        0
 40
-0.6
 41
-30.0
 62
     5
 63
     7
 74
     2
 91
        2
 64
     7
 65
   257
 75
     1
175
     1
 42
179.0
 92
        8
 66
     7
 43
1.0
 76
     1
 77
     6
 78
     2
 67
     7
 79
     3
170
     0
171
     0
290
     0
174
     0
 93
        1
 44
0.0
173
     0
291
     0
 45
0.0
1001
ACAD
1000
AcDbSavedByObjectVersion
1070
     0
  0
VISUALSTYLE
  5
23C
102
{ACAD_XDICTIONARY
360
2B1
102
}
102
{ACAD_REACTORS
330
231
102
}
330
231
100
AcDbVisualStyle
  2
Dim
 70
    11
 71
     2
 72
     2
 73
     0
 90
        0
 40
-0.6
 41
-30.0
 62
     5
 63
     7
 74
     1
 91
        4
 64
     7
 65
   257
 75
     1
175
     1
 42
1.0
 92
        8
 66
     7
 43
1.0
 76
     1
 77
     6
 78
     2
 67
     7
 79
     5
170
     0
171
     0
290
     0
174
     0
 93
        1
 44
-50.0
173
     0
291
     1
 45
0.0
1001
ACAD
1000
AcDbSavedByObjectVersion
1070
     0
  0
VISUALSTYLE
  5
249
102
{ACAD_XDICTIONARY
360
2CB
102
}
102
{ACAD_REACTORS
330
231
102
}
330
231
100
AcDbVisualStyle
  2
EdgeColorOff
 70
    22
 71
     2
 72
     2
 73
     0
 90
        0
 40
-0.6
 41
-30.0
 62
     5
 63
     7
 74
     1
 91
        4
 64
     7
 65
   257
 75
     1
175
     1
 42
1.0
 92
        8
 66
     7
 43
1.0
 76
     1
 77
     6
 78
     2
 67
     7
 79
     5
170
     0
171
     0
290
     0
174
     0
 93
        1
 44
0.0
173
     0
291
     1
 45
0.0
1001
ACAD
1000
AcDbSavedByObjectVersion
1070
     0
  0
VISUALSTYLE
  5
240
102
{ACAD_XDICTIONARY
360
2B9
102
}
102
{ACAD_REACTORS
330
231
102
}
330
231
100
AcDbVisualStyle
  2
Facepattern
 70
    15
 71
     2
 72
     2
 73
     0
 90
        0
 40
-0.6
 41
-30.0
 62
     5
 63
     7
 74
     1
 91
        4
 64
     7
 65
   257
 75
     1
175
     1
 42
1.0
 92
        8
 66
     7
 43
1.0
 76
     1
 77
     6
 78
     2
 67
     7
 79
     5
170
     0
171
     0
290
     0
174
     0
 93
        1
 44
0.0
173
     0
291
     1
 45
0.0
1001
ACAD
1000
AcDbSavedByObjectVersion
1070
     0
  0
VISUALSTYLE
  5
232
102
{ACAD_XDICTIONARY
360
29D
102
}
102
{ACAD_REACTORS
330
231
102
}
330
231
100
AcDbVisualStyle
  2
Flat
 70
     0
 71
     2
 72
     1
 73
     1
 90
        2
 40
-0.6
 41
30.0
 62
     5
 63
     7
 74
     0
 91
        0
 64
     7
 65
   257
 75
     1
175
     1
 42
1.0
 92
        8
 66
     7
 43
1.0
 76
     1
 77
     6
 78
     2
 67
     7
 79
     5
170
     0
171
     0
290
     0
174
     0
 93
       13
 44
0.0
173
     0
291
     1
 45
0.0
1001
ACAD
1000
AcDbSavedByObjectVersion
1070
     0
  0
VISUALSTYLE
  5
233
102
{ACAD_XDICTIONARY
360
29F
102
}
102
{ACAD_REACTORS
330
231
102
}
330
231
100
AcDbVisualStyle
  2
FlatWithEdges
 70
     1
 71
     2
 72
     1
 73
     1
 90
        2
 40
-0.6
 41
30.0
 62
     5
 63
     7
 74
     1
 91
        0
 64
     7
 65
   257
 75
     1
175
     1
 42
1.0
 92
        0
 66
   257
 43
1.0
 76
     1
 77
     6
 78
     2
 67
     7
 79
     5
170
     0
171
     0
290
     0
174
     0
 93
       13
 44
0.0
173
     0
291
     1
 45
0.0
1001
ACAD
1000
AcDbSavedByObjectVersion
1070
     0
  0
VISUALSTYLE
  5
234
102
{ACAD_XDICTIONARY
360
2A1
102
}
102
{ACAD_REACTORS
330
231
102
}
330
231
100
AcDbVisualStyle
  2
Gouraud
 70
     2
 71
     2
 72
     2
 73
     1
 90
        2
 40
-0.6
 41
30.0
 62
     5
 63
     7
 74
     0
 91
        0
 64
     7
 65
   257
 75
     1
175
     1
 42
1.0
 92
        0
 66
     7
 43
1.0
 76
     1
 77
     6
 78
     2
 67
     7
 79
     5
170
     0
171
     0
290
     0
174
     0
 93
       13
 44
0.0
173
     0
291
     1
 45
0.0
1001
ACAD
1000
AcDbSavedByObjectVersion
1070
     0
  0
VISUALSTYLE
  5
235
102
{ACAD_XDICTIONARY
360
2A3
102
}
102
{ACAD_REACTORS
330
231
102
}
330
231
100
AcDbVisualStyle
  2
GouraudWithEdges
 70
     3
 71
     2
 72
     2
 73
     1
 90
        2
 40
-0.6
 41
30.0
 62
     5
 63
     7
 74
     1
 91
        0
 64
     7
 65
   257
 75
     1
175
     1
 42
1.0
 92
        0
 66
   257
 43
1.0
 76
     1
 77
     6
 78
     2
 67
     7
 79
     5
170
     0
171
     0
290
     0
174
     0
 93
       13
 44
0.0
173
     0
291
     1
 45
0.0
1001
ACAD
1000
AcDbSavedByObjectVersion
1070
     0
  0
VISUALSTYLE
  5
239
102
{ACAD_XDICTIONARY
360
2AB
102
}
102
{ACAD_REACTORS
330
231
102
}
330
231
100
AcDbVisualStyle
  2
Hidden
 70
     6
 71
     1
 72
     2
 73
     2
 90
        0
 40
-0.6
 41
-30.0
 62
     5
 63
     7
 74
     2
 91
        2
 64
     7
 65
   257
 75
     2
175
     1
 42
40.0
 92
        0
 66
   257
 43
1.0
 76
     1
 77
     6
 78
     2
 67
     7
 79
     3
170
     0
171
     0
290
     0
174
     0
 93
        1
 44
0.0
173
     0
291
     0
 45
0.0
1001
ACAD
1000
AcDbSavedByObjectVersion
1070
     0
  0
VISUALSTYLE
  5
247
102
{ACAD_XDICTIONARY
360
2C7
102
}
102
{ACAD_REACTORS
330
231
102
}
330
231
100
AcDbVisualStyle
  2
JitterOff
 70
    20
 71
     2
 72
     2
 73
     0
 90
        0
 40
-0.6
 41
-30.0
 62
     5
 63
     7
 74
     1
 91
        4
 64
     7
 65
   257
 75
     1
175
     1
 42
1.0
 92
       10
 66
     7
 43
1.0
 76
     1
 77
     6
 78
     2
 67
     7
 79
     5
170
     0
171
     0
290
     0
174
     0
 93
        1
 44
0.0
173
     0
291
     1
 45
0.0
1001
ACAD
1000
AcDbSavedByObjectVersion
1070
     0
  0
VISUALSTYLE
  5
23F
102
{ACAD_XDICTIONARY
360
2B7
102
}
102
{ACAD_REACTORS
330
231
102
}
330
231
100
AcDbVisualStyle
  2
Linepattern
 70
    14
 71
     2
 72
     2
 73
     0
 90
        0
 40
-0.6
 41
-30.0
 62
     5
 63
     7
 74
     1
 91
        4
 64
     7
 65
   257
 75
     7
175
     7
 42
1.0
 92
        8
 66
     7
 43
1.0
 76
     1
 77
     6
 78
     2
 67
     7
 79
     5
170
     0
171
     0
290
     0
174
     0
 93
        1
 44
0.0
173
     0
291
     1
 45
0.0
1001
ACAD
1000
AcDbSavedByObjectVersion
1070
     0
  0
VISUALSTYLE
  5
248
102
{ACAD_XDICTIONARY
360
2C9
102
}
102
{ACAD_REACTORS
330
231
102
}
330
231
100
AcDbVisualStyle
  2
OverhangOff
 70
    21
 71
     2
 72
     2
 73
     0
 90
        0
 40
-0.6
 41
-30.0
 62
     5
 63
     7
 74
     1
 91
        4
 64
     7
 65
   257
 75
     1
175
     1
 42
1.0
 92
        9
 66
     7
 43
1.0
 76
     1
 77
     6
 78
     2
 67
     7
 79
     5
170
     0
171
     0
290
     0
174
     0
 93
        1
 44
0.0
173
     0
291
     1
 45
0.0
1001
ACAD
1000
AcDbSavedByObjectVersion
1070
     0
  0
VISUALSTYLE
  5
23B
102
{ACAD_XDICTIONARY
360
2AF
102
}
102
{ACAD_REACTORS
330
231
102
}
330
231
100
AcDbVisualStyle
  2
Realistic
 70
     8
 71
     2
 72
     3
 73
     0
 90
        2
 40
-0.6
 41
30.0
 62
     5
 63
     7
 74
     0
 91
        0
 64
     7
 65
   257
 75
     1
175
     1
 42
1.0
 92
        8
 66
   257
 43
1.0
 76
     1
 77
     6
 78
     2
 67
     7
 79
     3
170
     0
171
     0
290
     0
174
     0
 93
       13
 44
0.0
173
     0
291
     0
 45
0.0
1001
ACAD
1000
AcDbSavedByObjectVersion
1070
     0
  0
VISUALSTYLE
  5
246
102
{ACAD_XDICTIONARY
360
2C5
102
}
102
{ACAD_REACTORS
330
231
102
}
330
231
100
AcDbVisualStyle
  2
Shaded
 70
    27
 71
     2
 72
     2
 73
     1
 90
        2
 40
-0.6
 41
30.0
 62
     5
 63
     7
 74
     0
 91
        4
 64
     7
 65
   257
 75
     1
175
     1
 42
1.0
 92
        8
 66
   257
 43
1.0
 76
     1
 77
     6
 78
     2
 67
     8
 79
     3
170
     0
171
     0
290
     0
174
     0
 93
        5
 44
0.0
173
     0
291
     0
 45
0.0
1001
ACAD
1000
AcDbSavedByObjectVersion
1070
     0
  0
VISUALSTYLE
  5
245
102
{ACAD_XDICTIONARY
360
2C3
102
}
102
{ACAD_REACTORS
330
231
102
}
330
231
100
AcDbVisualStyle
  2
Shaded with edges
 70
    26
 71
     2
 72
     2
 73
     1
 90
        2
 40
-0.6
 41
30.0
 62
     5
 63
     7
 74
     1
 91
       10
 64
     7
 65
   257
 75
     2
175
     1
 42
1.0
 92
        8
 66
   257
 43
1.0
 76
     1
 77
     6
 78
     2
 67
     7
 79
     3
170
     0
171
     0
290
     0
174
     0
 93
        5
 44
0.0
173
     0
291
     0
 45
0.0
1001
ACAD
1000
AcDbSavedByObjectVersion
1070
     0
  0
VISUALSTYLE
  5
242
102
{ACAD_XDICTIONARY
360
2BD
102
}
102
{ACAD_REACTORS
330
231
102
}
330
231
100
AcDbVisualStyle
  2
Shades of Gray
 70
    23
 71
     2
 72
     2
 73
     3
 90
        0
 40
-0.6
 41
-30.0
 62
     5
 63
     7
 74
     2
 91
        2
 64
     7
 65
     7
 75
     1
175
     1
 42
40.0
 92
        8
 66
     7
 43
1.0
 76
     1
 77
     6
 78
     2
 67
     7
 79
     3
170
     0
171
     0
290
     0
174
     0
 93
        1
 44
0.0
173
     0
291
     0
 45
0.0
1001
ACAD
1000
AcDbSavedByObjectVersion
1070
     0
  0
VISUALSTYLE
  5
243
102
{ACAD_XDICTIONARY
360
2BF
102
}
102
{ACAD_REACTORS
330
231
102
}
330
231
100
AcDbVisualStyle
  2
Sketchy
 70
    24
 71
     1
 72
     2
 73
     2
 90
        0
 40
-0.6
 41
-30.0
 62
     5
 63
     7
 74
     2
 91
        2
 64
     7
 65
     7
 75
     1
175
     1
 42
40.0
 92
       11
 66
     7
 43
1.0
 76
     1
 77
     6
 78
     2
 67
     7
 79
     6
170
     0
171
     0
290
     0
174
     0
 93
        1
 44
0.0
173
     0
291
     0
 45
0.0
1001
ACAD
1000
AcDbSavedByObjectVersion
1070
     0
  0
VISUALSTYLE
  5
23E
102
{ACAD_XDICTIONARY
360
2B5
102
}
102
{ACAD_REACTORS
330
231
102
}
330
231
100
AcDbVisualStyle
  2
Thicken
 70
    13
 71
     2
 72
     2
 73
     0
 90
        0
 40
-0.6
 41
-30.0
 62
     5
 63
     7
 74
     1
 91
        4
 64
     7
 65
   257
 75
     1
175
     1
 42
1.0
 92
       12
 66
     7
 43
1.0
 76
     1
 77
     6
 78
     2
 67
     7
 79
     5
170
     0
171
     0
290
     0
174
     0
 93
        1
 44
0.0
173
     0
291
     1
 45
0.0
1001
ACAD
1000
AcDbSavedByObjectVersion
1070
     0
  0
VISUALSTYLE
  5
238
102
{ACAD_XDICTIONARY
360
2A9
102
}
102
{ACAD_REACTORS
330
231
102
}
330
231
100
AcDbVisualStyle
  2
Wireframe
 70
     5
 71
     0
 72
     2
 73
     0
 90
        0
 40
-0.6
 41
-30.0
 62
     5
 63
     7
 74
     1
 91
        4
 64
     7
 65
   257
 75
     1
175
     1
 42
1.0
 92
        0
 66
   257
 43
1.0
 76
     1
 77
     6
 78
     2
 67
     7
 79
     3
170
     0
171
     0
290
     0
174
     0
 93
        1
 44
0.0
173
     0
291
     0
 45
0.0
1001
ACAD
1000
AcDbSavedByObjectVersion
1070
     0
  0
VISUALSTYLE
  5
244
102
{ACAD_XDICTIONARY
360
2C1
102
}
102
{ACAD_REACTORS
330
231
102
}
330
231
100
AcDbVisualStyle
  2
X-Ray
 70
    25
 71
     2
 72
     2
 73
     1
 90
        1
 40
0.5
 41
-30.0
 62
     5
 63
     7
 74
     1
 91
        0
 64
     7
 65
   257
 75
     1
175
     1
 42
1.0
 92
        8
 66
     7
 43
1.0
 76
     1
 77
     6
 78
     2
 67
     7
 79
     3
170
     0
171
     0
290
     0
174
     0
 93
       13
 44
0.0
173
     0
291
     0
 45
0.0
1001
ACAD
1000
AcDbSavedByObjectVersion
1070
     0
  0
DICTIONARYVAR
  5
290
102
{ACAD_REACTORS
330
28D
102
}
330
28D
100
DictionaryVariables
280
     0
  1
1:1
  0
DICTIONARYVAR
  5
28F
102
{ACAD_REACTORS
330
28D
102
}
330
28D
100
DictionaryVariables
280
     0
  1
STANDARD
  0
DICTIONARYVAR
  5
28E
102
{ACAD_REACTORS
330
28D
102
}
330
28D
100
DictionaryVariables
280
     0
  1
STANDARD
  0
DICTIONARYVAR
  5
293
102
{ACAD_REACTORS
330
28D
102
}
330
28D
100
DictionaryVariables
280
     0
  1
1
  0
DICTIONARYVAR
  5
292
102
{ACAD_REACTORS
330
28D
102
}
330
28D
100
DictionaryVariables
280
     0
  1
0
  0
DICTIONARYVAR
  5
291
102
{ACAD_REACTORS
330
28D
102
}
330
28D
100
DictionaryVariables
280
     0
  1
127
  0
DICTIONARYVAR
  5
294
102
{ACAD_REACTORS
330
28D
102
}
330
28D
100
DictionaryVariables
280
     0
  1
2
  0
DICTIONARY
  5
2D1
330
276
100
AcDbDictionary
280
     1
281
     1
  3
ACAD_XREC_ROUNDTRIP
360
2D2
  0
DICTIONARY
  5
2CF
330
272
100
AcDbDictionary
280
     1
281
     1
  3
ACAD_XREC_ROUNDTRIP
360
2D0
  0
DICTIONARY
  5
222
330
221
100
AcDbDictionary
280
     1
281
     1
  3
ACAD_XREC_ROUNDTRIP
360
29B
  3
BUMPTILE
360
224
  3
DIFFUSETILE
360
223
  3
OPACITYTILE
360
227
  3
REFLECTIONTILE
360
226
  3
REFRACTIONTILE
360
228
  3
SPECULARTILE
360
225
  0
DICTIONARY
  5
21A
330
219
100
AcDbDictionary
280
     1
281
     1
  3
ACAD_XREC_ROUNDTRIP
360
29A
  3
BUMPTILE
360
21C
  3
DIFFUSETILE
360
21B
  3
OPACITYTILE
360
21F
  3
REFLECTIONTILE
360
21E
  3
REFRACTIONTILE
360
220
  3
SPECULARTILE
360
21D
  0
DICTIONARY
  5
22A
330
229
100
AcDbDictionary
280
     1
281
     1
  3
ACAD_XREC_ROUNDTRIP
360
29C
  3
BUMPTILE
360
22C
  3
DIFFUSETILE
360
22B
  3
OPACITYTILE
360
22F
  3
REFLECTIONTILE
360
22E
  3
REFRACTIONTILE
360
230
  3
SPECULARTILE
360
22D
  0
DICTIONARY
  5
296
330
26C
100
AcDbDictionary
280
     1
281
     1
  3
ACAD_ROUNDTRIP_2008_TABLESTYLE_CELLSTYLEMAP
360
297
  3
ACAD_XREC_ROUNDTRIP
360
2CD
  0
DICTIONARY
  5
2A7
330
237
100
AcDbDictionary
280
     1
281
     1
  3
ACAD_XREC_ROUNDTRIP
360
2A8
  0
DICTIONARY
  5
2A5
330
236
100
AcDbDictionary
280
     1
281
     1
  3
ACAD_XREC_ROUNDTRIP
360
2A6
  0
DICTIONARY
  5
2B3
330
23D
100
AcDbDictionary
280
     1
281
     1
  3
ACAD_XREC_ROUNDTRIP
360
2B4
  0
DICTIONARY
  5
2BB
330
241
100
AcDbDictionary
280
     1
281
     1
  3
ACAD_XREC_ROUNDTRIP
360
2BC
  0
DICTIONARY
  5
2AD
330
23A
100
AcDbDictionary
280
     1
281
     1
  3
ACAD_XREC_ROUNDTRIP
360
2AE
  0
DICTIONARY
  5
2B1
330
23C
100
AcDbDictionary
280
     1
281
     1
  3
ACAD_XREC_ROUNDTRIP
360
2B2
  0
DICTIONARY
  5
2CB
330
249
100
AcDbDictionary
280
     1
281
     1
  3
ACAD_XREC_ROUNDTRIP
360
2CC
  0
DICTIONARY
  5
2B9
330
240
100
AcDbDictionary
280
     1
281
     1
  3
ACAD_XREC_ROUNDTRIP
360
2BA
  0
DICTIONARY
  5
29D
330
232
100
AcDbDictionary
280
     1
281
     1
  3
ACAD_XREC_ROUNDTRIP
360
29E
  0
DICTIONARY
  5
29F
330
233
100
AcDbDictionary
280
     1
281
     1
  3
ACAD_XREC_ROUNDTRIP
360
2A0
  0
DICTIONARY
  5
2A1
330
234
100
AcDbDictionary
280
     1
281
     1
  3
ACAD_XREC_ROUNDTRIP
360
2A2
  0
DICTIONARY
  5
2A3
330
235
100
AcDbDictionary
280
     1
281
     1
  3
ACAD_XREC_ROUNDTRIP
360
2A4
  0
DICTIONARY
  5
2AB
330
239
100
AcDbDictionary
280
     1
281
     1
  3
ACAD_XREC_ROUNDTRIP
360
2AC
  0
DICTIONARY
  5
2C7
330
247
100
AcDbDictionary
280
     1
281
     1
  3
ACAD_XREC_ROUNDTRIP
360
2C8
  0
DICTIONARY
  5
2B7
330
23F
100
AcDbDictionary
280
     1
281
     1
  3
ACAD_XREC_ROUNDTRIP
360
2B8
  0
DICTIONARY
  5
2C9
330
248
100
AcDbDictionary
280
     1
281
     1
  3
ACAD_XREC_ROUNDTRIP
360
2CA
  0
DICTIONARY
  5
2AF
330
23B
100
AcDbDictionary
280
     1
281
     1
  3
ACAD_XREC_ROUNDTRIP
360
2B0
  0
DICTIONARY
  5
2C5
330
246
100
AcDbDictionary
280
     1
281
     1
  3
ACAD_XREC_ROUNDTRIP
360
2C6
  0
DICTIONARY
  5
2C3
330
245
100
AcDbDictionary
280
     1
281
     1
  3
ACAD_XREC_ROUNDTRIP
360
2C4
  0
DICTIONARY
  5
2BD
330
242
100
AcDbDictionary
280
     1
281
     1
  3
ACAD_XREC_ROUNDTRIP
360
2BE
  0
DICTIONARY
  5
2BF
330
243
100
AcDbDictionary
280
     1
281
     1
  3
ACAD_XREC_ROUNDTRIP
360
2C0
  0
DICTIONARY
  5
2B5
330
23E
100
AcDbDictionary
280
     1
281
     1
  3
ACAD_XREC_ROUNDTRIP
360
2B6
  0
DICTIONARY
  5
2A9
330
238
100
AcDbDictionary
280
     1
281
     1
  3
ACAD_XREC_ROUNDTRIP
360
2AA
  0
DICTIONARY
  5
2C1
330
244
100
AcDbDictionary
280
     1
281
     1
  3
ACAD_XREC_ROUNDTRIP
360
2C2
  0
XRECORD
  5
2D2
102
{ACAD_REACTORS
330
2D1
102
}
330
2D1
100
AcDbXrecord
280
     1
102
SHADEPLOT
 70
     0
102
SHADEPLOTRESLEVEL
 70
     2
102
SHADEPLOTCUSTOMDPI
 70
   300
  0
XRECORD
  5
2D0
102
{ACAD_REACTORS
330
2CF
102
}
330
2CF
100
AcDbXrecord
280
     1
102
SHADEPLOT
 70
     0
102
SHADEPLOTRESLEVEL
 70
     2
102
SHADEPLOTCUSTOMDPI
 70
   300
  0
XRECORD
  5
29B
102
{ACAD_REACTORS
330
222
102
}
330
222
100
AcDbXrecord
280
     1
102
MATERIAL
148
0.0
149
0.0
149
0.0
 93
        0
 94
      127
282
     0
 72
     0
 77
     0
171
     0
175
     0
179
     0
273
     0
  0
XRECORD
  5
224
102
{ACAD_REACTORS
330
222
102
}
330
222
100
AcDbXrecord
280
     1
270
     1
271
     1
  0
XRECORD
  5
223
102
{ACAD_REACTORS
330
222
102
}
330
222
100
AcDbXrecord
280
     1
270
     1
271
     1
  0
XRECORD
  5
227
102
{ACAD_REACTORS
330
222
102
}
330
222
100
AcDbXrecord
280
     1
270
     1
271
     1
  0
XRECORD
  5
226
102
{ACAD_REACTORS
330
222
102
}
330
222
100
AcDbXrecord
280
     1
270
     1
271
     1
  0
XRECORD
  5
228
102
{ACAD_REACTORS
330
222
102
}
330
222
100
AcDbXrecord
280
     1
270
     1
271
     1
  0
XRECORD
  5
225
102
{ACAD_REACTORS
330
222
102
}
330
222
100
AcDbXrecord
280
     1
270
     1
271
     1
  0
XRECORD
  5
29A
102
{ACAD_REACTORS
330
21A
102
}
330
21A
100
AcDbXrecord
280
     1
102
MATERIAL
148
0.0
149
0.0
149
0.0
 93
        0
 94
      127
282
     0
 72
     0
 77
     0
171
     0
175
     0
179
     0
273
     0
  0
XRECORD
  5
21C
102
{ACAD_REACTORS
330
21A
102
}
330
21A
100
AcDbXrecord
280
     1
270
     1
271
     1
  0
XRECORD
  5
21B
102
{ACAD_REACTORS
330
21A
102
}
330
21A
100
AcDbXrecord
280
     1
270
     1
271
     1
  0
XRECORD
  5
21F
102
{ACAD_REACTORS
330
21A
102
}
330
21A
100
AcDbXrecord
280
     1
270
     1
271
     1
  0
XRECORD
  5
21E
102
{ACAD_REACTORS
330
21A
102
}
330
21A
100
AcDbXrecord
280
     1
270
     1
271
     1
  0
XRECORD
  5
220
102
{ACAD_REACTORS
330
21A
102
}
330
21A
100
AcDbXrecord
280
     1
270
     1
271
     1
  0
XRECORD
  5
21D
102
{ACAD_REACTORS
330
21A
102
}
330
21A
100
AcDbXrecord
280
     1
270
     1
271
     1
  0
XRECORD
  5
29C
102
{ACAD_REACTORS
330
22A
102
}
330
22A
100
AcDbXrecord
280
     1
102
MATERIAL
148
0.0
149
0.0
149
0.0
 93
        0
 94
      127
282
     0
 72
     0
 77
     0
171
     0
175
     0
179
     0
273
     0
  0
XRECORD
  5
22C
102
{ACAD_REACTORS
330
22A
102
}
330
22A
100
AcDbXrecord
280
     1
270
     1
271
     1
  0
XRECORD
  5
22B
102
{ACAD_REACTORS
330
22A
102
}
330
22A
100
AcDbXrecord
280
     1
270
     1
271
     1
  0
XRECORD
  5
22F
102
{ACAD_REACTORS
330
22A
102
}
330
22A
100
AcDbXrecord
280
     1
270
     1
271
     1
  0
XRECORD
  5
22E
102
{ACAD_REACTORS
330
22A
102
}
330
22A
100
AcDbXrecord
280
     1
270
     1
271
     1
  0
XRECORD
  5
230
102
{ACAD_REACTORS
330
22A
102
}
330
22A
100
AcDbXrecord
280
     1
270
     1
271
     1
  0
XRECORD
  5
22D
102
{ACAD_REACTORS
330
22A
102
}
330
22A
100
AcDbXrecord
280
     1
270
     1
271
     1
  0
CELLSTYLEMAP
  5
297
102
{ACAD_REACTORS
330
296
102
}
330
296
100
AcDbCellStyleMap
 90
        3
300
CELLSTYLE
  1
TABLEFORMAT_BEGIN
 90
        5
170
     1
 91
        0
 92
    32768
 62
   257
 93
        1
300
CONTENTFORMAT
  1
CONTENTFORMAT_BEGIN
 90
        0
 91
        0
 92
      512
 93
        0
300

 40
0.0
140
1.0
 94
        5
 62
     0
340
25D
144
0.25
309
CONTENTFORMAT_END
171
     0
 94
        0
309
TABLEFORMAT_END
  1
CELLSTYLE_BEGIN
 90
        1
 91
        1
300
_TITLE
309
CELLSTYLE_END
300
CELLSTYLE
  1
TABLEFORMAT_BEGIN
 90
        5
170
     1
 91
        0
 92
        0
 62
   257
 93
        1
300
CONTENTFORMAT
  1
CONTENTFORMAT_BEGIN
 90
        0
 91
        0
 92
      512
 93
        0
300

 40
0.0
140
1.0
 94
        5
 62
     0
340
25D
144
0.18
309
CONTENTFORMAT_END
171
     0
 94
        0
309
TABLEFORMAT_END
  1
CELLSTYLE_BEGIN
 90
        2
 91
        1
300
_HEADER
309
CELLSTYLE_END
300
CELLSTYLE
  1
TABLEFORMAT_BEGIN
 90
        5
170
     1
 91
        0
 92
        0
 62
   257
 93
        1
300
CONTENTFORMAT
  1
CONTENTFORMAT_BEGIN
 90
        0
 91
        0
 92
      512
 93
        0
300

 40
0.0
140
1.0
 94
        2
 62
     0
340
25D
144
0.18
309
CONTENTFORMAT_END
171
     0
 94
        0
309
TABLEFORMAT_END
  1
CELLSTYLE_BEGIN
 90
        3
 91
        2
300
_DATA
309
CELLSTYLE_END
  0
XRECORD
  5
2CD
102
{ACAD_REACTORS
330
296
102
}
330
296
100
AcDbXrecord
280
     1
102
ACAD_ROUNDTRIP_PRE2007_TABLESTYLE
 90
      512
 91
        0
  1

 92
      512
 93
        0
  2

 94
      512
 95
        0
  3

  0
XRECORD
  5
2A8
102
{ACAD_REACTORS
330
2A7
102
}
330
2A7
100
AcDbXrecord
280
     1
102
RTVSPropertyOp0
 70
     1
102
RTVSPropertyOp1
 70
     1
102
RTVSPropertyOp2
 70
     1
102
RTVSPropertyOp3
 70
     1
102
RTVSPropertyOp4
 70
     1
102
RTVSPropertyOp5
 70
     1
102
RTVSPropertyOp6
 70
     1
102
RTVSPropertyOp7
 70
     1
102
RTVSPropertyOp8
 70
     1
102
RTVSPropertyOp9
 70
     1
102
RTVSPropertyOp10
 70
     1
102
RTVSPropertyOp11
 70
     1
102
RTVSPropertyOp12
 70
     1
102
RTVSPropertyOp13
 70
     1
102
RTVSPropertyOp14
 70
     1
102
RTVSPropertyOp15
 70
     1
102
RTVSPropertyOp16
 70
     1
102
RTVSPropertyOp17
 70
     1
102
RTVSPropertyOp18
 70
     1
102
RTVSPropertyOp19
 70
     1
102
RTVSPropertyOp20
 70
     1
102
RTVSPropertyOp21
 70
     1
102
RTVSPropertyOp22
 70
     1
102
RTVSPropertyOp23
 70
     1
102
RTVSPropertyOp24
 70
     1
102
RTVSPropertyOp25
 70
     1
102
RTVSPropertyOp26
 70
     1
102
RTVSPropertyOp27
 70
     1
102
RTVSPropertyOp28
 70
     1
102
RTVSPropertyOp29
 70
     1
102
RTVSPropertyOp30
 70
     1
102
RTVSPropertyOp31
 70
     1
102
RTVSPropertyOp32
 70
     1
  0
XRECORD
  5
2A6
102
{ACAD_REACTORS
330
2A5
102
}
330
2A5
100
AcDbXrecord
280
     1
102
RTVSPropertyOp0
 70
     1
102
RTVSPropertyOp1
 70
     1
102
RTVSPropertyOp2
 70
     1
102
RTVSPropertyOp3
 70
     1
102
RTVSPropertyOp4
 70
     1
102
RTVSPropertyOp5
 70
     1
102
RTVSPropertyOp6
 70
     1
102
RTVSPropertyOp7
 70
     1
102
RTVSPropertyOp8
 70
     1
102
RTVSPropertyOp9
 70
     1
102
RTVSPropertyOp10
 70
     1
102
RTVSPropertyOp11
 70
     1
102
RTVSPropertyOp12
 70
     1
102
RTVSPropertyOp13
 70
     1
102
RTVSPropertyOp14
 70
     1
102
RTVSPropertyOp15
 70
     1
102
RTVSPropertyOp16
 70
     1
102
RTVSPropertyOp17
 70
     1
102
RTVSPropertyOp18
 70
     1
102
RTVSPropertyOp19
 70
     1
102
RTVSPropertyOp20
 70
     1
102
RTVSPropertyOp21
 70
     1
102
RTVSPropertyOp22
 70
     1
102
RTVSPropertyOp23
 70
     1
102
RTVSPropertyOp24
 70
     1
102
RTVSPropertyOp25
 70
     1
102
RTVSPropertyOp26
 70
     1
102
RTVSPropertyOp27
 70
     1
102
RTVSPropertyOp28
 70
     1
102
RTVSPropertyOp29
 70
     1
102
RTVSPropertyOp30
 70
     1
102
RTVSPropertyOp31
 70
     1
102
RTVSPropertyOp32
 70
     1
  0
XRECORD
  5
2B4
102
{ACAD_REACTORS
330
2B3
102
}
330
2B3
100
AcDbXrecord
280
     1
102
RTVSPropertyOp0
 70
     1
102
RTVSPropertyOp1
 70
     1
102
RTVSPropertyOp2
 70
     1
102
RTVSPropertyOp3
 70
     1
102
RTVSPropertyOp4
 70
     1
102
RTVSPropertyOp5
 70
     1
102
RTVSPropertyOp6
 70
     1
102
RTVSPropertyOp7
 70
     1
102
RTVSPropertyOp8
 70
     1
102
RTVSPropertyOp9
 70
     1
102
RTVSPropertyOp10
 70
     1
102
RTVSPropertyOp11
 70
     1
102
RTVSPropertyOp12
 70
     1
102
RTVSPropertyOp13
 70
     1
102
RTVSPropertyOp14
 70
     1
102
RTVSPropertyOp15
 70
     1
102
RTVSPropertyOp16
 70
     1
102
RTVSPropertyOp17
 70
     1
102
RTVSPropertyOp18
 70
     1
102
RTVSPropertyOp19
 70
     1
102
RTVSPropertyOp20
 70
     1
102
RTVSPropertyOp21
 70
     1
102
RTVSPropertyOp22
 70
     1
102
RTVSPropertyOp23
 70
     1
102
RTVSPropertyOp24
 70
     1
102
RTVSPropertyOp25
 70
     1
102
RTVSPropertyOp26
 70
     1
102
RTVSPropertyOp27
 70
     1
102
RTVSPropertyOp28
 70
     1
102
RTVSPropertyOp29
 70
     1
102
RTVSPropertyOp30
 70
     1
102
RTVSPropertyOp31
 70
     1
102
RTVSPropertyOp32
 70
     1
  0
XRECORD
  5
2BC
102
{ACAD_REACTORS
330
2BB
102
}
330
2BB
100
AcDbXrecord
280
     1
102
RTVSPropertyOp0
 70
     1
102
RTVSPropertyOp1
 70
     1
102
RTVSPropertyOp2
 70
     1
102
RTVSPropertyOp3
 70
     1
102
RTVSPropertyOp4
 70
     1
102
RTVSPropertyOp5
 70
     1
102
RTVSPropertyOp6
 70
     1
102
RTVSPropertyOp7
 70
     1
102
RTVSPropertyOp8
 70
     1
102
RTVSPropertyOp9
 70
     1
102
RTVSPropertyOp10
 70
     1
102
RTVSPropertyOp11
 70
     1
102
RTVSPropertyOp12
 70
     1
102
RTVSPropertyOp13
 70
     1
102
RTVSPropertyOp14
 70
     1
102
RTVSPropertyOp15
 70
     1
102
RTVSPropertyOp16
 70
     1
102
RTVSPropertyOp17
 70
     1
102
RTVSPropertyOp18
 70
     1
102
RTVSPropertyOp19
 70
     1
102
RTVSPropertyOp20
 70
     1
102
RTVSPropertyOp21
 70
     1
102
RTVSPropertyOp22
 70
     1
102
RTVSPropertyOp23
 70
     1
102
RTVSPropertyOp24
 70
     1
102
RTVSPropertyOp25
 70
     1
102
RTVSPropertyOp26
 70
     1
102
RTVSPropertyOp27
 70
     1
102
RTVSPropertyOp28
 70
     1
102
RTVSPropertyOp29
 70
     1
102
RTVSPropertyOp30
 70
     1
102
RTVSPropertyOp31
 70
     1
102
RTVSPropertyOp32
 70
     1
  0
XRECORD
  5
2AE
102
{ACAD_REACTORS
330
2AD
102
}
330
2AD
100
AcDbXrecord
280
     1
102
RTVSPropertyOp0
 70
     1
102
RTVSPropertyOp1
 70
     1
102
RTVSPropertyOp2
 70
     1
102
RTVSPropertyOp3
 70
     1
102
RTVSPropertyOp4
 70
     1
102
RTVSPropertyOp5
 70
     1
102
RTVSPropertyOp6
 70
     1
102
RTVSPropertyOp7
 70
     1
102
RTVSPropertyOp8
 70
     1
102
RTVSPropertyOp9
 70
     1
102
RTVSPropertyOp10
 70
     1
102
RTVSPropertyOp11
 70
     1
102
RTVSPropertyOp12
 70
     1
102
RTVSPropertyOp13
 70
     1
102
RTVSPropertyOp14
 70
     1
102
RTVSPropertyOp15
 70
     1
102
RTVSPropertyOp16
 70
     1
102
RTVSPropertyOp17
 70
     1
102
RTVSPropertyOp18
 70
     1
102
RTVSPropertyOp19
 70
     1
102
RTVSPropertyOp20
 70
     1
102
RTVSPropertyOp21
 70
     1
102
RTVSPropertyOp22
 70
     1
102
RTVSPropertyOp23
 70
     1
102
RTVSPropertyOp24
 70
     1
102
RTVSPropertyOp25
 70
     1
102
RTVSPropertyOp26
 70
     1
102
RTVSPropertyOp27
 70
     1
102
RTVSPropertyOp28
 70
     1
102
RTVSPropertyOp29
 70
     1
102
RTVSPropertyOp30
 70
     1
102
RTVSPropertyOp31
 70
     1
102
RTVSPropertyOp32
 70
     1
  0
XRECORD
  5
2B2
102
{ACAD_REACTORS
330
2B1
102
}
330
2B1
100
AcDbXrecord
280
     1
102
RTVSPropertyOp0
 70
     1
102
RTVSPropertyOp1
 70
     1
102
RTVSPropertyOp2
 70
     1
102
RTVSPropertyOp3
 70
     1
102
RTVSPropertyOp4
 70
     1
102
RTVSPropertyOp5
 70
     1
102
RTVSPropertyOp6
 70
     1
102
RTVSPropertyOp7
 70
     1
102
RTVSPropertyOp8
 70
     1
102
RTVSPropertyOp9
 70
     1
102
RTVSPropertyOp10
 70
     1
102
RTVSPropertyOp11
 70
     1
102
RTVSPropertyOp12
 70
     1
102
RTVSPropertyOp13
 70
     1
102
RTVSPropertyOp14
 70
     1
102
RTVSPropertyOp15
 70
     1
102
RTVSPropertyOp16
 70
     1
102
RTVSPropertyOp17
 70
     1
102
RTVSPropertyOp18
 70
     1
102
RTVSPropertyOp19
 70
     1
102
RTVSPropertyOp20
 70
     1
102
RTVSPropertyOp21
 70
     1
102
RTVSPropertyOp22
 70
     1
102
RTVSPropertyOp23
 70
     1
102
RTVSPropertyOp24
 70
     1
102
RTVSPropertyOp25
 70
     1
102
RTVSPropertyOp26
 70
     1
102
RTVSPropertyOp27
 70
     1
102
RTVSPropertyOp28
 70
     1
102
RTVSPropertyOp29
 70
     1
102
RTVSPropertyOp30
 70
     1
102
RTVSPropertyOp31
 70
     1
102
RTVSPropertyOp32
 70
     1
  0
XRECORD
  5
2CC
102
{ACAD_REACTORS
330
2CB
102
}
330
2CB
100
AcDbXrecord
280
     1
102
RTVSPropertyOp0
 70
     0
102
RTVSPropertyOp1
 70
     0
102
RTVSPropertyOp2
 70
     0
102
RTVSPropertyOp3
 70
     0
102
RTVSPropertyOp4
 70
     0
102
RTVSPropertyOp5
 70
     0
102
RTVSPropertyOp6
 70
     0
102
RTVSPropertyOp7
 70
     0
102
RTVSPropertyOp8
 70
     0
102
RTVSPropertyOp9
 70
     0
102
RTVSPropertyOp10
 70
     0
102
RTVSPropertyOp11
 70
     0
102
RTVSPropertyOp12
 70
     0
102
RTVSPropertyOp13
 70
     0
102
RTVSPropertyOp14
 70
     2
102
RTVSPropertyOp15
 70
     0
102
RTVSPropertyOp16
 70
     0
102
RTVSPropertyOp17
 70
     0
102
RTVSPropertyOp18
 70
     0
102
RTVSPropertyOp19
 70
     0
102
RTVSPropertyOp20
 70
     0
102
RTVSPropertyOp21
 70
     0
102
RTVSPropertyOp22
 70
     0
102
RTVSPropertyOp23
 70
     0
102
RTVSPropertyOp24
 70
     0
102
RTVSPropertyOp25
 70
     0
102
RTVSPropertyOp26
 70
     0
102
RTVSPropertyOp27
 70
     0
102
RTVSPropertyOp28
 70
     0
102
RTVSPropertyOp29
 70
     0
102
RTVSPropertyOp30
 70
     0
102
RTVSPropertyOp31
 70
     0
102
RTVSPropertyOp32
 70
     0
  0
XRECORD
  5
2BA
102
{ACAD_REACTORS
330
2B9
102
}
330
2B9
100
AcDbXrecord
280
     1
102
RTVSPropertyOp0
 70
     1
102
RTVSPropertyOp1
 70
     1
102
RTVSPropertyOp2
 70
     1
102
RTVSPropertyOp3
 70
     1
102
RTVSPropertyOp4
 70
     1
102
RTVSPropertyOp5
 70
     1
102
RTVSPropertyOp6
 70
     1
102
RTVSPropertyOp7
 70
     1
102
RTVSPropertyOp8
 70
     1
102
RTVSPropertyOp9
 70
     1
102
RTVSPropertyOp10
 70
     1
102
RTVSPropertyOp11
 70
     1
102
RTVSPropertyOp12
 70
     1
102
RTVSPropertyOp13
 70
     1
102
RTVSPropertyOp14
 70
     1
102
RTVSPropertyOp15
 70
     1
102
RTVSPropertyOp16
 70
     1
102
RTVSPropertyOp17
 70
     1
102
RTVSPropertyOp18
 70
     1
102
RTVSPropertyOp19
 70
     1
102
RTVSPropertyOp20
 70
     1
102
RTVSPropertyOp21
 70
     1
102
RTVSPropertyOp22
 70
     1
102
RTVSPropertyOp23
 70
     1
102
RTVSPropertyOp24
 70
     1
102
RTVSPropertyOp25
 70
     1
102
RTVSPropertyOp26
 70
     1
102
RTVSPropertyOp27
 70
     1
102
RTVSPropertyOp28
 70
     1
102
RTVSPropertyOp29
 70
     1
102
RTVSPropertyOp30
 70
     1
102
RTVSPropertyOp31
 70
     1
102
RTVSPropertyOp32
 70
     1
  0
XRECORD
  5
29E
102
{ACAD_REACTORS
330
29D
102
}
330
29D
100
AcDbXrecord
280
     1
102
RTVSPropertyOp0
 70
     1
102
RTVSPropertyOp1
 70
     1
102
RTVSPropertyOp2
 70
     1
102
RTVSPropertyOp3
 70
     1
102
RTVSPropertyOp4
 70
     1
102
RTVSPropertyOp5
 70
     1
102
RTVSPropertyOp6
 70
     1
102
RTVSPropertyOp7
 70
     1
102
RTVSPropertyOp8
 70
     1
102
RTVSPropertyOp9
 70
     1
102
RTVSPropertyOp10
 70
     1
102
RTVSPropertyOp11
 70
     1
102
RTVSPropertyOp12
 70
     1
102
RTVSPropertyOp13
 70
     1
102
RTVSPropertyOp14
 70
     1
102
RTVSPropertyOp15
 70
     1
102
RTVSPropertyOp16
 70
     1
102
RTVSPropertyOp17
 70
     1
102
RTVSPropertyOp18
 70
     1
102
RTVSPropertyOp19
 70
     1
102
RTVSPropertyOp20
 70
     1
102
RTVSPropertyOp21
 70
     1
102
RTVSPropertyOp22
 70
     1
102
RTVSPropertyOp23
 70
     1
102
RTVSPropertyOp24
 70
     1
102
RTVSPropertyOp25
 70
     1
102
RTVSPropertyOp26
 70
     1
102
RTVSPropertyOp27
 70
     1
102
RTVSPropertyOp28
 70
     1
102
RTVSPropertyOp29
 70
     1
102
RTVSPropertyOp30
 70
     1
102
RTVSPropertyOp31
 70
     1
102
RTVSPropertyOp32
 70
     1
  0
XRECORD
  5
2A0
102
{ACAD_REACTORS
330
29F
102
}
330
29F
100
AcDbXrecord
280
     1
102
RTVSPropertyOp0
 70
     1
102
RTVSPropertyOp1
 70
     1
102
RTVSPropertyOp2
 70
     1
102
RTVSPropertyOp3
 70
     1
102
RTVSPropertyOp4
 70
     1
102
RTVSPropertyOp5
 70
     1
102
RTVSPropertyOp6
 70
     1
102
RTVSPropertyOp7
 70
     1
102
RTVSPropertyOp8
 70
     1
102
RTVSPropertyOp9
 70
     1
102
RTVSPropertyOp10
 70
     1
102
RTVSPropertyOp11
 70
     1
102
RTVSPropertyOp12
 70
     1
102
RTVSPropertyOp13
 70
     1
102
RTVSPropertyOp14
 70
     1
102
RTVSPropertyOp15
 70
     1
102
RTVSPropertyOp16
 70
     1
102
RTVSPropertyOp17
 70
     1
102
RTVSPropertyOp18
 70
     1
102
RTVSPropertyOp19
 70
     1
102
RTVSPropertyOp20
 70
     1
102
RTVSPropertyOp21
 70
     1
102
RTVSPropertyOp22
 70
     1
102
RTVSPropertyOp23
 70
     1
102
RTVSPropertyOp24
 70
     1
102
RTVSPropertyOp25
 70
     1
102
RTVSPropertyOp26
 70
     1
102
RTVSPropertyOp27
 70
     1
102
RTVSPropertyOp28
 70
     1
102
RTVSPropertyOp29
 70
     1
102
RTVSPropertyOp30
 70
     1
102
RTVSPropertyOp31
 70
     1
102
RTVSPropertyOp32
 70
     1
  0
XRECORD
  5
2A2
102
{ACAD_REACTORS
330
2A1
102
}
330
2A1
100
AcDbXrecord
280
     1
102
RTVSPropertyOp0
 70
     1
102
RTVSPropertyOp1
 70
     1
102
RTVSPropertyOp2
 70
     1
102
RTVSPropertyOp3
 70
     1
102
RTVSPropertyOp4
 70
     1
102
RTVSPropertyOp5
 70
     1
102
RTVSPropertyOp6
 70
     1
102
RTVSPropertyOp7
 70
     1
102
RTVSPropertyOp8
 70
     1
102
RTVSPropertyOp9
 70
     1
102
RTVSPropertyOp10
 70
     1
102
RTVSPropertyOp11
 70
     1
102
RTVSPropertyOp12
 70
     1
102
RTVSPropertyOp13
 70
     1
102
RTVSPropertyOp14
 70
     1
102
RTVSPropertyOp15
 70
     1
102
RTVSPropertyOp16
 70
     1
102
RTVSPropertyOp17
 70
     1
102
RTVSPropertyOp18
 70
     1
102
RTVSPropertyOp19
 70
     1
102
RTVSPropertyOp20
 70
     1
102
RTVSPropertyOp21
 70
     1
102
RTVSPropertyOp22
 70
     1
102
RTVSPropertyOp23
 70
     1
102
RTVSPropertyOp24
 70
     1
102
RTVSPropertyOp25
 70
     1
102
RTVSPropertyOp26
 70
     1
102
RTVSPropertyOp27
 70
     1
102
RTVSPropertyOp28
 70
     1
102
RTVSPropertyOp29
 70
     1
102
RTVSPropertyOp30
 70
     1
102
RTVSPropertyOp31
 70
     1
102
RTVSPropertyOp32
 70
     1
  0
XRECORD
  5
2A4
102
{ACAD_REACTORS
330
2A3
102
}
330
2A3
100
AcDbXrecord
280
     1
102
RTVSPropertyOp0
 70
     1
102
RTVSPropertyOp1
 70
     1
102
RTVSPropertyOp2
 70
     1
102
RTVSPropertyOp3
 70
     1
102
RTVSPropertyOp4
 70
     1
102
RTVSPropertyOp5
 70
     1
102
RTVSPropertyOp6
 70
     1
102
RTVSPropertyOp7
 70
     1
102
RTVSPropertyOp8
 70
     1
102
RTVSPropertyOp9
 70
     1
102
RTVSPropertyOp10
 70
     1
102
RTVSPropertyOp11
 70
     1
102
RTVSPropertyOp12
 70
     1
102
RTVSPropertyOp13
 70
     1
102
RTVSPropertyOp14
 70
     1
102
RTVSPropertyOp15
 70
     1
102
RTVSPropertyOp16
 70
     1
102
RTVSPropertyOp17
 70
     1
102
RTVSPropertyOp18
 70
     1
102
RTVSPropertyOp19
 70
     1
102
RTVSPropertyOp20
 70
     1
102
RTVSPropertyOp21
 70
     1
102
RTVSPropertyOp22
 70
     1
102
RTVSPropertyOp23
 70
     1
102
RTVSPropertyOp24
 70
     1
102
RTVSPropertyOp25
 70
     1
102
RTVSPropertyOp26
 70
     1
102
RTVSPropertyOp27
 70
     1
102
RTVSPropertyOp28
 70
     1
102
RTVSPropertyOp29
 70
     1
102
RTVSPropertyOp30
 70
     1
102
RTVSPropertyOp31
 70
     1
102
RTVSPropertyOp32
 70
     1
  0
XRECORD
  5
2AC
102
{ACAD_REACTORS
330
2AB
102
}
330
2AB
100
AcDbXrecord
280
     1
102
RTVSPropertyOp0
 70
     1
102
RTVSPropertyOp1
 70
     1
102
RTVSPropertyOp2
 70
     1
102
RTVSPropertyOp3
 70
     1
102
RTVSPropertyOp4
 70
     1
102
RTVSPropertyOp5
 70
     1
102
RTVSPropertyOp6
 70
     1
102
RTVSPropertyOp7
 70
     1
102
RTVSPropertyOp8
 70
     1
102
RTVSPropertyOp9
 70
     1
102
RTVSPropertyOp10
 70
     1
102
RTVSPropertyOp11
 70
     1
102
RTVSPropertyOp12
 70
     1
102
RTVSPropertyOp13
 70
     1
102
RTVSPropertyOp14
 70
     1
102
RTVSPropertyOp15
 70
     1
102
RTVSPropertyOp16
 70
     1
102
RTVSPropertyOp17
 70
     1
102
RTVSPropertyOp18
 70
     1
102
RTVSPropertyOp19
 70
     1
102
RTVSPropertyOp20
 70
     1
102
RTVSPropertyOp21
 70
     1
102
RTVSPropertyOp22
 70
     1
102
RTVSPropertyOp23
 70
     1
102
RTVSPropertyOp24
 70
     1
102
RTVSPropertyOp25
 70
     1
102
RTVSPropertyOp26
 70
     1
102
RTVSPropertyOp27
 70
     1
102
RTVSPropertyOp28
 70
     1
102
RTVSPropertyOp29
 70
     1
102
RTVSPropertyOp30
 70
     1
102
RTVSPropertyOp31
 70
     1
102
RTVSPropertyOp32
 70
     1
  0
XRECORD
  5
2C8
102
{ACAD_REACTORS
330
2C7
102
}
330
2C7
100
AcDbXrecord
280
     1
102
RTVSPropertyOp0
 70
     0
102
RTVSPropertyOp1
 70
     0
102
RTVSPropertyOp2
 70
     0
102
RTVSPropertyOp3
 70
     0
102
RTVSPropertyOp4
 70
     0
102
RTVSPropertyOp5
 70
     0
102
RTVSPropertyOp6
 70
     0
102
RTVSPropertyOp7
 70
     0
102
RTVSPropertyOp8
 70
     0
102
RTVSPropertyOp9
 70
     0
102
RTVSPropertyOp10
 70
     0
102
RTVSPropertyOp11
 70
     0
102
RTVSPropertyOp12
 70
     0
102
RTVSPropertyOp13
 70
     0
102
RTVSPropertyOp14
 70
     2
102
RTVSPropertyOp15
 70
     0
102
RTVSPropertyOp16
 70
     0
102
RTVSPropertyOp17
 70
     0
102
RTVSPropertyOp18
 70
     0
102
RTVSPropertyOp19
 70
     0
102
RTVSPropertyOp20
 70
     0
102
RTVSPropertyOp21
 70
     0
102
RTVSPropertyOp22
 70
     0
102
RTVSPropertyOp23
 70
     0
102
RTVSPropertyOp24
 70
     0
102
RTVSPropertyOp25
 70
     0
102
RTVSPropertyOp26
 70
     0
102
RTVSPropertyOp27
 70
     0
102
RTVSPropertyOp28
 70
     0
102
RTVSPropertyOp29
 70
     0
102
RTVSPropertyOp30
 70
     0
102
RTVSPropertyOp31
 70
     0
102
RTVSPropertyOp32
 70
     0
  0
XRECORD
  5
2B8
102
{ACAD_REACTORS
330
2B7
102
}
330
2B7
100
AcDbXrecord
280
     1
102
RTVSPropertyOp0
 70
     1
102
RTVSPropertyOp1
 70
     1
102
RTVSPropertyOp2
 70
     1
102
RTVSPropertyOp3
 70
     1
102
RTVSPropertyOp4
 70
     1
102
RTVSPropertyOp5
 70
     1
102
RTVSPropertyOp6
 70
     1
102
RTVSPropertyOp7
 70
     1
102
RTVSPropertyOp8
 70
     1
102
RTVSPropertyOp9
 70
     1
102
RTVSPropertyOp10
 70
     1
102
RTVSPropertyOp11
 70
     1
102
RTVSPropertyOp12
 70
     1
102
RTVSPropertyOp13
 70
     1
102
RTVSPropertyOp14
 70
     1
102
RTVSPropertyOp15
 70
     1
102
RTVSPropertyOp16
 70
     1
102
RTVSPropertyOp17
 70
     1
102
RTVSPropertyOp18
 70
     1
102
RTVSPropertyOp19
 70
     1
102
RTVSPropertyOp20
 70
     1
102
RTVSPropertyOp21
 70
     1
102
RTVSPropertyOp22
 70
     1
102
RTVSPropertyOp23
 70
     1
102
RTVSPropertyOp24
 70
     1
102
RTVSPropertyOp25
 70
     1
102
RTVSPropertyOp26
 70
     1
102
RTVSPropertyOp27
 70
     1
102
RTVSPropertyOp28
 70
     1
102
RTVSPropertyOp29
 70
     1
102
RTVSPropertyOp30
 70
     1
102
RTVSPropertyOp31
 70
     1
102
RTVSPropertyOp32
 70
     1
  0
XRECORD
  5
2CA
102
{ACAD_REACTORS
330
2C9
102
}
330
2C9
100
AcDbXrecord
280
     1
102
RTVSPropertyOp0
 70
     0
102
RTVSPropertyOp1
 70
     0
102
RTVSPropertyOp2
 70
     0
102
RTVSPropertyOp3
 70
     0
102
RTVSPropertyOp4
 70
     0
102
RTVSPropertyOp5
 70
     0
102
RTVSPropertyOp6
 70
     0
102
RTVSPropertyOp7
 70
     0
102
RTVSPropertyOp8
 70
     0
102
RTVSPropertyOp9
 70
     0
102
RTVSPropertyOp10
 70
     0
102
RTVSPropertyOp11
 70
     0
102
RTVSPropertyOp12
 70
     0
102
RTVSPropertyOp13
 70
     0
102
RTVSPropertyOp14
 70
     2
102
RTVSPropertyOp15
 70
     0
102
RTVSPropertyOp16
 70
     0
102
RTVSPropertyOp17
 70
     0
102
RTVSPropertyOp18
 70
     0
102
RTVSPropertyOp19
 70
     0
102
RTVSPropertyOp20
 70
     0
102
RTVSPropertyOp21
 70
     0
102
RTVSPropertyOp22
 70
     0
102
RTVSPropertyOp23
 70
     0
102
RTVSPropertyOp24
 70
     0
102
RTVSPropertyOp25
 70
     0
102
RTVSPropertyOp26
 70
     0
102
RTVSPropertyOp27
 70
     0
102
RTVSPropertyOp28
 70
     0
102
RTVSPropertyOp29
 70
     0
102
RTVSPropertyOp30
 70
     0
102
RTVSPropertyOp31
 70
     0
102
RTVSPropertyOp32
 70
     0
  0
XRECORD
  5
2B0
102
{ACAD_REACTORS
330
2AF
102
}
330
2AF
100
AcDbXrecord
280
     1
102
RTVSPropertyOp0
 70
     1
102
RTVSPropertyOp1
 70
     1
102
RTVSPropertyOp2
 70
     1
102
RTVSPropertyOp3
 70
     1
102
RTVSPropertyOp4
 70
     1
102
RTVSPropertyOp5
 70
     1
102
RTVSPropertyOp6
 70
     1
102
RTVSPropertyOp7
 70
     1
102
RTVSPropertyOp8
 70
     1
102
RTVSPropertyOp9
 70
     1
102
RTVSPropertyOp10
 70
     1
102
RTVSPropertyOp11
 70
     1
102
RTVSPropertyOp12
 70
     1
102
RTVSPropertyOp13
 70
     1
102
RTVSPropertyOp14
 70
     1
102
RTVSPropertyOp15
 70
     1
102
RTVSPropertyOp16
 70
     1
102
RTVSPropertyOp17
 70
     1
102
RTVSPropertyOp18
 70
     1
102
RTVSPropertyOp19
 70
     1
102
RTVSPropertyOp20
 70
     1
102
RTVSPropertyOp21
 70
     1
102
RTVSPropertyOp22
 70
     1
102
RTVSPropertyOp23
 70
     1
102
RTVSPropertyOp24
 70
     1
102
RTVSPropertyOp25
 70
     1
102
RTVSPropertyOp26
 70
     1
102
RTVSPropertyOp27
 70
     1
102
RTVSPropertyOp28
 70
     1
102
RTVSPropertyOp29
 70
     1
102
RTVSPropertyOp30
 70
     1
102
RTVSPropertyOp31
 70
     1
102
RTVSPropertyOp32
 70
     1
  0
XRECORD
  5
2C6
102
{ACAD_REACTORS
330
2C5
102
}
330
2C5
100
AcDbXrecord
280
     1
102
RTVSPropertyOp0
 70
     1
102
RTVSPropertyOp1
 70
     1
102
RTVSPropertyOp2
 70
     1
102
RTVSPropertyOp3
 70
     1
102
RTVSPropertyOp4
 70
     1
102
RTVSPropertyOp5
 70
     1
102
RTVSPropertyOp6
 70
     1
102
RTVSPropertyOp7
 70
     1
102
RTVSPropertyOp8
 70
     1
102
RTVSPropertyOp9
 70
     1
102
RTVSPropertyOp10
 70
     1
102
RTVSPropertyOp11
 70
     1
102
RTVSPropertyOp12
 70
     1
102
RTVSPropertyOp13
 70
     1
102
RTVSPropertyOp14
 70
     1
102
RTVSPropertyOp15
 70
     1
102
RTVSPropertyOp16
 70
     1
102
RTVSPropertyOp17
 70
     1
102
RTVSPropertyOp18
 70
     1
102
RTVSPropertyOp19
 70
     1
102
RTVSPropertyOp20
 70
     1
102
RTVSPropertyOp21
 70
     1
102
RTVSPropertyOp22
 70
     1
102
RTVSPropertyOp23
 70
     1
102
RTVSPropertyOp24
 70
     1
102
RTVSPropertyOp25
 70
     1
102
RTVSPropertyOp26
 70
     1
102
RTVSPropertyOp27
 70
     1
102
RTVSPropertyOp28
 70
     1
102
RTVSPropertyOp29
 70
     1
102
RTVSPropertyOp30
 70
     1
102
RTVSPropertyOp31
 70
     1
102
RTVSPropertyOp32
 70
     1
  0
XRECORD
  5
2C4
102
{ACAD_REACTORS
330
2C3
102
}
330
2C3
100
AcDbXrecord
280
     1
102
RTVSPropertyOp0
 70
     1
102
RTVSPropertyOp1
 70
     1
102
RTVSPropertyOp2
 70
     1
102
RTVSPropertyOp3
 70
     1
102
RTVSPropertyOp4
 70
     1
102
RTVSPropertyOp5
 70
     1
102
RTVSPropertyOp6
 70
     1
102
RTVSPropertyOp7
 70
     1
102
RTVSPropertyOp8
 70
     1
102
RTVSPropertyOp9
 70
     1
102
RTVSPropertyOp10
 70
     1
102
RTVSPropertyOp11
 70
     1
102
RTVSPropertyOp12
 70
     1
102
RTVSPropertyOp13
 70
     1
102
RTVSPropertyOp14
 70
     1
102
RTVSPropertyOp15
 70
     1
102
RTVSPropertyOp16
 70
     1
102
RTVSPropertyOp17
 70
     1
102
RTVSPropertyOp18
 70
     1
102
RTVSPropertyOp19
 70
     1
102
RTVSPropertyOp20
 70
     1
102
RTVSPropertyOp21
 70
     1
102
RTVSPropertyOp22
 70
     1
102
RTVSPropertyOp23
 70
     1
102
RTVSPropertyOp24
 70
     1
102
RTVSPropertyOp25
 70
     1
102
RTVSPropertyOp26
 70
     1
102
RTVSPropertyOp27
 70
     1
102
RTVSPropertyOp28
 70
     1
102
RTVSPropertyOp29
 70
     1
102
RTVSPropertyOp30
 70
     1
102
RTVSPropertyOp31
 70
     1
102
RTVSPropertyOp32
 70
     1
  0
XRECORD
  5
2BE
102
{ACAD_REACTORS
330
2BD
102
}
330
2BD
100
AcDbXrecord
280
     1
102
RTVSPropertyOp0
 70
     1
102
RTVSPropertyOp1
 70
     1
102
RTVSPropertyOp2
 70
     1
102
RTVSPropertyOp3
 70
     1
102
RTVSPropertyOp4
 70
     1
102
RTVSPropertyOp5
 70
     1
102
RTVSPropertyOp6
 70
     1
102
RTVSPropertyOp7
 70
     1
102
RTVSPropertyOp8
 70
     1
102
RTVSPropertyOp9
 70
     1
102
RTVSPropertyOp10
 70
     1
102
RTVSPropertyOp11
 70
     1
102
RTVSPropertyOp12
 70
     1
102
RTVSPropertyOp13
 70
     1
102
RTVSPropertyOp14
 70
     1
102
RTVSPropertyOp15
 70
     1
102
RTVSPropertyOp16
 70
     1
102
RTVSPropertyOp17
 70
     1
102
RTVSPropertyOp18
 70
     1
102
RTVSPropertyOp19
 70
     1
102
RTVSPropertyOp20
 70
     1
102
RTVSPropertyOp21
 70
     1
102
RTVSPropertyOp22
 70
     1
102
RTVSPropertyOp23
 70
     1
102
RTVSPropertyOp24
 70
     1
102
RTVSPropertyOp25
 70
     1
102
RTVSPropertyOp26
 70
     1
102
RTVSPropertyOp27
 70
     1
102
RTVSPropertyOp28
 70
     1
102
RTVSPropertyOp29
 70
     1
102
RTVSPropertyOp30
 70
     1
102
RTVSPropertyOp31
 70
     1
102
RTVSPropertyOp32
 70
     1
  0
XRECORD
  5
2C0
102
{ACAD_REACTORS
330
2BF
102
}
330
2BF
100
AcDbXrecord
280
     1
102
RTVSPropertyOp0
 70
     1
102
RTVSPropertyOp1
 70
     1
102
RTVSPropertyOp2
 70
     1
102
RTVSPropertyOp3
 70
     1
102
RTVSPropertyOp4
 70
     1
102
RTVSPropertyOp5
 70
     1
102
RTVSPropertyOp6
 70
     1
102
RTVSPropertyOp7
 70
     1
102
RTVSPropertyOp8
 70
     1
102
RTVSPropertyOp9
 70
     1
102
RTVSPropertyOp10
 70
     1
102
RTVSPropertyOp11
 70
     1
102
RTVSPropertyOp12
 70
     1
102
RTVSPropertyOp13
 70
     1
102
RTVSPropertyOp14
 70
     1
102
RTVSPropertyOp15
 70
     1
102
RTVSPropertyOp16
 70
     1
102
RTVSPropertyOp17
 70
     1
102
RTVSPropertyOp18
 70
     1
102
RTVSPropertyOp19
 70
     1
102
RTVSPropertyOp20
 70
     1
102
RTVSPropertyOp21
 70
     1
102
RTVSPropertyOp22
 70
     1
102
RTVSPropertyOp23
 70
     1
102
RTVSPropertyOp24
 70
     1
102
RTVSPropertyOp25
 70
     1
102
RTVSPropertyOp26
 70
     1
102
RTVSPropertyOp27
 70
     1
102
RTVSPropertyOp28
 70
     1
102
RTVSPropertyOp29
 70
     1
102
RTVSPropertyOp30
 70
     1
102
RTVSPropertyOp31
 70
     1
102
RTVSPropertyOp32
 70
     1
  0
XRECORD
  5
2B6
102
{ACAD_REACTORS
330
2B5
102
}
330
2B5
100
AcDbXrecord
280
     1
102
RTVSPropertyOp0
 70
     1
102
RTVSPropertyOp1
 70
     1
102
RTVSPropertyOp2
 70
     1
102
RTVSPropertyOp3
 70
     1
102
RTVSPropertyOp4
 70
     1
102
RTVSPropertyOp5
 70
     1
102
RTVSPropertyOp6
 70
     1
102
RTVSPropertyOp7
 70
     1
102
RTVSPropertyOp8
 70
     1
102
RTVSPropertyOp9
 70
     1
102
RTVSPropertyOp10
 70
     1
102
RTVSPropertyOp11
 70
     1
102
RTVSPropertyOp12
 70
     1
102
RTVSPropertyOp13
 70
     1
102
RTVSPropertyOp14
 70
     1
102
RTVSPropertyOp15
 70
     1
102
RTVSPropertyOp16
 70
     1
102
RTVSPropertyOp17
 70
     1
102
RTVSPropertyOp18
 70
     1
102
RTVSPropertyOp19
 70
     1
102
RTVSPropertyOp20
 70
     1
102
RTVSPropertyOp21
 70
     1
102
RTVSPropertyOp22
 70
     1
102
RTVSPropertyOp23
 70
     1
102
RTVSPropertyOp24
 70
     1
102
RTVSPropertyOp25
 70
     1
102
RTVSPropertyOp26
 70
     1
102
RTVSPropertyOp27
 70
     1
102
RTVSPropertyOp28
 70
     1
102
RTVSPropertyOp29
 70
     1
102
RTVSPropertyOp30
 70
     1
102
RTVSPropertyOp31
 70
     1
102
RTVSPropertyOp32
 70
     1
  0
XRECORD
  5
2AA
102
{ACAD_REACTORS
330
2A9
102
}
330
2A9
100
AcDbXrecord
280
     1
102
RTVSPropertyOp0
 70
     1
102
RTVSPropertyOp1
 70
     1
102
RTVSPropertyOp2
 70
     1
102
RTVSPropertyOp3
 70
     1
102
RTVSPropertyOp4
 70
     1
102
RTVSPropertyOp5
 70
     1
102
RTVSPropertyOp6
 70
     1
102
RTVSPropertyOp7
 70
     1
102
RTVSPropertyOp8
 70
     1
102
RTVSPropertyOp9
 70
     1
102
RTVSPropertyOp10
 70
     1
102
RTVSPropertyOp11
 70
     1
102
RTVSPropertyOp12
 70
     1
102
RTVSPropertyOp13
 70
     1
102
RTVSPropertyOp14
 70
     1
102
RTVSPropertyOp15
 70
     1
102
RTVSPropertyOp16
 70
     1
102
RTVSPropertyOp17
 70
     1
102
RTVSPropertyOp18
 70
     1
102
RTVSPropertyOp19
 70
     1
102
RTVSPropertyOp20
 70
     1
102
RTVSPropertyOp21
 70
     1
102
RTVSPropertyOp22
 70
     1
102
RTVSPropertyOp23
 70
     1
102
RTVSPropertyOp24
 70
     1
102
RTVSPropertyOp25
 70
     1
102
RTVSPropertyOp26
 70
     1
102
RTVSPropertyOp27
 70
     1
102
RTVSPropertyOp28
 70
     1
102
RTVSPropertyOp29
 70
     1
102
RTVSPropertyOp30
 70
     1
102
RTVSPropertyOp31
 70
     1
102
RTVSPropertyOp32
 70
     1
  0
XRECORD
  5
2C2
102
{ACAD_REACTORS
330
2C1
102
}
330
2C1
100
AcDbXrecord
280
     1
102
RTVSPropertyOp0
 70
     1
102
RTVSPropertyOp1
 70
     1
102
RTVSPropertyOp2
 70
     1
102
RTVSPropertyOp3
 70
     1
102
RTVSPropertyOp4
 70
     1
102
RTVSPropertyOp5
 70
     1
102
RTVSPropertyOp6
 70
     1
102
RTVSPropertyOp7
 70
     1
102
RTVSPropertyOp8
 70
     1
102
RTVSPropertyOp9
 70
     1
102
RTVSPropertyOp10
 70
     1
102
RTVSPropertyOp11
 70
     1
102
RTVSPropertyOp12
 70
     1
102
RTVSPropertyOp13
 70
     1
102
RTVSPropertyOp14
 70
     1
102
RTVSPropertyOp15
 70
     1
102
RTVSPropertyOp16
 70
     1
102
RTVSPropertyOp17
 70
     1
102
RTVSPropertyOp18
 70
     1
102
RTVSPropertyOp19
 70
     1
102
RTVSPropertyOp20
 70
     1
102
RTVSPropertyOp21
 70
     1
102
RTVSPropertyOp22
 70
     1
102
RTVSPropertyOp23
 70
     1
102
RTVSPropertyOp24
 70
     1
102
RTVSPropertyOp25
 70
     1
102
RTVSPropertyOp26
 70
     1
102
RTVSPropertyOp27
 70
     1
102
RTVSPropertyOp28
 70
     1
102
RTVSPropertyOp29
 70
     1
102
RTVSPropertyOp30
 70
     1
102
RTVSPropertyOp31
 70
     1
102
RTVSPropertyOp32
 70
     1
  0
ENDSEC
  0
EOF
