  0
SECTION
  2
HEADER
  9
$ACADVER
  1
AC1009
  9
$INSBASE
 10
0.0
 20
0.0
 30
0.0
  9
$EXTMIN
 10
-170.0167067968859
 20
-265.74833863455001
 30
-0.0015258207003583
  9
$EXTMAX
 10
370.78180042376272
 20
537.09174839639525
 30
0.0000000349246037
  9
$LIMMIN
 10
0.0
 20
0.0
  9
$LIMMAX
 10
0.0
 20
0.0
  9
$ORTHOMODE
 70
     0
  9
$REGENMODE
 70
     1
  9
$FILLMODE
 70
     1
  9
$QTEXTMODE
 70
     0
  9
$MIRRTEXT
 70
     1
  9
$DRAGMODE
 70
     2
  9
$LTSCALE
 40
15.24
  9
$OSMODE
 70
   231
  9
$ATTMODE
 70
     1
  9
$TEXTSIZE
 40
0.0
  9
$TRACEWID
 40
1.0
  9
$TEXTSTYLE
  7
STANDARD
  9
$CLAYER
  8
DATA
  9
$CELTYPE
  6
BYLAYER
  9
$CECOLOR
 62
   256
  9
$DIMSCALE
 40
1.0
  9
$DIMASZ
 40
0.18
  9
$DIMEXO
 40
0.0625
  9
$DIMDLI
 40
0.38
  9
$DIMRND
 40
0.0
  9
$DIMDLE
 40
0.0
  9
$DIMEXE
 40
0.18
  9
$DIMTP
 40
0.0
  9
$DIMTM
 40
0.0
  9
$DIMTXT
 40
0.18
  9
$DIMCEN
 40
0.09
  9
$DIMTSZ
 40
0.0
  9
$DIMTOL
 70
     0
  9
$DIMLIM
 70
     0
  9
$DIMTIH
 70
     1
  9
$DIMTOH
 70
     1
  9
$DIMSE1
 70
     0
  9
$DIMSE2
 70
     0
  9
$DIMTAD
 70
     0
  9
$DIMZIN
 70
     0
  9
$DIMBLK
  1

  9
$DIMASO
 70
     1
  9
$DIMSHO
 70
     1
  9
$DIMPOST
  1

  9
$DIMAPOST
  1

  9
$DIMALT
 70
     0
  9
$DIMALTD
 70
     2
  9
$DIMALTF
 40
25.399999999999999
  9
$DIMLFAC
 40
1.0
  9
$DIMTOFL
 70
     0
  9
$DIMTVP
 40
0.0
  9
$DIMTIX
 70
     0
  9
$DIMSOXD
 70
     0
  9
$DIMSAH
 70
     0
  9
$DIMBLK1
  1

  9
$DIMBLK2
  1

  9
$DIMSTYLE
  2
STANDARD
  9
$DIMCLRD
 70
     0
  9
$DIMCLRE
 70
     0
  9
$DIMCLRT
 70
     0
  9
$DIMTFAC
 40
1.0
  9
$DIMGAP
 40
0.09
  9
$LUNITS
 70
     2
  9
$LUPREC
 70
     4
  9
$SKETCHINC
 40
0.1
  9
$FILLETRAD
 40
0.0
  9
$AUNITS
 70
     0
  9
$AUPREC
 70
     0
  9
$MENU
  1
acad
  9
$ELEVATION
 40
0.0
  9
$PELEVATION
 40
0.0
  9
$THICKNESS
 40
0.0
  9
$LIMCHECK
 70
     0
  9
$BLIPMODE
 70
     0
  9
$CHAMFERA
 40
0.0
  9
$CHAMFERB
 40
0.0
  9
$SKPOLY
 70
     0
  9
$TDCREATE
 40
2456059.7427662038
  9
$TDUPDATE
 40
2456059.7540490278
  9
$TDINDWG
 40
0.0002953356
  9
$TDUSRTIMER
 40
0.0002953356
  9
$USRTIMER
 70
     1
  9
$ANGBASE
 50
0.0
  9
$ANGDIR
 70
     0
  9
$PDMODE
 70
     1
  9
$PDSIZE
 40
-2.0
  9
$PLINEWID
 40
0.0
  9
$COORDS
 70
     2
  9
$SPLFRAME
 70
     0
  9
$SPLINETYPE
 70
     6
  9
$SPLINESEGS
 70
     8
  9
$ATTDIA
 70
     0
  9
$ATTREQ
 70
     1
  9
$HANDLING
 70
     1
  9
$HANDSEED
  5
2CF
  9
$SURFTAB1
 70
     6
  9
$SURFTAB2
 70
     6
  9
$SURFTYPE
 70
     6
  9
$SURFU
 70
     6
  9
$SURFV
 70
     6
  9
$UCSNAME
  2

  9
$UCSORG
 10
0.0
 20
0.0
 30
0.0
  9
$UCSXDIR
 10
1.0
 20
0.0
 30
0.0
  9
$UCSYDIR
 10
0.0
 20
1.0
 30
0.0
  9
$PUCSNAME
  2

  9
$PUCSORG
 10
0.0
 20
0.0
 30
0.0
  9
$PUCSXDIR
 10
1.0
 20
0.0
 30
0.0
  9
$PUCSYDIR
 10
0.0
 20
1.0
 30
0.0
  9
$USERI1
 70
     0
  9
$USERI2
 70
     0
  9
$USERI3
 70
     0
  9
$USERI4
 70
     0
  9
$USERI5
 70
     0
  9
$USERR1
 40
0.0
  9
$USERR2
 40
0.0
  9
$USERR3
 40
0.0
  9
$USERR4
 40
0.0
  9
$USERR5
 40
0.0
  9
$WORLDVIEW
 70
     1
  9
$SHADEDGE
 70
     3
  9
$SHADEDIF
 70
    70
  9
$TILEMODE
 70
     1
  9
$MAXACTVP
 70
    64
  9
$PLIMCHECK
 70
     0
  9
$PEXTMIN
 10
1.0000000000000000E+020
 20
1.0000000000000000E+020
 30
1.0000000000000000E+020
  9
$PEXTMAX
 10
-1.0000000000000000E+020
 20
-1.0000000000000000E+020
 30
-1.0000000000000000E+020
  9
$PLIMMIN
 10
0.0
 20
0.0
  9
$PLIMMAX
 10
12.0
 20
9.0
  9
$UNITMODE
 70
     0
  9
$VISRETAIN
 70
     0
  9
$PLINEGEN
 70
     1
  9
$PSLTSCALE
 70
     0
  0
ENDSEC
  0
SECTION
  2
TABLES
  0
TABLE
  2
VPORT
 70
     1
  0
VPORT
  2
*ACTIVE
 70
     0
 10
0.0
 20
0.0
 11
1.0
 21
1.0
 12
100.3825468134383
 22
135.6717048809227
 13
0.0
 23
0.0
 14
1.0
 24
1.0
 15
0.0
 25
0.0
 16
0.0
 26
0.0
 36
1.0
 17
0.0
 27
0.0
 37
0.0
 40
809.12045277043126
 41
2.1540469973890342
 42
50.0
 43
0.0
 44
0.0
 50
0.0
 51
0.0
 71
     0
 72
  2000
 73
     1
 74
     1
 75
     0
 76
     0
 77
     0
 78
     0
  0
ENDTAB
  0
TABLE
  2
LTYPE
 70
    11
  0
LTYPE
  2
CONTINUOUS
 70
     0
  3
Solid line
 72
    65
 73
     0
 40
0.0
  0
ENDTAB
  0
TABLE
  2
LAYER
 70
     6
  0
LAYER
  2
0
 70
     0
 62
     7
  6
CONTINUOUS
  0
LAYER
  2
DATA
 70
     0
 62
     7
  6
CONTINUOUS
  0
LAYER
  2
HIBINO-BASE
 70
     0
 62
     7
  6
CONTINUOUS
  0
LAYER
  2
PATTERN_FILL
 70
     0
 62
     7
  6
CONTINUOUS
  0
LAYER
  2
SPEC
 70
     0
 62
     7
  6
CONTINUOUS
  0
LAYER
  2
DIMNSIONS
 70
     0
 62
     7
  6
CONTINUOUS
  0
ENDTAB
  0
TABLE
  2
STYLE
 70
     3
  0
STYLE
  2
STANDARD
 70
     0
 40
0.0
 41
1.0
 50
0.0
 71
     0
 42
0.0
  3
txt
  4
BIGFONT.SHX
  0
ENDTAB
  0
TABLE
  2
VIEW
 70
     0
  0
ENDTAB
  0
TABLE
  2
UCS
 70
     0
  0
ENDTAB
  0
TABLE
  2
APPID
 70
     4
  0
APPID
  2
ACAD
 70
     0
  0
APPID
  2
ACADANNOTATIVE
 70
     0
  0
APPID
  2
ACAD_NAV_VCDISPLAY
 70
     0
  0
APPID
  2
ACAD_MLEADERVER
 70
     0
  0
ENDTAB
  0
TABLE
  2
DIMSTYLE
 70
     2
  0
DIMSTYLE
  2
STANDARD
 70
     0
  3

  4

  5

  6

  7

 40
1.0
 41
0.18
 42
0.0625
 43
0.38
 44
0.18
 45
0.0
 46
0.0
 47
0.0
 48
0.0
140
0.18
141
0.09
142
0.0
143
25.399999999999999
144
1.0
145
0.0
146
1.0
147
0.09
 71
     0
 72
     0
 73
     1
 74
     1
 75
     0
 76
     0
 77
     0
 78
     0
170
     0
171
     2
172
     0
173
     0
174
     0
175
     0
176
     0
177
     0
178
     0
  0
ENDTAB
  0
ENDSEC
  0
SECTION
  2
BLOCKS
  0
BLOCK
  8
0
  2
$MODEL_SPACE
 70
     0
 10
0.0
 20
0.0
 30
0.0
  3
$MODEL_SPACE
  1

  0
ENDBLK
  5
26D
  8
0
  0
BLOCK
 67
     1
  8
0
  2
$PAPER_SPACE
 70
     0
 10
0.0
 20
0.0
 30
0.0
  3
$PAPER_SPACE
  1

  0
ENDBLK
  5
269
 67
     1
  8
0
  0
ENDSEC
  0
SECTION
  2
ENTITIES
  0
LINE
  5
2D
  8
HIBINO-BASE
  6
CONTINUOUS
 62
     7
 10
-169.99999999999989
 20
537.06729578973182
 30
0.0
 11
370.0
 21
537.06729578973182
 31
0.0
  0
LINE
  5
2E
  8
HIBINO-BASE
  6
CONTINUOUS
 62
     7
 10
370.0
 20
-242.93270421026821
 30
0.0
 11
-169.99999999999989
 21
-242.93270421026821
 31
0.0
  0
LINE
  5
2F
  8
HIBINO-BASE
  6
CONTINUOUS
 62
     7
 10
-169.99999999999989
 20
-242.93270421026821
 30
0.0
 11
-169.99999999999989
 21
537.06729578973182
 31
0.0
  0
LINE
  5
30
  8
HIBINO-BASE
  6
CONTINUOUS
 62
     7
 10
370.0
 20
537.06729578973182
 30
0.0
 11
370.0
 21
-242.93270421026821
 31
0.0
  0
LINE
  5
31
  8
HIBINO-BASE
  6
CONTINUOUS
 62
     7
 10
100.0
 20
-175.4327042102681
 30
0.0
 11
370.0
 21
-175.4327042102681
 31
0.0
  0
LINE
  5
32
  8
HIBINO-BASE
  6
CONTINUOUS
 62
     7
 10
100.0
 20
-242.93270421026821
 30
0.0
 11
100.0
 21
-175.4327042102681
 31
0.0
  0
TEXT
  5
33
  8
HIBINO-BASE
 62
     7
 10
102.7
 20
-182.95878421026811
 30
0.0
 40
4.8865234374999993
  1
NOTE
 41
0.7
 11
102.7
 21
-178.0722607727682
 31
0.0
 73
     3
  0
LINE
  5
34
  8
HIBINO-BASE
  6
CONTINUOUS
 62
     7
 10
205.0
 20
-242.93270421026821
 30
0.0
 11
205.0
 21
-175.4327042102681
 31
0.0
  0
TEXT
  5
35
  8
HIBINO-BASE
 62
     7
 10
207.69999999999999
 20
-182.95878421026811
 30
0.0
 40
4.8865234374999993
  1
TITLE
 41
0.7
 11
207.69999999999999
 21
-178.0722607727682
 31
0.0
 73
     3
  0
LINE
  5
36
  8
HIBINO-BASE
  6
CONTINUOUS
 62
     7
 10
100.0
 20
-212.9327042102681
 30
0.0
 11
370.0
 21
-212.9327042102681
 31
0.0
  0
TEXT
  5
37
  8
HIBINO-BASE
 62
     7
 10
245.19999999999999
 20
-220.28982421026819
 30
0.0
 40
4.8865234374999993
  1
DRAWN
 41
0.7
 11
245.19999999999999
 21
-215.4033007727682
 31
0.0
 73
     3
  0
TEXT
  5
38
  8
HIBINO-BASE
 62
     7
 10
170.19999999999999
 20
-220.28982421026819
 30
0.0
 40
4.8865234374999993
  1
DATE
 41
0.7
 11
170.19999999999999
 21
-215.4033007727682
 31
0.0
 73
     3
  0
TEXT
  5
39
  8
HIBINO-BASE
 62
     7
 10
140.19999999999999
 20
-220.28982421026819
 30
0.0
 40
4.8865234374999993
  1
SCALE
 41
0.7
 11
140.19999999999999
 21
-215.4033007727682
 31
0.0
 73
     3
  0
TEXT
  5
3A
  8
HIBINO-BASE
 62
     7
 10
207.69999999999999
 20
-220.28982421026819
 30
0.0
 40
4.8865234374999993
  1
DESIGN
 41
0.7
 11
207.69999999999999
 21
-215.4033007727682
 31
0.0
 73
     3
  0
TEXT
  5
3B
  8
HIBINO-BASE
 62
     7
 10
320.19999999999999
 20
-220.28982421026819
 30
0.0
 40
4.8865234374999993
  1
DRAWING NO.
 41
0.7
 11
320.19999999999999
 21
-215.4033007727682
 31
0.0
 73
     3
  0
TEXT
  5
3C
  8
HIBINO-BASE
 62
     7
 10
282.69999999999999
 20
-220.28982421026819
 30
0.0
 40
4.8865234374999993
  1
CHECK
 41
0.7
 11
282.69999999999999
 21
-215.4033007727682
 31
0.0
 73
     3
  0
LINE
  5
3D
  8
HIBINO-BASE
  6
CONTINUOUS
 62
     7
 10
143.12499999999989
 20
-239.18270421026821
 30
0.0
 11
154.375
 21
-227.9327042102681
 31
0.0
  0
TEXT
  5
3E
  8
HIBINO-BASE
 62
     7
 10
141.24999999999989
 20
-231.25953421026821
 30
0.0
 40
4.8865234374999993
  1
1
 41
0.7
 11
141.24999999999989
 21
-226.3730107727682
 31
0.0
 73
     3
  0
LINE
  5
3F
  8
HIBINO-BASE
  6
CONTINUOUS
 62
     7
 10
137.5
 20
-242.93270421026821
 30
0.0
 11
137.5
 21
-212.9327042102681
 31
0.0
  0
LINE
  5
40
  8
HIBINO-BASE
  6
CONTINUOUS
 62
     7
 10
167.5
 20
-242.93270421026821
 30
0.0
 11
167.5
 21
-212.9327042102681
 31
0.0
  0
LINE
  5
41
  8
HIBINO-BASE
  6
CONTINUOUS
 62
     7
 10
242.5
 20
-212.9327042102681
 30
0.0
 11
242.5
 21
-242.93270421026821
 31
0.0
  0
LINE
  5
42
  8
HIBINO-BASE
  6
CONTINUOUS
 62
     7
 10
317.5
 20
-212.9327042102681
 30
0.0
 11
317.5
 21
-242.93270421026821
 31
0.0
  0
LINE
  5
43
  8
HIBINO-BASE
  6
CONTINUOUS
 62
     7
 10
279.99999999999989
 20
-242.93270421026821
 30
0.0
 11
279.99999999999989
 21
-212.9327042102681
 31
0.0
  0
TEXT
  5
44
  8
HIBINO-BASE
 62
     7
 10
173.557168171363
 20
-234.3417642102682
 30
0.0
 40
4.8865234374999993
  1
'12.05.
 41
0.7
 11
173.557168171363
 21
-229.45524077276821
 31
0.0
 73
     3
  0
TEXT
  5
45
  8
HIBINO-BASE
 62
     7
 10
152.5
 20
-236.88453421026821
 30
0.0
 40
4.8865234374999993
  1
3
 41
0.7
 11
152.5
 21
-231.9980107727682
 31
0.0
 73
     3
  0
TEXT
  5
46
  8
HIBINO-BASE
 62
     7
 10
251.84634288576009
 20
-234.3417642102682
 30
0.0
 40
4.8865234374999993
  1
Ootake
 41
0.7
 11
251.84634288576009
 21
-229.45524077276821
 31
0.0
 73
     3
  0
TEXT
  5
47
  8
HIBINO-BASE
 62
     7
 10
111.65000000000001
 20
-237.0047042102681
 30
0.0
 40
9.7730468749999986
  1
A4
 41
0.7
 11
111.65000000000001
 21
-227.2316573352681
 31
0.0
 73
     3
  0
TEXT
  5
48
  8
HIBINO-BASE
 62
     7
 10
102.875
 20
-220.79106921026809
 30
0.0
 40
4.8865234374999993
  1
PAPER SIZE
 41
0.7
 11
102.875
 21
-215.9045457727681
 31
0.0
 73
     3
  0
TEXT
  5
49
  8
HIBINO-BASE
 62
     7
 10
-161.7210942293294
 20
-262.20842491279689
 30
0.0
 40
10.58746744791666
  1
Hibino-Intersound Corporation
 41
0.7
 11
-161.7210942293294
 21
-251.62095746488029
 31
0.0
 73
     3
  0
TEXT
  5
4A
  8
HIBINO-BASE
 62
     7
 10
160.54182904064169
 20
-261.15516015292872
 30
0.0
 40
10.58746744791666
  1
ヒビノインターサウンド株式会社
 41
0.7
 11
160.54182904064169
 21
-250.56769270501201
 31
0.0
 73
     3
  0
ARC
  5
4B
  8
PATTERN_FILL
  6
CONTINUOUS
 62
     7
 10
37.500000000055103
 20
210.4311051346416
 30
0.0
 40
27.999999999999439
 50
31.738677053123968
 51
148.25510271161809
  0
ARC
  5
4C
  8
PATTERN_FILL
  6
CONTINUOUS
 62
     7
 10
37.500000000055103
 20
210.4311051346416
 30
0.0
 40
29.99999999999882
 50
49.936953190652979
 51
130.0630468093475
  0
LINE
  5
4D
  8
PATTERN_FILL
  6
CONTINUOUS
 62
     7
 10
37.500000000055103
 20
242.5000000000837
 30
0.0
 11
37.500000000055103
 21
218.4800079936918
 31
0.0
  0
ARC
  5
4E
  8
PATTERN_FILL
  6
CONTINUOUS
 62
     7
 10
664.75000000005616
 20
216.4311051346412
 30
0.0
 40
625.25000000000125
 50
177.62228234378679
 51
179.81224518743269
  0
ARC
  5
4F
  8
PATTERN_FILL
  6
CONTINUOUS
 62
     7
 10
664.6551139606928
 20
205.5582419678716
 30
0.0
 40
623.25000000000068
 50
176.64787135243461
 51
178.8120084901951
  0
ARC
  5
50
  8
PATTERN_FILL
  6
CONTINUOUS
 62
     7
 10
664.37149958423277
 20
194.72652765469871
 30
0.0
 40
621.2500000000008
 50
175.6925185254938
 51
177.8087629860006
  0
ARC
  5
51
  8
PATTERN_FILL
  6
CONTINUOUS
 62
     7
 10
663.90044573240039
 20
183.93756470556141
 30
0.0
 40
619.25000000000068
 50
174.75689678642641
 51
176.80231891580311
  0
ARC
  5
52
  8
PATTERN_FILL
  6
CONTINUOUS
 62
     7
 10
663.24330135388925
 20
173.19334908997419
 30
0.0
 40
617.2500000000008
 50
173.84215089977101
 51
175.7925184975077
  0
ARC
  5
53
  8
PATTERN_FILL
  6
CONTINUOUS
 62
     7
 10
662.40148115812576
 20
162.4970093315556
 30
0.0
 40
615.25000000000057
 50
172.95012616238409
 51
174.77930535910889
  0
ARC
  5
54
  8
PATTERN_FILL
  6
CONTINUOUS
 62
     7
 10
661.37645523683295
 20
151.85170812149599
 30
0.0
 40
613.25000000000045
 50
172.08355841610489
 51
173.7626235308629
  0
ARC
  5
55
  8
PATTERN_FILL
  6
CONTINUOUS
 62
     7
 10
660.16974763611552
 20
141.2605714373199
 30
0.0
 40
611.25000000000068
 50
171.2466168774246
 51
172.7424107425291
  0
ARC
  5
56
  8
PATTERN_FILL
  6
CONTINUOUS
 62
     7
 10
658.78293552308946
 20
130.72668762622669
 30
0.0
 40
609.2500000000008
 50
170.4460489157089
 51
171.7185981453211
  0
ARC
  5
57
  8
PATTERN_FILL
  6
CONTINUOUS
 62
     7
 10
657.21764833700945
 20
120.2531065063293
 30
0.0
 40
607.25000000000068
 50
169.69395782133461
 51
170.69111000020271
  0
ARC
  5
58
  8
PATTERN_FILL
  6
CONTINUOUS
 62
     7
 10
655.47556692525961
 20
109.8428384860545
 30
0.0
 40
605.2500000000008
 50
169.0163545526573
 51
169.65986332948
  0
ARC
  5
59
  8
PATTERN_FILL
  6
CONTINUOUS
 62
     7
 10
-589.74999999994589
 20
216.4311051346412
 30
0.0
 40
625.25000000000102
 50
0.1877548125672472
 51
2.3777176562130942
  0
ARC
  5
5A
  8
PATTERN_FILL
  6
CONTINUOUS
 62
     7
 10
-589.6551139605823
 20
205.5582419678716
 30
0.0
 40
623.25000000000102
 50
1.187991509804841
 51
3.352128647565479
  0
ARC
  5
5B
  8
PATTERN_FILL
  6
CONTINUOUS
 62
     7
 10
-589.3714995841226
 20
194.7265276546988
 30
0.0
 40
621.2500000000008
 50
2.1912370139994062
 51
4.307481474506158
  0
ARC
  5
5C
  8
PATTERN_FILL
  6
CONTINUOUS
 62
     7
 10
-588.90044573229011
 20
183.93756470556161
 30
0.0
 40
619.25000000000068
 50
3.197681084196923
 51
5.2431032135736553
  0
ARC
  5
5D
  8
PATTERN_FILL
  6
CONTINUOUS
 62
     7
 10
-588.24330135377909
 20
173.19334908997419
 30
0.0
 40
617.2500000000008
 50
4.2074815024923371
 51
6.1578491002290203
  0
ARC
  5
5E
  8
PATTERN_FILL
  6
CONTINUOUS
 62
     7
 10
-587.40148115801537
 20
162.49700933155569
 30
0.0
 40
615.25000000000057
 50
5.2206946408911028
 51
7.049873837615948
  0
ARC
  5
5F
  8
PATTERN_FILL
  6
CONTINUOUS
 62
     7
 10
-586.37645523672268
 20
151.85170812149599
 30
0.0
 40
613.2500000000008
 50
6.2373764691370326
 51
7.9164415838950912
  0
ARC
  5
60
  8
PATTERN_FILL
  6
CONTINUOUS
 62
     7
 10
-585.16974763600524
 20
141.2605714373199
 30
0.0
 40
611.25000000000068
 50
7.2575892574708929
 51
8.7533831225753786
  0
ARC
  5
61
  8
PATTERN_FILL
  6
CONTINUOUS
 62
     7
 10
-583.7829355229793
 20
130.72668762622681
 30
0.0
 40
609.2500000000008
 50
8.2814018546788386
 51
9.5539510842910662
  0
ARC
  5
62
  8
PATTERN_FILL
  6
CONTINUOUS
 62
     7
 10
-582.21764833689917
 20
120.2531065063293
 30
0.0
 40
607.25000000000068
 50
9.3088899997972945
 51
10.306042178665409
  0
ARC
  5
63
  8
PATTERN_FILL
  6
CONTINUOUS
 62
     7
 10
-580.47556692514956
 20
109.8428384860545
 30
0.0
 40
605.2500000000008
 50
10.340136670519991
 51
10.983645447342679
  0
ARC
  5
64
  8
PATTERN_FILL
  6
CONTINUOUS
 62
     7
 10
37.500000000055103
 20
210.4311051346416
 30
0.0
 40
11.99999999999965
 50
42.124351230592467
 51
137.87564876940581
  0
ARC
  5
65
  8
PATTERN_FILL
  6
CONTINUOUS
 62
     7
 10
37.500000000055103
 20
210.4311051346416
 30
0.0
 40
13.9999999999997
 50
35.094144276793493
 51
144.90585572320629
  0
ARC
  5
66
  8
PATTERN_FILL
  6
CONTINUOUS
 62
     7
 10
37.500000000055103
 20
210.4311051346416
 30
0.0
 40
15.99999999999975
 50
30.202418552250869
 51
149.79758144774991
  0
ARC
  5
67
  8
PATTERN_FILL
  6
CONTINUOUS
 62
     7
 10
37.500000000055103
 20
210.4311051346416
 30
0.0
 40
17.999999999999758
 50
26.56169932293755
 51
153.4349488229235
  0
ARC
  5
68
  8
PATTERN_FILL
  6
CONTINUOUS
 62
     7
 10
37.500000000055103
 20
210.4311051346416
 30
0.0
 40
19.99999999999979
 50
23.73112542705611
 51
156.2688745729447
  0
ARC
  5
69
  8
PATTERN_FILL
  6
CONTINUOUS
 62
     7
 10
37.500000000055103
 20
210.4311051346416
 30
0.0
 40
21.999999999999769
 50
21.46047018825945
 51
158.5395298117393
  0
ARC
  5
6A
  8
PATTERN_FILL
  6
CONTINUOUS
 62
     7
 10
37.500000000055103
 20
210.4311051346416
 30
0.0
 40
23.999999999999769
 50
19.59509694437471
 51
160.40490305562679
  0
ARC
  5
6B
  8
PATTERN_FILL
  6
CONTINUOUS
 62
     7
 10
37.500000000055103
 20
210.4311051346416
 30
0.0
 40
25.999999999999851
 50
18.033510641119801
 51
161.96648935887961
  0
ARC
  5
6C
  8
PATTERN_FILL
  6
CONTINUOUS
 62
     7
 10
37.500000000055103
 20
210.4311051346416
 30
0.0
 40
9.9999999999995808
 50
53.599660963761991
 51
126.40033903623799
  0
ARC
  5
6D
  8
PATTERN_FILL
  6
CONTINUOUS
 62
     7
 10
37.500000000055103
 20
222.5289108527422
 30
0.0
 40
9.9999999999995346
 50
233.59966096376181
 51
306.40033903623822
  0
ARC
  5
6E
  8
PATTERN_FILL
  6
CONTINUOUS
 62
     7
 10
37.500000000055103
 20
222.5289108527422
 30
0.0
 40
11.999999999999639
 50
222.12435123059399
 51
317.87564876940792
  0
ARC
  5
6F
  8
PATTERN_FILL
  6
CONTINUOUS
 62
     7
 10
37.500000000055103
 20
222.5289108527422
 30
0.0
 40
13.9999999999997
 50
215.09414427679349
 51
324.90585572320651
  0
ARC
  5
70
  8
PATTERN_FILL
  6
CONTINUOUS
 62
     7
 10
37.500000000055103
 20
222.5289108527422
 30
0.0
 40
15.999999999999741
 50
210.20241855225001
 51
329.79758144774922
  0
ARC
  5
71
  8
PATTERN_FILL
  6
CONTINUOUS
 62
     7
 10
37.500000000055103
 20
222.5289108527422
 30
0.0
 40
17.999999999999751
 50
206.5650511770763
 51
333.43830067706278
  0
ARC
  5
72
  8
PATTERN_FILL
  6
CONTINUOUS
 62
     7
 10
37.500000000055103
 20
222.5289108527422
 30
0.0
 40
19.999999999999741
 50
203.7311254270551
 51
336.26887457294413
  0
ARC
  5
73
  8
PATTERN_FILL
  6
CONTINUOUS
 62
     7
 10
37.500000000055103
 20
222.5289108527422
 30
0.0
 40
21.999999999999751
 50
201.46047018826059
 51
338.53952981174081
  0
LINE
  5
74
  8
PATTERN_FILL
  6
CONTINUOUS
 62
     7
 10
37.500000000055103
 20
198.4800079936924
 30
0.0
 11
37.500000000055103
 21
214.48000799369211
 31
0.0
  0
ARC
  5
75
  8
PATTERN_FILL
  6
CONTINUOUS
 62
     7
 10
664.75000000005616
 20
216.52891085274251
 30
0.0
 40
625.25000000000102
 50
180.18775481256731
 51
181.6541697449602
  0
ARC
  5
76
  8
PATTERN_FILL
  6
CONTINUOUS
 62
     7
 10
664.6551139606928
 20
227.40177401951209
 30
0.0
 40
623.25000000000114
 50
181.18799150980479
 51
182.65975200689351
  0
ARC
  5
77
  8
PATTERN_FILL
  6
CONTINUOUS
 62
     7
 10
664.37149958423277
 20
238.2334883326842
 30
0.0
 40
621.25000000000102
 50
182.19123701399931
 51
183.66883528374851
  0
ARC
  5
78
  8
PATTERN_FILL
  6
CONTINUOUS
 62
     7
 10
663.90044573240039
 20
249.02245128182071
 30
0.0
 40
619.25000000000068
 50
183.19768108419669
 51
184.6816206117179
  0
ARC
  5
79
  8
PATTERN_FILL
  6
CONTINUOUS
 62
     7
 10
663.24330135388925
 20
259.76666689740688
 30
0.0
 40
617.2500000000008
 50
184.2074815024921
 51
185.69827826682081
  0
ARC
  5
7A
  8
PATTERN_FILL
  6
CONTINUOUS
 62
     7
 10
662.40148115812576
 20
270.4630066558247
 30
0.0
 40
615.25000000000057
 50
185.22069464089071
 51
186.71887813101401
  0
ARC
  5
7B
  8
PATTERN_FILL
  6
CONTINUOUS
 62
     7
 10
661.37645523683295
 20
281.10830786588349
 30
0.0
 40
613.25000000000034
 50
186.23737646913659
 51
187.74349084927411
  0
ARC
  5
7C
  8
PATTERN_FILL
  6
CONTINUOUS
 62
     7
 10
660.16974763611552
 20
291.69944455005918
 30
0.0
 40
611.25000000000034
 50
187.25758925747041
 51
188.753383122575
  0
ARC
  5
7D
  8
PATTERN_FILL
  6
CONTINUOUS
 62
     7
 10
658.78293552308946
 20
302.23332836115242
 30
0.0
 40
609.25000000000034
 50
188.28140185467839
 51
189.55395108429059
  0
ARC
  5
7E
  8
PATTERN_FILL
  6
CONTINUOUS
 62
     7
 10
657.21764833700945
 20
312.70690948104988
 30
0.0
 40
607.25000000000011
 50
189.30888999979689
 51
190.306042178665
  0
ARC
  5
7F
  8
PATTERN_FILL
  6
CONTINUOUS
 62
     7
 10
-589.74999999994589
 20
216.5289108527426
 30
0.0
 40
625.25000000000125
 50
358.34583025504003
 51
359.81224518743278
  0
ARC
  5
80
  8
PATTERN_FILL
  6
CONTINUOUS
 62
     7
 10
-589.6551139605823
 20
227.4017740195122
 30
0.0
 40
623.25000000000068
 50
357.34024799310612
 51
358.8120084901953
  0
ARC
  5
81
  8
PATTERN_FILL
  6
CONTINUOUS
 62
     7
 10
-589.3714995841226
 20
238.2334883326842
 30
0.0
 40
621.2500000000008
 50
356.33116471625129
 51
357.8087629860006
  0
ARC
  5
82
  8
PATTERN_FILL
  6
CONTINUOUS
 62
     7
 10
-588.90044573229011
 20
249.02245128182079
 30
0.0
 40
619.25000000000057
 50
355.31837938827653
 51
356.8023189158032
  0
ARC
  5
83
  8
PATTERN_FILL
  6
CONTINUOUS
 62
     7
 10
-588.24330135377909
 20
259.76666689740688
 30
0.0
 40
617.25000000000045
 50
354.30172173317919
 51
355.79251849750739
  0
ARC
  5
84
  8
PATTERN_FILL
  6
CONTINUOUS
 62
     7
 10
-587.40148115801537
 20
270.4630066558247
 30
0.0
 40
615.25000000000011
 50
353.28112186898051
 51
354.77930535910912
  0
ARC
  5
85
  8
PATTERN_FILL
  6
CONTINUOUS
 62
     7
 10
-586.37645523672268
 20
281.10830786588372
 30
0.0
 40
613.25
 50
352.25650915072748
 51
353.76262353086321
  0
ARC
  5
86
  8
PATTERN_FILL
  6
CONTINUOUS
 62
     7
 10
-585.16974763600524
 20
291.69944455005918
 30
0.0
 40
611.24999999999989
 50
351.24661687742508
 51
352.74241074252961
  0
ARC
  5
87
  8
PATTERN_FILL
  6
CONTINUOUS
 62
     7
 10
-583.7829355229793
 20
302.23332836115247
 30
0.0
 40
609.25
 50
350.4460489157093
 51
351.71859814532172
  0
ARC
  5
88
  8
PATTERN_FILL
  6
CONTINUOUS
 62
     7
 10
-582.21764833689917
 20
312.70690948104988
 30
0.0
 40
607.24999999999989
 50
349.693957821335
 51
350.6911100002032
  0
ARC
  5
89
  8
PATTERN_FILL
  6
CONTINUOUS
 62
     7
 10
-580.47556692514956
 20
323.11717750132482
 30
0.0
 40
605.24999999999966
 50
349.01635455265779
 51
349.65986332948052
  0
ARC
  5
8A
  8
PATTERN_FILL
  6
CONTINUOUS
 62
     7
 10
37.500000000055103
 20
222.5289108527422
 30
0.0
 40
25.999999999999851
 50
198.03351064112019
 51
247.66199279519219
  0
ARC
  5
8B
  8
PATTERN_FILL
  6
CONTINUOUS
 62
     7
 10
37.500000000055103
 20
222.5289108527422
 30
0.0
 40
25.999999999999051
 50
292.33800720480792
 51
341.96648935888038
  0
ARC
  5
8C
  8
PATTERN_FILL
  6
CONTINUOUS
 62
     7
 10
37.500000000055103
 20
222.5289108527422
 30
0.0
 40
27.999999999999432
 50
211.74489728838159
 51
239.19211119210451
  0
ARC
  5
8D
  8
PATTERN_FILL
  6
CONTINUOUS
 62
     7
 10
37.500000000055103
 20
222.5289108527422
 30
0.0
 40
27.99999999999908
 50
300.80788880789532
 51
328.26132294687608
  0
ARC
  5
8E
  8
PATTERN_FILL
  6
CONTINUOUS
 62
     7
 10
655.47556692525961
 20
323.11717750132459
 30
0.0
 40
605.25
 50
190.34013667051951
 51
190.98364544734221
  0
ARC
  5
8F
  8
PATTERN_FILL
  6
CONTINUOUS
 62
     7
 10
653.55842266458865
 20
333.46116228542218
 30
0.0
 40
603.24999999999966
 50
191.37523247180059
 51
191.49880199687379
  0
ARC
  5
90
  8
PATTERN_FILL
  6
CONTINUOUS
 62
     7
 10
-578.55842266447837
 20
333.46116228542229
 30
0.0
 40
603.24999999999966
 50
348.50119800312621
 51
348.62476752819941
  0
ARC
  5
91
  8
PATTERN_FILL
  6
CONTINUOUS
 62
     7
 10
653.55842266458865
 20
99.498853701956577
 30
0.0
 40
603.25000000000068
 50
168.50119800312569
 51
168.6247675281989
  0
ARC
  5
92
  8
PATTERN_FILL
  6
CONTINUOUS
 62
     7
 10
-578.55842266447837
 20
99.498853701956634
 30
0.0
 40
603.25000000000068
 50
11.37523247180105
 51
11.498801996874301
  0
ARC
  5
93
  8
PATTERN_FILL
  6
CONTINUOUS
 62
     7
 10
37.500000000055103
 20
222.5289108527422
 30
0.0
 40
23.999999999999758
 50
199.59509694437301
 51
340.40490305562531
  0
ARC
  5
94
  8
PATTERN_FILL
  6
CONTINUOUS
 62
     7
 10
37.500000000055103
 20
222.5289108527422
 30
0.0
 40
29.999999999999229
 50
229.9369531906531
 51
233.2860481469711
  0
ARC
  5
95
  8
PATTERN_FILL
  6
CONTINUOUS
 62
     7
 10
175.00000000005511
 20
210.4311051346416
 30
0.0
 40
27.999999999999439
 50
31.738677053123968
 51
148.25510271161809
  0
ARC
  5
96
  8
PATTERN_FILL
  6
CONTINUOUS
 62
     7
 10
175.00000000005511
 20
210.4311051346416
 30
0.0
 40
29.99999999999882
 50
49.936953190652979
 51
130.0630468093475
  0
ARC
  5
97
  8
PATTERN_FILL
  6
CONTINUOUS
 62
     7
 10
175.00000000005511
 20
210.4311051346416
 30
0.0
 40
13.9999999999997
 50
35.094144276793493
 51
144.90585572320629
  0
ARC
  5
98
  8
PATTERN_FILL
  6
CONTINUOUS
 62
     7
 10
175.00000000005511
 20
210.4311051346416
 30
0.0
 40
15.99999999999975
 50
30.202418552250869
 51
149.79758144774991
  0
ARC
  5
99
  8
PATTERN_FILL
  6
CONTINUOUS
 62
     7
 10
175.00000000005511
 20
210.4311051346416
 30
0.0
 40
17.999999999999758
 50
26.56169932293755
 51
153.4349488229235
  0
ARC
  5
9A
  8
PATTERN_FILL
  6
CONTINUOUS
 62
     7
 10
175.00000000005511
 20
210.4311051346416
 30
0.0
 40
19.99999999999979
 50
23.73112542705611
 51
156.2688745729447
  0
ARC
  5
9B
  8
PATTERN_FILL
  6
CONTINUOUS
 62
     7
 10
175.00000000005511
 20
210.4311051346416
 30
0.0
 40
21.999999999999769
 50
21.46047018825945
 51
158.5395298117393
  0
ARC
  5
9C
  8
PATTERN_FILL
  6
CONTINUOUS
 62
     7
 10
175.00000000005511
 20
210.4311051346416
 30
0.0
 40
23.999999999999769
 50
19.59509694437471
 51
160.40490305562679
  0
ARC
  5
9D
  8
PATTERN_FILL
  6
CONTINUOUS
 62
     7
 10
175.00000000005511
 20
210.4311051346416
 30
0.0
 40
25.999999999999851
 50
18.033510641119801
 51
161.96648935887961
  0
ARC
  5
9E
  8
PATTERN_FILL
  6
CONTINUOUS
 62
     7
 10
175.00000000005511
 20
222.5289108527422
 30
0.0
 40
27.99999999999908
 50
300.80788880789532
 51
328.26132294687608
  0
ARC
  5
9F
  8
PATTERN_FILL
  6
CONTINUOUS
 62
     7
 10
175.00000000005511
 20
210.4311051346416
 30
0.0
 40
9.9999999999995808
 50
53.599660963761991
 51
126.40033903623799
  0
ARC
  5
A0
  8
PATTERN_FILL
  6
CONTINUOUS
 62
     7
 10
175.00000000005511
 20
210.4311051346416
 30
0.0
 40
11.99999999999965
 50
42.124351230592467
 51
137.87564876940581
  0
LINE
  5
A1
  8
PATTERN_FILL
  6
CONTINUOUS
 62
     7
 10
175.00000000005511
 20
242.5000000000837
 30
0.0
 11
175.00000000005511
 21
218.4800079936918
 31
0.0
  0
ARC
  5
A2
  8
PATTERN_FILL
  6
CONTINUOUS
 62
     7
 10
802.25000000005616
 20
216.4311051346412
 30
0.0
 40
625.25000000000125
 50
177.62228234378679
 51
179.81224518743269
  0
ARC
  5
A3
  8
PATTERN_FILL
  6
CONTINUOUS
 62
     7
 10
802.15511396069269
 20
205.5582419678716
 30
0.0
 40
623.25000000000068
 50
176.64787135243461
 51
178.8120084901951
  0
ARC
  5
A4
  8
PATTERN_FILL
  6
CONTINUOUS
 62
     7
 10
801.87149958423299
 20
194.72652765469871
 30
0.0
 40
621.2500000000008
 50
175.6925185254938
 51
177.8087629860006
  0
ARC
  5
A5
  8
PATTERN_FILL
  6
CONTINUOUS
 62
     7
 10
801.40044573240039
 20
183.93756470556141
 30
0.0
 40
619.25000000000068
 50
174.75689678642641
 51
176.80231891580311
  0
ARC
  5
A6
  8
PATTERN_FILL
  6
CONTINUOUS
 62
     7
 10
799.90148115812576
 20
162.4970093315556
 30
0.0
 40
615.25000000000057
 50
172.95012616238409
 51
174.77930535910889
  0
ARC
  5
A7
  8
PATTERN_FILL
  6
CONTINUOUS
 62
     7
 10
798.87645523683307
 20
151.85170812149599
 30
0.0
 40
613.25000000000045
 50
172.08355841610489
 51
173.7626235308629
  0
ARC
  5
A8
  8
PATTERN_FILL
  6
CONTINUOUS
 62
     7
 10
797.66974763611552
 20
141.2605714373199
 30
0.0
 40
611.25000000000068
 50
171.2466168774246
 51
172.7424107425291
  0
ARC
  5
A9
  8
PATTERN_FILL
  6
CONTINUOUS
 62
     7
 10
796.28293552308935
 20
130.72668762622669
 30
0.0
 40
609.2500000000008
 50
170.4460489157089
 51
171.7185981453211
  0
ARC
  5
AA
  8
PATTERN_FILL
  6
CONTINUOUS
 62
     7
 10
794.71764833700945
 20
120.2531065063293
 30
0.0
 40
607.25000000000068
 50
169.69395782133461
 51
170.69111000020271
  0
ARC
  5
AB
  8
PATTERN_FILL
  6
CONTINUOUS
 62
     7
 10
792.97556692525939
 20
109.8428384860545
 30
0.0
 40
605.2500000000008
 50
169.0163545526573
 51
169.65986332948
  0
ARC
  5
AC
  8
PATTERN_FILL
  6
CONTINUOUS
 62
     7
 10
-452.24999999994583
 20
216.4311051346412
 30
0.0
 40
625.25000000000102
 50
0.1877548125672472
 51
2.3777176562130942
  0
ARC
  5
AD
  8
PATTERN_FILL
  6
CONTINUOUS
 62
     7
 10
-452.1551139605823
 20
205.5582419678716
 30
0.0
 40
623.25000000000102
 50
1.187991509804841
 51
3.352128647565479
  0
ARC
  5
AE
  8
PATTERN_FILL
  6
CONTINUOUS
 62
     7
 10
-451.8714995841226
 20
194.7265276546988
 30
0.0
 40
621.2500000000008
 50
2.1912370139994062
 51
4.307481474506158
  0
ARC
  5
AF
  8
PATTERN_FILL
  6
CONTINUOUS
 62
     7
 10
-451.40044573229
 20
183.93756470556161
 30
0.0
 40
619.25000000000068
 50
3.197681084196923
 51
5.2431032135736553
  0
ARC
  5
B0
  8
PATTERN_FILL
  6
CONTINUOUS
 62
     7
 10
-450.74330135377909
 20
173.19334908997419
 30
0.0
 40
617.2500000000008
 50
4.2074815024923371
 51
6.1578491002290203
  0
ARC
  5
B1
  8
PATTERN_FILL
  6
CONTINUOUS
 62
     7
 10
-449.90148115801537
 20
162.49700933155569
 30
0.0
 40
615.25000000000057
 50
5.2206946408911028
 51
7.049873837615948
  0
ARC
  5
B2
  8
PATTERN_FILL
  6
CONTINUOUS
 62
     7
 10
-448.87645523672262
 20
151.85170812149599
 30
0.0
 40
613.2500000000008
 50
6.2373764691370326
 51
7.9164415838950912
  0
ARC
  5
B3
  8
PATTERN_FILL
  6
CONTINUOUS
 62
     7
 10
-447.66974763600518
 20
141.2605714373199
 30
0.0
 40
611.25000000000068
 50
7.2575892574708929
 51
8.7533831225753786
  0
ARC
  5
B4
  8
PATTERN_FILL
  6
CONTINUOUS
 62
     7
 10
-446.28293552297919
 20
130.72668762622681
 30
0.0
 40
609.2500000000008
 50
8.2814018546788386
 51
9.5539510842910662
  0
ARC
  5
B5
  8
PATTERN_FILL
  6
CONTINUOUS
 62
     7
 10
-444.71764833689912
 20
120.2531065063293
 30
0.0
 40
607.25000000000068
 50
9.3088899997972945
 51
10.306042178665409
  0
ARC
  5
B6
  8
PATTERN_FILL
  6
CONTINUOUS
 62
     7
 10
-442.97556692514951
 20
109.8428384860545
 30
0.0
 40
605.2500000000008
 50
10.340136670519991
 51
10.983645447342679
  0
ARC
  5
B7
  8
PATTERN_FILL
  6
CONTINUOUS
 62
     7
 10
175.00000000005511
 20
222.5289108527422
 30
0.0
 40
25.999999999999851
 50
198.03351064112019
 51
247.66199279519219
  0
ARC
  5
B8
  8
PATTERN_FILL
  6
CONTINUOUS
 62
     7
 10
791.05842266458865
 20
99.498853701956577
 30
0.0
 40
603.25000000000068
 50
168.50119800312569
 51
168.6247675281989
  0
ARC
  5
B9
  8
PATTERN_FILL
  6
CONTINUOUS
 62
     7
 10
-441.05842266447848
 20
99.498853701956634
 30
0.0
 40
603.25000000000068
 50
11.37523247180105
 51
11.498801996874301
  0
ARC
  5
BA
  8
PATTERN_FILL
  6
CONTINUOUS
 62
     7
 10
800.74330135388925
 20
173.19334908997419
 30
0.0
 40
617.2500000000008
 50
173.84215089977101
 51
175.7925184975077
  0
ARC
  5
BB
  8
PATTERN_FILL
  6
CONTINUOUS
 62
     7
 10
175.00000000005511
 20
222.5289108527422
 30
0.0
 40
9.9999999999995346
 50
233.59966096376181
 51
306.40033903623822
  0
ARC
  5
BC
  8
PATTERN_FILL
  6
CONTINUOUS
 62
     7
 10
175.00000000005511
 20
222.5289108527422
 30
0.0
 40
11.999999999999639
 50
222.12435123059399
 51
317.87564876940792
  0
ARC
  5
BD
  8
PATTERN_FILL
  6
CONTINUOUS
 62
     7
 10
175.00000000005511
 20
222.5289108527422
 30
0.0
 40
13.9999999999997
 50
215.09414427679349
 51
324.90585572320651
  0
ARC
  5
BE
  8
PATTERN_FILL
  6
CONTINUOUS
 62
     7
 10
175.00000000005511
 20
222.5289108527422
 30
0.0
 40
15.999999999999741
 50
210.20241855225001
 51
329.79758144774922
  0
ARC
  5
BF
  8
PATTERN_FILL
  6
CONTINUOUS
 62
     7
 10
175.00000000005511
 20
222.5289108527422
 30
0.0
 40
17.999999999999751
 50
206.5650511770763
 51
333.43830067706278
  0
ARC
  5
C0
  8
PATTERN_FILL
  6
CONTINUOUS
 62
     7
 10
175.00000000005511
 20
222.5289108527422
 30
0.0
 40
19.999999999999741
 50
203.7311254270551
 51
336.26887457294413
  0
ARC
  5
C1
  8
PATTERN_FILL
  6
CONTINUOUS
 62
     7
 10
175.00000000005511
 20
222.5289108527422
 30
0.0
 40
21.999999999999751
 50
201.46047018826059
 51
338.53952981174081
  0
ARC
  5
C2
  8
PATTERN_FILL
  6
CONTINUOUS
 62
     7
 10
175.00000000005511
 20
222.5289108527422
 30
0.0
 40
23.999999999999758
 50
199.59509694437301
 51
340.40490305562531
  0
ARC
  5
C3
  8
PATTERN_FILL
  6
CONTINUOUS
 62
     7
 10
175.00000000005511
 20
222.5289108527422
 30
0.0
 40
25.999999999999051
 50
292.33800720480792
 51
341.96648935888038
  0
ARC
  5
C4
  8
PATTERN_FILL
  6
CONTINUOUS
 62
     7
 10
175.00000000005511
 20
222.5289108527422
 30
0.0
 40
27.999999999999432
 50
211.74489728838159
 51
239.19211119210451
  0
LINE
  5
C5
  8
PATTERN_FILL
  6
CONTINUOUS
 62
     7
 10
175.00000000005511
 20
198.4800079936924
 30
0.0
 11
175.00000000005511
 21
214.48000799369211
 31
0.0
  0
ARC
  5
C6
  8
PATTERN_FILL
  6
CONTINUOUS
 62
     7
 10
802.25000000005616
 20
216.52891085274251
 30
0.0
 40
625.25000000000102
 50
180.18775481256731
 51
181.6541697449602
  0
ARC
  5
C7
  8
PATTERN_FILL
  6
CONTINUOUS
 62
     7
 10
802.15511396069269
 20
227.40177401951209
 30
0.0
 40
623.25000000000114
 50
181.18799150980479
 51
182.65975200689351
  0
ARC
  5
C8
  8
PATTERN_FILL
  6
CONTINUOUS
 62
     7
 10
801.87149958423299
 20
238.2334883326842
 30
0.0
 40
621.25000000000102
 50
182.19123701399931
 51
183.66883528374851
  0
ARC
  5
C9
  8
PATTERN_FILL
  6
CONTINUOUS
 62
     7
 10
801.40044573240039
 20
249.02245128182071
 30
0.0
 40
619.25000000000068
 50
183.19768108419669
 51
184.6816206117179
  0
ARC
  5
CA
  8
PATTERN_FILL
  6
CONTINUOUS
 62
     7
 10
800.74330135388925
 20
259.76666689740688
 30
0.0
 40
617.2500000000008
 50
184.2074815024921
 51
185.69827826682081
  0
ARC
  5
CB
  8
PATTERN_FILL
  6
CONTINUOUS
 62
     7
 10
799.90148115812576
 20
270.4630066558247
 30
0.0
 40
615.25000000000057
 50
185.22069464089071
 51
186.71887813101401
  0
ARC
  5
CC
  8
PATTERN_FILL
  6
CONTINUOUS
 62
     7
 10
798.87645523683307
 20
281.10830786588349
 30
0.0
 40
613.25000000000034
 50
186.23737646913659
 51
187.74349084927411
  0
ARC
  5
CD
  8
PATTERN_FILL
  6
CONTINUOUS
 62
     7
 10
797.66974763611552
 20
291.69944455005918
 30
0.0
 40
611.25000000000034
 50
187.25758925747041
 51
188.753383122575
  0
ARC
  5
CE
  8
PATTERN_FILL
  6
CONTINUOUS
 62
     7
 10
796.28293552308935
 20
302.23332836115242
 30
0.0
 40
609.25000000000034
 50
188.28140185467839
 51
189.55395108429059
  0
ARC
  5
CF
  8
PATTERN_FILL
  6
CONTINUOUS
 62
     7
 10
794.71764833700945
 20
312.70690948104988
 30
0.0
 40
607.25000000000011
 50
189.30888999979689
 51
190.306042178665
  0
ARC
  5
D0
  8
PATTERN_FILL
  6
CONTINUOUS
 62
     7
 10
792.97556692525939
 20
323.11717750132459
 30
0.0
 40
605.25
 50
190.34013667051951
 51
190.98364544734221
  0
ARC
  5
D1
  8
PATTERN_FILL
  6
CONTINUOUS
 62
     7
 10
791.05842266458865
 20
333.46116228542218
 30
0.0
 40
603.24999999999966
 50
191.37523247180059
 51
191.49880199687379
  0
ARC
  5
D2
  8
PATTERN_FILL
  6
CONTINUOUS
 62
     7
 10
-452.24999999994583
 20
216.5289108527426
 30
0.0
 40
625.25000000000125
 50
358.34583025504003
 51
359.81224518743278
  0
ARC
  5
D3
  8
PATTERN_FILL
  6
CONTINUOUS
 62
     7
 10
-452.1551139605823
 20
227.4017740195122
 30
0.0
 40
623.25000000000068
 50
357.34024799310612
 51
358.8120084901953
  0
ARC
  5
D4
  8
PATTERN_FILL
  6
CONTINUOUS
 62
     7
 10
-451.8714995841226
 20
238.2334883326842
 30
0.0
 40
621.2500000000008
 50
356.33116471625129
 51
357.8087629860006
  0
ARC
  5
D5
  8
PATTERN_FILL
  6
CONTINUOUS
 62
     7
 10
-451.40044573229
 20
249.02245128182079
 30
0.0
 40
619.25000000000057
 50
355.31837938827653
 51
356.8023189158032
  0
ARC
  5
D6
  8
PATTERN_FILL
  6
CONTINUOUS
 62
     7
 10
-449.90148115801537
 20
270.4630066558247
 30
0.0
 40
615.25000000000011
 50
353.28112186898051
 51
354.77930535910912
  0
ARC
  5
D7
  8
PATTERN_FILL
  6
CONTINUOUS
 62
     7
 10
-448.87645523672262
 20
281.10830786588372
 30
0.0
 40
613.25
 50
352.25650915072748
 51
353.76262353086321
  0
ARC
  5
D8
  8
PATTERN_FILL
  6
CONTINUOUS
 62
     7
 10
-447.66974763600518
 20
291.69944455005918
 30
0.0
 40
611.24999999999989
 50
351.24661687742508
 51
352.74241074252961
  0
ARC
  5
D9
  8
PATTERN_FILL
  6
CONTINUOUS
 62
     7
 10
-446.28293552297919
 20
302.23332836115247
 30
0.0
 40
609.25
 50
350.4460489157093
 51
351.71859814532172
  0
ARC
  5
DA
  8
PATTERN_FILL
  6
CONTINUOUS
 62
     7
 10
-444.71764833689912
 20
312.70690948104988
 30
0.0
 40
607.24999999999989
 50
349.693957821335
 51
350.6911100002032
  0
ARC
  5
DB
  8
PATTERN_FILL
  6
CONTINUOUS
 62
     7
 10
-442.97556692514951
 20
323.11717750132482
 30
0.0
 40
605.24999999999966
 50
349.01635455265779
 51
349.65986332948052
  0
ARC
  5
DC
  8
PATTERN_FILL
  6
CONTINUOUS
 62
     7
 10
-441.05842266447848
 20
333.46116228542229
 30
0.0
 40
603.24999999999966
 50
348.50119800312621
 51
348.62476752819941
  0
ARC
  5
DD
  8
PATTERN_FILL
  6
CONTINUOUS
 62
     7
 10
175.00000000005511
 20
222.5289108527422
 30
0.0
 40
29.999999999999229
 50
229.9369531906531
 51
233.2860481469711
  0
ARC
  5
DE
  8
PATTERN_FILL
  6
CONTINUOUS
 62
     7
 10
-450.74330135377909
 20
259.76666689740688
 30
0.0
 40
617.25000000000045
 50
354.30172173317919
 51
355.79251849750739
  0
LINE
  5
DF
  8
PATTERN_FILL
  6
CONTINUOUS
 62
     7
 10
61.50000000015735
 20
-92.892329999903779
 30
0.0
 11
42.892330000157351
 21
-111.4999899999038
 31
0.0
  0
LINE
  5
E0
  8
PATTERN_FILL
  6
CONTINUOUS
 62
     7
 10
30.767470000157331
 20
-63.840949999903813
 30
0.0
 11
13.840950000157379
 21
-80.767469999903767
 31
0.0
  0
LINE
  5
E1
  8
PATTERN_FILL
  6
CONTINUOUS
 62
     7
 10
29.000000000157389
 20
-110.3923399999038
 30
0.0
 11
14.30923000015737
 21
-95.701569999903768
 31
0.0
  0
LINE
  5
E2
  8
PATTERN_FILL
  6
CONTINUOUS
 62
     7
 10
60.531370000157381
 20
-78.860949999903767
 30
0.0
 11
56.457980000157349
 21
-82.934359999903791
 31
0.0
  0
LINE
  5
E3
  8
PATTERN_FILL
  6
CONTINUOUS
 62
     7
 10
58.943850000157397
 20
-75.448489999903813
 30
0.0
 11
55.16038000015736
 21
-79.231939999903787
 31
0.0
  0
LINE
  5
E4
  8
PATTERN_FILL
  6
CONTINUOUS
 62
     7
 10
56.950590000157369
 20
-72.441729999903785
 30
0.0
 11
53.308730000157347
 21
-76.083609999903786
 31
0.0
  0
LINE
  5
E5
  8
PATTERN_FILL
  6
CONTINUOUS
 62
     7
 10
54.587150000157337
 20
-69.805169999903796
 30
0.0
 11
50.981390000157369
 21
-73.410929999903786
 31
0.0
  0
LINE
  5
E6
  8
PATTERN_FILL
  6
CONTINUOUS
 62
     7
 10
51.862320000157347
 20
-67.529999999903794
 30
0.0
 11
48.196660000157337
 21
-71.195659999903796
 31
0.0
  0
LINE
  5
E7
  8
PATTERN_FILL
  6
CONTINUOUS
 62
     7
 10
48.761440000157378
 20
-65.630899999903804
 30
0.0
 11
44.923870000157351
 21
-69.468469999903789
 31
0.0
  0
LINE
  5
E8
  8
PATTERN_FILL
  6
CONTINUOUS
 62
     7
 10
61.50000000015735
 20
-82.892329999903794
 30
0.0
 11
56.999690000157379
 21
-87.392639999903793
 31
0.0
  0
LINE
  5
E9
  8
PATTERN_FILL
  6
CONTINUOUS
 62
     7
 10
60.311520000157373
 20
-96.703869999903787
 30
0.0
 11
56.296860000157373
 21
-92.689199999903778
 31
0.0
  0
LINE
  5
EA
  8
PATTERN_FILL
  6
CONTINUOUS
 62
     7
 10
62.098310000157362
 20
-87.499999999903807
 30
0.0
 11
56.032590000157363
 21
-93.565719999903806
 31
0.0
  0
LINE
  5
EB
  8
PATTERN_FILL
  6
CONTINUOUS
 62
     7
 10
58.769150000157353
 20
-99.857199999903784
 30
0.0
 11
55.004690000157382
 21
-96.092759999903819
 31
0.0
  0
LINE
  5
EC
  8
PATTERN_FILL
  6
CONTINUOUS
 62
     7
 10
56.603680000157382
 20
-102.99600999990381
 30
0.0
 11
52.97390000015735
 21
-99.366239999903812
 31
0.0
  0
LINE
  5
ED
  8
PATTERN_FILL
  6
CONTINUOUS
 62
     7
 10
54.183530000157347
 20
-105.5758599999038
 30
0.0
 11
50.574830000157363
 21
-101.9671599999038
 31
0.0
  0
LINE
  5
EE
  8
PATTERN_FILL
  6
CONTINUOUS
 62
     7
 10
42.592860000157373
 20
-68.676789999903804
 30
0.0
 11
37.15886000015734
 21
-63.242809999903812
 31
0.0
  0
LINE
  5
EF
  8
PATTERN_FILL
  6
CONTINUOUS
 62
     7
 10
45.240900000157353
 20
-64.151419999903794
 30
0.0
 11
41.06389000015735
 21
-68.328439999903821
 31
0.0
  0
LINE
  5
F0
  8
PATTERN_FILL
  6
CONTINUOUS
 62
     7
 10
36.924540000157357
 20
-68.008489999903816
 30
0.0
 11
32.360610000157337
 21
-63.444559999903817
 31
0.0
  0
LINE
  5
F1
  8
PATTERN_FILL
  6
CONTINUOUS
 62
     7
 10
32.553790000157377
 20
-68.637719999903823
 30
0.0
 11
28.51675000015733
 21
-64.600679999903818
 31
0.0
  0
LINE
  5
F2
  8
PATTERN_FILL
  6
CONTINUOUS
 62
     7
 10
28.91000000015736
 20
-69.993929999903798
 30
0.0
 11
25.416050000157369
 21
-66.499999999903821
 31
0.0
  0
LINE
  5
F3
  8
PATTERN_FILL
  6
CONTINUOUS
 62
     7
 10
36.469040000157342
 20
-62.92328999990383
 30
0.0
 11
29.81349000015733
 21
-69.578839999903778
 31
0.0
  0
LINE
  5
F4
  8
PATTERN_FILL
  6
CONTINUOUS
 62
     7
 10
25.809180000157351
 20
-71.8931099999038
 30
0.0
 11
22.174950000157381
 21
-68.258879999903797
 31
0.0
  0
LINE
  5
F5
  8
PATTERN_FILL
  6
CONTINUOUS
 62
     7
 10
23.180090000157328
 20
-74.264039999903787
 30
0.0
 11
19.572830000157371
 21
-70.65677999990379
 31
0.0
  0
LINE
  5
F6
  8
PATTERN_FILL
  6
CONTINUOUS
 62
     7
 10
21.00918000015735
 20
-77.093119999903806
 30
0.0
 11
17.332460000157379
 21
-73.416389999903814
 31
0.0
  0
LINE
  5
F7
  8
PATTERN_FILL
  6
CONTINUOUS
 62
     7
 10
19.424430000157379
 20
-80.18399999990379
 30
0.0
 11
13.21221000015735
 21
-86.396219999903806
 31
0.0
  0
LINE
  5
F8
  8
PATTERN_FILL
  6
CONTINUOUS
 62
     7
 10
19.33220000015741
 20
-80.416129999903788
 30
0.0
 11
15.47091000015733
 21
-76.554839999903777
 31
0.0
  0
LINE
  5
F9
  8
PATTERN_FILL
  6
CONTINUOUS
 62
     7
 10
18.25751000015736
 20
-84.341449999903773
 30
0.0
 11
14.262240000157369
 21
-80.346179999903796
 31
0.0
  0
LINE
  5
FA
  8
PATTERN_FILL
  6
CONTINUOUS
 62
     7
 10
18.02138000015735
 20
-86.587039999903766
 30
0.0
 11
13.21221000015735
 21
-91.396219999903806
 31
0.0
  0
LINE
  5
FB
  8
PATTERN_FILL
  6
CONTINUOUS
 62
     7
 10
18.06393000015736
 20
-89.077659999903815
 30
0.0
 11
13.12309000015737
 21
-84.207019999903807
 31
0.0
  0
LINE
  5
FC
  8
PATTERN_FILL
  6
CONTINUOUS
 62
     7
 10
18.328440000157379
 20
-91.063889999903765
 30
0.0
 11
14.39233000015737
 21
-94.999999999903807
 31
0.0
  0
LINE
  5
FD
  8
PATTERN_FILL
  6
CONTINUOUS
 62
     7
 10
19.468470000157389
 20
-94.923869999903786
 30
0.0
 11
15.63090000015738
 21
-98.761439999903814
 31
0.0
  0
LINE
  5
FE
  8
PATTERN_FILL
  6
CONTINUOUS
 62
     7
 10
21.195660000157361
 20
-98.196659999903844
 30
0.0
 11
17.530010000157329
 21
-101.8623199999038
 31
0.0
  0
LINE
  5
FF
  8
PATTERN_FILL
  6
CONTINUOUS
 62
     7
 10
20.30556000015735
 20
-96.697899999903782
 30
0.0
 11
12.972460000157341
 21
-89.364799999903781
 31
0.0
  0
LINE
  5
100
  8
PATTERN_FILL
  6
CONTINUOUS
 62
     7
 10
35.635190000157351
 20
-112.02752999990381
 30
0.0
 11
28.302090000157349
 21
-104.6944199999038
 31
0.0
  0
LINE
  5
101
  8
PATTERN_FILL
  6
CONTINUOUS
 62
     7
 10
23.410930000157329
 20
-100.9813899999038
 30
0.0
 11
19.941730000157332
 21
-104.4505899999038
 31
0.0
  0
LINE
  5
102
  8
PATTERN_FILL
  6
CONTINUOUS
 62
     7
 10
26.08361000015735
 20
-103.3087299999038
 30
0.0
 11
22.44173000015736
 21
-106.9505899999038
 31
0.0
  0
LINE
  5
103
  8
PATTERN_FILL
  6
CONTINUOUS
 62
     7
 10
29.231940000157341
 20
-105.1603799999038
 30
0.0
 11
25.448490000157381
 21
-108.9438499999038
 31
0.0
  0
LINE
  5
104
  8
PATTERN_FILL
  6
CONTINUOUS
 62
     7
 10
32.934360000157362
 20
-106.4579799999037
 30
0.0
 11
28.860950000157331
 21
-110.53137999990381
 31
0.0
  0
LINE
  5
105
  8
PATTERN_FILL
  6
CONTINUOUS
 62
     7
 10
40.519890000157361
 20
-111.9122399999038
 30
0.0
 11
35.505380000157331
 21
-106.8977199999038
 31
0.0
  0
LINE
  5
106
  8
PATTERN_FILL
  6
CONTINUOUS
 62
     7
 10
37.392640000157371
 20
-106.9996999999038
 30
0.0
 11
32.892330000157337
 21
-111.4999899999038
 31
0.0
  0
LINE
  5
107
  8
PATTERN_FILL
  6
CONTINUOUS
 62
     7
 10
48.024420000157349
 20
-109.41676999990381
 30
0.0
 11
44.360840000157381
 21
-105.7531899999037
 31
0.0
  0
LINE
  5
108
  8
PATTERN_FILL
  6
CONTINUOUS
 62
     7
 10
43.565730000157359
 20
-106.03258999990381
 30
0.0
 11
37.500000000157343
 21
-112.0983099999038
 31
0.0
  0
LINE
  5
109
  8
PATTERN_FILL
  6
CONTINUOUS
 62
     7
 10
25.416050000157369
 20
-66.499999999903821
 30
0.0
 11
25.149990000157452
 21
-66.226672252428557
 31
0.0
  0
LINE
  5
10A
  8
PATTERN_FILL
  6
CONTINUOUS
 62
     7
 10
37.15886000015734
 20
-63.242809999903812
 30
0.0
 11
36.854990000157443
 21
-62.910140656030002
 31
0.0
  0
LINE
  5
10B
  8
PATTERN_FILL
  6
CONTINUOUS
 62
     7
 10
42.107650000157363
 20
-63.499989999903782
 30
0.0
 11
41.94499000015746
 21
-63.299999999903832
 31
0.0
  0
LINE
  5
10C
  8
PATTERN_FILL
  6
CONTINUOUS
 62
     7
 10
50.000000000157343
 20
-66.504639999903816
 30
0.0
 11
49.654990000157447
 21
-66.114644296724649
 31
0.0
  0
LINE
  5
10D
  8
PATTERN_FILL
  6
CONTINUOUS
 62
     7
 10
60.000000000157343
 20
-97.441179999903795
 30
0.0
 11
47.441180000157367
 21
-109.9999899999038
 31
0.0
  0
LINE
  5
10E
  8
PATTERN_FILL
  6
CONTINUOUS
 62
     7
 10
61.50000000015735
 20
-82.892329999903794
 30
0.0
 11
42.107650000157363
 21
-63.499989999903782
 31
0.0
  0
LINE
  5
10F
  8
PATTERN_FILL
  6
CONTINUOUS
 62
     7
 10
58.943850000157397
 20
-75.448489999903813
 30
0.0
 11
50.000000000157343
 21
-66.504639999903816
 31
0.0
  0
LINE
  5
110
  8
PATTERN_FILL
  6
CONTINUOUS
 62
     7
 10
62.098310000157362
 20
-87.499999999903807
 30
0.0
 11
56.032590000157363
 21
-81.434269999903805
 31
0.0
  0
LINE
  5
111
  8
PATTERN_FILL
  6
CONTINUOUS
 62
     7
 10
61.50000000015735
 20
-92.892329999903779
 30
0.0
 11
56.980460000157393
 21
-88.372789999903773
 31
0.0
  0
LINE
  5
112
  8
PATTERN_FILL
  6
CONTINUOUS
 62
     7
 10
41.209360000157339
 20
-63.182959999903787
 30
0.0
 11
36.358920000157347
 21
-68.033399999903793
 31
0.0
  0
LINE
  5
113
  8
PATTERN_FILL
  6
CONTINUOUS
 62
     7
 10
44.64533000015733
 20
-111.0376699999038
 30
0.0
 11
40.392010000157363
 21
-106.7843499999037
 31
0.0
  0
LINE
  5
114
  8
PATTERN_FILL
  6
CONTINUOUS
 62
     7
 10
51.401280000157392
 20
-107.7936199999038
 30
0.0
 11
47.716860000157382
 21
-104.10918999990371
 31
0.0
  0
LINE
  5
115
  8
SPEC
  6
CONTINUOUS
 62
     7
 10
-147.49999999999989
 20
507.0672957897317
 30
0.0
 11
295.0
 21
507.0672957897317
 31
0.0
  0
LINE
  5
116
  8
SPEC
  6
CONTINUOUS
 62
     7
 10
-29.999999999999961
 20
495.8172957897317
 30
0.0
 11
295.0
 21
495.8172957897317
 31
0.0
  0
LINE
  5
117
  8
SPEC
  6
CONTINUOUS
 62
     7
 10
-147.49999999999989
 20
473.3172957897317
 30
0.0
 11
295.0
 21
473.3172957897317
 31
0.0
  0
LINE
  5
118
  8
SPEC
  6
CONTINUOUS
 62
     7
 10
-29.999999999999961
 20
484.5672957897317
 30
0.0
 11
295.0
 21
484.5672957897317
 31
0.0
  0
LINE
  5
119
  8
SPEC
  6
CONTINUOUS
 62
     7
 10
-147.49999999999989
 20
507.0672957897317
 30
0.0
 11
-147.49999999999989
 21
338.3172957897317
 31
0.0
  0
TEXT
  5
11A
  8
SPEC
 62
     7
 10
-143.74999999999989
 20
511.24710578973179
 30
0.0
 40
7.3297851562499989
  1
仕様
 41
0.7
 11
-143.74999999999989
 21
518.57689094598175
 31
0.0
 73
     3
  0
LINE
  5
11B
  8
SPEC
  6
CONTINUOUS
 62
     7
 10
-29.999999999999989
 20
507.0672957897317
 30
0.0
 11
-29.999999999999989
 21
338.3172957897317
 31
0.0
  0
LINE
  5
11C
  8
SPEC
  6
CONTINUOUS
 62
     7
 10
295.0
 20
507.0672957897317
 30
0.0
 11
295.0
 21
338.3172957897317
 31
0.0
  0
LINE
  5
11D
  8
SPEC
  6
CONTINUOUS
 62
     7
 10
-147.49999999999989
 20
462.0672957897317
 30
0.0
 11
295.0
 21
462.0672957897317
 31
0.0
  0
LINE
  5
11E
  8
SPEC
  6
CONTINUOUS
 62
     7
 10
-147.49999999999989
 20
450.8172957897317
 30
0.0
 11
295.0
 21
450.8172957897317
 31
0.0
  0
LINE
  5
11F
  8
SPEC
  6
CONTINUOUS
 62
     7
 10
-147.49999999999989
 20
439.5672957897317
 30
0.0
 11
295.0
 21
439.5672957897317
 31
0.0
  0
LINE
  5
120
  8
SPEC
  6
CONTINUOUS
 62
     7
 10
-147.49999999999989
 20
428.3172957897317
 30
0.0
 11
295.0
 21
428.3172957897317
 31
0.0
  0
LINE
  5
121
  8
SPEC
  6
CONTINUOUS
 62
     7
 10
-147.49999999999989
 20
417.0672957897317
 30
0.0
 11
295.0
 21
417.0672957897317
 31
0.0
  0
LINE
  5
122
  8
SPEC
  6
CONTINUOUS
 62
     7
 10
-147.49999999999989
 20
405.8172957897317
 30
0.0
 11
295.0
 21
405.8172957897317
 31
0.0
  0
LINE
  5
123
  8
SPEC
  6
CONTINUOUS
 62
     7
 10
-147.49999999999989
 20
394.5672957897317
 30
0.0
 11
295.0
 21
394.5672957897317
 31
0.0
  0
TEXT
  5
124
  8
SPEC
 62
     7
 10
-145.09729613329631
 20
363.82190854053363
 30
0.0
 40
5.7009440104166673
  1
寸法
 41
0.7
 11
-145.09729613329631
 21
369.52285255095018
 31
0.0
 73
     3
  0
TEXT
  5
125
  8
SPEC
 62
     7
 10
-28.116646899474588
 20
363.5767534146899
 30
0.0
 40
5.7009440104166673
  1
\U+03A651\U+00D7255mm(突起部含まず）
 41
0.7
 11
-28.116646899474588
 21
369.27769742510662
 31
0.0
 73
     3
  0
TEXT
  5
126
  8
SPEC
 62
     7
 10
-27.504783587110111
 20
352.17261457215221
 30
0.0
 40
5.7009440104166673
  1
約340g(除電池)
 41
0.7
 11
-27.504783587110111
 21
357.87355858256882
 31
0.0
 73
     3
  0
TEXT
  5
127
  8
SPEC
 62
     7
 10
-144.99578811003221
 20
352.35891556192558
 30
0.0
 40
5.7009440104166673
  1
重量
 41
0.7
 11
-144.99578811003221
 21
358.0598595723423
 31
0.0
 73
     3
  0
TEXT
  5
128
  8
SPEC
 62
     7
 10
-145.0367965653102
 20
375.1251424351218
 30
0.0
 40
5.7009440104166673
  1
電池寿命
 41
0.7
 11
-145.0367965653102
 21
380.82608644553852
 31
0.0
 73
     3
  0
TEXT
  5
129
  8
SPEC
 62
     7
 10
-145.05678133878951
 20
386.10449283635342
 30
0.0
 40
5.7009440104166673
  1
電源
 41
0.7
 11
-145.05678133878951
 21
391.80543684677002
 31
0.0
 73
     3
  0
TEXT
  5
12A
  8
SPEC
 62
     7
 10
-27.387501908574318
 20
386.22136919147749
 30
0.0
 40
5.7009440104166673
  1
単3形アルカリ乾電池\U+00D72、もしくは専用リチウムイオンバッテリーSB900
 41
0.7
 11
-27.387501908574318
 21
391.92231320189421
 31
0.0
 73
     3
  0
TEXT
  5
12B
  8
SPEC
 62
     7
 10
-144.84413734977269
 20
408.68456472349891
 30
0.0
 40
5.7009440104166673
  1
最大入力レベル(1kHz、THD1%%%）
 41
0.7
 11
-144.84413734977269
 21
414.38550873391557
 31
0.0
 73
     3
  0
TEXT
  5
12C
  8
SPEC
 62
     7
 10
-27.649344487652439
 20
408.8931155428067
 30
0.0
 40
5.7009440104166673
  1
145dB SPL(SM58：代表値）＊マイクヘッドにより変動
 41
0.7
 11
-27.649344487652439
 21
414.5940595532233
 31
0.0
 73
     3
  0
TEXT
  5
12D
  8
SPEC
 62
     7
 10
-145.23325072460571
 20
442.49646611390108
 30
0.0
 40
5.7009440104166673
  1
アンテナ形式
 41
0.7
 11
-145.23325072460571
 21
448.1974101243178
 31
0.0
 73
     3
  0
TEXT
  5
12E
  8
SPEC
 62
     7
 10
-27.722821161337642
 20
442.67245593557368
 30
0.0
 40
5.7009440104166673
  1
内蔵型ヘリカル
 41
0.7
 11
-27.722821161337642
 21
448.3733999459904
 31
0.0
 73
     3
  0
TEXT
  5
12F
  8
SPEC
 62
     7
 10
-144.8305921259641
 20
453.90472940134339
 30
0.0
 40
5.7009440104166673
  1
送信出力
 41
0.7
 11
-144.8305921259641
 21
459.60567341175999
 31
0.0
 73
     3
  0
TEXT
  5
130
  8
SPEC
 62
     7
 10
-145.0797572481172
 20
464.88042840614008
 30
0.0
 40
5.7009440104166673
  1
電波方式
 41
0.7
 11
-145.0797572481172
 21
470.5813724165568
 31
0.0
 73
     3
  0
TEXT
  5
131
  8
SPEC
 62
     7
 10
-27.264649039219471
 20
464.73804810845189
 30
0.0
 40
5.7009440104166673
  1
G1D、G1E
 41
0.7
 11
-27.264649039219471
 21
470.43899211886861
 31
0.0
 73
     3
  0
TEXT
  5
132
  8
SPEC
 62
     7
 10
-144.82816223934449
 20
498.44662649060399
 30
0.0
 40
5.7009440104166673
  1
送信周波数
 41
0.7
 11
-144.82816223934449
 21
504.1475705010206
 31
0.0
 73
     3
  0
TEXT
  5
133
  8
SPEC
 62
     7
 10
-27.365275776450108
 20
375.05317377374712
 30
0.0
 40
5.7009440104166673
  1
約11時間(アルカリ乾電池)、約12時間(SB900)＊使用環境によって異なる
 41
0.7
 11
-27.365275776450108
 21
380.75411778416372
 31
0.0
 73
     3
  0
LINE
  5
134
  8
SPEC
  6
CONTINUOUS
 62
     7
 10
-147.49999999999989
 20
383.31729578973182
 30
0.0
 11
295.0
 21
383.31729578973182
 31
0.0
  0
TEXT
  5
135
  8
SPEC
 62
     7
 10
-144.8719811237435
 20
341.35760796110822
 30
0.0
 40
5.7009440104166673
  1
付属品
 41
0.7
 11
-144.8719811237435
 21
347.05855197152482
 31
0.0
 73
     3
  0
TEXT
  5
136
  8
SPEC
 62
     7
 10
-27.336575091516021
 20
340.61086804487837
 30
0.0
 40
5.7009440104166673
  1
単3型 アルカリ乾電池\U+00D72、マイクホルダー、3/8"ー 5/8"変換ねじ、マイクポーチ
 41
0.7
 11
-27.336575091516021
 21
346.31181205529498
 31
0.0
 73
     3
  0
TEXT
  5
137
  8
SPEC
 62
     7
 10
-27.309630869562501
 20
487.38915510622172
 30
0.0
 40
5.7009440104166647
  1
ULXD2-AB：A1～A4帯(770～806MHz)284チャンネル、B帯(806～810MHz)30チャンネル、
 41
0.7
 11
-27.309630869562501
 21
493.09009911663833
 31
0.0
 73
     3
  0
TEXT
  5
138
  8
SPEC
 62
     7
 10
-27.362506451169601
 20
476.32173213215088
 30
0.0
 40
5.7009440104166647
  1
合計314チャンネルのうち任意の1チャンネル
 41
0.7
 11
-27.362506451169601
 21
482.0226761425676
 31
0.0
 73
     3
  0
TEXT
  5
139
  8
SPEC
 62
     7
 10
-27.33388525317002
 20
498.59552144420769
 30
0.0
 40
5.7009440104166647
  1
ULXD2-JB：B帯(806～810MHz)30チャンネルのうち任意の1チャンネル
 41
0.7
 11
-27.33388525317002
 21
504.2964654546243
 31
0.0
 73
     3
  0
TEXT
  5
13A
  8
SPEC
 62
     7
 10
-27.0704450789476
 20
453.56595030363138
 30
0.0
 40
5.7009440104166647
  1
A帯：1mW、10mW、20mW　B帯：1mW、10mW
 41
0.7
 11
-27.0704450789476
 21
459.2668943140481
 31
0.0
 73
     3
  0
TEXT
  5
13B
  8
SPEC
 62
     7
 10
-145.01118838872091
 20
431.30820921700172
 30
0.0
 40
5.7009440104166673
  1
到達距離
 41
0.7
 11
-145.01118838872091
 21
437.00915322741838
 31
0.0
 73
     3
  0
TEXT
  5
13C
  8
SPEC
 62
     7
 10
-27.424782747853111
 20
431.54139041408018
 30
0.0
 40
5.7009440104166673
  1
空中線電力10mW 約100m　＊見通しの良い屋外で使用した場合。使用環境によって異なる
 41
0.7
 11
-27.424782747853111
 21
437.24233442449679
 31
0.0
 73
     3
  0
TEXT
  5
13D
  8
SPEC
 62
     7
 10
-144.80940577408171
 20
420.02403035591698
 30
0.0
 40
5.7009440104166647
  1
周波数特性
 41
0.7
 11
-144.80940577408171
 21
425.7249743663337
 31
0.0
 73
     3
  0
TEXT
  5
13E
  8
SPEC
 62
     7
 10
-27.29529379208563
 20
419.8345502928675
 30
0.0
 40
5.7009440104166647
  1
30Hz～20kHz(\U+00B11dB）＊システム全体の帯域幅はマイクヘッドにより変動
 41
0.7
 11
-27.29529379208563
 21
425.53549430328422
 31
0.0
 73
     3
  0
TEXT
  5
13F
  8
SPEC
 62
     7
 10
-145.11058984802449
 20
397.36696813137769
 30
0.0
 40
5.7009440104166673
  1
ゲイン調整範囲
 41
0.7
 11
-145.11058984802449
 21
403.0679121417943
 31
0.0
 73
     3
  0
TEXT
  5
140
  8
SPEC
 62
     7
 10
-27.223744884726109
 20
397.4670464618066
 30
0.0
 40
5.7009440104166673
  1
0～+21dB(3dBステップ）
 41
0.7
 11
-27.223744884726109
 21
403.1679904722231
 31
0.0
 73
     3
  0
LINE
  5
141
  8
SPEC
  6
CONTINUOUS
 62
     7
 10
-147.49999999999989
 20
372.0672957897317
 30
0.0
 11
295.0
 21
372.0672957897317
 31
0.0
  0
LINE
  5
142
  8
SPEC
  6
CONTINUOUS
 62
     7
 10
-147.49999999999989
 20
360.81729578973182
 30
0.0
 11
295.0
 21
360.81729578973182
 31
0.0
  0
LINE
  5
143
  8
SPEC
  6
CONTINUOUS
 62
     7
 10
-147.49999999999989
 20
349.56729578973182
 30
0.0
 11
295.0
 21
349.56729578973182
 31
0.0
  0
LINE
  5
144
  8
SPEC
  6
CONTINUOUS
 62
     7
 10
-147.49999999999989
 20
338.3172957897317
 30
0.0
 11
295.0
 21
338.3172957897317
 31
0.0
  0
TEXT
  5
145
  8
DIMNSIONS
 62
     7
 10
40.0
 20
-206.12423421026821
 30
0.0
 40
7.3297851562499989
  1
(単位：mm)
 41
0.7
 11
40.0
 21
-198.79444905401809
 31
0.0
 73
     3
  0
LINE
  5
146
  8
DIMNSIONS
  6
CONTINUOUS
 62
     7
 10
12.997502076257399
 20
165.49999999988461
 30
0.0
 11
-31.000000000000011
 21
165.49999999988461
 31
0.0
  0
LINE
  5
147
  8
DIMNSIONS
  6
CONTINUOUS
 62
     7
 10
31.500000000055088
 20
242.5000000000837
 30
0.0
 11
-30.999999999999989
 21
242.5000000000837
 31
0.0
  0
LINE
  5
148
  8
DIMNSIONS
  6
CONTINUOUS
 62
     7
 10
-25.0
 20
165.49999999988461
 30
0.0
 11
-25.0
 21
242.5000000000837
 31
0.0
  0
LINE
  5
149
  8
DIMNSIONS
  6
CONTINUOUS
 62
     7
 10
-25.0
 20
165.49999999988461
 30
0.0
 11
-27.010119385450739
 21
173.00186767566581
 31
0.0
  0
LINE
  5
14A
  8
DIMNSIONS
  6
CONTINUOUS
 62
     7
 10
-25.0
 20
165.49999999988461
 30
0.0
 11
-22.989880614549278
 21
173.00186767566581
 31
0.0
  0
LINE
  5
14B
  8
DIMNSIONS
  6
CONTINUOUS
 62
     7
 10
-25.0
 20
242.5000000000837
 30
0.0
 11
-22.989880614549278
 21
234.9981323243025
 31
0.0
  0
LINE
  5
14C
  8
DIMNSIONS
  6
CONTINUOUS
 62
     7
 10
-25.0
 20
242.5000000000837
 30
0.0
 11
-27.010119385450739
 21
234.9981323243025
 31
0.0
  0
TEXT
  5
14D
  8
DIMNSIONS
 62
     7
 10
-27.981666666666669
 20
198.70833333331751
 30
0.0
 40
8.1442057291666661
  1
77
 50
90.0
 41
0.7
 11
-36.125872395833341
 21
198.70833333331751
 31
0.0
 73
     3
  0
LINE
  5
14E
  8
DIMNSIONS
  6
CONTINUOUS
 62
     7
 10
14.5
 20
17.5
 30
0.0
 11
-31.000000000000011
 21
17.5
 31
0.0
  0
LINE
  5
14F
  8
DIMNSIONS
  6
CONTINUOUS
 62
     7
 10
12.997502076257399
 20
165.49999999988461
 30
0.0
 11
-30.999999999999989
 21
165.49999999988461
 31
0.0
  0
LINE
  5
150
  8
DIMNSIONS
  6
CONTINUOUS
 62
     7
 10
-25.0
 20
17.5
 30
0.0
 11
-25.0
 21
165.49999999988461
 31
0.0
  0
LINE
  5
151
  8
DIMNSIONS
  6
CONTINUOUS
 62
     7
 10
-25.0
 20
17.5
 30
0.0
 11
-27.010119385450739
 21
25.001867675781259
 31
0.0
  0
LINE
  5
152
  8
DIMNSIONS
  6
CONTINUOUS
 62
     7
 10
-25.0
 20
17.5
 30
0.0
 11
-22.989880614549278
 21
25.001867675781259
 31
0.0
  0
LINE
  5
153
  8
DIMNSIONS
  6
CONTINUOUS
 62
     7
 10
-25.0
 20
165.49999999988461
 30
0.0
 11
-22.989880614549278
 21
157.9981323241033
 31
0.0
  0
LINE
  5
154
  8
DIMNSIONS
  6
CONTINUOUS
 62
     7
 10
-25.0
 20
165.49999999988461
 30
0.0
 11
-27.010119385450739
 21
157.9981323241033
 31
0.0
  0
TEXT
  5
155
  8
DIMNSIONS
 62
     7
 10
-27.981666666666669
 20
92.0625
 30
0.0
 40
8.1442057291666661
  1
148
 50
90.0
 41
0.7
 11
-36.125872395833341
 21
92.0625
 31
0.0
 73
     3
  0
LINE
  5
156
  8
DIMNSIONS
  6
CONTINUOUS
 62
     7
 10
18.5
 20
-12.5
 30
0.0
 11
-31.000000000000011
 21
-12.5
 31
0.0
  0
LINE
  5
157
  8
DIMNSIONS
  6
CONTINUOUS
 62
     7
 10
14.5
 20
17.5
 30
0.0
 11
-30.999999999999989
 21
17.5
 31
0.0
  0
LINE
  5
158
  8
DIMNSIONS
  6
CONTINUOUS
 62
     7
 10
-25.0
 20
-12.5
 30
0.0
 11
-25.0
 21
17.5
 31
0.0
  0
LINE
  5
159
  8
DIMNSIONS
  6
CONTINUOUS
 62
     7
 10
-25.0
 20
-12.5
 30
0.0
 11
-27.010119385450739
 21
-4.9981323242187443
 31
0.0
  0
LINE
  5
15A
  8
DIMNSIONS
  6
CONTINUOUS
 62
     7
 10
-25.0
 20
-12.5
 30
0.0
 11
-22.989880614549278
 21
-4.9981323242187443
 31
0.0
  0
LINE
  5
15B
  8
DIMNSIONS
  6
CONTINUOUS
 62
     7
 10
-25.0
 20
17.5
 30
0.0
 11
-22.989880614549278
 21
9.9981323242187443
 31
0.0
  0
LINE
  5
15C
  8
DIMNSIONS
  6
CONTINUOUS
 62
     7
 10
-25.0
 20
17.5
 30
0.0
 11
-27.010119385450739
 21
9.9981323242187443
 31
0.0
  0
TEXT
  5
15D
  8
DIMNSIONS
 62
     7
 10
-27.981666666666669
 20
-2.7916666666666572
 30
0.0
 40
8.1442057291666661
  1
30
 50
90.0
 41
0.7
 11
-36.125872395833341
 21
-2.7916666666666559
 31
0.0
 73
     3
  0
LINE
  5
15E
  8
DIMNSIONS
  6
CONTINUOUS
 62
     7
 10
49.244902279699133
 20
-64.865794238622755
 30
0.0
 11
59.0
 21
-46.066243270259349
 31
0.0
  0
LINE
  5
15F
  8
DIMNSIONS
  6
CONTINUOUS
 62
     7
 10
49.244902279699133
 20
-64.865794238622755
 30
0.0
 11
50.991985748518331
 21
-57.298344343071719
 31
0.0
  0
LINE
  5
160
  8
DIMNSIONS
  6
CONTINUOUS
 62
     7
 10
49.244902279699133
 20
-64.865794238622755
 30
0.0
 11
54.541645894003899
 21
-59.185732121619282
 31
0.0
  0
LINE
  5
161
  8
DIMNSIONS
  6
CONTINUOUS
 62
     7
 10
59.0
 20
-46.066243270259349
 30
0.0
 11
86.166666666666643
 21
-46.066243270259349
 31
0.0
  0
TEXT
  5
162
  8
DIMNSIONS
 62
     7
 10
65.0
 20
-43.084576603592673
 30
0.0
 40
8.1442057291666661
  1
\U+03C651
 41
0.7
 11
65.0
 21
-34.940370874426009
 31
0.0
 73
     3
  0
TEXT
  5
163
  8
DATA
 62
     7
 10
229.8525899007175
 20
-209.5577380352953
 30
0.0
 40
7.3297851562499989
  1
ULXD2/SM58-AB 、ULXD2/SM58-JB　
 41
0.7
 11
229.8525899007175
 21
-202.22795287904529
 31
0.0
 73
     3
  0
TEXT
  5
164
  8
DATA
 62
     7
 10
244.0635876655443
 20
-185.856586074154
 30
0.0
 40
7.3297851562499989
  1
SHURE
 41
0.7
 11
244.0635876655443
 21
-178.52680091790401
 31
0.0
 73
     3
  0
TEXT
  5
165
  8
DATA
 62
     7
 10
-139.99999999999989
 20
-230.21870421026821
 30
0.0
 40
4.8865234374999993
  1
仕様および外観は予告なく変更されることがありますので、ご了承ください。
 41
0.7
 11
-139.99999999999989
 21
-225.3321807727682
 31
0.0
 73
     3
  0
CIRCLE
  5
166
  8
DATA
  6
CONTINUOUS
 62
     7
 10
37.500000000157343
 20
-87.499999999903807
 30
0.0
 40
24.598317431312271
  0
CIRCLE
  5
167
  8
DATA
  6
CONTINUOUS
 62
     7
 10
37.500000000157343
 20
-87.499999999903807
 30
0.0
 40
18.5
  0
CIRCLE
  5
168
  8
DATA
  6
CONTINUOUS
 62
     7
 10
37.500000000157343
 20
-87.499999999903807
 30
0.0
 40
25.499999999999989
  0
LINE
  5
169
  8
DATA
  6
CONTINUOUS
 62
     7
 10
55.997502076257319
 20
165.49999999988461
 30
0.0
 11
18.997502076257401
 21
165.49999999988461
 31
0.0
  0
CIRCLE
  5
16A
  8
DATA
  6
CONTINUOUS
 62
     7
 10
37.500000000157343
 20
-87.499999999903807
 30
0.0
 40
19.5
  0
ARC
  5
16B
  8
DATA
  6
CONTINUOUS
 62
     7
 10
37.500000000055103
 20
222.5289108527422
 30
0.0
 40
29.999999999999169
 50
306.71395185302879
 51
310.06304680934647
  0
LINE
  5
16C
  8
DATA
  6
CONTINUOUS
 62
     7
 10
20.500000000055099
 20
193.9311051346418
 30
0.0
 11
54.500000000055103
 21
193.9311051346418
 31
0.0
  0
LINE
  5
16D
  8
DATA
  6
CONTINUOUS
 62
     7
 10
55.295842796888401
 20
196.48000799369251
 30
0.0
 11
19.704157203221971
 21
196.48000799369251
 31
0.0
  0
ARC
  5
16E
  8
DATA
  6
CONTINUOUS
 62
     7
 10
54.750000000055103
 20
198.4800079936924
 30
0.0
 40
1.999999999999992
 50
295.94447977237007
 51
0.0
  0
LINE
  5
16F
  8
DATA
  6
CONTINUOUS
 62
     7
 10
20.500000000055099
 20
193.9311051346418
 30
0.0
 11
20.500000000055099
 21
194.8831343512081
 31
0.0
  0
ARC
  5
170
  8
DATA
  6
CONTINUOUS
 62
     7
 10
20.250000000055099
 20
198.4800079936924
 30
0.0
 40
2.0
 50
180.0
 51
244.05552022762879
  0
ARC
  5
171
  8
DATA
  6
CONTINUOUS
 62
     7
 10
18.500000000055319
 20
194.8831343512081
 30
0.0
 40
1.999999999999772
 50
0.0
 51
64.055520227635455
  0
ARC
  5
172
  8
DATA
  6
CONTINUOUS
 62
     7
 10
20.250000000055099
 20
198.4800079936924
 30
0.0
 40
2.0
 50
180.0
 51
244.05552022762879
  0
LINE
  5
173
  8
DATA
  6
CONTINUOUS
 62
     7
 10
54.500000000055103
 20
193.9311051346418
 30
0.0
 11
54.500000000055103
 21
194.8831343512081
 31
0.0
  0
ARC
  5
174
  8
DATA
  6
CONTINUOUS
 62
     7
 10
56.500000000054868
 20
194.8831343512081
 30
0.0
 40
1.9999999999997911
 50
115.9444797723657
 51
180.0
  0
LINE
  5
175
  8
DATA
  6
CONTINUOUS
 62
     7
 10
55.250000000055103
 20
193.9311051346418
 30
0.0
 11
19.75000000005511
 21
193.9311051346418
 31
0.0
  0
LINE
  5
176
  8
DATA
  6
CONTINUOUS
 62
     7
 10
19.00000000005511
 20
165.93110513464151
 30
0.0
 11
56.000000000055103
 21
165.93110513464151
 31
0.0
  0
TEXT
  5
177
  8
DATA
 62
     7
 10
31.713886832853529
 20
184.30499889682491
 30
0.0
 40
4.072102864583333
  1
SM58
 41
0.7
 11
31.713886832853529
 21
188.3771017614082
 31
0.0
 73
     3
  0
LINE
  5
178
  8
DATA
  6
CONTINUOUS
 62
     7
 10
19.00000000005511
 20
165.93110513464151
 30
0.0
 11
19.00000000005511
 21
190.4311051346418
 31
0.0
  0
LINE
  5
179
  8
DATA
  6
CONTINUOUS
 62
     7
 10
56.000000000055103
 20
165.93110513464151
 30
0.0
 11
56.000000000055103
 21
190.4311051346418
 31
0.0
  0
LINE
  5
17A
  8
DATA
  6
CONTINUOUS
 62
     7
 10
19.00000000005511
 20
190.4311051346418
 30
0.0
 11
56.000000000055103
 21
190.4311051346418
 31
0.0
  0
LINE
  5
17B
  8
DATA
  6
CONTINUOUS
 62
     7
 10
19.75000000005511
 20
193.9311051346418
 30
0.0
 11
19.00000000005511
 21
190.4311051346418
 31
0.0
  0
LINE
  5
17C
  8
DATA
  6
CONTINUOUS
 62
     7
 10
55.250000000055103
 20
193.9311051346418
 30
0.0
 11
56.000000000055103
 21
190.4311051346418
 31
0.0
  0
LINE
  5
17D
  8
DATA
  6
CONTINUOUS
 62
     7
 10
20.000000000055099
 20
165.93110513464151
 30
0.0
 11
20.000000000055099
 21
165.49999999988461
 31
0.0
  0
LINE
  5
17E
  8
DATA
  6
CONTINUOUS
 62
     7
 10
55.000000000055103
 20
165.93110513464151
 30
0.0
 11
55.000000000055103
 21
165.49999999988461
 31
0.0
  0
LINE
  5
17F
  8
DATA
  6
CONTINUOUS
 62
     7
 10
12.000000000054991
 20
217.4800079936918
 30
0.0
 11
63.000000000055103
 21
217.4800079936918
 31
0.0
  0
LINE
  5
180
  8
DATA
  6
CONTINUOUS
 62
     7
 10
12.000000000054991
 20
215.480007993692
 30
0.0
 11
63.000000000055103
 21
215.480007993692
 31
0.0
  0
LINE
  5
181
  8
DATA
  6
CONTINUOUS
 62
     7
 10
12.000000000054991
 20
214.48000799369211
 30
0.0
 11
12.000000000054991
 21
215.480007993692
 31
0.0
  0
LINE
  5
182
  8
DATA
  6
CONTINUOUS
 62
     7
 10
12.000000000054991
 20
217.4800079936918
 30
0.0
 11
12.000000000054991
 21
218.4800079936918
 31
0.0
  0
LINE
  5
183
  8
DATA
  6
CONTINUOUS
 62
     7
 10
63.000000000055103
 20
218.4800079936918
 30
0.0
 11
63.000000000055103
 21
217.4800079936918
 31
0.0
  0
LINE
  5
184
  8
DATA
  6
CONTINUOUS
 62
     7
 10
63.000000000055103
 20
215.480007993692
 30
0.0
 11
63.000000000055103
 21
214.48000799369211
 31
0.0
  0
LINE
  5
185
  8
DATA
  6
CONTINUOUS
 62
     7
 10
12.000000000054991
 20
218.4800079936918
 30
0.0
 11
63.000000000055103
 21
218.4800079936918
 31
0.0
  0
LINE
  5
186
  8
DATA
  6
CONTINUOUS
 62
     7
 10
12.000000000054991
 20
214.48000799369211
 30
0.0
 11
63.000000000055103
 21
214.48000799369211
 31
0.0
  0
LINE
  5
187
  8
DATA
  6
CONTINUOUS
 62
     7
 10
12.50000000005504
 20
215.480007993692
 30
0.0
 11
12.50000000005504
 21
217.4800079936918
 31
0.0
  0
LINE
  5
188
  8
DATA
  6
CONTINUOUS
 62
     7
 10
62.500000000055103
 20
215.480007993692
 30
0.0
 11
62.500000000055103
 21
217.4800079936918
 31
0.0
  0
ARC
  5
189
  8
DATA
  6
CONTINUOUS
 62
     7
 10
37.500000000055103
 20
217.4800079936918
 30
0.0
 40
25.019992006393611
 50
2.2906100426383991
 51
177.70938995736159
  0
ARC
  5
18A
  8
DATA
  6
CONTINUOUS
 62
     7
 10
37.557208717573928
 20
215.33918653518401
 30
0.0
 40
25.07193443832098
 50
181.9638270977521
 51
222.25506958975001
  0
ARC
  5
18B
  8
DATA
  6
CONTINUOUS
 62
     7
 10
37.442791282536248
 20
215.33918653518401
 30
0.0
 40
25.071934438320561
 50
317.74493041025011
 51
358.0361729022477
  0
LINE
  5
18C
  8
DATA
  6
CONTINUOUS
 62
     7
 10
56.750000000055103
 20
198.4800079936924
 30
0.0
 11
18.250000000055088
 21
198.4800079936924
 31
0.0
  0
TEXT
  5
18D
  8
DATA
 62
     7
 10
230.19177907812241
 20
-196.1282363541394
 30
0.0
 40
4.8865234374999993
  1
ハンドヘルド型送信機
 41
0.7
 11
230.19177907812241
 21
-191.24171291663939
 31
0.0
 73
     3
  0
LINE
  5
18E
  8
DATA
  6
CONTINUOUS
 62
     7
 10
26.958680531446241
 20
-12.5
 30
0.0
 11
48.041319468553752
 21
-12.5
 31
0.0
  0
LINE
  5
18F
  8
DATA
  6
CONTINUOUS
 62
     7
 10
20.5
 20
17.5
 30
0.0
 11
54.5
 21
17.5
 31
0.0
  0
LINE
  5
190
  8
DATA
  6
CONTINUOUS
 62
     7
 10
20.5
 20
17.5
 30
0.0
 11
19.591394836656121
 21
106.99999999988449
 31
0.0
  0
LINE
  5
191
  8
DATA
  6
CONTINUOUS
 62
     7
 10
19.58631883015698
 20
107.49999999988449
 30
0.0
 11
18.997502076257401
 21
165.49999999988461
 31
0.0
  0
LINE
  5
192
  8
DATA
  6
CONTINUOUS
 62
     7
 10
55.997502076257319
 20
165.49999999988461
 30
0.0
 11
55.410643154480361
 21
107.49999999988449
 31
0.0
  0
LINE
  5
193
  8
DATA
  6
CONTINUOUS
 62
     7
 10
55.405584025844341
 20
106.99999999988449
 30
0.0
 11
54.5
 21
17.5
 31
0.0
  0
LINE
  5
194
  8
DATA
  6
CONTINUOUS
 62
     7
 10
24.459027681347241
 20
-10.041660880834989
 30
0.0
 11
24.0
 21
17.5
 31
0.0
  0
LINE
  5
195
  8
DATA
  6
CONTINUOUS
 62
     7
 10
50.540972318652742
 20
-10.041660880834989
 30
0.0
 11
51.0
 21
17.5
 31
0.0
  0
ARC
  5
196
  8
DATA
  6
CONTINUOUS
 62
     7
 10
37.5000000001573
 20
-87.499999999903764
 30
0.0
 40
13.00000000000005
 50
313.04907980023631
 51
226.95092019976369
  0
ARC
  5
197
  8
DATA
  6
CONTINUOUS
 62
     7
 10
37.500000000157343
 20
-87.499999999903807
 30
0.0
 40
13.499999999999989
 50
315.27508684506631
 51
224.72491315493389
  0
CIRCLE
  5
198
  8
DATA
  6
CONTINUOUS
 62
     7
 10
37.500000000157343
 20
-87.499999999903807
 30
0.0
 40
17.0
  0
LINE
  5
199
  8
DATA
  6
CONTINUOUS
 62
     7
 10
27.90833695353184
 20
-96.999999999903821
 30
0.0
 11
47.09166304678282
 21
-96.999999999903821
 31
0.0
  0
LINE
  5
19A
  8
DATA
  6
CONTINUOUS
 62
     7
 10
27.5
 20
129.49999999988449
 30
0.0
 11
47.5
 21
129.49999999988449
 31
0.0
  0
LINE
  5
19B
  8
DATA
  6
CONTINUOUS
 62
     7
 10
24.0
 20
110.79999999988451
 30
0.0
 11
24.0
 21
142.19999999988451
 31
0.0
  0
ARC
  5
19C
  8
DATA
  6
CONTINUOUS
 62
     7
 10
24.300000000000001
 20
110.79999999988451
 30
0.0
 40
0.2999999999999972
 50
180.0
 51
270.0
  0
LINE
  5
19D
  8
DATA
  6
CONTINUOUS
 62
     7
 10
50.700000000000003
 20
110.49999999988449
 30
0.0
 11
24.300000000000001
 21
110.49999999988449
 31
0.0
  0
ARC
  5
19E
  8
DATA
  6
CONTINUOUS
 62
     7
 10
50.700000000000003
 20
110.79999999988451
 30
0.0
 40
0.2999999999999972
 50
270.0
 51
0.0000000000006821
  0
LINE
  5
19F
  8
DATA
  6
CONTINUOUS
 62
     7
 10
51.0
 20
142.19999999988451
 30
0.0
 11
51.0
 21
110.79999999988451
 31
0.0
  0
ARC
  5
1A0
  8
DATA
  6
CONTINUOUS
 62
     7
 10
50.700000000000003
 20
142.19999999988451
 30
0.0
 40
0.2999999999999972
 50
0.0
 51
90.0
  0
LINE
  5
1A1
  8
DATA
  6
CONTINUOUS
 62
     7
 10
24.300000000000001
 20
142.49999999988461
 30
0.0
 11
50.700000000000003
 21
142.49999999988461
 31
0.0
  0
ARC
  5
1A2
  8
DATA
  6
CONTINUOUS
 62
     7
 10
24.300000000000001
 20
142.19999999988451
 30
0.0
 40
0.3000000000000114
 50
90.0
 51
179.99999999999781
  0
LINE
  5
1A3
  8
DATA
  6
CONTINUOUS
 62
     7
 10
27.5
 20
139.49999999988461
 30
0.0
 11
27.5
 21
129.49999999988449
 31
0.0
  0
LINE
  5
1A4
  8
DATA
  6
CONTINUOUS
 62
     7
 10
47.5
 20
139.49999999988461
 30
0.0
 11
47.5
 21
129.49999999988449
 31
0.0
  0
LINE
  5
1A5
  8
DATA
  6
CONTINUOUS
 62
     7
 10
47.5
 20
139.49999999988461
 30
0.0
 11
27.5
 21
139.49999999988461
 31
0.0
  0
LINE
  5
1A6
  8
DATA
  6
CONTINUOUS
 62
     7
 10
28.0
 20
127.49999999988449
 30
0.0
 11
47.0
 21
127.49999999988449
 31
0.0
  0
LINE
  5
1A7
  8
DATA
  6
CONTINUOUS
 62
     7
 10
28.0
 20
123.49999999988449
 30
0.0
 11
47.0
 21
123.49999999988449
 31
0.0
  0
LINE
  5
1A8
  8
DATA
  6
CONTINUOUS
 62
     7
 10
27.5
 20
123.99999999988449
 30
0.0
 11
27.5
 21
126.99999999988449
 31
0.0
  0
LINE
  5
1A9
  8
DATA
  6
CONTINUOUS
 62
     7
 10
47.5
 20
123.99999999988449
 30
0.0
 11
47.5
 21
126.99999999988449
 31
0.0
  0
LINE
  5
1AA
  8
DATA
  6
CONTINUOUS
 62
     7
 10
31.0
 20
112.99999999988449
 30
0.0
 11
31.0
 21
119.99999999988449
 31
0.0
  0
ARC
  5
1AB
  8
DATA
  6
CONTINUOUS
 62
     7
 10
31.5
 20
112.99999999988449
 30
0.0
 40
0.5
 50
180.0
 51
270.0
  0
LINE
  5
1AC
  8
DATA
  6
CONTINUOUS
 62
     7
 10
43.5
 20
112.49999999988449
 30
0.0
 11
31.5
 21
112.49999999988449
 31
0.0
  0
ARC
  5
1AD
  8
DATA
  6
CONTINUOUS
 62
     7
 10
43.5
 20
112.99999999988449
 30
0.0
 40
0.5
 50
270.0
 51
0.0
  0
LINE
  5
1AE
  8
DATA
  6
CONTINUOUS
 62
     7
 10
44.0
 20
119.99999999988449
 30
0.0
 11
44.0
 21
112.99999999988449
 31
0.0
  0
ARC
  5
1AF
  8
DATA
  6
CONTINUOUS
 62
     7
 10
43.5
 20
119.99999999988449
 30
0.0
 40
0.5
 50
0.0
 51
90.0
  0
LINE
  5
1B0
  8
DATA
  6
CONTINUOUS
 62
     7
 10
31.5
 20
120.49999999988449
 30
0.0
 11
43.5
 21
120.49999999988449
 31
0.0
  0
ARC
  5
1B1
  8
DATA
  6
CONTINUOUS
 62
     7
 10
31.5
 20
119.99999999988449
 30
0.0
 40
0.5
 50
90.0
 51
180.0
  0
LINE
  5
1B2
  8
DATA
  6
CONTINUOUS
 62
     7
 10
55.410643154480361
 20
107.49999999988449
 30
0.0
 11
19.586318830157001
 21
107.49999999988449
 31
0.0
  0
LINE
  5
1B3
  8
DATA
  6
CONTINUOUS
 62
     7
 10
55.405584025844341
 20
106.99999999988449
 30
0.0
 11
19.591394836656121
 21
106.99999999988449
 31
0.0
  0
LINE
  5
1B4
  8
DATA
  6
CONTINUOUS
 62
     7
 10
20.899999999999991
 20
106.99999999988449
 30
0.0
 11
20.899999999999991
 21
107.49999999988449
 31
0.0
  0
LINE
  5
1B5
  8
DATA
  6
CONTINUOUS
 62
     7
 10
54.096978862500471
 20
106.99999999988449
 30
0.0
 11
54.096978862500471
 21
107.49999999988449
 31
0.0
  0
LINE
  5
1B6
  8
DATA
  6
CONTINUOUS
 62
     7
 10
31.0
 20
113.55
 30
0.0
 11
44.0
 21
113.55
 31
0.0
  0
LINE
  5
1B7
  8
DATA
  6
CONTINUOUS
 62
     7
 10
31.0
 20
115.75
 30
0.0
 11
44.0
 21
115.75
 31
0.0
  0
ARC
  5
1B8
  8
DATA
  6
CONTINUOUS
 62
     7
 10
28.0
 20
126.99999999988449
 30
0.0
 40
0.5
 50
90.0
 51
180.0
  0
ARC
  5
1B9
  8
DATA
  6
CONTINUOUS
 62
     7
 10
47.0
 20
126.99999999988449
 30
0.0
 40
0.5
 50
0.0
 51
90.0
  0
ARC
  5
1BA
  8
DATA
  6
CONTINUOUS
 62
     7
 10
28.0
 20
123.99999999988449
 30
0.0
 40
0.5
 50
180.0
 51
270.0
  0
ARC
  5
1BB
  8
DATA
  6
CONTINUOUS
 62
     7
 10
47.0
 20
123.99999999988449
 30
0.0
 40
0.5
 50
270.0
 51
0.0
  0
TEXT
  5
1BC
  8
DATA
 62
     7
 10
34.537752689267641
 20
140.07699681767201
 30
0.0
 40
1.8324462890625
  1
ULXD2
 41
0.7
 11
34.537752689267641
 21
141.9094431067345
 31
0.0
 73
     3
  0
TEXT
  5
1BD
  8
DATA
 62
     7
 10
36.316759040932887
 20
121.25212500000001
 30
0.0
 40
1.8324462890625
  1
on
 41
0.7
 11
36.316759040932887
 21
123.0845712890625
 31
0.0
 73
     3
  0
LINE
  5
1BE
  8
DATA
  6
CONTINUOUS
 62
     7
 10
193.49750207625729
 20
165.49999999988461
 30
0.0
 11
156.4975020762574
 21
165.49999999988461
 31
0.0
  0
ARC
  5
1BF
  8
DATA
  6
CONTINUOUS
 62
     7
 10
175.00000000005511
 20
222.5289108527422
 30
0.0
 40
29.999999999999169
 50
306.71395185302879
 51
310.06304680934647
  0
LINE
  5
1C0
  8
DATA
  6
CONTINUOUS
 62
     7
 10
158.000000000055
 20
193.9311051346418
 30
0.0
 11
192.000000000055
 21
193.9311051346418
 31
0.0
  0
LINE
  5
1C1
  8
DATA
  6
CONTINUOUS
 62
     7
 10
192.79584279688839
 20
196.48000799369251
 30
0.0
 11
157.20415720322191
 21
196.48000799369251
 31
0.0
  0
ARC
  5
1C2
  8
DATA
  6
CONTINUOUS
 62
     7
 10
192.250000000055
 20
198.4800079936924
 30
0.0
 40
1.999999999999992
 50
295.94447977237007
 51
0.0
  0
LINE
  5
1C3
  8
DATA
  6
CONTINUOUS
 62
     7
 10
158.000000000055
 20
193.9311051346418
 30
0.0
 11
158.000000000055
 21
194.8831343512081
 31
0.0
  0
ARC
  5
1C4
  8
DATA
  6
CONTINUOUS
 62
     7
 10
157.75000000005511
 20
198.4800079936924
 30
0.0
 40
2.0
 50
180.0
 51
244.05552022762879
  0
ARC
  5
1C5
  8
DATA
  6
CONTINUOUS
 62
     7
 10
156.00000000005531
 20
194.8831343512081
 30
0.0
 40
1.999999999999772
 50
0.0
 51
64.055520227635455
  0
ARC
  5
1C6
  8
DATA
  6
CONTINUOUS
 62
     7
 10
157.75000000005511
 20
198.4800079936924
 30
0.0
 40
2.0
 50
180.0
 51
244.05552022762879
  0
LINE
  5
1C7
  8
DATA
  6
CONTINUOUS
 62
     7
 10
192.000000000055
 20
193.9311051346418
 30
0.0
 11
192.000000000055
 21
194.8831343512081
 31
0.0
  0
ARC
  5
1C8
  8
DATA
  6
CONTINUOUS
 62
     7
 10
194.0000000000548
 20
194.8831343512081
 30
0.0
 40
1.9999999999997911
 50
115.9444797723657
 51
180.0
  0
LINE
  5
1C9
  8
DATA
  6
CONTINUOUS
 62
     7
 10
192.75000000005511
 20
193.9311051346418
 30
0.0
 11
157.25000000005511
 21
193.9311051346418
 31
0.0
  0
LINE
  5
1CA
  8
DATA
  6
CONTINUOUS
 62
     7
 10
156.50000000005511
 20
165.93110513464151
 30
0.0
 11
193.50000000005511
 21
165.93110513464151
 31
0.0
  0
LINE
  5
1CB
  8
DATA
  6
CONTINUOUS
 62
     7
 10
156.50000000005511
 20
165.93110513464151
 30
0.0
 11
156.50000000005511
 21
190.4311051346418
 31
0.0
  0
LINE
  5
1CC
  8
DATA
  6
CONTINUOUS
 62
     7
 10
193.50000000005511
 20
165.93110513464151
 30
0.0
 11
193.50000000005511
 21
190.4311051346418
 31
0.0
  0
LINE
  5
1CD
  8
DATA
  6
CONTINUOUS
 62
     7
 10
156.50000000005511
 20
190.4311051346418
 30
0.0
 11
193.50000000005511
 21
190.4311051346418
 31
0.0
  0
LINE
  5
1CE
  8
DATA
  6
CONTINUOUS
 62
     7
 10
157.25000000005511
 20
193.9311051346418
 30
0.0
 11
156.50000000005511
 21
190.4311051346418
 31
0.0
  0
LINE
  5
1CF
  8
DATA
  6
CONTINUOUS
 62
     7
 10
192.75000000005511
 20
193.9311051346418
 30
0.0
 11
193.50000000005511
 21
190.4311051346418
 31
0.0
  0
LINE
  5
1D0
  8
DATA
  6
CONTINUOUS
 62
     7
 10
157.50000000005511
 20
165.93110513464151
 30
0.0
 11
157.50000000005511
 21
165.49999999988461
 31
0.0
  0
LINE
  5
1D1
  8
DATA
  6
CONTINUOUS
 62
     7
 10
192.50000000005511
 20
165.93110513464151
 30
0.0
 11
192.50000000005511
 21
165.49999999988461
 31
0.0
  0
LINE
  5
1D2
  8
DATA
  6
CONTINUOUS
 62
     7
 10
149.500000000055
 20
217.4800079936918
 30
0.0
 11
200.50000000005511
 21
217.4800079936918
 31
0.0
  0
LINE
  5
1D3
  8
DATA
  6
CONTINUOUS
 62
     7
 10
149.500000000055
 20
215.480007993692
 30
0.0
 11
200.50000000005511
 21
215.480007993692
 31
0.0
  0
LINE
  5
1D4
  8
DATA
  6
CONTINUOUS
 62
     7
 10
149.500000000055
 20
214.48000799369211
 30
0.0
 11
149.500000000055
 21
215.480007993692
 31
0.0
  0
LINE
  5
1D5
  8
DATA
  6
CONTINUOUS
 62
     7
 10
149.500000000055
 20
217.4800079936918
 30
0.0
 11
149.500000000055
 21
218.4800079936918
 31
0.0
  0
LINE
  5
1D6
  8
DATA
  6
CONTINUOUS
 62
     7
 10
200.50000000005511
 20
218.4800079936918
 30
0.0
 11
200.50000000005511
 21
217.4800079936918
 31
0.0
  0
LINE
  5
1D7
  8
DATA
  6
CONTINUOUS
 62
     7
 10
200.50000000005511
 20
215.480007993692
 30
0.0
 11
200.50000000005511
 21
214.48000799369211
 31
0.0
  0
LINE
  5
1D8
  8
DATA
  6
CONTINUOUS
 62
     7
 10
149.500000000055
 20
218.4800079936918
 30
0.0
 11
200.50000000005511
 21
218.4800079936918
 31
0.0
  0
LINE
  5
1D9
  8
DATA
  6
CONTINUOUS
 62
     7
 10
149.500000000055
 20
214.48000799369211
 30
0.0
 11
200.50000000005511
 21
214.48000799369211
 31
0.0
  0
LINE
  5
1DA
  8
DATA
  6
CONTINUOUS
 62
     7
 10
150.000000000055
 20
215.480007993692
 30
0.0
 11
150.000000000055
 21
217.4800079936918
 31
0.0
  0
LINE
  5
1DB
  8
DATA
  6
CONTINUOUS
 62
     7
 10
200.00000000005511
 20
215.480007993692
 30
0.0
 11
200.00000000005511
 21
217.4800079936918
 31
0.0
  0
ARC
  5
1DC
  8
DATA
  6
CONTINUOUS
 62
     7
 10
175.00000000005511
 20
217.4800079936918
 30
0.0
 40
25.019992006393611
 50
2.2906100426383991
 51
177.70938995736159
  0
ARC
  5
1DD
  8
DATA
  6
CONTINUOUS
 62
     7
 10
175.0572087175739
 20
215.33918653518401
 30
0.0
 40
25.07193443832098
 50
181.9638270977521
 51
222.25506958975001
  0
ARC
  5
1DE
  8
DATA
  6
CONTINUOUS
 62
     7
 10
174.94279128253621
 20
215.33918653518401
 30
0.0
 40
25.071934438320561
 50
317.74493041025011
 51
358.0361729022477
  0
LINE
  5
1DF
  8
DATA
  6
CONTINUOUS
 62
     7
 10
194.25000000005511
 20
198.4800079936924
 30
0.0
 11
155.750000000055
 21
198.4800079936924
 31
0.0
  0
LINE
  5
1E0
  8
DATA
  6
CONTINUOUS
 62
     7
 10
164.45868053144619
 20
-12.5
 30
0.0
 11
185.5413194685537
 21
-12.5
 31
0.0
  0
LINE
  5
1E1
  8
DATA
  6
CONTINUOUS
 62
     7
 10
158.0
 20
17.5
 30
0.0
 11
192.0
 21
17.5
 31
0.0
  0
LINE
  5
1E2
  8
DATA
  6
CONTINUOUS
 62
     7
 10
158.0
 20
17.5
 30
0.0
 11
157.09139483665609
 21
106.99999999988449
 31
0.0
  0
LINE
  5
1E3
  8
DATA
  6
CONTINUOUS
 62
     7
 10
157.08631883015701
 20
107.49999999988449
 30
0.0
 11
156.4975020762574
 21
165.49999999988461
 31
0.0
  0
LINE
  5
1E4
  8
DATA
  6
CONTINUOUS
 62
     7
 10
193.49750207625729
 20
165.49999999988461
 30
0.0
 11
192.91064315448031
 21
107.49999999988449
 31
0.0
  0
LINE
  5
1E5
  8
DATA
  6
CONTINUOUS
 62
     7
 10
192.90558402584441
 20
106.99999999988449
 30
0.0
 11
192.0
 21
17.5
 31
0.0
  0
LINE
  5
1E6
  8
DATA
  6
CONTINUOUS
 62
     7
 10
161.95902768134721
 20
-10.041660880834989
 30
0.0
 11
161.5
 21
17.5
 31
0.0
  0
LINE
  5
1E7
  8
DATA
  6
CONTINUOUS
 62
     7
 10
188.04097231865271
 20
-10.041660880834989
 30
0.0
 11
188.5
 21
17.5
 31
0.0
  0
LINE
  5
1E8
  8
DATA
  6
CONTINUOUS
 62
     7
 10
192.91064315448031
 20
107.49999999988449
 30
0.0
 11
157.08631883015701
 21
107.49999999988449
 31
0.0
  0
LINE
  5
1E9
  8
DATA
  6
CONTINUOUS
 62
     7
 10
192.90558402584441
 20
106.99999999988449
 30
0.0
 11
157.09139483665609
 21
106.99999999988449
 31
0.0
  0
LINE
  5
1EA
  8
DATA
  6
CONTINUOUS
 62
     7
 10
158.39999999999989
 20
106.99999999988449
 30
0.0
 11
158.39999999999989
 21
107.49999999988449
 31
0.0
  0
LINE
  5
1EB
  8
DATA
  6
CONTINUOUS
 62
     7
 10
191.59697886250041
 20
106.99999999988449
 30
0.0
 11
191.59697886250041
 21
107.49999999988449
 31
0.0
  0
LINE
  5
1EC
  8
DATA
  6
CONTINUOUS
 62
     7
 10
179.300636104765
 20
10.482508603794651
 30
0.0
 11
179.30111302165599
 21
17.5
 31
0.0
  0
LINE
  5
1ED
  8
DATA
  6
CONTINUOUS
 62
     7
 10
180.878449614765
 20
10.48240680937468
 30
0.0
 11
179.300636104765
 21
10.482508603794651
 31
0.0
  0
LINE
  5
1EE
  8
DATA
  6
CONTINUOUS
 62
     7
 10
180.87892653857409
 20
17.5
 30
0.0
 11
180.878449614765
 21
10.48240680937468
 31
0.0
  0
LINE
  5
1EF
  8
DATA
  6
CONTINUOUS
 62
     7
 10
176.75577560476501
 20
10.48268674402965
 30
0.0
 11
176.7562525095494
 21
17.5
 31
0.0
  0
LINE
  5
1F0
  8
DATA
  6
CONTINUOUS
 62
     7
 10
178.333589114765
 20
10.48258494960967
 30
0.0
 11
176.75577560476501
 21
10.48268674402965
 31
0.0
  0
LINE
  5
1F1
  8
DATA
  6
CONTINUOUS
 62
     7
 10
178.33406602646741
 20
17.5
 30
0.0
 11
178.333589114765
 21
10.48258494960967
 31
0.0
  0
LINE
  5
1F2
  8
DATA
  6
CONTINUOUS
 62
     7
 10
174.21091510476501
 20
10.48286488426467
 30
0.0
 11
174.21139199744269
 21
17.5
 31
0.0
  0
LINE
  5
1F3
  8
DATA
  6
CONTINUOUS
 62
     7
 10
175.78872861476501
 20
10.48276308984466
 30
0.0
 11
174.21091510476501
 21
10.48286488426467
 31
0.0
  0
LINE
  5
1F4
  8
DATA
  6
CONTINUOUS
 62
     7
 10
175.7892055143609
 20
17.5
 30
0.0
 11
175.78872861476501
 21
10.48276308984466
 31
0.0
  0
LINE
  5
1F5
  8
DATA
  6
CONTINUOUS
 62
     7
 10
170.69900761476501
 20
10.48311937031465
 30
0.0
 11
169.12119410476501
 21
10.48322116473466
 31
0.0
  0
LINE
  5
1F6
  8
DATA
  6
CONTINUOUS
 62
     7
 10
170.6994844901476
 20
17.5
 30
0.0
 11
170.69900761476501
 21
10.48311937031465
 31
0.0
  0
LINE
  5
1F7
  8
DATA
  6
CONTINUOUS
 62
     7
 10
171.66605460476501
 20
10.48304302449966
 30
0.0
 11
171.66653148533621
 21
17.5
 31
0.0
  0
LINE
  5
1F8
  8
DATA
  6
CONTINUOUS
 62
     7
 10
173.24386811476501
 20
10.48294123007966
 30
0.0
 11
171.66605460476501
 21
10.48304302449966
 31
0.0
  0
LINE
  5
1F9
  8
DATA
  6
CONTINUOUS
 62
     7
 10
173.24434500225419
 20
17.5
 30
0.0
 11
173.24386811476501
 21
10.48294123007966
 31
0.0
  0
LINE
  5
1FA
  8
DATA
  6
CONTINUOUS
 62
     7
 10
169.12119410476501
 20
10.48322116473466
 30
0.0
 11
169.1216709732295
 21
17.5
 31
0.0
  0
ARC
  5
1FB
  8
DATA
  6
CONTINUOUS
 62
     7
 10
26.958680531446252
 20
-10.0
 30
0.0
 40
2.5000000000000111
 50
180.95484125387239
 51
269.9999999999996
  0
ARC
  5
1FC
  8
DATA
  6
CONTINUOUS
 62
     7
 10
48.041319468553752
 20
-10.00000000000002
 30
0.0
 40
2.499999999999972
 50
270.0
 51
359.04515874612821
  0
ARC
  5
1FD
  8
DATA
  6
CONTINUOUS
 62
     7
 10
164.45868053144619
 20
-10.0
 30
0.0
 40
2.499999999999996
 50
180.95484125387239
 51
270.0
  0
ARC
  5
1FE
  8
DATA
  6
CONTINUOUS
 62
     7
 10
185.5413194685537
 20
-10.00000000000002
 30
0.0
 40
2.499999999999972
 50
270.0
 51
359.04515874612821
  0
ENDSEC
  0
EOF
