  0
SECTION
  2
HEADER
  9
$ACADVER
  1
AC1009
  9
$INSBASE
 10
0.0
 20
0.0
 30
0.0
  9
$EXTMIN
 10
39.985353378562202
 20
9.5934979753320242
 30
-0.0015258207003583
  9
$EXTMAX
 10
760.02319512891518
 20
1080.0329614989839
 30
0.0000000349246037
  9
$LIMMIN
 10
0.0
 20
0.0
  9
$LIMMAX
 10
0.0
 20
0.0
  9
$ORTHOMODE
 70
     0
  9
$REGENMODE
 70
     1
  9
$FILLMODE
 70
     1
  9
$QTEXTMODE
 70
     0
  9
$MIRRTEXT
 70
     1
  9
$DRAGMODE
 70
     2
  9
$LTSCALE
 40
20.32
  9
$OSMODE
 70
   231
  9
$ATTMODE
 70
     1
  9
$TEXTSIZE
 40
0.0
  9
$TRACEWID
 40
1.0
  9
$TEXTSTYLE
  7
STANDARD
  9
$CLAYER
  8
DATA
  9
$CELTYPE
  6
BYLAYER
  9
$CECOLOR
 62
   256
  9
$DIMSCALE
 40
1.0
  9
$DIMASZ
 40
0.18
  9
$DIMEXO
 40
0.0625
  9
$DIMDLI
 40
0.38
  9
$DIMRND
 40
0.0
  9
$DIMDLE
 40
0.0
  9
$DIMEXE
 40
0.18
  9
$DIMTP
 40
0.0
  9
$DIMTM
 40
0.0
  9
$DIMTXT
 40
0.18
  9
$DIMCEN
 40
0.09
  9
$DIMTSZ
 40
0.0
  9
$DIMTOL
 70
     0
  9
$DIMLIM
 70
     0
  9
$DIMTIH
 70
     1
  9
$DIMTOH
 70
     1
  9
$DIMSE1
 70
     0
  9
$DIMSE2
 70
     0
  9
$DIMTAD
 70
     0
  9
$DIMZIN
 70
     0
  9
$DIMBLK
  1

  9
$DIMASO
 70
     1
  9
$DIMSHO
 70
     1
  9
$DIMPOST
  1

  9
$DIMAPOST
  1

  9
$DIMALT
 70
     0
  9
$DIMALTD
 70
     2
  9
$DIMALTF
 40
25.399999999999999
  9
$DIMLFAC
 40
1.0
  9
$DIMTOFL
 70
     0
  9
$DIMTVP
 40
0.0
  9
$DIMTIX
 70
     0
  9
$DIMSOXD
 70
     0
  9
$DIMSAH
 70
     0
  9
$DIMBLK1
  1

  9
$DIMBLK2
  1

  9
$DIMSTYLE
  2
STANDARD
  9
$DIMCLRD
 70
     0
  9
$DIMCLRE
 70
     0
  9
$DIMCLRT
 70
     0
  9
$DIMTFAC
 40
1.0
  9
$DIMGAP
 40
0.09
  9
$LUNITS
 70
     2
  9
$LUPREC
 70
     4
  9
$SKETCHINC
 40
0.1
  9
$FILLETRAD
 40
0.0
  9
$AUNITS
 70
     0
  9
$AUPREC
 70
     0
  9
$MENU
  1
acad
  9
$ELEVATION
 40
0.0
  9
$PELEVATION
 40
0.0
  9
$THICKNESS
 40
0.0
  9
$LIMCHECK
 70
     0
  9
$BLIPMODE
 70
     0
  9
$CHAMFERA
 40
0.0
  9
$CHAMFERB
 40
0.0
  9
$SKPOLY
 70
     0
  9
$TDCREATE
 40
2456059.7434722218
  9
$TDUPDATE
 40
2456059.7545103822
  9
$TDINDWG
 40
0.0002969676
  9
$TDUSRTIMER
 40
0.0002967824
  9
$USRTIMER
 70
     1
  9
$ANGBASE
 50
0.0
  9
$ANGDIR
 70
     0
  9
$PDMODE
 70
     1
  9
$PDSIZE
 40
-2.0
  9
$PLINEWID
 40
0.0
  9
$COORDS
 70
     2
  9
$SPLFRAME
 70
     0
  9
$SPLINETYPE
 70
     6
  9
$SPLINESEGS
 70
     8
  9
$ATTDIA
 70
     0
  9
$ATTREQ
 70
     1
  9
$HANDLING
 70
     1
  9
$HANDSEED
  5
4E1
  9
$SURFTAB1
 70
     6
  9
$SURFTAB2
 70
     6
  9
$SURFTYPE
 70
     6
  9
$SURFU
 70
     6
  9
$SURFV
 70
     6
  9
$UCSNAME
  2

  9
$UCSORG
 10
0.0
 20
0.0
 30
0.0
  9
$UCSXDIR
 10
1.0
 20
0.0
 30
0.0
  9
$UCSYDIR
 10
0.0
 20
1.0
 30
0.0
  9
$PUCSNAME
  2

  9
$PUCSORG
 10
0.0
 20
0.0
 30
0.0
  9
$PUCSXDIR
 10
1.0
 20
0.0
 30
0.0
  9
$PUCSYDIR
 10
0.0
 20
1.0
 30
0.0
  9
$USERI1
 70
     0
  9
$USERI2
 70
     0
  9
$USERI3
 70
     0
  9
$USERI4
 70
     0
  9
$USERI5
 70
     0
  9
$USERR1
 40
0.0
  9
$USERR2
 40
0.0
  9
$USERR3
 40
0.0
  9
$USERR4
 40
0.0
  9
$USERR5
 40
0.0
  9
$WORLDVIEW
 70
     1
  9
$SHADEDGE
 70
     3
  9
$SHADEDIF
 70
    70
  9
$TILEMODE
 70
     1
  9
$MAXACTVP
 70
    64
  9
$PLIMCHECK
 70
     0
  9
$PEXTMIN
 10
1.0000000000000000E+020
 20
1.0000000000000000E+020
 30
1.0000000000000000E+020
  9
$PEXTMAX
 10
-1.0000000000000000E+020
 20
-1.0000000000000000E+020
 30
-1.0000000000000000E+020
  9
$PLIMMIN
 10
0.0
 20
0.0
  9
$PLIMMAX
 10
12.0
 20
9.0
  9
$UNITMODE
 70
     0
  9
$VISRETAIN
 70
     0
  9
$PLINEGEN
 70
     1
  9
$PSLTSCALE
 70
     0
  0
ENDSEC
  0
SECTION
  2
TABLES
  0
TABLE
  2
VPORT
 70
     1
  0
VPORT
  2
*ACTIVE
 70
     0
 10
0.0
 20
0.0
 11
1.0
 21
1.0
 12
400.00427425373852
 22
545.85022224794432
 13
0.0
 23
0.0
 14
1.0
 24
1.0
 15
0.0
 25
0.0
 16
0.0
 26
0.0
 36
1.0
 17
0.0
 27
0.0
 37
0.0
 40
1076.7229659479899
 41
2.1540469973890342
 42
50.0
 43
0.0
 44
0.0
 50
0.0
 51
0.0
 71
     0
 72
  2000
 73
     1
 74
     1
 75
     0
 76
     0
 77
     0
 78
     0
  0
ENDTAB
  0
TABLE
  2
LTYPE
 70
    11
  0
LTYPE
  2
CONTINUOUS
 70
     0
  3
Solid line
 72
    65
 73
     0
 40
0.0
  0
LTYPE
  2
STYLE_01
 70
     0
  3

 72
    65
 73
     2
 40
0.4166412353515625
 49
0.208282470703125
 49
-0.2083587646484375
  0
ENDTAB
  0
TABLE
  2
LAYER
 70
     5
  0
LAYER
  2
0
 70
     0
 62
     7
  6
CONTINUOUS
  0
LAYER
  2
DATA
 70
     0
 62
     7
  6
CONTINUOUS
  0
LAYER
  2
HIBINO-BASE
 70
     0
 62
     7
  6
CONTINUOUS
  0
LAYER
  2
SPEC
 70
     0
 62
     7
  6
CONTINUOUS
  0
LAYER
  2
DIMNSIONS
 70
     0
 62
     7
  6
CONTINUOUS
  0
ENDTAB
  0
TABLE
  2
STYLE
 70
     3
  0
STYLE
  2
STANDARD
 70
     0
 40
0.0
 41
1.0
 50
0.0
 71
     0
 42
0.0
  3
txt
  4
BIGFONT.SHX
  0
ENDTAB
  0
TABLE
  2
VIEW
 70
     0
  0
ENDTAB
  0
TABLE
  2
UCS
 70
     0
  0
ENDTAB
  0
TABLE
  2
APPID
 70
     4
  0
APPID
  2
ACAD
 70
     0
  0
APPID
  2
ACADANNOTATIVE
 70
     0
  0
APPID
  2
ACAD_NAV_VCDISPLAY
 70
     0
  0
APPID
  2
ACAD_MLEADERVER
 70
     0
  0
ENDTAB
  0
TABLE
  2
DIMSTYLE
 70
     2
  0
DIMSTYLE
  2
STANDARD
 70
     0
  3

  4

  5

  6

  7

 40
1.0
 41
0.18
 42
0.0625
 43
0.38
 44
0.18
 45
0.0
 46
0.0
 47
0.0
 48
0.0
140
0.18
141
0.09
142
0.0
143
25.399999999999999
144
1.0
145
0.0
146
1.0
147
0.09
 71
     0
 72
     0
 73
     1
 74
     1
 75
     0
 76
     0
 77
     0
 78
     0
170
     0
171
     2
172
     0
173
     0
174
     0
175
     0
176
     0
177
     0
178
     0
  0
ENDTAB
  0
ENDSEC
  0
SECTION
  2
BLOCKS
  0
BLOCK
  8
0
  2
$MODEL_SPACE
 70
     0
 10
0.0
 20
0.0
 30
0.0
  3
$MODEL_SPACE
  1

  0
ENDBLK
  5
415
  8
0
  0
BLOCK
 67
     1
  8
0
  2
$PAPER_SPACE
 70
     0
 10
0.0
 20
0.0
 30
0.0
  3
$PAPER_SPACE
  1

  0
ENDBLK
  5
411
 67
     1
  8
0
  0
ENDSEC
  0
SECTION
  2
ENTITIES
  0
LINE
  5
2C
  8
HIBINO-BASE
  6
CONTINUOUS
 62
     7
 10
40.0
 20
1080.0
 30
0.0
 11
760.0
 21
1080.0
 31
0.0
  0
LINE
  5
2D
  8
HIBINO-BASE
  6
CONTINUOUS
 62
     7
 10
760.0
 20
40.0
 30
0.0
 11
40.0
 21
40.0
 31
0.0
  0
LINE
  5
2E
  8
HIBINO-BASE
  6
CONTINUOUS
 62
     7
 10
40.0
 20
40.0
 30
0.0
 11
40.0
 21
1080.0
 31
0.0
  0
LINE
  5
2F
  8
HIBINO-BASE
  6
CONTINUOUS
 62
     7
 10
760.0
 20
1080.0
 30
0.0
 11
760.0
 21
40.0
 31
0.0
  0
LINE
  5
30
  8
HIBINO-BASE
  6
CONTINUOUS
 62
     7
 10
400.0
 20
130.0
 30
0.0
 11
760.0
 21
130.0
 31
0.0
  0
LINE
  5
31
  8
HIBINO-BASE
  6
CONTINUOUS
 62
     7
 10
400.0
 20
40.0
 30
0.0
 11
400.0
 21
130.0
 31
0.0
  0
TEXT
  5
32
  8
HIBINO-BASE
 62
     7
 10
403.60000000000002
 20
119.96522666666669
 30
0.0
 40
6.5153645833333318
  1
NOTE
 41
0.7
 11
403.60000000000002
 21
126.48059125
 31
0.0
 73
     3
  0
LINE
  5
33
  8
HIBINO-BASE
  6
CONTINUOUS
 62
     7
 10
540.0
 20
40.0
 30
0.0
 11
540.0
 21
130.0
 31
0.0
  0
TEXT
  5
34
  8
HIBINO-BASE
 62
     7
 10
543.59999999999991
 20
119.96522666666669
 30
0.0
 40
6.5153645833333318
  1
TITLE
 41
0.7
 11
543.59999999999991
 21
126.48059125
 31
0.0
 73
     3
  0
LINE
  5
35
  8
HIBINO-BASE
  6
CONTINUOUS
 62
     7
 10
400.0
 20
80.000000000000057
 30
0.0
 11
760.0
 21
80.000000000000057
 31
0.0
  0
TEXT
  5
36
  8
HIBINO-BASE
 62
     7
 10
593.5999999999998
 20
70.190506666666693
 30
0.0
 40
6.5153645833333318
  1
DRAWN
 41
0.7
 11
593.5999999999998
 21
76.70587125000003
 31
0.0
 73
     3
  0
TEXT
  5
37
  8
HIBINO-BASE
 62
     7
 10
493.59999999999991
 20
70.190506666666693
 30
0.0
 40
6.5153645833333318
  1
DATE
 41
0.7
 11
493.59999999999991
 21
76.70587125000003
 31
0.0
 73
     3
  0
TEXT
  5
38
  8
HIBINO-BASE
 62
     7
 10
453.59999999999991
 20
70.190506666666693
 30
0.0
 40
6.5153645833333318
  1
SCALE
 41
0.7
 11
453.59999999999991
 21
76.70587125000003
 31
0.0
 73
     3
  0
TEXT
  5
39
  8
HIBINO-BASE
 62
     7
 10
543.59999999999991
 20
70.190506666666693
 30
0.0
 40
6.5153645833333318
  1
DESIGN
 41
0.7
 11
543.59999999999991
 21
76.70587125000003
 31
0.0
 73
     3
  0
TEXT
  5
3A
  8
HIBINO-BASE
 62
     7
 10
693.5999999999998
 20
70.190506666666693
 30
0.0
 40
6.5153645833333318
  1
DRAWING NO.
 41
0.7
 11
693.5999999999998
 21
76.70587125000003
 31
0.0
 73
     3
  0
TEXT
  5
3B
  8
HIBINO-BASE
 62
     7
 10
643.5999999999998
 20
70.190506666666693
 30
0.0
 40
6.5153645833333318
  1
CHECK
 41
0.7
 11
643.5999999999998
 21
76.70587125000003
 31
0.0
 73
     3
  0
LINE
  5
3C
  8
HIBINO-BASE
  6
CONTINUOUS
 62
     7
 10
457.5
 20
45.0
 30
0.0
 11
472.5
 21
60.000000000000071
 31
0.0
  0
TEXT
  5
3D
  8
HIBINO-BASE
 62
     7
 10
455.0
 20
55.564226666666691
 30
0.0
 40
6.5153645833333318
  1
1
 41
0.7
 11
455.0
 21
62.079591250000021
 31
0.0
 73
     3
  0
LINE
  5
3E
  8
HIBINO-BASE
  6
CONTINUOUS
 62
     7
 10
450.0
 20
40.0
 30
0.0
 11
450.0
 21
80.000000000000057
 31
0.0
  0
LINE
  5
3F
  8
HIBINO-BASE
  6
CONTINUOUS
 62
     7
 10
490.0
 20
40.0
 30
0.0
 11
490.0
 21
80.000000000000057
 31
0.0
  0
LINE
  5
40
  8
HIBINO-BASE
  6
CONTINUOUS
 62
     7
 10
589.99999999999977
 20
80.000000000000057
 30
0.0
 11
589.99999999999977
 21
40.0
 31
0.0
  0
LINE
  5
41
  8
HIBINO-BASE
  6
CONTINUOUS
 62
     7
 10
690.0
 20
80.000000000000057
 30
0.0
 11
690.0
 21
40.0
 31
0.0
  0
LINE
  5
42
  8
HIBINO-BASE
  6
CONTINUOUS
 62
     7
 10
639.99999999999977
 20
40.0
 30
0.0
 11
639.99999999999977
 21
80.000000000000057
 31
0.0
  0
TEXT
  5
43
  8
HIBINO-BASE
 62
     7
 10
493.42615999999992
 20
51.454586666666678
 30
0.0
 40
6.5153645833333318
  1
'12.05.
 41
0.7
 11
493.42615999999992
 21
57.969951250000008
 31
0.0
 73
     3
  0
TEXT
  5
44
  8
HIBINO-BASE
 62
     7
 10
470.0
 20
48.064226666666691
 30
0.0
 40
6.5153645833333318
  1
4
 41
0.7
 11
470.0
 21
54.579591250000021
 31
0.0
 73
     3
  0
TEXT
  5
45
  8
HIBINO-BASE
 62
     7
 10
596.02324004413845
 20
51.454586666666678
 30
0.0
 40
6.5153645833333318
  1
Ootake
 41
0.7
 11
596.02324004413845
 21
57.969951250000008
 31
0.0
 73
     3
  0
TEXT
  5
46
  8
HIBINO-BASE
 62
     7
 10
415.5333333333333
 20
47.90400000000006
 30
0.0
 40
13.03072916666666
  1
A4
 41
0.7
 11
415.5333333333333
 21
60.934729166666727
 31
0.0
 73
     3
  0
TEXT
  5
47
  8
HIBINO-BASE
 62
     7
 10
403.8333333333332
 20
69.522180000000034
 30
0.0
 40
6.5153645833333318
  1
PAPER SIZE
 41
0.7
 11
403.8333333333332
 21
76.037544583333371
 31
0.0
 73
     3
  0
TEXT
  5
48
  8
HIBINO-BASE
 62
     7
 10
51.038541027560711
 20
14.299039063295
 30
0.0
 40
14.116623263888879
  1
Hibino-Intersound Corporation
 41
0.7
 11
51.038541027560711
 21
28.415662327183892
 31
0.0
 73
     3
  0
TEXT
  5
49
  8
HIBINO-BASE
 62
     7
 10
480.72243872085551
 20
15.70339207645268
 30
0.0
 40
14.116623263888879
  1
ヒビノインターサウンド株式会社
 41
0.7
 11
480.72243872085551
 21
29.82001534034157
 31
0.0
 73
     3
  0
LINE
  5
4A
  8
SPEC
  6
CONTINUOUS
 62
     7
 10
70.0
 20
1040.0
 30
0.0
 11
660.0
 21
1040.0
 31
0.0
  0
LINE
  5
4B
  8
SPEC
  6
CONTINUOUS
 62
     7
 10
220.0
 20
1025.0
 30
0.0
 11
660.0
 21
1025.0
 31
0.0
  0
LINE
  5
4C
  8
SPEC
  6
CONTINUOUS
 62
     7
 10
220.0
 20
995.0
 30
0.0
 11
660.0
 21
995.0
 31
0.0
  0
LINE
  5
4D
  8
SPEC
  6
CONTINUOUS
 62
     7
 10
70.0
 20
1010.0
 30
0.0
 11
660.0
 21
1010.0
 31
0.0
  0
LINE
  5
4E
  8
SPEC
  6
CONTINUOUS
 62
     7
 10
70.0
 20
1040.0
 30
0.0
 11
70.0
 21
800.0
 31
0.0
  0
TEXT
  5
4F
  8
SPEC
 62
     7
 10
75.0
 20
1045.5730799999999
 30
0.0
 40
9.7730468750000004
  1
仕様
 41
0.7
 11
75.0
 21
1055.346126875
 31
0.0
 73
     3
  0
LINE
  5
50
  8
SPEC
  6
CONTINUOUS
 62
     7
 10
220.0
 20
1040.0
 30
0.0
 11
220.0
 21
800.0
 31
0.0
  0
LINE
  5
51
  8
SPEC
  6
CONTINUOUS
 62
     7
 10
660.0
 20
1040.0
 30
0.0
 11
660.0
 21
800.0
 31
0.0
  0
LINE
  5
52
  8
SPEC
  6
CONTINUOUS
 62
     7
 10
220.0
 20
980.0
 30
0.0
 11
660.0
 21
980.0
 31
0.0
  0
LINE
  5
53
  8
SPEC
  6
CONTINUOUS
 62
     7
 10
70.0
 20
965.0
 30
0.0
 11
660.0
 21
965.0
 31
0.0
  0
LINE
  5
54
  8
SPEC
  6
CONTINUOUS
 62
     7
 10
70.0
 20
950.0
 30
0.0
 11
660.0
 21
950.0
 31
0.0
  0
LINE
  5
55
  8
SPEC
  6
CONTINUOUS
 62
     7
 10
220.0
 20
935.0
 30
0.0
 11
660.0
 21
935.0
 31
0.0
  0
LINE
  5
56
  8
SPEC
  6
CONTINUOUS
 62
     7
 10
139.99999999999989
 20
920.0
 30
0.0
 11
660.0
 21
920.0
 31
0.0
  0
LINE
  5
57
  8
SPEC
  6
CONTINUOUS
 62
     7
 10
139.99999999999989
 20
905.0
 30
0.0
 11
660.0
 21
905.0
 31
0.0
  0
LINE
  5
58
  8
SPEC
  6
CONTINUOUS
 62
     7
 10
70.0
 20
890.0
 30
0.0
 11
660.0
 21
890.0
 31
0.0
  0
LINE
  5
59
  8
SPEC
  6
CONTINUOUS
 62
     7
 10
70.0
 20
875.0
 30
0.0
 11
660.0
 21
875.0
 31
0.0
  0
LINE
  5
5A
  8
SPEC
  6
CONTINUOUS
 62
     7
 10
70.0
 20
860.0
 30
0.0
 11
660.0
 21
860.0
 31
0.0
  0
LINE
  5
5B
  8
SPEC
  6
CONTINUOUS
 62
     7
 10
70.0
 20
845.0
 30
0.0
 11
660.0
 21
845.0
 31
0.0
  0
TEXT
  5
5C
  8
SPEC
 62
     7
 10
73.218450675247965
 20
864.27053123240614
 30
0.0
 40
7.6012586805555546
  1
寸法
 41
0.7
 11
73.218450675247965
 21
871.87178991296162
 31
0.0
 73
     3
  0
TEXT
  5
5D
  8
SPEC
 62
     7
 10
223.08454714712511
 20
863.74383462797562
 30
0.0
 40
7.6012586805555546
  1
197(W)\U+00D743(H)\U+00D7150(D)mm(突起部含まず）
 41
0.7
 11
223.08454714712511
 21
871.3450933085312
 31
0.0
 73
     3
  0
TEXT
  5
5E
  8
SPEC
 62
     7
 10
223.3885313154357
 20
848.88111331203766
 30
0.0
 40
7.6012586805555546
  1
約900g
 41
0.7
 11
223.3885313154357
 21
856.48237199259324
 31
0.0
 73
     3
  0
TEXT
  5
5F
  8
SPEC
 62
     7
 10
73.328983903471453
 20
849.22210703189694
 30
0.0
 40
7.6012586805555546
  1
重量
 41
0.7
 11
73.328983903471453
 21
856.82336571245241
 31
0.0
 73
     3
  0
TEXT
  5
60
  8
SPEC
 62
     7
 10
73.256151602194564
 20
878.9573986802128
 30
0.0
 40
7.6012586805555546
  1
電源
 41
0.7
 11
73.256151602194564
 21
886.55865736076839
 31
0.0
 73
     3
  0
TEXT
  5
61
  8
SPEC
 62
     7
 10
223.5700030797498
 20
878.80516077680295
 30
0.0
 40
7.6012586805555546
  1
DC15V(600mA)、ACアダプター(AC100V、50/60Hz)
 41
0.7
 11
223.5700030797498
 21
886.40641945735842
 31
0.0
 73
     3
  0
TEXT
  5
62
  8
SPEC
 62
     7
 10
223.50423679532719
 20
908.62951032751323
 30
0.0
 40
7.6012586805555546
  1
バランス/擬似バランス：100\U+03A9、アンバランス：50\U+03A9
 41
0.7
 11
223.50423679532719
 21
916.23076900806871
 31
0.0
 73
     3
  0
TEXT
  5
63
  8
SPEC
 62
     7
 10
223.7169380228346
 20
923.76012026142689
 30
0.0
 40
7.6012586805555546
  1
擬似バランス(フォーンジャック)
 41
0.7
 11
223.7169380228346
 21
931.36137894198248
 31
0.0
 73
     3
  0
TEXT
  5
64
  8
SPEC
 62
     7
 10
73.555021630810984
 20
939.34735647777893
 30
0.0
 40
7.6012586805555546
  1
音声出力
 41
0.7
 11
73.555021630810984
 21
946.94861515833441
 31
0.0
 73
     3
  0
TEXT
  5
65
  8
SPEC
 62
     7
 10
223.51990116367389
 20
938.75959831900275
 30
0.0
 40
7.6012586805555546
  1
形式：バランス(XLR3ピン、オス)
 41
0.7
 11
223.51990116367389
 21
946.36085699955834
 31
0.0
 73
     3
  0
TEXT
  5
66
  8
SPEC
 62
     7
 10
73.660645419876673
 20
953.46233291287444
 30
0.0
 40
7.6012586805555546
  1
RF感度
 41
0.7
 11
73.660645419876673
 21
961.06359159343015
 31
0.0
 73
     3
  0
TEXT
  5
67
  8
SPEC
 62
     7
 10
223.8369814992619
 20
953.8917699579149
 30
0.0
 40
7.6012586805555546
  1
-98dBm@10-5 BER
 41
0.7
 11
223.8369814992619
 21
961.49302863847049
 31
0.0
 73
     3
  0
TEXT
  5
68
  8
SPEC
 62
     7
 10
223.5733879454998
 20
968.89176995791479
 30
0.0
 40
7.6012586805555546
  1
アクティブアンテナ用電源電圧：DC12V、最大170mA
 41
0.7
 11
223.5733879454998
 21
976.49302863847049
 31
0.0
 73
     3
  0
TEXT
  5
69
  8
SPEC
 62
     7
 10
223.51483780443519
 20
983.7580200430275
 30
0.0
 40
7.6012586805555546
  1
コネクター：BNC
 41
0.7
 11
223.51483780443519
 21
991.35927872358309
 31
0.0
 73
     3
  0
TEXT
  5
6A
  8
SPEC
 62
     7
 10
73.084330529643054
 20
999.11052244514713
 30
0.0
 40
7.6012586805555546
  1
アンテナ入力
 41
0.7
 11
73.084330529643054
 21
1006.711781125702
 31
0.0
 73
     3
  0
TEXT
  5
6B
  8
SPEC
 62
     7
 10
223.51483780443519
 20
998.89176995791468
 30
0.0
 40
7.6012586805555546
  1
実行インピーダンス：50\U+03A9
 41
0.7
 11
223.51483780443519
 21
1006.49302863847
 31
0.0
 73
     3
  0
TEXT
  5
6C
  8
SPEC
 62
     7
 10
223.48223888871991
 20
1013.66181664752
 30
0.0
 40
7.6012586805555546
  1
合計314チャンネルのうち任意の1チャンネル
 41
0.7
 11
223.48223888871991
 21
1021.263075328076
 31
0.0
 73
     3
  0
TEXT
  5
6D
  8
SPEC
 62
     7
 10
73.152836573824302
 20
1028.465692278246
 30
0.0
 40
7.6012586805555546
  1
受信周波数
 41
0.7
 11
73.152836573824302
 21
1036.066950958802
 31
0.0
 73
     3
  0
TEXT
  5
6E
  8
SPEC
 62
     7
 10
223.89700004139129
 20
1028.0491708311561
 30
0.0
 40
7.6012586805555546
  1
A1～A4帯(770～806MHz)284チャンネル、B帯(806～810MHz)30チャンネル、
 41
0.7
 11
223.89700004139129
 21
1035.6504295117111
 31
0.0
 73
     3
  0
TEXT
  5
6F
  8
SPEC
 62
     7
 10
223.5003569198565
 20
893.89663216263875
 30
0.0
 40
7.6012586805555546
  1
バランス：+18dBV(ライン)、-12dBV(マイク)
 41
0.7
 11
223.5003569198565
 21
901.49789084319445
 31
0.0
 73
     3
  0
LINE
  5
70
  8
SPEC
  6
CONTINUOUS
 62
     7
 10
220.0
 20
830.0
 30
0.0
 11
660.0
 21
830.0
 31
0.0
  0
LINE
  5
71
  8
SPEC
  6
CONTINUOUS
 62
     7
 10
220.0
 20
815.0
 30
0.0
 11
660.0
 21
815.0
 31
0.0
  0
LINE
  5
72
  8
SPEC
  6
CONTINUOUS
 62
     7
 10
70.0
 20
800.0
 30
0.0
 11
660.0
 21
800.0
 31
0.0
  0
TEXT
  5
73
  8
SPEC
 62
     7
 10
73.56005319235156
 20
833.95443001218678
 30
0.0
 40
7.6012586805555546
  1
付属品
 41
0.7
 11
73.56005319235156
 21
841.55568869274236
 31
0.0
 73
     3
  0
TEXT
  5
74
  8
SPEC
 62
     7
 10
223.04397844898679
 20
833.90596069673461
 30
0.0
 40
7.6012586805555546
  1
1/2波長アンテナ\U+00D72、ACアダプター、ラックマウント金具大・小\U+00D7各1、
 41
0.7
 11
223.04397844898679
 21
841.5072193772902
 31
0.0
 73
     3
  0
TEXT
  5
75
  8
SPEC
 62
     7
 10
223.61823322640171
 20
819.08170527392735
 30
0.0
 40
7.6012586805555546
  1
50\U+03A9同軸ケーブル(約50㎝)\U+00D72、BNCバルクヘットアダプター\U+00D72、
 41
0.7
 11
223.61823322640171
 21
826.68296395448294
 31
0.0
 73
     3
  0
TEXT
  5
76
  8
SPEC
 62
     7
 10
223.0835362742701
 20
804.4492218108162
 30
0.0
 40
7.6012586805555546
  1
インサーネットケーブル(約175㎝）\U+00D71
 41
0.7
 11
223.0835362742701
 21
812.05048049137179
 31
0.0
 73
     3
  0
TEXT
  5
77
  8
SPEC
 62
     7
 10
143.06552093025761
 20
908.53520877363178
 30
0.0
 40
7.6012586805555546
  1
インピーダンス
 41
0.7
 11
143.06552093025761
 21
916.13646745418725
 31
0.0
 73
     3
  0
TEXT
  5
78
  8
SPEC
 62
     7
 10
143.6655209302576
 20
893.97662014316222
 30
0.0
 40
7.6012586805555546
  1
最大出力レベル
 41
0.7
 11
143.6655209302576
 21
901.5778788237177
 31
0.0
 73
     3
  0
LINE
  5
79
  8
SPEC
  6
CONTINUOUS
 62
     7
 10
139.99999999999989
 20
890.0
 30
0.0
 11
139.99999999999989
 21
950.0
 31
0.0
  0
TEXT
  5
7A
  8
SPEC
 62
     7
 10
142.47164631061369
 20
938.3430407705963
 30
0.0
 40
7.6012586805555546
  1
コネクター
 41
0.7
 11
142.47164631061369
 21
945.94429945115189
 31
0.0
 73
     3
  0
TEXT
  5
7B
  8
DIMNSIONS
 62
     7
 10
319.99999999999989
 20
89.077960000000019
 30
0.0
 40
9.7730468750000004
  1
(単位：mm)
 41
0.7
 11
319.99999999999989
 21
98.851006875000039
 31
0.0
 73
     3
  0
LINE
  5
7C
  8
DIMNSIONS
  6
CONTINUOUS
 62
     7
 10
225.0
 20
217.0
 30
0.0
 11
225.0
 21
179.5
 31
0.0
  0
LINE
  5
7D
  8
DIMNSIONS
  6
CONTINUOUS
 62
     7
 10
422.0
 20
217.0
 30
0.0
 11
422.0
 21
179.5
 31
0.0
  0
LINE
  5
7E
  8
DIMNSIONS
  6
CONTINUOUS
 62
     7
 10
225.0
 20
187.5
 30
0.0
 11
422.0
 21
187.5
 31
0.0
  0
LINE
  5
7F
  8
DIMNSIONS
  6
CONTINUOUS
 62
     7
 10
225.0
 20
187.5
 30
0.0
 11
235.00249023437499
 21
190.18015918060101
 31
0.0
  0
LINE
  5
80
  8
DIMNSIONS
  6
CONTINUOUS
 62
     7
 10
225.0
 20
187.5
 30
0.0
 11
235.00249023437499
 21
184.81984081939899
 31
0.0
  0
LINE
  5
81
  8
DIMNSIONS
  6
CONTINUOUS
 62
     7
 10
422.0
 20
187.5
 30
0.0
 11
411.9975097656249
 21
184.81984081939899
 31
0.0
  0
LINE
  5
82
  8
DIMNSIONS
  6
CONTINUOUS
 62
     7
 10
422.0
 20
187.5
 30
0.0
 11
411.9975097656249
 21
190.18015918060101
 31
0.0
  0
TEXT
  5
83
  8
DIMNSIONS
 62
     7
 10
312.91666666666669
 20
191.4755555555555
 30
0.0
 40
10.85894097222222
  1
197
 41
0.7
 11
312.91666666666669
 21
202.3344965277777
 31
0.0
 73
     3
  0
LINE
  5
84
  8
DIMNSIONS
  6
CONTINUOUS
 62
     7
 10
217.0
 20
225.0
 30
0.0
 11
179.5
 21
225.0
 31
0.0
  0
LINE
  5
85
  8
DIMNSIONS
  6
CONTINUOUS
 62
     7
 10
217.0
 20
268.0
 30
0.0
 11
179.5
 21
268.0
 31
0.0
  0
LINE
  5
86
  8
DIMNSIONS
  6
CONTINUOUS
 62
     7
 10
187.5
 20
225.0
 30
0.0
 11
187.5
 21
268.0
 31
0.0
  0
LINE
  5
87
  8
DIMNSIONS
  6
CONTINUOUS
 62
     7
 10
187.5
 20
225.0
 30
0.0
 11
184.81984081939899
 21
235.00249023437499
 31
0.0
  0
LINE
  5
88
  8
DIMNSIONS
  6
CONTINUOUS
 62
     7
 10
187.5
 20
225.0
 30
0.0
 11
190.18015918060101
 21
235.00249023437499
 31
0.0
  0
LINE
  5
89
  8
DIMNSIONS
  6
CONTINUOUS
 62
     7
 10
187.5
 20
268.0
 30
0.0
 11
190.18015918060101
 21
257.99750976562501
 31
0.0
  0
LINE
  5
8A
  8
DIMNSIONS
  6
CONTINUOUS
 62
     7
 10
187.5
 20
268.0
 30
0.0
 11
184.81984081939899
 21
257.99750976562501
 31
0.0
  0
TEXT
  5
8B
  8
DIMNSIONS
 62
     7
 10
183.52444444444441
 20
239.44444444444451
 30
0.0
 40
10.85894097222222
  1
43
 50
90.0
 41
0.7
 11
172.66550347222221
 21
239.44444444444451
 31
0.0
 73
     3
  0
LINE
  5
8C
  8
DIMNSIONS
  6
CONTINUOUS
 62
     7
 10
217.0
 20
375.0
 30
0.0
 11
192.0
 21
375.0
 31
0.0
  0
LINE
  5
8D
  8
DIMNSIONS
  6
CONTINUOUS
 62
     7
 10
217.0
 20
525.0
 30
0.0
 11
192.0
 21
525.0
 31
0.0
  0
LINE
  5
8E
  8
DIMNSIONS
  6
CONTINUOUS
 62
     7
 10
200.0
 20
375.0
 30
0.0
 11
200.0
 21
525.0
 31
0.0
  0
LINE
  5
8F
  8
DIMNSIONS
  6
CONTINUOUS
 62
     7
 10
200.0
 20
375.0
 30
0.0
 11
197.31984081939899
 21
385.00249023437487
 31
0.0
  0
LINE
  5
90
  8
DIMNSIONS
  6
CONTINUOUS
 62
     7
 10
200.0
 20
375.0
 30
0.0
 11
202.68015918060101
 21
385.00249023437487
 31
0.0
  0
LINE
  5
91
  8
DIMNSIONS
  6
CONTINUOUS
 62
     7
 10
200.0
 20
525.0
 30
0.0
 11
202.68015918060101
 21
514.99750976562495
 31
0.0
  0
LINE
  5
92
  8
DIMNSIONS
  6
CONTINUOUS
 62
     7
 10
200.0
 20
525.0
 30
0.0
 11
197.31984081939899
 21
514.99750976562495
 31
0.0
  0
TEXT
  5
93
  8
DIMNSIONS
 62
     7
 10
196.02444444444441
 20
439.41666666666657
 30
0.0
 40
10.85894097222222
  1
150
 50
90.0
 41
0.7
 11
185.16550347222221
 21
439.41666666666657
 31
0.0
 73
     3
  0
LINE
  5
94
  8
DIMNSIONS
  6
CONTINUOUS
 62
     7
 10
338.0
 20
365.0
 30
0.0
 11
192.0
 21
365.0
 31
0.0
  0
LINE
  5
95
  8
DIMNSIONS
  6
CONTINUOUS
 62
     7
 10
217.0
 20
375.0
 30
0.0
 11
192.0
 21
375.0
 31
0.0
  0
LINE
  5
96
  8
DIMNSIONS
  6
CONTINUOUS
 62
     7
 10
200.0
 20
375.0
 30
0.0
 11
200.0
 21
365.0
 31
0.0
  0
LINE
  5
97
  8
DIMNSIONS
  6
CONTINUOUS
 62
     7
 10
200.0
 20
365.0
 30
0.0
 11
200.0
 21
345.0
 31
0.0
  0
LINE
  5
98
  8
DIMNSIONS
  6
CONTINUOUS
 62
     7
 10
200.0
 20
365.0
 30
0.0
 11
202.68015918060101
 21
354.99750976562501
 31
0.0
  0
LINE
  5
99
  8
DIMNSIONS
  6
CONTINUOUS
 62
     7
 10
200.0
 20
365.0
 30
0.0
 11
197.31984081939899
 21
354.99750976562501
 31
0.0
  0
LINE
  5
9A
  8
DIMNSIONS
  6
CONTINUOUS
 62
     7
 10
200.0
 20
375.0
 30
0.0
 11
200.0
 21
395.0
 31
0.0
  0
LINE
  5
9B
  8
DIMNSIONS
  6
CONTINUOUS
 62
     7
 10
200.0
 20
375.0
 30
0.0
 11
197.31984081939899
 21
385.00249023437487
 31
0.0
  0
LINE
  5
9C
  8
DIMNSIONS
  6
CONTINUOUS
 62
     7
 10
200.0
 20
375.0
 30
0.0
 11
202.68015918060101
 21
385.00249023437487
 31
0.0
  0
TEXT
  5
9D
  8
DIMNSIONS
 62
     7
 10
196.02444444444441
 20
362.94444444444451
 30
0.0
 40
10.85894097222222
  1
10
 50
90.0
 41
0.7
 11
185.16550347222221
 21
362.94444444444451
 31
0.0
 73
     3
  0
LINE
  5
9E
  8
DIMNSIONS
  6
CONTINUOUS
 62
     7
 10
654.49999999980855
 20
312.49999999980849
 30
0.0
 11
629.49999999999989
 21
312.49999999980849
 31
0.0
  0
LINE
  5
9F
  8
DIMNSIONS
  6
CONTINUOUS
 62
     7
 10
691.61561431098835
 20
590.49999999984493
 30
0.0
 11
629.49999999999989
 21
590.49999999984493
 31
0.0
  0
LINE
  5
A0
  8
DIMNSIONS
  6
CONTINUOUS
 62
     7
 10
637.5
 20
312.49999999980849
 30
0.0
 11
637.5
 21
590.49999999984493
 31
0.0
  0
LINE
  5
A1
  8
DIMNSIONS
  6
CONTINUOUS
 62
     7
 10
637.5
 20
312.49999999980849
 30
0.0
 11
634.81984081939902
 21
322.5024902341836
 31
0.0
  0
LINE
  5
A2
  8
DIMNSIONS
  6
CONTINUOUS
 62
     7
 10
637.5
 20
312.49999999980849
 30
0.0
 11
640.18015918060098
 21
322.5024902341836
 31
0.0
  0
LINE
  5
A3
  8
DIMNSIONS
  6
CONTINUOUS
 62
     7
 10
637.5
 20
590.49999999984493
 30
0.0
 11
640.18015918060098
 21
580.49750976547
 31
0.0
  0
LINE
  5
A4
  8
DIMNSIONS
  6
CONTINUOUS
 62
     7
 10
637.5
 20
590.49999999984493
 30
0.0
 11
634.81984081939902
 21
580.49750976547
 31
0.0
  0
TEXT
  5
A5
  8
DIMNSIONS
 62
     7
 10
633.52444444444438
 20
440.91666666649348
 30
0.0
 40
10.85894097222222
  1
278
 50
90.0
 41
0.7
 11
622.66550347222221
 21
440.91666666649348
 31
0.0
 73
     3
  0
TEXT
  5
A6
  8
DATA
 62
     7
 10
593.70305715132633
 20
84.435164166158827
 30
0.0
 40
9.7730468750000004
  1
ULXD4-AB
 41
0.7
 11
593.70305715132633
 21
94.208211041158847
 31
0.0
 73
     3
  0
TEXT
  5
A7
  8
DATA
 62
     7
 10
599.99999999999989
 20
115.4802433063069
 30
0.0
 40
9.7730468750000004
  1
SHURE
 41
0.7
 11
599.99999999999989
 21
125.25329018130689
 31
0.0
 73
     3
  0
TEXT
  5
A8
  8
DATA
 62
     7
 10
591.57212845882225
 20
100.75911889202639
 30
0.0
 40
6.5153748437499992
  1
ワイヤレスダイバーシティ受信機
 41
0.7
 11
591.57212845882225
 21
107.2744937357764
 31
0.0
 73
     3
  0
TEXT
  5
A9
  8
DATA
 62
     7
 10
80.0
 20
56.952000000000012
 30
0.0
 40
6.5153645833333318
  1
仕様および外観は予告なく変更されることがありますので、ご了承ください。
 41
0.7
 11
80.0
 21
63.467364583333342
 31
0.0
 73
     3
  0
LINE
  5
AA
  8
DATA
  6
CONTINUOUS
 62
     7
 10
225.0
 20
225.0
 30
0.0
 11
225.0
 21
268.0
 31
0.0
  0
LINE
  5
AB
  8
DATA
  6
CONTINUOUS
 62
     7
 10
422.0
 20
225.0
 30
0.0
 11
225.0
 21
225.0
 31
0.0
  0
LINE
  5
AC
  8
DATA
  6
CONTINUOUS
 62
     7
 10
422.0
 20
268.0
 30
0.0
 11
422.0
 21
225.0
 31
0.0
  0
LINE
  5
AD
  8
DATA
  6
CONTINUOUS
 62
     7
 10
225.0
 20
268.0
 30
0.0
 11
422.0
 21
268.0
 31
0.0
  0
LINE
  5
AE
  8
DATA
  6
CONTINUOUS
 62
     7
 10
225.0
 20
375.0
 30
0.0
 11
225.0
 21
525.0
 31
0.0
  0
LINE
  5
AF
  8
DATA
  6
CONTINUOUS
 62
     7
 10
422.0
 20
375.0
 30
0.0
 11
225.0
 21
375.0
 31
0.0
  0
LINE
  5
B0
  8
DATA
  6
CONTINUOUS
 62
     7
 10
422.0
 20
525.0
 30
0.0
 11
422.0
 21
375.0
 31
0.0
  0
LINE
  5
B1
  8
DATA
  6
CONTINUOUS
 62
     7
 10
225.0
 20
525.0
 30
0.0
 11
422.0
 21
525.0
 31
0.0
  0
LINE
  5
B2
  8
DATA
  6
CONTINUOUS
 62
     7
 10
96.297400139120782
 20
452.69540581075319
 30
0.0
 11
88.840906466557158
 21
463.34438238651001
 31
0.0
  0
LINE
  5
B3
  8
DATA
  6
CONTINUOUS
 62
     7
 10
102.0314644491437
 20
456.7104408652105
 30
0.0
 11
96.297400139120782
 21
452.69540581075319
 31
0.0
  0
LINE
  5
B4
  8
DATA
  6
CONTINUOUS
 62
     7
 10
94.574970776580088
 20
467.35941744096738
 30
0.0
 11
102.0314644491437
 21
456.7104408652105
 31
0.0
  0
LINE
  5
B5
  8
DATA
  6
CONTINUOUS
 62
     7
 10
88.840906466557158
 20
463.34438238651001
 30
0.0
 11
94.574970776580088
 21
467.35941744096738
 31
0.0
  0
LINE
  5
B6
  8
DATA
  6
CONTINUOUS
 62
     7
 10
152.5896361006034
 20
373.69651866380173
 30
0.0
 11
96.952721774551947
 21
453.15426695983399
 31
0.0
  0
LINE
  5
B7
  8
DATA
  6
CONTINUOUS
 62
     7
 10
101.37614281371251
 20
456.2515797161297
 30
0.0
 11
157.01305713976399
 21
376.79383142009749
 31
0.0
  0
LINE
  5
B8
  8
DATA
  6
CONTINUOUS
 62
     7
 10
220.47616745536891
 20
270.1194064014972
 30
0.0
 11
159.8012341866241
 21
356.77219140846603
 31
0.0
  0
LINE
  5
B9
  8
DATA
  6
CONTINUOUS
 62
     7
 10
170.450210762381
 20
364.22868508102971
 30
0.0
 11
231.12514403112581
 21
277.57590007406088
 31
0.0
  0
LINE
  5
BA
  8
DATA
  6
CONTINUOUS
 62
     7
 10
159.8012341866241
 20
356.77219140846603
 30
0.0
 11
152.5896361006034
 21
373.69651866380173
 31
0.0
  0
LINE
  5
BB
  8
DATA
  6
CONTINUOUS
 62
     7
 10
170.450210762381
 20
364.22868508102971
 30
0.0
 11
157.01305713976399
 21
376.79383142009749
 31
0.0
  0
LINE
  5
BC
  8
DATA
  6
CONTINUOUS
 62
     7
 10
225.0
 20
262.86196645544862
 30
0.0
 11
224.9366391754929
 21
262.97643293685621
 31
0.0
  0
LINE
  5
BD
  8
DATA
  6
CONTINUOUS
 62
     7
 10
238.824942527583
 20
268.05378621223929
 30
0.0
 11
236.31177230930169
 21
270.94138690528831
 31
0.0
  0
ARC
  5
BE
  8
DATA
  6
CONTINUOUS
 62
     7
 10
154.9440039122494
 20
224.2332914934137
 30
0.0
 40
80.000000000000071
 50
28.965917675818488
 51
34.999999999999908
  0
ARC
  5
BF
  8
DATA
  6
CONTINUOUS
 62
     7
 10
296.65730757424541
 20
323.4620149821443
 30
0.0
 40
80.000000000000028
 50
214.99999999999969
 51
221.03408232418121
  0
LINE
  5
C0
  8
DATA
  6
CONTINUOUS
 62
     7
 10
238.824942527583
 20
268.05378621223929
 30
0.0
 11
238.86260403884469
 21
268.0
 31
0.0
  0
LINE
  5
C1
  8
DATA
  6
CONTINUOUS
 62
     7
 10
550.70259986087899
 20
452.69540581075319
 30
0.0
 11
558.15909353344273
 21
463.34438238651001
 31
0.0
  0
LINE
  5
C2
  8
DATA
  6
CONTINUOUS
 62
     7
 10
544.96853555085613
 20
456.7104408652105
 30
0.0
 11
550.70259986087899
 21
452.69540581075319
 31
0.0
  0
LINE
  5
C3
  8
DATA
  6
CONTINUOUS
 62
     7
 10
552.42502922341987
 20
467.35941744096738
 30
0.0
 11
544.96853555085613
 21
456.7104408652105
 31
0.0
  0
LINE
  5
C4
  8
DATA
  6
CONTINUOUS
 62
     7
 10
558.15909353344273
 20
463.34438238651001
 30
0.0
 11
552.42502922341987
 21
467.35941744096738
 31
0.0
  0
LINE
  5
C5
  8
DATA
  6
CONTINUOUS
 62
     7
 10
494.41036389939632
 20
373.69651866380173
 30
0.0
 11
550.04727822544805
 21
453.15426695983399
 31
0.0
  0
LINE
  5
C6
  8
DATA
  6
CONTINUOUS
 62
     7
 10
545.6238571862873
 20
456.2515797161297
 30
0.0
 11
489.98694286023579
 21
376.79383142009749
 31
0.0
  0
LINE
  5
C7
  8
DATA
  6
CONTINUOUS
 62
     7
 10
426.52383254463092
 20
270.1194064014972
 30
0.0
 11
487.19876581337581
 21
356.77219140846603
 31
0.0
  0
LINE
  5
C8
  8
DATA
  6
CONTINUOUS
 62
     7
 10
476.54978923761882
 20
364.22868508102971
 30
0.0
 11
415.8748559688741
 21
277.57590007406088
 31
0.0
  0
LINE
  5
C9
  8
DATA
  6
CONTINUOUS
 62
     7
 10
487.19876581337581
 20
356.77219140846603
 30
0.0
 11
494.41036389939632
 21
373.69651866380173
 31
0.0
  0
LINE
  5
CA
  8
DATA
  6
CONTINUOUS
 62
     7
 10
476.54978923761882
 20
364.22868508102971
 30
0.0
 11
489.98694286023579
 21
376.79383142009749
 31
0.0
  0
LINE
  5
CB
  8
DATA
  6
CONTINUOUS
 62
     7
 10
422.0
 20
262.86196645544879
 30
0.0
 11
422.06336082450701
 21
262.97643293685621
 31
0.0
  0
LINE
  5
CC
  8
DATA
  6
CONTINUOUS
 62
     7
 10
408.17505747241682
 20
268.05378621223929
 30
0.0
 11
410.68822769069823
 21
270.94138690528831
 31
0.0
  0
ARC
  5
CD
  8
DATA
  6
CONTINUOUS
 62
     7
 10
492.05599608775032
 20
224.2332914934137
 30
0.0
 40
80.000000000000014
 50
145.00000000000011
 51
151.0340823241815
  0
ARC
  5
CE
  8
DATA
  6
CONTINUOUS
 62
     7
 10
350.34269242575448
 20
323.4620149821443
 30
0.0
 40
80.000000000000014
 50
318.96591767581901
 51
325.0000000000004
  0
LINE
  5
CF
  8
DATA
  6
CONTINUOUS
 62
     7
 10
408.17505747241682
 20
268.05378621223929
 30
0.0
 11
408.13739596115522
 21
268.0
 31
0.0
  0
LINE
  5
D0
  8
DATA
  6
CONTINUOUS
 62
     7
 10
422.0
 20
379.0
 30
0.0
 11
411.5
 21
379.0
 31
0.0
  0
LINE
  5
D1
  8
DATA
  6
CONTINUOUS
 62
     7
 10
235.5
 20
379.0
 30
0.0
 11
225.0
 21
379.0
 31
0.0
  0
LINE
  5
D2
  8
DATA
  6
CONTINUOUS
 62
     7
 10
235.5
 20
379.0
 30
0.0
 11
235.5
 21
525.0
 31
0.0
  0
LINE
  5
D3
  8
DATA
  6
CONTINUOUS
 62
     7
 10
411.5
 20
379.0
 30
0.0
 11
411.5
 21
525.0
 31
0.0
  0
LINE
  5
D4
  8
DATA
  6
CONTINUOUS
 62
     7
 10
422.0
 20
389.0
 30
0.0
 11
225.0
 21
389.0
 31
0.0
  0
CIRCLE
  5
D5
  8
DATA
  6
CONTINUOUS
 62
     7
 10
230.0
 20
410.5
 30
0.0
 40
2.5
  0
CIRCLE
  5
D6
  8
DATA
  6
CONTINUOUS
 62
     7
 10
230.0
 20
410.5
 30
0.0
 40
1.25
  0
CIRCLE
  5
D7
  8
DATA
  6
CONTINUOUS
 62
     7
 10
230.0
 20
510.5
 30
0.0
 40
2.5
  0
CIRCLE
  5
D8
  8
DATA
  6
CONTINUOUS
 62
     7
 10
230.0
 20
510.5
 30
0.0
 40
1.25
  0
CIRCLE
  5
D9
  8
DATA
  6
CONTINUOUS
 62
     7
 10
416.99999999999989
 20
410.5
 30
0.0
 40
2.5
  0
CIRCLE
  5
DA
  8
DATA
  6
CONTINUOUS
 62
     7
 10
416.99999999999989
 20
410.5
 30
0.0
 40
1.25
  0
CIRCLE
  5
DB
  8
DATA
  6
CONTINUOUS
 62
     7
 10
416.99999999999989
 20
510.5
 30
0.0
 40
2.5
  0
CIRCLE
  5
DC
  8
DATA
  6
CONTINUOUS
 62
     7
 10
416.99999999999989
 20
510.5
 30
0.0
 40
1.25
  0
CIRCLE
  5
DD
  8
DATA
  6
CONTINUOUS
 62
     7
 10
355.0
 20
247.0
 30
0.0
 40
9.6499999999999986
  0
CIRCLE
  5
DE
  8
DATA
  6
CONTINUOUS
 62
     7
 10
355.0
 20
247.0
 30
0.0
 40
9.0
  0
LINE
  5
DF
  8
DATA
  6
CONTINUOUS
 62
     7
 10
225.69999999999999
 20
265.5
 30
0.0
 11
421.30000000000001
 21
265.5
 31
0.0
  0
LINE
  5
E0
  8
DATA
  6
CONTINUOUS
 62
     7
 10
421.30000000000001
 20
227.5
 30
0.0
 11
225.69999999999999
 21
227.5
 31
0.0
  0
LINE
  5
E1
  8
DATA
  6
CONTINUOUS
 62
     7
 10
225.69999999999999
 20
227.5
 30
0.0
 11
225.69999999999999
 21
265.5
 31
0.0
  0
LINE
  5
E2
  8
DATA
  6
CONTINUOUS
 62
     7
 10
421.30000000000001
 20
265.5
 30
0.0
 11
421.30000000000001
 21
227.5
 31
0.0
  0
LINE
  5
E3
  8
DATA
  6
CONTINUOUS
 62
     7
 10
416.5
 20
258.0
 30
0.0
 11
416.5
 21
235.0
 31
0.0
  0
LINE
  5
E4
  8
DATA
  6
CONTINUOUS
 62
     7
 10
406.69999999999999
 20
258.0
 30
0.0
 11
406.69999999999999
 21
235.0
 31
0.0
  0
LINE
  5
E5
  8
DATA
  6
CONTINUOUS
 62
     7
 10
420.85855289009851
 20
268.0
 30
0.0
 11
398.85855289009862
 21
268.0
 31
0.0
  0
LINE
  5
E6
  8
DATA
  6
CONTINUOUS
 62
     7
 10
416.5
 20
258.0
 30
0.0
 11
406.69999999999999
 21
258.0
 31
0.0
  0
LINE
  5
E7
  8
DATA
  6
CONTINUOUS
 62
     7
 10
416.5
 20
235.0
 30
0.0
 11
406.69999999999999
 21
235.0
 31
0.0
  0
POLYLINE
  5
E8
  8
DATA
  6
CONTINUOUS
 62
     7
 66
     1
 10
0.0
 20
0.0
 30
0.0
 70
     1
  0
VERTEX
  5
439
  8
DATA
  6
CONTINUOUS
 62
     7
 10
409.44999999999999
 20
254.0
 30
0.0
  0
VERTEX
  5
43A
  8
DATA
  6
CONTINUOUS
 62
     7
 10
413.75
 20
254.0
 30
0.0
  0
VERTEX
  5
43B
  8
DATA
  6
CONTINUOUS
 62
     7
 10
413.75
 20
239.0
 30
0.0
  0
VERTEX
  5
43C
  8
DATA
  6
CONTINUOUS
 62
     7
 10
409.44999999999999
 20
239.0
 30
0.0
  0
SEQEND
  5
43D
  8
DATA
  6
CONTINUOUS
 62
     7
  0
LINE
  5
EF
  8
DATA
  6
CONTINUOUS
 62
     7
 10
409.44999999999999
 20
242.44425395238969
 30
0.0
 11
413.75
 21
242.44425395238969
 31
0.0
  0
LINE
  5
F0
  8
DATA
  6
CONTINUOUS
 62
     7
 10
411.60000000000002
 20
253.00000000000011
 30
0.0
 11
411.60000000000002
 21
250.65000000000001
 31
0.0
  0
LINE
  5
F1
  8
DATA
  6
CONTINUOUS
 62
     7
 10
398.0
 20
256.39604109572213
 30
0.0
 11
398.0
 21
249.59604109572209
 31
0.0
  0
LINE
  5
F2
  8
DATA
  6
CONTINUOUS
 62
     7
 10
398.0
 20
244.3960410957221
 30
0.0
 11
398.0
 21
237.59604109572209
 31
0.0
  0
LINE
  5
F3
  8
DATA
  6
CONTINUOUS
 62
     7
 10
391.19999999999999
 20
256.39604109572213
 30
0.0
 11
391.19999999999999
 21
249.59604109572209
 31
0.0
  0
LINE
  5
F4
  8
DATA
  6
CONTINUOUS
 62
     7
 10
391.19999999999999
 20
244.3960410957221
 30
0.0
 11
391.19999999999999
 21
237.59604109572209
 31
0.0
  0
LINE
  5
F5
  8
DATA
  6
CONTINUOUS
 62
     7
 10
398.0
 20
256.39604109572213
 30
0.0
 11
391.19999999999999
 21
256.39604109572213
 31
0.0
  0
LINE
  5
F6
  8
DATA
  6
CONTINUOUS
 62
     7
 10
398.0
 20
249.59604109572209
 30
0.0
 11
391.19999999999999
 21
249.59604109572209
 31
0.0
  0
LINE
  5
F7
  8
DATA
  6
CONTINUOUS
 62
     7
 10
398.0
 20
244.3960410957221
 30
0.0
 11
391.19999999999999
 21
244.3960410957221
 31
0.0
  0
LINE
  5
F8
  8
DATA
  6
CONTINUOUS
 62
     7
 10
398.0
 20
237.59604109572209
 30
0.0
 11
391.19999999999999
 21
237.59604109572209
 31
0.0
  0
TEXT
  5
F9
  8
DATA
 62
     7
 10
407.3003504111457
 20
261.81773419125608
 30
0.0
 40
3.0868055555555549
  1
power
 41
0.7
 11
407.3003504111457
 21
264.90453974681162
 31
0.0
 73
     3
  0
TEXT
  5
FA
  8
DATA
 62
     7
 10
391.1709531576883
 20
261.81773419125608
 30
0.0
 40
2.7147352430555549
  1
gain
 41
0.7
 11
391.1709531576883
 21
264.53246943431162
 31
0.0
 73
     3
  0
LINE
  5
FB
  8
DATA
  6
CONTINUOUS
 62
     7
 10
396.10000000000002
 20
251.49604109572209
 30
0.0
 11
393.10000000000002
 21
251.49604109572209
 31
0.0
  0
LINE
  5
FC
  8
DATA
  6
CONTINUOUS
 62
     7
 10
393.10000000000002
 20
251.49604109572209
 30
0.0
 11
394.60000000000002
 21
254.49604109572201
 31
0.0
  0
LINE
  5
FD
  8
DATA
  6
CONTINUOUS
 62
     7
 10
396.10000000000002
 20
251.49604109572209
 30
0.0
 11
394.60000000000002
 21
254.49604109572201
 31
0.0
  0
LINE
  5
FE
  8
DATA
  6
CONTINUOUS
 62
     7
 10
396.10000000000002
 20
242.25395890427799
 30
0.0
 11
393.10000000000002
 21
242.25395890427799
 31
0.0
  0
LINE
  5
FF
  8
DATA
  6
CONTINUOUS
 62
     7
 10
393.10000000000002
 20
242.25395890427799
 30
0.0
 11
394.60000000000002
 21
239.25395890427799
 31
0.0
  0
LINE
  5
100
  8
DATA
  6
CONTINUOUS
 62
     7
 10
396.10000000000002
 20
242.25395890427799
 30
0.0
 11
394.60000000000002
 21
239.25395890427799
 31
0.0
  0
CIRCLE
  5
101
  8
DATA
  6
CONTINUOUS
 62
     7
 10
382.0
 20
257.0
 30
0.0
 40
1.100000000000001
  0
CIRCLE
  5
102
  8
DATA
  6
CONTINUOUS
 62
     7
 10
382.0
 20
253.5
 30
0.0
 40
1.100000000000001
  0
CIRCLE
  5
103
  8
DATA
  6
CONTINUOUS
 62
     7
 10
382.0
 20
250.0
 30
0.0
 40
1.100000000000001
  0
CIRCLE
  5
104
  8
DATA
  6
CONTINUOUS
 62
     7
 10
382.0
 20
246.5
 30
0.0
 40
1.100000000000001
  0
CIRCLE
  5
105
  8
DATA
  6
CONTINUOUS
 62
     7
 10
382.0
 20
243.0
 30
0.0
 40
1.100000000000001
  0
CIRCLE
  5
106
  8
DATA
  6
CONTINUOUS
 62
     7
 10
382.0
 20
239.5
 30
0.0
 40
1.100000000000001
  0
CIRCLE
  5
107
  8
DATA
  6
CONTINUOUS
 62
     7
 10
376.7582648119008
 20
257.0
 30
0.0
 40
1.100000000000001
  0
CIRCLE
  5
108
  8
DATA
  6
CONTINUOUS
 62
     7
 10
374.0
 20
253.5
 30
0.0
 40
1.100000000000001
  0
CIRCLE
  5
109
  8
DATA
  6
CONTINUOUS
 62
     7
 10
374.0
 20
250.0
 30
0.0
 40
1.100000000000001
  0
CIRCLE
  5
10A
  8
DATA
  6
CONTINUOUS
 62
     7
 10
374.0
 20
246.5
 30
0.0
 40
1.100000000000001
  0
CIRCLE
  5
10B
  8
DATA
  6
CONTINUOUS
 62
     7
 10
374.0
 20
243.0
 30
0.0
 40
1.100000000000001
  0
CIRCLE
  5
10C
  8
DATA
  6
CONTINUOUS
 62
     7
 10
374.0
 20
239.5
 30
0.0
 40
1.100000000000001
  0
CIRCLE
  5
10D
  8
DATA
  6
CONTINUOUS
 62
     7
 10
371.2417351880992
 20
257.0
 30
0.0
 40
1.100000000000001
  0
TEXT
  5
10E
  8
DATA
 62
     7
 10
372.21879833925288
 20
262.10440092559679
 30
0.0
 40
2.7147352430555549
  1
RF
 41
0.7
 11
372.21879833925288
 21
264.81913616865239
 31
0.0
 73
     3
  0
TEXT
  5
10F
  8
DATA
 62
     7
 10
370.37421174839483
 20
258.7161111111111
 30
0.0
 40
2.7147352430555549
  1
A
 41
0.7
 11
370.37421174839483
 21
261.4308463541667
 31
0.0
 73
     3
  0
TEXT
  5
110
  8
DATA
 62
     7
 10
375.87295640038849
 20
258.7161111111111
 30
0.0
 40
2.7147352430555549
  1
B
 41
0.7
 11
375.87295640038849
 21
261.4308463541667
 31
0.0
 73
     3
  0
TEXT
  5
111
  8
DATA
 62
     7
 10
384.05546723184159
 20
255.9158101523897
 30
0.0
 40
2.1717881944444439
  1
OL
 41
0.7
 11
384.05546723184159
 21
258.08759834683411
 31
0.0
 73
     3
  0
TEXT
  5
112
  8
DATA
 62
     7
 10
369.48916431830401
 20
252.5931674494542
 30
0.0
 40
2.1717881944444439
  1
OL
 41
0.7
 11
369.48916431830401
 21
254.76495564389859
 31
0.0
 73
     3
  0
TEXT
  5
113
  8
DATA
 62
     7
 10
348.9241976908433
 20
261.2246369515828
 30
0.0
 40
2.7147352430555549
  1
control
 41
0.7
 11
348.9241976908433
 21
263.93937219463839
 31
0.0
 73
     3
  0
TEXT
  5
114
  8
DATA
 62
     7
 10
351.3715261647589
 20
231.22463695158291
 30
0.0
 40
2.7147352430555549
  1
push
 41
0.7
 11
351.3715261647589
 21
233.93937219463839
 31
0.0
 73
     3
  0
LINE
  5
115
  8
DATA
  6
CONTINUOUS
 62
     7
 10
275.0
 20
253.5
 30
0.0
 11
275.0
 21
233.5
 31
0.0
  0
LINE
  5
116
  8
DATA
  6
CONTINUOUS
 62
     7
 10
322.0
 20
253.5
 30
0.0
 11
322.0
 21
233.5
 31
0.0
  0
LINE
  5
117
  8
DATA
  6
CONTINUOUS
 62
     7
 10
275.0
 20
233.5
 30
0.0
 11
322.0
 21
233.5
 31
0.0
  0
LINE
  5
118
  8
DATA
  6
CONTINUOUS
 62
     7
 10
275.0
 20
253.5
 30
0.0
 11
322.0
 21
253.5
 31
0.0
  0
LINE
  5
119
  8
DATA
  6
CONTINUOUS
 62
     7
 10
258.0
 20
235.5
 30
0.0
 11
258.0
 21
253.5
 31
0.0
  0
LINE
  5
11A
  8
DATA
  6
CONTINUOUS
 62
     7
 10
265.0
 20
235.5
 30
0.0
 11
265.0
 21
253.5
 31
0.0
  0
LINE
  5
11B
  8
DATA
  6
CONTINUOUS
 62
     7
 10
265.0
 20
235.5
 30
0.0
 11
258.0
 21
235.5
 31
0.0
  0
LINE
  5
11C
  8
DATA
  6
CONTINUOUS
 62
     7
 10
265.0
 20
253.5
 30
0.0
 11
258.0
 21
253.5
 31
0.0
  0
TEXT
  5
11D
  8
DATA
 62
     7
 10
229.27850788539121
 20
258.4613029267482
 30
0.0
 40
5.4294704861111107
  1
SHURE
 41
0.7
 11
229.27850788539121
 21
263.89077341285929
 31
0.0
 73
     3
  0
TEXT
  5
11E
  8
DATA
 62
     7
 10
229.80054685308829
 20
252.90602637733031
 30
0.0
 40
3.5291558159722221
  1
ULXD4
 41
0.7
 11
229.80054685308829
 21
256.43518219330252
 31
0.0
 73
     3
  0
LINE
  5
11F
  8
DATA
  6
CONTINUOUS
 62
     7
 10
258.0
 20
233.56051761168351
 30
0.0
 11
258.0
 21
229.56051761168359
 31
0.0
  0
LINE
  5
120
  8
DATA
  6
CONTINUOUS
 62
     7
 10
265.0
 20
233.56051761168351
 30
0.0
 11
265.0
 21
229.56051761168359
 31
0.0
  0
LINE
  5
121
  8
DATA
  6
CONTINUOUS
 62
     7
 10
258.0
 20
233.56051761168351
 30
0.0
 11
265.0
 21
233.56051761168351
 31
0.0
  0
LINE
  5
122
  8
DATA
  6
CONTINUOUS
 62
     7
 10
258.0
 20
229.56051761168359
 30
0.0
 11
265.0
 21
229.56051761168359
 31
0.0
  0
TEXT
  5
123
  8
DATA
 62
     7
 10
258.63888888888891
 20
230.8904843672787
 30
0.0
 40
2.4694444444444441
  1
sync
 41
0.7
 11
258.63888888888891
 21
233.35992881172319
 31
0.0
 73
     3
  0
LINE
  5
124
  8
DATA
  6
CONTINUOUS
 62
     7
 10
341.0
 20
252.6242814583556
 30
0.0
 11
341.0
 21
247.1242814583556
 31
0.0
  0
LINE
  5
125
  8
DATA
  6
CONTINUOUS
 62
     7
 10
328.0
 20
252.6242814583556
 30
0.0
 11
341.0
 21
252.6242814583556
 31
0.0
  0
LINE
  5
126
  8
DATA
  6
CONTINUOUS
 62
     7
 10
328.0
 20
247.1242814583556
 30
0.0
 11
341.0
 21
247.1242814583556
 31
0.0
  0
LINE
  5
127
  8
DATA
  6
CONTINUOUS
 62
     7
 10
328.0
 20
252.6242814583556
 30
0.0
 11
328.0
 21
247.1242814583556
 31
0.0
  0
LINE
  5
128
  8
DATA
  6
CONTINUOUS
 62
     7
 10
341.0
 20
243.1242814583556
 30
0.0
 11
341.0
 21
237.6242814583556
 31
0.0
  0
LINE
  5
129
  8
DATA
  6
CONTINUOUS
 62
     7
 10
328.0
 20
243.1242814583556
 30
0.0
 11
341.0
 21
243.1242814583556
 31
0.0
  0
LINE
  5
12A
  8
DATA
  6
CONTINUOUS
 62
     7
 10
328.0
 20
237.6242814583556
 30
0.0
 11
341.0
 21
237.6242814583556
 31
0.0
  0
LINE
  5
12B
  8
DATA
  6
CONTINUOUS
 62
     7
 10
328.0
 20
243.1242814583556
 30
0.0
 11
328.0
 21
237.6242814583556
 31
0.0
  0
LINE
  5
12C
  8
DATA
  6
CONTINUOUS
 62
     7
 10
341.0
 20
233.6242814583556
 30
0.0
 11
341.0
 21
228.1242814583556
 31
0.0
  0
LINE
  5
12D
  8
DATA
  6
CONTINUOUS
 62
     7
 10
328.0
 20
233.6242814583556
 30
0.0
 11
341.0
 21
233.6242814583556
 31
0.0
  0
LINE
  5
12E
  8
DATA
  6
CONTINUOUS
 62
     7
 10
328.0
 20
228.1242814583556
 30
0.0
 11
341.0
 21
228.1242814583556
 31
0.0
  0
LINE
  5
12F
  8
DATA
  6
CONTINUOUS
 62
     7
 10
328.0
 20
233.6242814583556
 30
0.0
 11
328.0
 21
228.1242814583556
 31
0.0
  0
TEXT
  5
130
  8
DATA
 62
     7
 10
330.2000000000001
 20
248.44358419532171
 30
0.0
 40
2.7147352430555549
  1
ENTER
 41
0.7
 11
330.2000000000001
 21
251.1583194383773
 31
0.0
 73
     3
  0
TEXT
  5
131
  8
DATA
 62
     7
 10
330.2000000000001
 20
238.94358419532179
 30
0.0
 40
2.7147352430555549
  1
EXIT
 41
0.7
 11
330.2000000000001
 21
241.6583194383773
 31
0.0
 73
     3
  0
TEXT
  5
132
  8
DATA
 62
     7
 10
330.89607199917771
 20
229.5131913952394
 30
0.0
 40
2.7147352430555549
  1
SCAN
 41
0.7
 11
330.89607199917771
 21
232.227926638295
 31
0.0
 73
     3
  0
LINE
  5
133
  8
DATA
  6
CONTINUOUS
 62
     7
 10
346.0
 20
365.0
 30
0.0
 11
345.35000000000002
 21
375.0
 31
0.0
  0
LINE
  5
134
  8
DATA
  6
CONTINUOUS
 62
     7
 10
364.0
 20
365.0
 30
0.0
 11
364.64999999999998
 21
375.0
 31
0.0
  0
LINE
  5
135
  8
DATA
  6
CONTINUOUS
 62
     7
 10
346.0
 20
365.0
 30
0.0
 11
364.0
 21
365.0
 31
0.0
  0
LINE
  5
136
  8
DATA
  6
CONTINUOUS
 62
     7
 10
258.0
 20
374.69999999999999
 30
0.0
 11
258.0
 21
375.0
 31
0.0
  0
LINE
  5
137
  8
DATA
  6
CONTINUOUS
 62
     7
 10
265.0
 20
374.69999999999999
 30
0.0
 11
265.0
 21
375.0
 31
0.0
  0
LINE
  5
138
  8
DATA
  6
CONTINUOUS
 62
     7
 10
328.0
 20
374.69999999999999
 30
0.0
 11
328.0
 21
375.0
 31
0.0
  0
LINE
  5
139
  8
DATA
  6
CONTINUOUS
 62
     7
 10
341.0
 20
374.69999999999999
 30
0.0
 11
341.0
 21
375.0
 31
0.0
  0
LINE
  5
13A
  8
DATA
  6
CONTINUOUS
 62
     7
 10
391.19999999999999
 20
374.69999999999999
 30
0.0
 11
391.19999999999999
 21
375.0
 31
0.0
  0
LINE
  5
13B
  8
DATA
  6
CONTINUOUS
 62
     7
 10
398.0
 20
374.69999999999999
 30
0.0
 11
398.0
 21
375.0
 31
0.0
  0
LINE
  5
13C
  8
DATA
  6
CONTINUOUS
 62
     7
 10
391.19999999999999
 20
374.69999999999999
 30
0.0
 11
398.0
 21
374.69999999999999
 31
0.0
  0
LINE
  5
13D
  8
DATA
  6
CONTINUOUS
 62
     7
 10
328.0
 20
374.69999999999999
 30
0.0
 11
341.0
 21
374.69999999999999
 31
0.0
  0
LINE
  5
13E
  8
DATA
  6
CONTINUOUS
 62
     7
 10
258.0
 20
374.69999999999999
 30
0.0
 11
265.0
 21
374.69999999999999
 31
0.0
  0
LINE
  5
13F
  8
DATA
  6
CONTINUOUS
 62
     7
 10
239.3785255777305
 20
531.000672788065
 30
0.0
 11
252.3785255777305
 21
531.000672788065
 31
0.0
  0
LINE
  5
140
  8
DATA
  6
CONTINUOUS
 62
     7
 10
250.74953393597099
 20
532.74999999999989
 30
0.0
 11
250.74953393597099
 21
531.000672788065
 31
0.0
  0
LINE
  5
141
  8
DATA
  6
CONTINUOUS
 62
     7
 10
241.25046606414389
 20
532.74999999999989
 30
0.0
 11
241.25046606414389
 21
531.000672788065
 31
0.0
  0
LINE
  5
142
  8
DATA
  6
CONTINUOUS
 62
     7
 10
237.0
 20
526.0
 30
0.0
 11
255.0
 21
526.0
 31
0.0
  0
LINE
  5
143
  8
DATA
  6
CONTINUOUS
 62
     7
 10
237.0
 20
526.0
 30
0.0
 11
237.0
 21
525.0
 31
0.0
  0
LINE
  5
144
  8
DATA
  6
CONTINUOUS
 62
     7
 10
255.0
 20
526.0
 30
0.0
 11
255.0
 21
525.0
 31
0.0
  0
LINE
  5
145
  8
DATA
  6
CONTINUOUS
 62
     7
 10
239.3785255777305
 20
531.000672788065
 30
0.0
 11
239.3785255777305
 21
526.0
 31
0.0
  0
LINE
  5
146
  8
DATA
  6
CONTINUOUS
 62
     7
 10
252.3785255777305
 20
531.000672788065
 30
0.0
 11
252.3785255777305
 21
526.0
 31
0.0
  0
LINE
  5
147
  8
DATA
  6
CONTINUOUS
 62
     7
 10
271.30000000000001
 20
526.41956130312326
 30
0.0
 11
271.30000000000001
 21
531.0
 31
0.0
  0
LINE
  5
148
  8
DATA
  6
CONTINUOUS
 62
     7
 10
280.69999999999999
 20
531.0
 30
0.0
 11
280.69999999999999
 21
526.41956130312326
 31
0.0
  0
LINE
  5
149
  8
DATA
  6
CONTINUOUS
 62
     7
 10
269.0
 20
525.0
 30
0.0
 11
269.0
 21
526.41956130312326
 31
0.0
  0
LINE
  5
14A
  8
DATA
  6
CONTINUOUS
 62
     7
 10
283.0
 20
526.41956130312326
 30
0.0
 11
283.0
 21
525.0
 31
0.0
  0
LINE
  5
14B
  8
DATA
  6
CONTINUOUS
 62
     7
 10
269.0
 20
526.41956130312326
 30
0.0
 11
283.0
 21
526.41956130312326
 31
0.0
  0
LINE
  5
14C
  8
DATA
  6
CONTINUOUS
 62
     7
 10
271.30000000000001
 20
531.0
 30
0.0
 11
280.69999999999999
 21
531.0
 31
0.0
  0
ARC
  5
14D
  8
DATA
  6
CONTINUOUS
 62
     7
 10
318.0
 20
526.61146881525406
 30
0.0
 40
1.5
 50
0.0
 51
180.0
  0
LINE
  5
14E
  8
DATA
  6
CONTINUOUS
 62
     7
 10
316.5
 20
526.61146881525406
 30
0.0
 11
316.5
 21
525.0
 31
0.0
  0
LINE
  5
14F
  8
DATA
  6
CONTINUOUS
 62
     7
 10
319.5
 20
526.61146881525406
 30
0.0
 11
319.5
 21
525.0
 31
0.0
  0
LINE
  5
150
  8
DATA
  6
CONTINUOUS
 62
     7
 10
375.0
 20
526.26005436712296
 30
0.0
 11
375.0
 21
531.0
 31
0.0
  0
LINE
  5
151
  8
DATA
  6
CONTINUOUS
 62
     7
 10
383.0
 20
531.0
 30
0.0
 11
383.0
 21
526.26005436712296
 31
0.0
  0
LINE
  5
152
  8
DATA
  6
CONTINUOUS
 62
     7
 10
374.0
 20
525.0
 30
0.0
 11
374.0
 21
526.26005436712296
 31
0.0
  0
LINE
  5
153
  8
DATA
  6
CONTINUOUS
 62
     7
 10
384.0
 20
526.26005436712296
 30
0.0
 11
384.0
 21
525.0
 31
0.0
  0
LINE
  5
154
  8
DATA
  6
CONTINUOUS
 62
     7
 10
374.0
 20
526.26005436712296
 30
0.0
 11
384.0
 21
526.26005436712296
 31
0.0
  0
LINE
  5
155
  8
DATA
  6
CONTINUOUS
 62
     7
 10
375.0
 20
531.0
 30
0.0
 11
383.0
 21
531.0
 31
0.0
  0
LINE
  5
156
  8
DATA
  6
CONTINUOUS
 62
     7
 10
369.0
 20
525.0
 30
0.0
 11
369.0
 21
526.49999999999989
 31
0.0
  0
LINE
  5
157
  8
DATA
  6
CONTINUOUS
 62
     7
 10
353.0
 20
525.0
 30
0.0
 11
353.0
 21
526.49999999999989
 31
0.0
  0
LINE
  5
158
  8
DATA
  6
CONTINUOUS
 62
     7
 10
369.0
 20
526.49999999999989
 30
0.0
 11
353.0
 21
526.49999999999989
 31
0.0
  0
LINE
  5
159
  8
DATA
  6
CONTINUOUS
 62
     7
 10
241.25000000012761
 20
532.74999999999989
 30
0.0
 11
250.75000000012761
 21
532.74999999999989
 31
0.0
  0
LINE
  5
15A
  8
DATA
  6
CONTINUOUS
 62
     7
 10
239.00000000012761
 20
532.74999999999989
 30
0.0
 11
253.00000000012761
 21
532.74999999999989
 31
0.0
  0
LINE
  5
15B
  8
DATA
  6
CONTINUOUS
 62
     7
 10
239.00000000012761
 20
532.74999999999989
 30
0.0
 11
239.00000000012761
 21
534.75
 31
0.0
  0
LINE
  5
15C
  8
DATA
  6
CONTINUOUS
 62
     7
 10
239.00000000012761
 20
534.75
 30
0.0
 11
253.00000000012761
 21
534.75
 31
0.0
  0
LINE
  5
15D
  8
DATA
  6
CONTINUOUS
 62
     7
 10
253.00000000012761
 20
534.75
 30
0.0
 11
253.00000000012761
 21
532.74999999999989
 31
0.0
  0
LINE
  5
15E
  8
DATA
  6
CONTINUOUS
 62
     7
 10
240.50000000012761
 20
534.75
 30
0.0
 11
240.50000000012761
 21
540.74999999999989
 31
0.0
  0
LINE
  5
15F
  8
DATA
  6
CONTINUOUS
 62
     7
 10
251.50000000012761
 20
540.74999999999989
 30
0.0
 11
251.50000000012761
 21
534.75
 31
0.0
  0
LINE
  5
160
  8
DATA
  6
CONTINUOUS
 62
     7
 10
239.25000000012761
 20
540.74999999999989
 30
0.0
 11
252.75000000012761
 21
540.74999999999989
 31
0.0
  0
LINE
  5
161
  8
DATA
  6
CONTINUOUS
 62
     7
 10
238.75000000012761
 20
541.25
 30
0.0
 11
253.25000000012761
 21
541.25
 31
0.0
  0
LINE
  5
162
  8
DATA
  6
CONTINUOUS
 62
     7
 10
238.75000000012761
 20
541.25
 30
0.0
 11
238.75000000012761
 21
545.24999999999989
 31
0.0
  0
LINE
  5
163
  8
DATA
  6
CONTINUOUS
 62
     7
 10
238.75000000012761
 20
545.24999999999989
 30
0.0
 11
253.25000000012761
 21
545.24999999999989
 31
0.0
  0
LINE
  5
164
  8
DATA
  6
CONTINUOUS
 62
     7
 10
253.25000000012761
 20
545.24999999999989
 30
0.0
 11
253.25000000012761
 21
541.25
 31
0.0
  0
LINE
  5
165
  8
DATA
  6
CONTINUOUS
 62
     7
 10
240.25000000012761
 20
546.75
 30
0.0
 11
251.75000000012761
 21
546.75
 31
0.0
  0
LINE
  5
166
  8
DATA
  6
CONTINUOUS
 62
     7
 10
240.50000000012761
 20
546.75
 30
0.0
 11
240.50000000012761
 21
547.98752389487129
 31
0.0
  0
LINE
  5
167
  8
DATA
  6
CONTINUOUS
 62
     7
 10
251.50000000012761
 20
546.75
 30
0.0
 11
251.50000000012761
 21
547.98752389487129
 31
0.0
  0
ARC
  5
168
  8
DATA
  6
CONTINUOUS
 62
     7
 10
240.25000000012761
 20
545.24999999999989
 30
0.0
 40
1.5
 50
90.0
 51
180.0
  0
ARC
  5
169
  8
DATA
  6
CONTINUOUS
 62
     7
 10
251.75000000012761
 20
545.24999999999989
 30
0.0
 40
1.5
 50
0.0
 51
90.0
  0
ARC
  5
16A
  8
DATA
  6
CONTINUOUS
 62
     7
 10
239.25000000012761
 20
541.25
 30
0.0
 40
0.5
 50
180.0
 51
270.0
  0
ARC
  5
16B
  8
DATA
  6
CONTINUOUS
 62
     7
 10
252.75000000012761
 20
541.25
 30
0.0
 40
0.5
 50
270.0
 51
0.0
  0
LINE
  5
16C
  8
DATA
  6
CONTINUOUS
 62
     7
 10
239.25000000012761
 20
541.25
 30
0.0
 11
239.25000000012761
 21
545.24999999999989
 31
0.0
  0
LINE
  5
16D
  8
DATA
  6
CONTINUOUS
 62
     7
 10
239.75000000012761
 20
541.25
 30
0.0
 11
239.75000000012761
 21
545.24999999999989
 31
0.0
  0
LINE
  5
16E
  8
DATA
  6
CONTINUOUS
 62
     7
 10
240.25000000012761
 20
541.25
 30
0.0
 11
240.25000000012761
 21
545.24999999999989
 31
0.0
  0
LINE
  5
16F
  8
DATA
  6
CONTINUOUS
 62
     7
 10
240.75000000012761
 20
541.25
 30
0.0
 11
240.75000000012761
 21
545.24999999999989
 31
0.0
  0
LINE
  5
170
  8
DATA
  6
CONTINUOUS
 62
     7
 10
241.25000000012761
 20
541.25
 30
0.0
 11
241.25000000012761
 21
545.24999999999989
 31
0.0
  0
LINE
  5
171
  8
DATA
  6
CONTINUOUS
 62
     7
 10
241.75000000012761
 20
541.25
 30
0.0
 11
241.75000000012761
 21
545.24999999999989
 31
0.0
  0
LINE
  5
172
  8
DATA
  6
CONTINUOUS
 62
     7
 10
242.25000000012761
 20
541.25
 30
0.0
 11
242.25000000012761
 21
545.24999999999989
 31
0.0
  0
LINE
  5
173
  8
DATA
  6
CONTINUOUS
 62
     7
 10
242.75000000012761
 20
541.25
 30
0.0
 11
242.75000000012761
 21
545.24999999999989
 31
0.0
  0
LINE
  5
174
  8
DATA
  6
CONTINUOUS
 62
     7
 10
243.25000000012761
 20
541.25
 30
0.0
 11
243.25000000012761
 21
545.24999999999989
 31
0.0
  0
LINE
  5
175
  8
DATA
  6
CONTINUOUS
 62
     7
 10
243.75000000012761
 20
541.25
 30
0.0
 11
243.75000000012761
 21
545.24999999999989
 31
0.0
  0
LINE
  5
176
  8
DATA
  6
CONTINUOUS
 62
     7
 10
244.25000000012761
 20
541.25
 30
0.0
 11
244.25000000012761
 21
545.24999999999989
 31
0.0
  0
LINE
  5
177
  8
DATA
  6
CONTINUOUS
 62
     7
 10
244.75000000012761
 20
541.25
 30
0.0
 11
244.75000000012761
 21
545.24999999999989
 31
0.0
  0
LINE
  5
178
  8
DATA
  6
CONTINUOUS
 62
     7
 10
245.25000000012761
 20
541.25
 30
0.0
 11
245.25000000012761
 21
545.24999999999989
 31
0.0
  0
LINE
  5
179
  8
DATA
  6
CONTINUOUS
 62
     7
 10
245.75000000012761
 20
541.25
 30
0.0
 11
245.75000000012761
 21
545.24999999999989
 31
0.0
  0
LINE
  5
17A
  8
DATA
  6
CONTINUOUS
 62
     7
 10
246.25000000012761
 20
541.25
 30
0.0
 11
246.25000000012761
 21
545.24999999999989
 31
0.0
  0
LINE
  5
17B
  8
DATA
  6
CONTINUOUS
 62
     7
 10
246.75000000012761
 20
541.25
 30
0.0
 11
246.75000000012761
 21
545.24999999999989
 31
0.0
  0
LINE
  5
17C
  8
DATA
  6
CONTINUOUS
 62
     7
 10
247.25000000012761
 20
541.25
 30
0.0
 11
247.25000000012761
 21
545.24999999999989
 31
0.0
  0
LINE
  5
17D
  8
DATA
  6
CONTINUOUS
 62
     7
 10
247.75000000012761
 20
541.25
 30
0.0
 11
247.75000000012761
 21
545.24999999999989
 31
0.0
  0
LINE
  5
17E
  8
DATA
  6
CONTINUOUS
 62
     7
 10
248.25000000012761
 20
541.25
 30
0.0
 11
248.25000000012761
 21
545.24999999999989
 31
0.0
  0
LINE
  5
17F
  8
DATA
  6
CONTINUOUS
 62
     7
 10
248.75000000012761
 20
541.25
 30
0.0
 11
248.75000000012761
 21
545.24999999999989
 31
0.0
  0
LINE
  5
180
  8
DATA
  6
CONTINUOUS
 62
     7
 10
249.25000000012761
 20
541.25
 30
0.0
 11
249.25000000012761
 21
545.24999999999989
 31
0.0
  0
LINE
  5
181
  8
DATA
  6
CONTINUOUS
 62
     7
 10
249.75000000012761
 20
541.25
 30
0.0
 11
249.75000000012761
 21
545.24999999999989
 31
0.0
  0
LINE
  5
182
  8
DATA
  6
CONTINUOUS
 62
     7
 10
250.25000000012761
 20
541.25
 30
0.0
 11
250.25000000012761
 21
545.24999999999989
 31
0.0
  0
LINE
  5
183
  8
DATA
  6
CONTINUOUS
 62
     7
 10
250.75000000012761
 20
541.25
 30
0.0
 11
250.75000000012761
 21
545.24999999999989
 31
0.0
  0
LINE
  5
184
  8
DATA
  6
CONTINUOUS
 62
     7
 10
251.25000000012761
 20
541.25
 30
0.0
 11
251.25000000012761
 21
545.24999999999989
 31
0.0
  0
LINE
  5
185
  8
DATA
  6
CONTINUOUS
 62
     7
 10
251.75000000012761
 20
541.25
 30
0.0
 11
251.75000000012761
 21
545.24999999999989
 31
0.0
  0
LINE
  5
186
  8
DATA
  6
CONTINUOUS
 62
     7
 10
252.25000000012761
 20
541.25
 30
0.0
 11
252.25000000012761
 21
545.24999999999989
 31
0.0
  0
LINE
  5
187
  8
DATA
  6
CONTINUOUS
 62
     7
 10
252.75000000012761
 20
541.25
 30
0.0
 11
252.75000000012761
 21
545.24999999999989
 31
0.0
  0
LINE
  5
188
  8
DATA
  6
CONTINUOUS
 62
     7
 10
253.25000000012761
 20
541.25
 30
0.0
 11
253.25000000012761
 21
545.24999999999989
 31
0.0
  0
ARC
  5
189
  8
DATA
  6
CONTINUOUS
 62
     7
 10
246.00000000012761
 20
538.75
 30
0.0
 40
1.5000000000000331
 50
216.88254111414639
 51
120.5102374062361
  0
LINE
  5
18A
  8
DATA
  6
CONTINUOUS
 62
     7
 10
240.50000000012761
 20
538.75
 30
0.0
 11
245.23846153858599
 21
540.04230769230685
 31
0.0
  0
LINE
  5
18B
  8
DATA
  6
CONTINUOUS
 62
     7
 10
240.50000000012761
 20
536.67695377254688
 30
0.0
 11
244.80019863247799
 21
537.84973521773338
 31
0.0
  0
CIRCLE
  5
18C
  8
DATA
  6
CONTINUOUS
 62
     7
 10
246.00000000012761
 20
538.25
 30
0.0
 40
1.0
  0
LINE
  5
18D
  8
DATA
  6
CONTINUOUS
 62
     7
 10
222.15479194364551
 20
580.0
 30
0.0
 11
253.50000000012761
 21
580.0
 31
0.0
  0
LINE
  5
18E
  8
DATA
  6
CONTINUOUS
 62
     7
 10
222.15479194364551
 20
564.0
 30
0.0
 11
250.3000000000001
 21
564.0
 31
0.0
  0
POLYLINE
  5
18F
  8
DATA
  6
CONTINUOUS
 62
     7
 66
     1
 10
0.0
 20
0.0
 30
0.0
  0
VERTEX
  5
43E
  8
DATA
  6
CONTINUOUS
 62
     7
 10
253.50000000012761
 20
562.9875238948714
 30
0.0
  0
VERTEX
  5
43F
  8
DATA
  6
CONTINUOUS
 62
     7
 10
253.50000000012761
 20
547.98752389487129
 30
0.0
  0
VERTEX
  5
440
  8
DATA
  6
CONTINUOUS
 62
     7
 10
238.50000000012761
 20
547.98752389487129
 30
0.0
  0
VERTEX
  5
441
  8
DATA
  6
CONTINUOUS
 62
     7
 10
238.50000000012761
 20
562.9875238948714
 30
0.0
  0
SEQEND
  5
442
  8
DATA
  6
CONTINUOUS
 62
     7
  0
LINE
  5
196
  8
DATA
  6
CONTINUOUS
 62
     7
 10
238.50000000012761
 20
562.9875238948714
 30
0.0
 11
253.50000000012761
 21
562.9875238948714
 31
0.0
  0
LINE
  5
197
  8
DATA
  6
CONTINUOUS
 62
     7
 10
253.50000000012761
 20
569.24999999999989
 30
0.0
 11
253.50000000012761
 21
580.0
 31
0.0
  0
LINE
  5
198
  8
DATA
  6
CONTINUOUS
 62
     7
 10
241.1614669612153
 20
580.0
 30
0.0
 11
241.1614669612153
 21
564.0
 31
0.0
  0
LINE
  5
199
  8
DATA
  6
CONTINUOUS
 62
     7
 10
240.6614669612153
 20
580.0
 30
0.0
 11
240.6614669612153
 21
564.0
 31
0.0
  0
ARC
  5
19A
  8
DATA
  6
CONTINUOUS
 62
     7
 10
246.97012195081319
 20
569.6298780491868
 30
0.0
 40
6.5409184883449454
 50
300.60284589583762
 51
356.67054967423172
  0
POLYLINE
  5
19B
  8
DATA
  6
CONTINUOUS
 62
     7
 66
     1
 10
0.0
 20
0.0
 30
0.0
 70
     1
  0
VERTEX
  5
443
  8
DATA
  6
CONTINUOUS
 62
     7
 10
138.4992012861706
 20
575.49999999999989
 30
0.0
  0
VERTEX
  5
444
  8
DATA
  6
CONTINUOUS
 62
     7
 10
151.4992012861706
 20
575.49999999999989
 30
0.0
  0
VERTEX
  5
445
  8
DATA
  6
CONTINUOUS
 62
     7
 10
151.4992012861706
 20
568.5
 30
0.0
  0
VERTEX
  5
446
  8
DATA
  6
CONTINUOUS
 62
     7
 10
138.4992012861706
 20
568.5
 30
0.0
  0
SEQEND
  5
447
  8
DATA
  6
CONTINUOUS
 62
     7
  0
LINE
  5
1A2
  8
DATA
  6
CONTINUOUS
 62
     7
 10
192.43277392882641
 20
569.29999999999995
 30
0.0
 11
151.4992012861706
 21
569.29999999999995
 31
0.0
  0
LINE
  5
1A3
  8
DATA
  6
CONTINUOUS
 62
     7
 10
151.4992012861706
 20
574.70000000000005
 30
0.0
 11
192.43277392882641
 21
574.70000000000005
 31
0.0
  0
LINE
  5
1A4
  8
DATA
  6
CONTINUOUS
 62
     7
 10
218.1046173378781
 20
579.58560914709562
 30
0.0
 11
196.4829485345937
 21
575.11439085290431
 31
0.0
  0
ARC
  5
1A5
  8
DATA
  6
CONTINUOUS
 62
     7
 10
192.43277392882641
 20
594.70000000000005
 30
0.0
 40
20.0
 50
270.0
 51
281.68370122442201
  0
ARC
  5
1A6
  8
DATA
  6
CONTINUOUS
 62
     7
 10
222.15479194364551
 20
560.0
 30
0.0
 40
20.0
 50
90.0
 51
101.6837012244219
  0
LINE
  5
1A7
  8
DATA
  6
CONTINUOUS
 62
     7
 10
218.1046173378781
 20
564.41439085290426
 30
0.0
 11
196.4829485345937
 21
568.88560914709569
 31
0.0
  0
ARC
  5
1A8
  8
DATA
  6
CONTINUOUS
 62
     7
 10
192.43277392882641
 20
549.29999999999995
 30
0.0
 40
20.0
 50
78.316298775578034
 51
90.0
  0
ARC
  5
1A9
  8
DATA
  6
CONTINUOUS
 62
     7
 10
222.15479194364551
 20
584.0
 30
0.0
 40
20.0
 50
258.3162987755781
 51
270.0
  0
LINE
  5
1AA
  8
DATA
  6
CONTINUOUS
 62
     7
 10
241.3000000001276
 20
562.9875238948714
 30
0.0
 11
241.3000000001276
 21
564.0
 31
0.0
  0
LINE
  5
1AB
  8
DATA
  6
CONTINUOUS
 62
     7
 10
250.7000000001276
 20
562.9875238948714
 30
0.0
 11
250.7000000001276
 21
564.25664583678281
 31
0.0
  0
LINE
  5
1AC
  8
DATA
  6
CONTINUOUS
 62
     7
 10
409.99999999999977
 20
526.0
 30
0.0
 11
391.99999999999989
 21
526.0
 31
0.0
  0
LINE
  5
1AD
  8
DATA
  6
CONTINUOUS
 62
     7
 10
391.99999999999989
 20
526.0
 30
0.0
 11
391.99999999999989
 21
525.0
 31
0.0
  0
LINE
  5
1AE
  8
DATA
  6
CONTINUOUS
 62
     7
 10
225.0
 20
766.33366974542253
 30
0.0
 11
225.0
 21
728.45191728759755
 31
0.0
  0
LINE
  5
1AF
  8
DATA
  6
CONTINUOUS
 62
     7
 10
422.0
 20
766.33366974542253
 30
0.0
 11
408.0
 21
766.33366974542253
 31
0.0
  0
LINE
  5
1B0
  8
DATA
  6
CONTINUOUS
 62
     7
 10
239.0
 20
766.33366974542253
 30
0.0
 11
225.0
 21
766.33366974542253
 31
0.0
  0
LINE
  5
1B1
  8
DATA
  6
CONTINUOUS
 62
     7
 10
422.0
 20
728.45191728759755
 30
0.0
 11
422.0
 21
766.33366974542253
 31
0.0
  0
LINE
  5
1B2
  8
DATA
  6
CONTINUOUS
 62
     7
 10
238.86260403884469
 20
723.33366974542344
 30
0.0
 11
408.13739596115522
 21
723.33366974542344
 31
0.0
  0
LINE
  5
1B3
  8
DATA
  6
CONTINUOUS
 62
     7
 10
96.297400139120782
 20
538.63826393467048
 30
0.0
 11
88.840906466557158
 21
527.98928735891354
 31
0.0
  0
LINE
  5
1B4
  8
DATA
  6
CONTINUOUS
 62
     7
 10
102.0314644491437
 20
534.62322888021322
 30
0.0
 11
96.297400139120782
 21
538.63826393467048
 31
0.0
  0
LINE
  5
1B5
  8
DATA
  6
CONTINUOUS
 62
     7
 10
94.574970776580088
 20
523.97425230445629
 30
0.0
 11
102.0314644491437
 21
534.62322888021322
 31
0.0
  0
LINE
  5
1B6
  8
DATA
  6
CONTINUOUS
 62
     7
 10
88.840906466557158
 20
527.98928735891354
 30
0.0
 11
94.574970776580088
 21
523.97425230445629
 31
0.0
  0
LINE
  5
1B7
  8
DATA
  6
CONTINUOUS
 62
     7
 10
152.5896361006034
 20
617.63715108162182
 30
0.0
 11
96.952721774551947
 21
538.17940278558979
 31
0.0
  0
LINE
  5
1B8
  8
DATA
  6
CONTINUOUS
 62
     7
 10
101.37614281371251
 20
535.08209002929402
 30
0.0
 11
157.01305713976399
 21
614.53983832532617
 31
0.0
  0
LINE
  5
1B9
  8
DATA
  6
CONTINUOUS
 62
     7
 10
220.47616745536891
 20
721.21426334392606
 30
0.0
 11
159.8012341866241
 21
634.56147833695763
 31
0.0
  0
LINE
  5
1BA
  8
DATA
  6
CONTINUOUS
 62
     7
 10
170.450210762381
 20
627.10498466439401
 30
0.0
 11
231.12514403112581
 21
713.75776967136233
 31
0.0
  0
LINE
  5
1BB
  8
DATA
  6
CONTINUOUS
 62
     7
 10
159.8012341866241
 20
634.56147833695763
 30
0.0
 11
152.5896361006034
 21
617.63715108162182
 31
0.0
  0
LINE
  5
1BC
  8
DATA
  6
CONTINUOUS
 62
     7
 10
170.450210762381
 20
627.10498466439401
 30
0.0
 11
157.01305713976399
 21
614.53983832532617
 31
0.0
  0
LINE
  5
1BD
  8
DATA
  6
CONTINUOUS
 62
     7
 10
225.0
 20
728.47170328997481
 30
0.0
 11
224.9366391754929
 21
728.35723680856688
 31
0.0
  0
LINE
  5
1BE
  8
DATA
  6
CONTINUOUS
 62
     7
 10
238.824942527583
 20
723.27988353318403
 30
0.0
 11
236.31177230930169
 21
720.39228284013518
 31
0.0
  0
ARC
  5
1BF
  8
DATA
  6
CONTINUOUS
 62
     7
 10
154.9440039122494
 20
767.10037825200902
 30
0.0
 40
79.999999999999559
 50
325.00000000000063
 51
331.03408232418201
  0
ARC
  5
1C0
  8
DATA
  6
CONTINUOUS
 62
     7
 10
296.65730757424541
 20
667.87165476327925
 30
0.0
 40
79.999999999999787
 50
138.9659176758191
 51
145.0000000000004
  0
LINE
  5
1C1
  8
DATA
  6
CONTINUOUS
 62
     7
 10
238.824942527583
 20
723.27988353318403
 30
0.0
 11
238.86260403884469
 21
723.33366974542344
 31
0.0
  0
LINE
  5
1C2
  8
DATA
  6
CONTINUOUS
 62
     7
 10
422.0
 20
728.47170328997424
 30
0.0
 11
422.06336082450701
 21
728.35723680856688
 31
0.0
  0
LINE
  5
1C3
  8
DATA
  6
CONTINUOUS
 62
     7
 10
408.17505747241682
 20
723.27988353318403
 30
0.0
 11
408.13739596115522
 21
723.33366974542344
 31
0.0
  0
LINE
  5
1C4
  8
DATA
  6
CONTINUOUS
 62
     7
 10
408.13739596115522
 20
723.33366974542344
 30
0.0
 11
398.85855289009862
 21
723.33366974542344
 31
0.0
  0
LINE
  5
1C5
  8
DATA
  6
CONTINUOUS
 62
     7
 10
407.6214744222695
 20
531.000672788065
 30
0.0
 11
394.6214744222695
 21
531.000672788065
 31
0.0
  0
LINE
  5
1C6
  8
DATA
  6
CONTINUOUS
 62
     7
 10
396.25046606402901
 20
532.74999999999989
 30
0.0
 11
396.25046606402901
 21
531.000672788065
 31
0.0
  0
LINE
  5
1C7
  8
DATA
  6
CONTINUOUS
 62
     7
 10
405.74953393585611
 20
532.74999999999989
 30
0.0
 11
405.74953393585611
 21
531.000672788065
 31
0.0
  0
LINE
  5
1C8
  8
DATA
  6
CONTINUOUS
 62
     7
 10
410.0
 20
526.0
 30
0.0
 11
392.0
 21
526.0
 31
0.0
  0
LINE
  5
1C9
  8
DATA
  6
CONTINUOUS
 62
     7
 10
410.0
 20
526.0
 30
0.0
 11
410.0
 21
525.0
 31
0.0
  0
LINE
  5
1CA
  8
DATA
  6
CONTINUOUS
 62
     7
 10
392.0
 20
526.0
 30
0.0
 11
392.0
 21
525.0
 31
0.0
  0
LINE
  5
1CB
  8
DATA
  6
CONTINUOUS
 62
     7
 10
407.6214744222695
 20
531.000672788065
 30
0.0
 11
407.6214744222695
 21
526.0
 31
0.0
  0
LINE
  5
1CC
  8
DATA
  6
CONTINUOUS
 62
     7
 10
394.6214744222695
 20
531.000672788065
 30
0.0
 11
394.6214744222695
 21
526.0
 31
0.0
  0
LINE
  5
1CD
  8
DATA
  6
CONTINUOUS
 62
     7
 10
405.74999999987227
 20
532.74999999999989
 30
0.0
 11
396.24999999987239
 21
532.74999999999989
 31
0.0
  0
LINE
  5
1CE
  8
DATA
  6
CONTINUOUS
 62
     7
 10
407.99999999987227
 20
532.74999999999989
 30
0.0
 11
393.99999999987239
 21
532.74999999999989
 31
0.0
  0
LINE
  5
1CF
  8
DATA
  6
CONTINUOUS
 62
     7
 10
407.99999999987227
 20
532.74999999999989
 30
0.0
 11
407.99999999987227
 21
534.75
 31
0.0
  0
LINE
  5
1D0
  8
DATA
  6
CONTINUOUS
 62
     7
 10
407.99999999987227
 20
534.75
 30
0.0
 11
393.99999999987239
 21
534.75
 31
0.0
  0
LINE
  5
1D1
  8
DATA
  6
CONTINUOUS
 62
     7
 10
393.99999999987239
 20
534.75
 30
0.0
 11
393.99999999987239
 21
532.74999999999989
 31
0.0
  0
LINE
  5
1D2
  8
DATA
  6
CONTINUOUS
 62
     7
 10
406.49999999987239
 20
534.75
 30
0.0
 11
406.49999999987239
 21
540.74999999999989
 31
0.0
  0
LINE
  5
1D3
  8
DATA
  6
CONTINUOUS
 62
     7
 10
395.49999999987239
 20
540.74999999999989
 30
0.0
 11
395.49999999987239
 21
534.75
 31
0.0
  0
LINE
  5
1D4
  8
DATA
  6
CONTINUOUS
 62
     7
 10
407.74999999987239
 20
540.74999999999989
 30
0.0
 11
394.24999999987239
 21
540.74999999999989
 31
0.0
  0
LINE
  5
1D5
  8
DATA
  6
CONTINUOUS
 62
     7
 10
408.24999999987239
 20
541.25
 30
0.0
 11
393.74999999987239
 21
541.25
 31
0.0
  0
LINE
  5
1D6
  8
DATA
  6
CONTINUOUS
 62
     7
 10
408.24999999987239
 20
541.25
 30
0.0
 11
408.24999999987239
 21
545.24999999999989
 31
0.0
  0
LINE
  5
1D7
  8
DATA
  6
CONTINUOUS
 62
     7
 10
408.24999999987239
 20
545.24999999999989
 30
0.0
 11
393.74999999987239
 21
545.24999999999989
 31
0.0
  0
LINE
  5
1D8
  8
DATA
  6
CONTINUOUS
 62
     7
 10
393.74999999987239
 20
545.24999999999989
 30
0.0
 11
393.74999999987239
 21
541.25
 31
0.0
  0
LINE
  5
1D9
  8
DATA
  6
CONTINUOUS
 62
     7
 10
406.74999999987227
 20
546.75
 30
0.0
 11
395.24999999987239
 21
546.75
 31
0.0
  0
LINE
  5
1DA
  8
DATA
  6
CONTINUOUS
 62
     7
 10
406.49999999987239
 20
546.75
 30
0.0
 11
406.49999999987239
 21
547.98752389487129
 31
0.0
  0
LINE
  5
1DB
  8
DATA
  6
CONTINUOUS
 62
     7
 10
395.49999999987239
 20
546.75
 30
0.0
 11
395.49999999987239
 21
547.98752389487129
 31
0.0
  0
ARC
  5
1DC
  8
DATA
  6
CONTINUOUS
 62
     7
 10
406.74999999987227
 20
545.24999999999989
 30
0.0
 40
1.5
 50
0.0
 51
90.0
  0
ARC
  5
1DD
  8
DATA
  6
CONTINUOUS
 62
     7
 10
395.24999999987239
 20
545.24999999999989
 30
0.0
 40
1.5
 50
90.0
 51
180.0
  0
ARC
  5
1DE
  8
DATA
  6
CONTINUOUS
 62
     7
 10
407.74999999987239
 20
541.25
 30
0.0
 40
0.5
 50
270.0
 51
0.0
  0
ARC
  5
1DF
  8
DATA
  6
CONTINUOUS
 62
     7
 10
394.24999999987239
 20
541.25
 30
0.0
 40
0.5
 50
180.0
 51
270.0
  0
LINE
  5
1E0
  8
DATA
  6
CONTINUOUS
 62
     7
 10
407.74999999987239
 20
541.25
 30
0.0
 11
407.74999999987239
 21
545.24999999999989
 31
0.0
  0
LINE
  5
1E1
  8
DATA
  6
CONTINUOUS
 62
     7
 10
407.24999999987239
 20
541.25
 30
0.0
 11
407.24999999987239
 21
545.24999999999989
 31
0.0
  0
LINE
  5
1E2
  8
DATA
  6
CONTINUOUS
 62
     7
 10
406.74999999987227
 20
541.25
 30
0.0
 11
406.74999999987227
 21
545.24999999999989
 31
0.0
  0
LINE
  5
1E3
  8
DATA
  6
CONTINUOUS
 62
     7
 10
406.24999999987227
 20
541.25
 30
0.0
 11
406.24999999987227
 21
545.24999999999989
 31
0.0
  0
LINE
  5
1E4
  8
DATA
  6
CONTINUOUS
 62
     7
 10
405.74999999987227
 20
541.25
 30
0.0
 11
405.74999999987227
 21
545.24999999999989
 31
0.0
  0
LINE
  5
1E5
  8
DATA
  6
CONTINUOUS
 62
     7
 10
405.24999999987227
 20
541.25
 30
0.0
 11
405.24999999987227
 21
545.24999999999989
 31
0.0
  0
LINE
  5
1E6
  8
DATA
  6
CONTINUOUS
 62
     7
 10
404.74999999987239
 20
541.25
 30
0.0
 11
404.74999999987239
 21
545.24999999999989
 31
0.0
  0
LINE
  5
1E7
  8
DATA
  6
CONTINUOUS
 62
     7
 10
404.24999999987239
 20
541.25
 30
0.0
 11
404.24999999987239
 21
545.24999999999989
 31
0.0
  0
LINE
  5
1E8
  8
DATA
  6
CONTINUOUS
 62
     7
 10
403.74999999987239
 20
541.25
 30
0.0
 11
403.74999999987239
 21
545.24999999999989
 31
0.0
  0
LINE
  5
1E9
  8
DATA
  6
CONTINUOUS
 62
     7
 10
403.24999999987239
 20
541.25
 30
0.0
 11
403.24999999987239
 21
545.24999999999989
 31
0.0
  0
LINE
  5
1EA
  8
DATA
  6
CONTINUOUS
 62
     7
 10
402.74999999987227
 20
541.25
 30
0.0
 11
402.74999999987227
 21
545.24999999999989
 31
0.0
  0
LINE
  5
1EB
  8
DATA
  6
CONTINUOUS
 62
     7
 10
402.24999999987227
 20
541.25
 30
0.0
 11
402.24999999987227
 21
545.24999999999989
 31
0.0
  0
LINE
  5
1EC
  8
DATA
  6
CONTINUOUS
 62
     7
 10
401.74999999987227
 20
541.25
 30
0.0
 11
401.74999999987227
 21
545.24999999999989
 31
0.0
  0
LINE
  5
1ED
  8
DATA
  6
CONTINUOUS
 62
     7
 10
401.24999999987227
 20
541.25
 30
0.0
 11
401.24999999987227
 21
545.24999999999989
 31
0.0
  0
LINE
  5
1EE
  8
DATA
  6
CONTINUOUS
 62
     7
 10
400.74999999987227
 20
541.25
 30
0.0
 11
400.74999999987227
 21
545.24999999999989
 31
0.0
  0
LINE
  5
1EF
  8
DATA
  6
CONTINUOUS
 62
     7
 10
400.24999999987239
 20
541.25
 30
0.0
 11
400.24999999987239
 21
545.24999999999989
 31
0.0
  0
LINE
  5
1F0
  8
DATA
  6
CONTINUOUS
 62
     7
 10
399.74999999987239
 20
541.25
 30
0.0
 11
399.74999999987239
 21
545.24999999999989
 31
0.0
  0
LINE
  5
1F1
  8
DATA
  6
CONTINUOUS
 62
     7
 10
399.24999999987239
 20
541.25
 30
0.0
 11
399.24999999987239
 21
545.24999999999989
 31
0.0
  0
LINE
  5
1F2
  8
DATA
  6
CONTINUOUS
 62
     7
 10
398.74999999987239
 20
541.25
 30
0.0
 11
398.74999999987239
 21
545.24999999999989
 31
0.0
  0
LINE
  5
1F3
  8
DATA
  6
CONTINUOUS
 62
     7
 10
398.24999999987239
 20
541.25
 30
0.0
 11
398.24999999987239
 21
545.24999999999989
 31
0.0
  0
LINE
  5
1F4
  8
DATA
  6
CONTINUOUS
 62
     7
 10
397.74999999987239
 20
541.25
 30
0.0
 11
397.74999999987239
 21
545.24999999999989
 31
0.0
  0
LINE
  5
1F5
  8
DATA
  6
CONTINUOUS
 62
     7
 10
397.24999999987239
 20
541.25
 30
0.0
 11
397.24999999987239
 21
545.24999999999989
 31
0.0
  0
LINE
  5
1F6
  8
DATA
  6
CONTINUOUS
 62
     7
 10
396.74999999987239
 20
541.25
 30
0.0
 11
396.74999999987239
 21
545.24999999999989
 31
0.0
  0
LINE
  5
1F7
  8
DATA
  6
CONTINUOUS
 62
     7
 10
396.24999999987239
 20
541.25
 30
0.0
 11
396.24999999987239
 21
545.24999999999989
 31
0.0
  0
LINE
  5
1F8
  8
DATA
  6
CONTINUOUS
 62
     7
 10
395.74999999987239
 20
541.25
 30
0.0
 11
395.74999999987239
 21
545.24999999999989
 31
0.0
  0
LINE
  5
1F9
  8
DATA
  6
CONTINUOUS
 62
     7
 10
395.24999999987239
 20
541.25
 30
0.0
 11
395.24999999987239
 21
545.24999999999989
 31
0.0
  0
LINE
  5
1FA
  8
DATA
  6
CONTINUOUS
 62
     7
 10
394.74999999987239
 20
541.25
 30
0.0
 11
394.74999999987239
 21
545.24999999999989
 31
0.0
  0
LINE
  5
1FB
  8
DATA
  6
CONTINUOUS
 62
     7
 10
394.24999999987239
 20
541.25
 30
0.0
 11
394.24999999987239
 21
545.24999999999989
 31
0.0
  0
LINE
  5
1FC
  8
DATA
  6
CONTINUOUS
 62
     7
 10
393.74999999987239
 20
541.25
 30
0.0
 11
393.74999999987239
 21
545.24999999999989
 31
0.0
  0
ARC
  5
1FD
  8
DATA
  6
CONTINUOUS
 62
     7
 10
400.99999999987222
 20
538.75
 30
0.0
 40
1.5000000000000231
 50
59.489762593763878
 51
323.11745888585352
  0
LINE
  5
1FE
  8
DATA
  6
CONTINUOUS
 62
     7
 10
406.49999999987239
 20
538.75
 30
0.0
 11
401.76153846141398
 21
540.04230769230685
 31
0.0
  0
LINE
  5
1FF
  8
DATA
  6
CONTINUOUS
 62
     7
 10
406.49999999987239
 20
536.67695377254688
 30
0.0
 11
402.19980136752201
 21
537.84973521773338
 31
0.0
  0
CIRCLE
  5
200
  8
DATA
  6
CONTINUOUS
 62
     7
 10
400.99999999987239
 20
538.25
 30
0.0
 40
1.0
  0
LINE
  5
201
  8
DATA
  6
CONTINUOUS
 62
     7
 10
424.84520805635452
 20
580.0
 30
0.0
 11
393.49999999987239
 21
580.0
 31
0.0
  0
LINE
  5
202
  8
DATA
  6
CONTINUOUS
 62
     7
 10
424.84520805635452
 20
564.0
 30
0.0
 11
396.69999999999987
 21
564.0
 31
0.0
  0
POLYLINE
  5
203
  8
DATA
  6
CONTINUOUS
 62
     7
 66
     1
 10
0.0
 20
0.0
 30
0.0
  0
VERTEX
  5
448
  8
DATA
  6
CONTINUOUS
 62
     7
 10
393.49999999987239
 20
562.9875238948714
 30
0.0
  0
VERTEX
  5
449
  8
DATA
  6
CONTINUOUS
 62
     7
 10
393.49999999987239
 20
547.98752389487129
 30
0.0
  0
VERTEX
  5
44A
  8
DATA
  6
CONTINUOUS
 62
     7
 10
408.49999999987227
 20
547.98752389487129
 30
0.0
  0
VERTEX
  5
44B
  8
DATA
  6
CONTINUOUS
 62
     7
 10
408.49999999987227
 20
562.9875238948714
 30
0.0
  0
SEQEND
  5
44C
  8
DATA
  6
CONTINUOUS
 62
     7
  0
LINE
  5
20A
  8
DATA
  6
CONTINUOUS
 62
     7
 10
408.49999999987227
 20
562.9875238948714
 30
0.0
 11
393.49999999987239
 21
562.9875238948714
 31
0.0
  0
LINE
  5
20B
  8
DATA
  6
CONTINUOUS
 62
     7
 10
393.49999999987239
 20
569.24999999999989
 30
0.0
 11
393.49999999987239
 21
580.0
 31
0.0
  0
LINE
  5
20C
  8
DATA
  6
CONTINUOUS
 62
     7
 10
405.8385330387847
 20
580.0
 30
0.0
 11
405.8385330387847
 21
564.0
 31
0.0
  0
LINE
  5
20D
  8
DATA
  6
CONTINUOUS
 62
     7
 10
406.3385330387847
 20
580.0
 30
0.0
 11
406.3385330387847
 21
564.0
 31
0.0
  0
ARC
  5
20E
  8
DATA
  6
CONTINUOUS
 62
     7
 10
400.02987804918672
 20
569.6298780491868
 30
0.0
 40
6.5409184883449401
 50
183.32945032576811
 51
239.39715410416241
  0
POLYLINE
  5
20F
  8
DATA
  6
CONTINUOUS
 62
     7
 66
     1
 10
0.0
 20
0.0
 30
0.0
 70
     1
  0
VERTEX
  5
44D
  8
DATA
  6
CONTINUOUS
 62
     7
 10
495.50079871382928
 20
575.49999999999989
 30
0.0
  0
VERTEX
  5
44E
  8
DATA
  6
CONTINUOUS
 62
     7
 10
508.50079871382923
 20
575.49999999999989
 30
0.0
  0
VERTEX
  5
44F
  8
DATA
  6
CONTINUOUS
 62
     7
 10
508.50079871382923
 20
568.5
 30
0.0
  0
VERTEX
  5
450
  8
DATA
  6
CONTINUOUS
 62
     7
 10
495.50079871382928
 20
568.5
 30
0.0
  0
SEQEND
  5
451
  8
DATA
  6
CONTINUOUS
 62
     7
  0
LINE
  5
216
  8
DATA
  6
CONTINUOUS
 62
     7
 10
454.56722607117371
 20
569.29999999999995
 30
0.0
 11
495.50079871382928
 21
569.29999999999995
 31
0.0
  0
LINE
  5
217
  8
DATA
  6
CONTINUOUS
 62
     7
 10
495.50079871382928
 20
574.70000000000005
 30
0.0
 11
454.56722607117371
 21
574.70000000000005
 31
0.0
  0
LINE
  5
218
  8
DATA
  6
CONTINUOUS
 62
     7
 10
428.89538266212179
 20
579.58560914709562
 30
0.0
 11
450.51705146540633
 21
575.11439085290431
 31
0.0
  0
ARC
  5
219
  8
DATA
  6
CONTINUOUS
 62
     7
 10
454.56722607117371
 20
594.70000000000005
 30
0.0
 40
20.0
 50
258.31629877557799
 51
270.0
  0
ARC
  5
21A
  8
DATA
  6
CONTINUOUS
 62
     7
 10
424.84520805635452
 20
560.0
 30
0.0
 40
20.0
 50
78.316298775578105
 51
90.0
  0
LINE
  5
21B
  8
DATA
  6
CONTINUOUS
 62
     7
 10
428.89538266212179
 20
564.41439085290426
 30
0.0
 11
450.51705146540633
 21
568.88560914709569
 31
0.0
  0
ARC
  5
21C
  8
DATA
  6
CONTINUOUS
 62
     7
 10
454.56722607117371
 20
549.29999999999995
 30
0.0
 40
20.0
 50
90.0
 51
101.68370122442199
  0
ARC
  5
21D
  8
DATA
  6
CONTINUOUS
 62
     7
 10
424.84520805635452
 20
584.0
 30
0.0
 40
20.0
 50
270.0
 51
281.6837012244219
  0
LINE
  5
21E
  8
DATA
  6
CONTINUOUS
 62
     7
 10
405.69999999987238
 20
562.9875238948714
 30
0.0
 11
405.69999999987238
 21
564.0
 31
0.0
  0
LINE
  5
21F
  8
DATA
  6
CONTINUOUS
 62
     7
 10
396.29999999987228
 20
562.9875238948714
 30
0.0
 11
396.29999999987228
 21
564.25664583678281
 31
0.0
  0
LINE
  5
220
  8
DATA
  6
CONTINUOUS
 62
     7
 10
353.0
 20
744.33366974542344
 30
0.0
 11
353.0
 21
758.33366974542344
 31
0.0
  0
LINE
  5
221
  8
DATA
  6
CONTINUOUS
 62
     7
 10
369.0
 20
744.33366974542344
 30
0.0
 11
369.0
 21
758.33366974542344
 31
0.0
  0
CIRCLE
  5
222
  8
DATA
  6
CONTINUOUS
 62
     7
 10
276.0
 20
751.33366974542344
 30
0.0
 40
4.5999999999999934
  0
CIRCLE
  5
223
  8
DATA
  6
CONTINUOUS
 62
     7
 10
276.0
 20
751.33366974542344
 30
0.0
 40
7.0999999999999934
  0
POLYLINE
  5
224
  8
DATA
  6
CONTINUOUS
 62
     7
 66
     1
 10
0.0
 20
0.0
 30
0.0
 70
     1
  0
VERTEX
  5
452
  8
DATA
  6
CONTINUOUS
 62
     7
 10
276.0
 20
758.43366974542334
 30
0.0
  0
VERTEX
  5
453
  8
DATA
  6
CONTINUOUS
 62
     7
 10
269.85121963313043
 20
754.88366974542339
 30
0.0
  0
VERTEX
  5
454
  8
DATA
  6
CONTINUOUS
 62
     7
 10
269.85121963313043
 20
747.78366974542337
 30
0.0
  0
VERTEX
  5
455
  8
DATA
  6
CONTINUOUS
 62
     7
 10
276.0
 20
744.2336697454233
 30
0.0
  0
VERTEX
  5
456
  8
DATA
  6
CONTINUOUS
 62
     7
 10
282.14878036686952
 20
747.78366974542337
 30
0.0
  0
VERTEX
  5
457
  8
DATA
  6
CONTINUOUS
 62
     7
 10
282.14878036686952
 20
754.88366974542339
 30
0.0
  0
SEQEND
  5
458
  8
DATA
  6
CONTINUOUS
 62
     7
  0
LINE
  5
22D
  8
DATA
  6
CONTINUOUS
 62
     7
 10
422.0
 20
764.83366974542253
 30
0.0
 11
225.0
 21
764.83366974542253
 31
0.0
  0
LINE
  5
22E
  8
DATA
  6
CONTINUOUS
 62
     7
 10
239.0
 20
764.83366974542253
 30
0.0
 11
239.0
 21
766.33366974542253
 31
0.0
  0
LINE
  5
22F
  8
DATA
  6
CONTINUOUS
 62
     7
 10
408.0
 20
764.83366974542253
 30
0.0
 11
408.0
 21
766.33366974542253
 31
0.0
  0
LINE
  5
230
  8
DATA
  6
CONTINUOUS
 62
     7
 10
231.40000000000001
 20
764.83366974542253
 30
0.0
 11
231.40000000000001
 21
738.01547758700394
 31
0.0
  0
LINE
  5
231
  8
DATA
  6
CONTINUOUS
 62
     7
 10
415.60000000000002
 20
764.83366974542253
 30
0.0
 11
415.60000000000002
 21
738.01547758700394
 31
0.0
  0
LINE
  5
232
  8
DATA
  6
CONTINUOUS
 62
     7
 10
353.0
 20
744.33366974542344
 30
0.0
 11
369.0
 21
744.33366974542344
 31
0.0
  0
LINE
  5
233
  8
DATA
  6
CONTINUOUS
 62
     7
 10
353.0
 20
758.33366974542344
 30
0.0
 11
369.0
 21
758.33366974542344
 31
0.0
  0
CIRCLE
  5
234
  8
DATA
  6
CONTINUOUS
 62
     7
 10
379.0
 20
748.33366974542344
 30
0.0
 40
3.9499999999999988
  0
CIRCLE
  5
235
  8
DATA
  6
CONTINUOUS
 62
     7
 10
379.0
 20
748.33366974542344
 30
0.0
 40
0.75
  0
CIRCLE
  5
236
  8
DATA
  6
CONTINUOUS
 62
     7
 10
379.0
 20
748.33366974542344
 30
0.0
 40
5.2999999999999998
  0
POLYLINE
  5
237
  8
DATA
  6
CONTINUOUS
 62
     7
 66
     1
 10
0.0
 20
0.0
 30
0.0
 70
     1
  0
VERTEX
  5
459
  8
DATA
  6
CONTINUOUS
 62
     7
 10
373.69999999999999
 20
748.33366974542344
 30
0.0
  0
VERTEX
  5
45A
  8
DATA
  6
CONTINUOUS
 62
     7
 10
376.35000000000002
 20
743.74373510536577
 30
0.0
  0
VERTEX
  5
45B
  8
DATA
  6
CONTINUOUS
 62
     7
 10
381.64999999999998
 20
743.74373510536577
 30
0.0
  0
VERTEX
  5
45C
  8
DATA
  6
CONTINUOUS
 62
     7
 10
384.30000000000001
 20
748.33366974542344
 30
0.0
  0
VERTEX
  5
45D
  8
DATA
  6
CONTINUOUS
 62
     7
 10
381.64999999999998
 20
752.92360438548064
 30
0.0
  0
VERTEX
  5
45E
  8
DATA
  6
CONTINUOUS
 62
     7
 10
376.35000000000002
 20
752.92360438548064
 30
0.0
  0
SEQEND
  5
45F
  8
DATA
  6
CONTINUOUS
 62
     7
  0
CIRCLE
  5
240
  8
DATA
  6
CONTINUOUS
 62
     7
 10
300.0
 20
745.33366974542344
 30
0.0
 40
11.0
  0
CIRCLE
  5
241
  8
DATA
  6
CONTINUOUS
 62
     7
 10
300.0
 20
745.33366974542344
 30
0.0
 40
8.5
  0
CIRCLE
  5
242
  8
DATA
  6
CONTINUOUS
 62
     7
 10
300.0
 20
749.43366974542334
 30
0.0
 40
1.0
  0
CIRCLE
  5
243
  8
DATA
  6
CONTINUOUS
 62
     7
 10
295.89999999999992
 20
744.97512282285777
 30
0.0
 40
1.0
  0
CIRCLE
  5
244
  8
DATA
  6
CONTINUOUS
 62
     7
 10
304.10000000000002
 20
744.97512282285777
 30
0.0
 40
1.0
  0
CIRCLE
  5
245
  8
DATA
  6
CONTINUOUS
 62
     7
 10
290.10050506338831
 20
755.23316468203495
 30
0.0
 40
2.2999999999999958
  0
LINE
  5
246
  8
DATA
  6
CONTINUOUS
 62
     7
 10
291.51734038135379
 20
755.23316468203495
 30
0.0
 11
288.68366974542278
 21
755.23316468203495
 31
0.0
  0
LINE
  5
247
  8
DATA
  6
CONTINUOUS
 62
     7
 10
290.10050506338831
 20
753.81632936407073
 30
0.0
 11
290.10050506338831
 21
756.64999999999907
 31
0.0
  0
CIRCLE
  5
248
  8
DATA
  6
CONTINUOUS
 62
     7
 10
309.89949493661157
 20
735.43417480881169
 30
0.0
 40
2.2999999999999958
  0
LINE
  5
249
  8
DATA
  6
CONTINUOUS
 62
     7
 10
311.31633025457722
 20
735.43417480881169
 30
0.0
 11
308.48265961864632
 21
735.43417480881169
 31
0.0
  0
LINE
  5
24A
  8
DATA
  6
CONTINUOUS
 62
     7
 10
309.89949493661157
 20
734.01733949084735
 30
0.0
 11
309.89949493661157
 21
736.8510101267758
 31
0.0
  0
LINE
  5
24B
  8
DATA
  6
CONTINUOUS
 62
     7
 10
355.0
 20
754.63366974542339
 30
0.0
 11
358.76999999999998
 21
754.63366974542339
 31
0.0
  0
LINE
  5
24C
  8
DATA
  6
CONTINUOUS
 62
     7
 10
363.23000000000002
 20
754.63366974542339
 30
0.0
 11
367.0
 21
754.63366974542339
 31
0.0
  0
POLYLINE
  5
24D
  8
DATA
  6
CONTINUOUS
 62
     7
 66
     1
 10
0.0
 20
0.0
 30
0.0
  0
VERTEX
  5
460
  8
DATA
  6
CONTINUOUS
 62
     7
 10
358.76999999999998
 20
754.63366974542339
 30
0.0
  0
VERTEX
  5
461
  8
DATA
  6
CONTINUOUS
 62
     7
 10
358.76999999999998
 20
758.33366974542344
 30
0.0
  0
VERTEX
  5
462
  8
DATA
  6
CONTINUOUS
 62
     7
 10
363.23000000000002
 20
758.33366974542344
 30
0.0
  0
VERTEX
  5
463
  8
DATA
  6
CONTINUOUS
 62
     7
 10
363.23000000000002
 20
754.63366974542339
 30
0.0
  0
SEQEND
  5
464
  8
DATA
  6
CONTINUOUS
 62
     7
  0
LINE
  5
254
  8
DATA
  6
CONTINUOUS
 62
     7
 10
355.0
 20
746.93366974542346
 30
0.0
 11
367.0
 21
746.93366974542346
 31
0.0
  0
LINE
  5
255
  8
DATA
  6
CONTINUOUS
 62
     7
 10
355.0
 20
746.93366974542346
 30
0.0
 11
355.0
 21
754.63366974542339
 31
0.0
  0
LINE
  5
256
  8
DATA
  6
CONTINUOUS
 62
     7
 10
367.0
 20
746.93366974542346
 30
0.0
 11
367.0
 21
754.63366974542339
 31
0.0
  0
POLYLINE
  5
257
  8
DATA
  6
CONTINUOUS
 62
     7
 66
     1
 10
0.0
 20
0.0
 30
0.0
 70
     1
  0
VERTEX
  5
465
  8
DATA
  6
CONTINUOUS
 62
     7
 10
316.19
 20
756.78049260082241
 30
0.0
  0
VERTEX
  5
466
  8
DATA
  6
CONTINUOUS
 62
     7
 10
319.88999999999999
 20
756.78049260082241
 30
0.0
  0
VERTEX
  5
467
  8
DATA
  6
CONTINUOUS
 62
     7
 10
319.88999999999999
 20
750.28049260082241
 30
0.0
  0
VERTEX
  5
468
  8
DATA
  6
CONTINUOUS
 62
     7
 10
316.19
 20
750.28049260082241
 30
0.0
  0
SEQEND
  5
469
  8
DATA
  6
CONTINUOUS
 62
     7
  0
CIRCLE
  5
25E
  8
DATA
  6
CONTINUOUS
 62
     7
 10
318.04000000000002
 20
754.86213934158445
 30
0.0
 40
1.5
  0
LINE
  5
25F
  8
DATA
  6
CONTINUOUS
 62
     7
 10
242.37276745538671
 20
728.33366974542344
 30
0.0
 11
404.62723254461321
 21
728.33366974542344
 31
0.0
  0
LINE
  5
260
  8
DATA
  6
CONTINUOUS
 62
     7
 10
415.60000000000002
 20
758.83366974542253
 30
0.0
 11
231.40000000000001
 21
758.83366974542253
 31
0.0
  0
TEXT
  5
261
  8
DATA
 62
     7
 10
256.31875000012758
 20
763.10182938187666
 30
0.0
 40
3.5291558159722221
  1
antenna.A
 50
180.0
 41
0.7
 11
256.31875000012758
 21
759.57267356590444
 31
0.0
 73
     3
  0
TEXT
  5
262
  8
DATA
 62
     7
 10
411.31875000012758
 20
763.10182938187666
 30
0.0
 40
3.5291558159722221
  1
antenna.B
 50
180.0
 41
0.7
 11
411.31875000012758
 21
759.57267356590444
 31
0.0
 73
     3
  0
TEXT
  5
263
  8
DATA
 62
     7
 10
286.31971182792819
 20
763.10182938187666
 30
0.0
 40
3.5291558159722221
  1
inst/aux
 50
180.0
 41
0.7
 11
286.31971182792819
 21
759.57267356590444
 31
0.0
 73
     3
  0
TEXT
  5
264
  8
DATA
 62
     7
 10
309.2891948577232
 20
762.96685288052242
 30
0.0
 40
3.5291558159722221
  1
mic/line
 50
180.0
 41
0.7
 11
309.2891948577232
 21
759.43769706455021
 31
0.0
 73
     3
  0
LINE
  5
265
  8
DATA
  6
CONTINUOUS
 62
     7
 10
316.19
 20
753.5304926008223
 30
0.0
 11
313.78091951958493
 21
753.5304926008223
 31
0.0
  0
LINE
  5
266
  8
DATA
  6
CONTINUOUS
 62
     7
 10
311.0
 20
745.33366974542344
 30
0.0
 11
313.78091951958493
 21
745.33366974542344
 31
0.0
  0
LINE
  5
267
  8
DATA
  6
CONTINUOUS
 62
     7
 10
313.78091951958493
 20
753.5304926008223
 30
0.0
 11
313.78091951958493
 21
745.33366974542344
 31
0.0
  0
TEXT
  5
268
  8
DATA
 62
     7
 10
325.46177270397578
 20
756.30756833650219
 30
0.0
 40
2.1174934895833331
  1
mic
 50
180.0
 41
0.7
 11
325.46177270397578
 21
754.19007484691895
 31
0.0
 73
     3
  0
TEXT
  5
269
  8
DATA
 62
     7
 10
326.35205380009501
 20
752.54769693853314
 30
0.0
 40
2.1174934895833331
  1
line
 50
180.0
 41
0.7
 11
326.35205380009501
 21
750.43020344894978
 31
0.0
 73
     3
  0
TEXT
  5
26A
  8
DATA
 62
     7
 10
384.67710694774718
 20
762.5808117256546
 30
0.0
 40
3.5291558159722221
  1
power
 50
180.0
 41
0.7
 11
384.67710694774718
 21
759.05165590968238
 31
0.0
 73
     3
  0
TEXT
  5
26B
  8
DATA
 62
     7
 10
385.79584209522119
 20
756.68686082630211
 30
0.0
 40
1.5245953124999989
  1
15V 0.6A
 50
180.0
 41
0.7
 11
385.79584209522119
 21
755.16226551380214
 31
0.0
 73
     3
  0
CIRCLE
  5
26C
  8
DATA
  6
CONTINUOUS
 62
     7
 10
374.24151808694631
 20
755.93048338576352
 30
0.0
 40
0.5999999999999944
  0
ARC
  5
26D
  8
DATA
  6
CONTINUOUS
 62
     7
 10
374.24151808694631
 20
755.93048338576352
 30
0.0
 40
1.125
 50
270.0
 51
90.0
  0
LINE
  5
26E
  8
DATA
  6
CONTINUOUS
 62
     7
 10
375.36651808694631
 20
755.93048338576352
 30
0.0
 11
376.02651808694628
 21
755.93048338576352
 31
0.0
  0
LINE
  5
26F
  8
DATA
  6
CONTINUOUS
 62
     7
 10
373.64151808694629
 20
755.93048338576352
 30
0.0
 11
373.13901808694618
 21
755.93048338576352
 31
0.0
  0
LINE
  5
270
  8
DATA
  6
CONTINUOUS
 62
     7
 10
372.92178286618213
 20
755.93048338576352
 30
0.0
 11
372.1732330234733
 21
755.93048338576352
 31
0.0
  0
LINE
  5
271
  8
DATA
  6
CONTINUOUS
 62
     7
 10
372.54750794482771
 20
756.30475830712896
 30
0.0
 11
372.54750794482771
 21
755.55620846439786
 31
0.0
  0
LINE
  5
272
  8
DATA
  6
CONTINUOUS
 62
     7
 10
377.19745494649732
 20
755.93048338576352
 30
0.0
 11
376.4489051037886
 21
755.93048338576352
 31
0.0
  0
LINE
  5
273
  8
DATA
  6
CONTINUOUS
 62
     7
 10
224.9366391754929
 20
728.35723680856688
 30
0.0
 11
244.8406998459717
 21
758.10000000000002
 31
0.0
  0
LINE
  5
274
  8
DATA
  6
CONTINUOUS
 62
     7
 10
238.6494392128993
 20
723.02988353318403
 30
0.0
 11
257.37881758470797
 21
749.70940580539946
 31
0.0
  0
LINE
  5
275
  8
DATA
  6
CONTINUOUS
 62
     7
 10
244.8406998459717
 20
758.10000000000002
 30
0.0
 11
257.37881758470797
 21
749.70940580539946
 31
0.0
  0
LINE
  5
276
  8
DATA
  6
CONTINUOUS
 62
     7
 10
233.22555385457321
 20
740.74341420700785
 30
0.0
 11
245.18880961292649
 21
732.34505004700702
 31
0.0
  0
LINE
  5
277
  8
DATA
  6
CONTINUOUS
 62
     7
 10
512.5
 20
766.33366974542253
 30
0.0
 11
512.5
 21
723.33366974542344
 31
0.0
  0
LINE
  5
278
  8
DATA
  6
CONTINUOUS
 62
     7
 10
709.49999999999989
 20
766.33366974542253
 30
0.0
 11
695.5
 21
766.33366974542253
 31
0.0
  0
LINE
  5
279
  8
DATA
  6
CONTINUOUS
 62
     7
 10
526.49999999999989
 20
766.33366974542253
 30
0.0
 11
512.5
 21
766.33366974542253
 31
0.0
  0
LINE
  5
27A
  8
DATA
  6
CONTINUOUS
 62
     7
 10
709.49999999999989
 20
723.33366974542344
 30
0.0
 11
709.49999999999989
 21
766.33366974542253
 31
0.0
  0
LINE
  5
27B
  8
DATA
  6
CONTINUOUS
 62
     7
 10
512.5
 20
723.33366974542344
 30
0.0
 11
709.49999999999989
 21
723.33366974542344
 31
0.0
  0
LINE
  5
27C
  8
DATA
  6
CONTINUOUS
 62
     7
 10
512.5
 20
728.47170328997481
 30
0.0
 11
512.43663917549281
 21
728.35723680856688
 31
0.0
  0
LINE
  5
27D
  8
DATA
  6
CONTINUOUS
 62
     7
 10
526.32494252758306
 20
723.27988353318403
 30
0.0
 11
526.36260403884467
 21
723.33366974542344
 31
0.0
  0
LINE
  5
27E
  8
DATA
  6
CONTINUOUS
 62
     7
 10
709.49999999999989
 20
728.47170328997424
 30
0.0
 11
709.56336082450719
 21
728.35723680856688
 31
0.0
  0
LINE
  5
27F
  8
DATA
  6
CONTINUOUS
 62
     7
 10
695.67505747241671
 20
723.27988353318403
 30
0.0
 11
695.63739596115511
 21
723.33366974542344
 31
0.0
  0
LINE
  5
280
  8
DATA
  6
CONTINUOUS
 62
     7
 10
708.35855289009862
 20
723.33366974542344
 30
0.0
 11
686.35855289009839
 21
723.33366974542344
 31
0.0
  0
LINE
  5
281
  8
DATA
  6
CONTINUOUS
 62
     7
 10
640.5
 20
744.33366974542344
 30
0.0
 11
640.5
 21
758.33366974542344
 31
0.0
  0
LINE
  5
282
  8
DATA
  6
CONTINUOUS
 62
     7
 10
656.5
 20
744.33366974542344
 30
0.0
 11
656.5
 21
758.33366974542344
 31
0.0
  0
CIRCLE
  5
283
  8
DATA
  6
CONTINUOUS
 62
     7
 10
563.49999999999989
 20
751.33366974542344
 30
0.0
 40
4.5999999999999934
  0
CIRCLE
  5
284
  8
DATA
  6
CONTINUOUS
 62
     7
 10
563.49999999999989
 20
751.33366974542344
 30
0.0
 40
7.0999999999999934
  0
POLYLINE
  5
285
  8
DATA
  6
CONTINUOUS
 62
     7
 66
     1
 10
0.0
 20
0.0
 30
0.0
 70
     1
  0
VERTEX
  5
46A
  8
DATA
  6
CONTINUOUS
 62
     7
 10
563.49999999999989
 20
758.43366974542334
 30
0.0
  0
VERTEX
  5
46B
  8
DATA
  6
CONTINUOUS
 62
     7
 10
557.35121963313054
 20
754.88366974542339
 30
0.0
  0
VERTEX
  5
46C
  8
DATA
  6
CONTINUOUS
 62
     7
 10
557.35121963313054
 20
747.78366974542337
 30
0.0
  0
VERTEX
  5
46D
  8
DATA
  6
CONTINUOUS
 62
     7
 10
563.49999999999989
 20
744.2336697454233
 30
0.0
  0
VERTEX
  5
46E
  8
DATA
  6
CONTINUOUS
 62
     7
 10
569.64878036686935
 20
747.78366974542337
 30
0.0
  0
VERTEX
  5
46F
  8
DATA
  6
CONTINUOUS
 62
     7
 10
569.64878036686935
 20
754.88366974542339
 30
0.0
  0
SEQEND
  5
470
  8
DATA
  6
CONTINUOUS
 62
     7
  0
LINE
  5
28E
  8
DATA
  6
CONTINUOUS
 62
     7
 10
709.49999999999989
 20
764.83366974542253
 30
0.0
 11
512.5
 21
764.83366974542253
 31
0.0
  0
LINE
  5
28F
  8
DATA
  6
CONTINUOUS
 62
     7
 10
526.49999999999989
 20
764.83366974542253
 30
0.0
 11
526.49999999999989
 21
766.33366974542253
 31
0.0
  0
LINE
  5
290
  8
DATA
  6
CONTINUOUS
 62
     7
 10
695.5
 20
764.83366974542253
 30
0.0
 11
695.5
 21
766.33366974542253
 31
0.0
  0
LINE
  5
291
  8
DATA
  6
CONTINUOUS
 62
     7
 10
518.89999999999998
 20
764.83366974542253
 30
0.0
 11
518.89999999999998
 21
725.83366974542344
 31
0.0
  0
LINE
  5
292
  8
DATA
  6
CONTINUOUS
 62
     7
 10
703.10000000000002
 20
764.83366974542253
 30
0.0
 11
703.10000000000002
 21
725.83366974542344
 31
0.0
  0
LINE
  5
293
  8
DATA
  6
CONTINUOUS
 62
     7
 10
523.0
 20
723.33366974542344
 30
0.0
 11
523.0
 21
725.83366974542344
 31
0.0
  0
LINE
  5
294
  8
DATA
  6
CONTINUOUS
 62
     7
 10
699.0
 20
723.33366974542344
 30
0.0
 11
699.0
 21
725.83366974542344
 31
0.0
  0
LINE
  5
295
  8
DATA
  6
CONTINUOUS
 62
     7
 10
709.49999999999989
 20
725.83366974542344
 30
0.0
 11
699.0
 21
725.83366974542344
 31
0.0
  0
LINE
  5
296
  8
DATA
  6
CONTINUOUS
 62
     7
 10
523.0
 20
725.83366974542344
 30
0.0
 11
512.5
 21
725.83366974542344
 31
0.0
  0
LINE
  5
297
  8
DATA
  6
CONTINUOUS
 62
     7
 10
640.5
 20
744.33366974542344
 30
0.0
 11
656.5
 21
744.33366974542344
 31
0.0
  0
LINE
  5
298
  8
DATA
  6
CONTINUOUS
 62
     7
 10
640.5
 20
758.33366974542344
 30
0.0
 11
656.5
 21
758.33366974542344
 31
0.0
  0
CIRCLE
  5
299
  8
DATA
  6
CONTINUOUS
 62
     7
 10
666.5
 20
748.33366974542344
 30
0.0
 40
3.9499999999999882
  0
CIRCLE
  5
29A
  8
DATA
  6
CONTINUOUS
 62
     7
 10
666.5
 20
748.33366974542344
 30
0.0
 40
0.75
  0
CIRCLE
  5
29B
  8
DATA
  6
CONTINUOUS
 62
     7
 10
666.5
 20
748.33366974542344
 30
0.0
 40
5.3000000000000114
  0
POLYLINE
  5
29C
  8
DATA
  6
CONTINUOUS
 62
     7
 66
     1
 10
0.0
 20
0.0
 30
0.0
 70
     1
  0
VERTEX
  5
471
  8
DATA
  6
CONTINUOUS
 62
     7
 10
661.20000000000005
 20
748.33366974542344
 30
0.0
  0
VERTEX
  5
472
  8
DATA
  6
CONTINUOUS
 62
     7
 10
663.85000000000002
 20
743.74373510536577
 30
0.0
  0
VERTEX
  5
473
  8
DATA
  6
CONTINUOUS
 62
     7
 10
669.14999999999986
 20
743.74373510536577
 30
0.0
  0
VERTEX
  5
474
  8
DATA
  6
CONTINUOUS
 62
     7
 10
671.79999999999995
 20
748.33366974542344
 30
0.0
  0
VERTEX
  5
475
  8
DATA
  6
CONTINUOUS
 62
     7
 10
669.14999999999986
 20
752.92360438548064
 30
0.0
  0
VERTEX
  5
476
  8
DATA
  6
CONTINUOUS
 62
     7
 10
663.84999999999968
 20
752.92360438548064
 30
0.0
  0
SEQEND
  5
477
  8
DATA
  6
CONTINUOUS
 62
     7
  0
CIRCLE
  5
2A5
  8
DATA
  6
CONTINUOUS
 62
     7
 10
587.5
 20
745.33366974542344
 30
0.0
 40
11.0
  0
CIRCLE
  5
2A6
  8
DATA
  6
CONTINUOUS
 62
     7
 10
587.5
 20
745.33366974542344
 30
0.0
 40
8.5
  0
CIRCLE
  5
2A7
  8
DATA
  6
CONTINUOUS
 62
     7
 10
587.5
 20
749.43366974542334
 30
0.0
 40
1.0
  0
CIRCLE
  5
2A8
  8
DATA
  6
CONTINUOUS
 62
     7
 10
583.39999999999986
 20
744.97512282285777
 30
0.0
 40
1.0
  0
CIRCLE
  5
2A9
  8
DATA
  6
CONTINUOUS
 62
     7
 10
591.60000000000002
 20
744.97512282285777
 30
0.0
 40
1.0
  0
CIRCLE
  5
2AA
  8
DATA
  6
CONTINUOUS
 62
     7
 10
577.60050506338825
 20
755.23316468203495
 30
0.0
 40
2.3000000000000109
  0
LINE
  5
2AB
  8
DATA
  6
CONTINUOUS
 62
     7
 10
579.01734038135362
 20
755.23316468203495
 30
0.0
 11
576.18366974542289
 21
755.23316468203495
 31
0.0
  0
LINE
  5
2AC
  8
DATA
  6
CONTINUOUS
 62
     7
 10
577.60050506338825
 20
753.81632936407073
 30
0.0
 11
577.60050506338825
 21
756.64999999999907
 31
0.0
  0
CIRCLE
  5
2AD
  8
DATA
  6
CONTINUOUS
 62
     7
 10
597.39949493661163
 20
735.43417480881169
 30
0.0
 40
2.2999999999999821
  0
LINE
  5
2AE
  8
DATA
  6
CONTINUOUS
 62
     7
 10
598.81633025457711
 20
735.43417480881169
 30
0.0
 11
595.98265961864638
 21
735.43417480881169
 31
0.0
  0
LINE
  5
2AF
  8
DATA
  6
CONTINUOUS
 62
     7
 10
597.39949493661163
 20
734.01733949084735
 30
0.0
 11
597.39949493661163
 21
736.8510101267758
 31
0.0
  0
LINE
  5
2B0
  8
DATA
  6
CONTINUOUS
 62
     7
 10
642.49999999999989
 20
754.63366974542339
 30
0.0
 11
646.26999999999987
 21
754.63366974542339
 31
0.0
  0
LINE
  5
2B1
  8
DATA
  6
CONTINUOUS
 62
     7
 10
650.73000000000002
 20
754.63366974542339
 30
0.0
 11
654.49999999999989
 21
754.63366974542339
 31
0.0
  0
POLYLINE
  5
2B2
  8
DATA
  6
CONTINUOUS
 62
     7
 66
     1
 10
0.0
 20
0.0
 30
0.0
  0
VERTEX
  5
478
  8
DATA
  6
CONTINUOUS
 62
     7
 10
646.26999999999987
 20
754.63366974542339
 30
0.0
  0
VERTEX
  5
479
  8
DATA
  6
CONTINUOUS
 62
     7
 10
646.26999999999987
 20
758.33366974542344
 30
0.0
  0
VERTEX
  5
47A
  8
DATA
  6
CONTINUOUS
 62
     7
 10
650.73000000000002
 20
758.33366974542344
 30
0.0
  0
VERTEX
  5
47B
  8
DATA
  6
CONTINUOUS
 62
     7
 10
650.73000000000002
 20
754.63366974542339
 30
0.0
  0
SEQEND
  5
47C
  8
DATA
  6
CONTINUOUS
 62
     7
  0
LINE
  5
2B9
  8
DATA
  6
CONTINUOUS
 62
     7
 10
642.49999999999989
 20
746.93366974542346
 30
0.0
 11
654.49999999999989
 21
746.93366974542346
 31
0.0
  0
LINE
  5
2BA
  8
DATA
  6
CONTINUOUS
 62
     7
 10
642.49999999999989
 20
746.93366974542346
 30
0.0
 11
642.49999999999989
 21
754.63366974542339
 31
0.0
  0
LINE
  5
2BB
  8
DATA
  6
CONTINUOUS
 62
     7
 10
654.49999999999989
 20
746.93366974542346
 30
0.0
 11
654.49999999999989
 21
754.63366974542339
 31
0.0
  0
POLYLINE
  5
2BC
  8
DATA
  6
CONTINUOUS
 62
     7
 66
     1
 10
0.0
 20
0.0
 30
0.0
 70
     1
  0
VERTEX
  5
47D
  8
DATA
  6
CONTINUOUS
 62
     7
 10
603.69000000000005
 20
756.78049260082241
 30
0.0
  0
VERTEX
  5
47E
  8
DATA
  6
CONTINUOUS
 62
     7
 10
607.38999999999999
 20
756.78049260082241
 30
0.0
  0
VERTEX
  5
47F
  8
DATA
  6
CONTINUOUS
 62
     7
 10
607.38999999999999
 20
750.28049260082241
 30
0.0
  0
VERTEX
  5
480
  8
DATA
  6
CONTINUOUS
 62
     7
 10
603.69000000000005
 20
750.28049260082241
 30
0.0
  0
SEQEND
  5
481
  8
DATA
  6
CONTINUOUS
 62
     7
  0
CIRCLE
  5
2C3
  8
DATA
  6
CONTINUOUS
 62
     7
 10
605.53999999999985
 20
754.86213934158445
 30
0.0
 40
1.5
  0
LINE
  5
2C4
  8
DATA
  6
CONTINUOUS
 62
     7
 10
518.89999999999998
 20
728.33366974542344
 30
0.0
 11
703.09999999999968
 21
728.33366974542344
 31
0.0
  0
LINE
  5
2C5
  8
DATA
  6
CONTINUOUS
 62
     7
 10
703.10000000000002
 20
758.83366974542253
 30
0.0
 11
518.89999999999998
 21
758.83366974542253
 31
0.0
  0
TEXT
  5
2C6
  8
DATA
 62
     7
 10
543.81875000012758
 20
763.10182938187666
 30
0.0
 40
3.5291558159722221
  1
antenna.A
 50
180.0
 41
0.7
 11
543.81875000012758
 21
759.57267356590444
 31
0.0
 73
     3
  0
TEXT
  5
2C7
  8
DATA
 62
     7
 10
698.81875000012747
 20
763.10182938187666
 30
0.0
 40
3.5291558159722221
  1
antenna.B
 50
180.0
 41
0.7
 11
698.81875000012747
 21
759.57267356590444
 31
0.0
 73
     3
  0
TEXT
  5
2C8
  8
DATA
 62
     7
 10
573.81971182792813
 20
763.10182938187666
 30
0.0
 40
3.5291558159722221
  1
inst/aux
 50
180.0
 41
0.7
 11
573.81971182792813
 21
759.57267356590444
 31
0.0
 73
     3
  0
TEXT
  5
2C9
  8
DATA
 62
     7
 10
596.78919485772315
 20
762.96685288052242
 30
0.0
 40
3.5291558159722221
  1
mic/line
 50
180.0
 41
0.7
 11
596.78919485772315
 21
759.43769706455021
 31
0.0
 73
     3
  0
LINE
  5
2CA
  8
DATA
  6
CONTINUOUS
 62
     7
 10
603.69000000000005
 20
753.5304926008223
 30
0.0
 11
601.28091951958493
 21
753.5304926008223
 31
0.0
  0
LINE
  5
2CB
  8
DATA
  6
CONTINUOUS
 62
     7
 10
598.5
 20
745.33366974542344
 30
0.0
 11
601.28091951958493
 21
745.33366974542344
 31
0.0
  0
LINE
  5
2CC
  8
DATA
  6
CONTINUOUS
 62
     7
 10
601.28091951958493
 20
753.5304926008223
 30
0.0
 11
601.28091951958493
 21
745.33366974542344
 31
0.0
  0
TEXT
  5
2CD
  8
DATA
 62
     7
 10
612.96177270397595
 20
756.30756833650219
 30
0.0
 40
2.1174934895833331
  1
mic
 50
180.0
 41
0.7
 11
612.96177270397595
 21
754.19007484691895
 31
0.0
 73
     3
  0
TEXT
  5
2CE
  8
DATA
 62
     7
 10
613.85205380009495
 20
752.54769693853314
 30
0.0
 40
2.1174934895833331
  1
line
 50
180.0
 41
0.7
 11
613.85205380009495
 21
750.43020344894978
 31
0.0
 73
     3
  0
TEXT
  5
2CF
  8
DATA
 62
     7
 10
672.17710694774723
 20
762.5808117256546
 30
0.0
 40
3.5291558159722221
  1
power
 50
180.0
 41
0.7
 11
672.17710694774723
 21
759.05165590968238
 31
0.0
 73
     3
  0
TEXT
  5
2D0
  8
DATA
 62
     7
 10
673.29584209522113
 20
756.68686082630211
 30
0.0
 40
1.5245953124999989
  1
15V 0.6A
 50
180.0
 41
0.7
 11
673.29584209522113
 21
755.16226551380214
 31
0.0
 73
     3
  0
CIRCLE
  5
2D1
  8
DATA
  6
CONTINUOUS
 62
     7
 10
661.74151808694626
 20
755.93048338576352
 30
0.0
 40
0.5999999999999659
  0
ARC
  5
2D2
  8
DATA
  6
CONTINUOUS
 62
     7
 10
661.74151808694626
 20
755.93048338576352
 30
0.0
 40
1.125
 50
270.0
 51
90.0
  0
LINE
  5
2D3
  8
DATA
  6
CONTINUOUS
 62
     7
 10
662.86651808694637
 20
755.93048338576352
 30
0.0
 11
663.52651808694623
 21
755.93048338576352
 31
0.0
  0
LINE
  5
2D4
  8
DATA
  6
CONTINUOUS
 62
     7
 10
661.14151808694623
 20
755.93048338576352
 30
0.0
 11
660.63901808694595
 21
755.93048338576352
 31
0.0
  0
LINE
  5
2D5
  8
DATA
  6
CONTINUOUS
 62
     7
 10
660.42178286618207
 20
755.93048338576352
 30
0.0
 11
659.67323302347336
 21
755.93048338576352
 31
0.0
  0
LINE
  5
2D6
  8
DATA
  6
CONTINUOUS
 62
     7
 10
660.04750794482754
 20
756.30475830712896
 30
0.0
 11
660.04750794482754
 21
755.55620846439786
 31
0.0
  0
LINE
  5
2D7
  8
DATA
  6
CONTINUOUS
 62
     7
 10
664.69745494649737
 20
755.93048338576352
 30
0.0
 11
663.94890510378855
 21
755.93048338576352
 31
0.0
  0
LINE
  5
2D8
  8
DATA
  6
CONTINUOUS
 62
     7
 10
550.70259986087922
 20
538.63826393467048
 30
0.0
 11
558.15909353344284
 21
527.98928735891354
 31
0.0
  0
LINE
  5
2D9
  8
DATA
  6
CONTINUOUS
 62
     7
 10
544.96853555085625
 20
534.62322888021322
 30
0.0
 11
550.70259986087922
 21
538.63826393467048
 31
0.0
  0
LINE
  5
2DA
  8
DATA
  6
CONTINUOUS
 62
     7
 10
552.42502922341987
 20
523.97425230445629
 30
0.0
 11
544.96853555085625
 21
534.62322888021322
 31
0.0
  0
LINE
  5
2DB
  8
DATA
  6
CONTINUOUS
 62
     7
 10
558.15909353344284
 20
527.98928735891354
 30
0.0
 11
552.42502922341987
 21
523.97425230445629
 31
0.0
  0
LINE
  5
2DC
  8
DATA
  6
CONTINUOUS
 62
     7
 10
494.41036389939649
 20
617.63715108162182
 30
0.0
 11
550.04727822544805
 21
538.17940278558979
 31
0.0
  0
LINE
  5
2DD
  8
DATA
  6
CONTINUOUS
 62
     7
 10
545.62385718628752
 20
535.08209002929402
 30
0.0
 11
489.9869428602359
 21
614.53983832532617
 31
0.0
  0
LINE
  5
2DE
  8
DATA
  6
CONTINUOUS
 62
     7
 10
426.52383254463098
 20
721.21426334392606
 30
0.0
 11
487.19876581337593
 21
634.56147833695763
 31
0.0
  0
LINE
  5
2DF
  8
DATA
  6
CONTINUOUS
 62
     7
 10
476.54978923761888
 20
627.10498466439401
 30
0.0
 11
415.87485596887421
 21
713.75776967136233
 31
0.0
  0
LINE
  5
2E0
  8
DATA
  6
CONTINUOUS
 62
     7
 10
487.19876581337593
 20
634.56147833695763
 30
0.0
 11
494.41036389939649
 21
617.63715108162182
 31
0.0
  0
LINE
  5
2E1
  8
DATA
  6
CONTINUOUS
 62
     7
 10
476.54978923761888
 20
627.10498466439401
 30
0.0
 11
489.9869428602359
 21
614.53983832532617
 31
0.0
  0
LINE
  5
2E2
  8
DATA
  6
CONTINUOUS
 62
     7
 10
422.0
 20
728.47170328997481
 30
0.0
 11
422.06336082450719
 21
728.35723680856688
 31
0.0
  0
LINE
  5
2E3
  8
DATA
  6
CONTINUOUS
 62
     7
 10
408.17505747241688
 20
723.27988353318403
 30
0.0
 11
410.6882276906984
 21
720.39228284013518
 31
0.0
  0
ARC
  5
2E4
  8
DATA
  6
CONTINUOUS
 62
     7
 10
492.05599608775037
 20
767.10037825200902
 30
0.0
 40
79.99999999999973
 50
208.9659176758181
 51
214.99999999999949
  0
ARC
  5
2E5
  8
DATA
  6
CONTINUOUS
 62
     7
 10
350.34269242575448
 20
667.87165476327925
 30
0.0
 40
79.999999999999915
 50
34.999999999999517
 51
41.034082324180893
  0
LINE
  5
2E6
  8
DATA
  6
CONTINUOUS
 62
     7
 10
422.06336082450719
 20
728.35723680856688
 30
0.0
 11
402.15930015402807
 21
758.10000000000002
 31
0.0
  0
LINE
  5
2E7
  8
DATA
  6
CONTINUOUS
 62
     7
 10
408.35056078710068
 20
723.02988353318403
 30
0.0
 11
389.62118241529203
 21
749.70940580539946
 31
0.0
  0
LINE
  5
2E8
  8
DATA
  6
CONTINUOUS
 62
     7
 10
402.15930015402807
 20
758.10000000000002
 30
0.0
 11
389.62118241529203
 21
749.70940580539946
 31
0.0
  0
LINE
  5
2E9
  8
DATA
  6
CONTINUOUS
 62
     7
 10
413.77444614542679
 20
740.74341420700785
 30
0.0
 11
401.8111903870734
 21
732.34505004700702
 31
0.0
  0
CIRCLE
  5
2EA
  8
DATA
  6
CONTINUOUS
 62
     7
 10
533.49999999999989
 20
746.33366974542332
 30
0.0
 40
4.75
  0
POLYLINE
  5
2EB
  8
DATA
  6
CONTINUOUS
 62
     7
 66
     1
 10
0.0
 20
0.0
 30
0.0
 70
     1
  0
VERTEX
  5
482
  8
DATA
  6
CONTINUOUS
 62
     7
 10
529.45854811567256
 20
753.33366974542332
 30
0.0
  0
VERTEX
  5
483
  8
DATA
  6
CONTINUOUS
 62
     7
 10
525.41709623134523
 20
746.33366974542332
 30
0.0
  0
VERTEX
  5
484
  8
DATA
  6
CONTINUOUS
 62
     7
 10
529.45854811567256
 20
739.33366974542332
 30
0.0
  0
VERTEX
  5
485
  8
DATA
  6
CONTINUOUS
 62
     7
 10
537.54145188432744
 20
739.33366974542332
 30
0.0
  0
VERTEX
  5
486
  8
DATA
  6
CONTINUOUS
 62
     7
 10
541.58290376865466
 20
746.33366974542332
 30
0.0
  0
VERTEX
  5
487
  8
DATA
  6
CONTINUOUS
 62
     7
 10
537.54145188432744
 20
753.33366974542332
 30
0.0
  0
SEQEND
  5
488
  8
DATA
  6
CONTINUOUS
 62
     7
  0
CIRCLE
  5
2F4
  8
DATA
  6
CONTINUOUS
 62
     7
 10
533.49999999999989
 20
746.33366974542332
 30
0.0
 40
8.0829037686547736
  0
POLYLINE
  5
2F5
  8
DATA
  6
CONTINUOUS
 62
     7
 66
     1
 10
0.0
 20
0.0
 30
0.0
  0
VERTEX
  5
489
  8
DATA
  6
CONTINUOUS
 62
     7
 10
532.89999999999986
 20
751.04562263143521
 30
0.0
  0
VERTEX
  5
48A
  8
DATA
  6
CONTINUOUS
 62
     7
 10
532.89999999999986
 20
751.933669745423
 30
0.0
  0
VERTEX
  5
48B
  8
DATA
  6
CONTINUOUS
 62
     7
 10
534.10000000000002
 20
751.933669745423
 30
0.0
  0
VERTEX
  5
48C
  8
DATA
  6
CONTINUOUS
 62
     7
 10
534.10000000000002
 20
751.04562263143521
 30
0.0
  0
SEQEND
  5
48D
  8
DATA
  6
CONTINUOUS
 62
     7
  0
POLYLINE
  5
2FC
  8
DATA
  6
CONTINUOUS
 62
     7
 66
     1
 10
0.0
 20
0.0
 30
0.0
  0
VERTEX
  5
48E
  8
DATA
  6
CONTINUOUS
 62
     7
 10
534.10000000000002
 20
741.62171685941132
 30
0.0
  0
VERTEX
  5
48F
  8
DATA
  6
CONTINUOUS
 62
     7
 10
534.10000000000002
 20
740.73366974542284
 30
0.0
  0
VERTEX
  5
490
  8
DATA
  6
CONTINUOUS
 62
     7
 10
532.89999999999986
 20
740.73366974542284
 30
0.0
  0
VERTEX
  5
491
  8
DATA
  6
CONTINUOUS
 62
     7
 10
532.89999999999986
 20
741.62171685941132
 30
0.0
  0
SEQEND
  5
492
  8
DATA
  6
CONTINUOUS
 62
     7
  0
CIRCLE
  5
303
  8
DATA
  6
CONTINUOUS
 62
     7
 10
533.49999999999989
 20
746.33366974542332
 30
0.0
 40
0.75
  0
CIRCLE
  5
304
  8
DATA
  6
CONTINUOUS
 62
     7
 10
533.49999999999989
 20
746.33366974542332
 30
0.0
 40
3.0
  0
CIRCLE
  5
305
  8
DATA
  6
CONTINUOUS
 62
     7
 10
688.49999999999977
 20
746.33366974542332
 30
0.0
 40
4.75
  0
POLYLINE
  5
306
  8
DATA
  6
CONTINUOUS
 62
     7
 66
     1
 10
0.0
 20
0.0
 30
0.0
 70
     1
  0
VERTEX
  5
493
  8
DATA
  6
CONTINUOUS
 62
     7
 10
684.45854811567256
 20
753.33366974542332
 30
0.0
  0
VERTEX
  5
494
  8
DATA
  6
CONTINUOUS
 62
     7
 10
680.41709623134511
 20
746.33366974542332
 30
0.0
  0
VERTEX
  5
495
  8
DATA
  6
CONTINUOUS
 62
     7
 10
684.45854811567256
 20
739.33366974542332
 30
0.0
  0
VERTEX
  5
496
  8
DATA
  6
CONTINUOUS
 62
     7
 10
692.54145188432722
 20
739.33366974542332
 30
0.0
  0
VERTEX
  5
497
  8
DATA
  6
CONTINUOUS
 62
     7
 10
696.58290376865455
 20
746.33366974542332
 30
0.0
  0
VERTEX
  5
498
  8
DATA
  6
CONTINUOUS
 62
     7
 10
692.54145188432722
 20
753.33366974542332
 30
0.0
  0
SEQEND
  5
499
  8
DATA
  6
CONTINUOUS
 62
     7
  0
CIRCLE
  5
30F
  8
DATA
  6
CONTINUOUS
 62
     7
 10
688.49999999999977
 20
746.33366974542332
 30
0.0
 40
8.0829037686547736
  0
POLYLINE
  5
310
  8
DATA
  6
CONTINUOUS
 62
     7
 66
     1
 10
0.0
 20
0.0
 30
0.0
  0
VERTEX
  5
49A
  8
DATA
  6
CONTINUOUS
 62
     7
 10
687.89999999999975
 20
751.04562263143521
 30
0.0
  0
VERTEX
  5
49B
  8
DATA
  6
CONTINUOUS
 62
     7
 10
687.89999999999975
 20
751.933669745423
 30
0.0
  0
VERTEX
  5
49C
  8
DATA
  6
CONTINUOUS
 62
     7
 10
689.0999999999998
 20
751.933669745423
 30
0.0
  0
VERTEX
  5
49D
  8
DATA
  6
CONTINUOUS
 62
     7
 10
689.0999999999998
 20
751.04562263143521
 30
0.0
  0
SEQEND
  5
49E
  8
DATA
  6
CONTINUOUS
 62
     7
  0
POLYLINE
  5
317
  8
DATA
  6
CONTINUOUS
 62
     7
 66
     1
 10
0.0
 20
0.0
 30
0.0
  0
VERTEX
  5
49F
  8
DATA
  6
CONTINUOUS
 62
     7
 10
689.0999999999998
 20
741.62171685941132
 30
0.0
  0
VERTEX
  5
4A0
  8
DATA
  6
CONTINUOUS
 62
     7
 10
689.0999999999998
 20
740.73366974542284
 30
0.0
  0
VERTEX
  5
4A1
  8
DATA
  6
CONTINUOUS
 62
     7
 10
687.89999999999975
 20
740.73366974542284
 30
0.0
  0
VERTEX
  5
4A2
  8
DATA
  6
CONTINUOUS
 62
     7
 10
687.89999999999975
 20
741.62171685941132
 30
0.0
  0
SEQEND
  5
4A3
  8
DATA
  6
CONTINUOUS
 62
     7
  0
CIRCLE
  5
31E
  8
DATA
  6
CONTINUOUS
 62
     7
 10
688.49999999999977
 20
746.33366974542332
 30
0.0
 40
0.75
  0
CIRCLE
  5
31F
  8
DATA
  6
CONTINUOUS
 62
     7
 10
688.49999999999977
 20
746.33366974542332
 30
0.0
 40
3.0
  0
LINE
  5
320
  8
DATA
  6
CONTINUOUS
 62
     7
 10
475.0
 20
225.0
 30
0.0
 11
625.0
 21
225.0
 31
0.0
  0
LINE
  5
321
  8
DATA
  6
CONTINUOUS
 62
     7
 10
475.0
 20
268.0
 30
0.0
 11
625.0
 21
268.0
 31
0.0
  0
LINE
  5
322
  8
DATA
  6
CONTINUOUS
 62
     7
 10
475.0
 20
268.0
 30
0.0
 11
475.0
 21
225.0
 31
0.0
  0
LINE
  5
323
  8
DATA
  6
CONTINUOUS
 62
     7
 10
625.0
 20
268.0
 30
0.0
 11
625.0
 21
225.0
 31
0.0
  0
LINE
  5
324
  8
DATA
  6
CONTINUOUS
 62
     7
 10
422.0
 20
389.30000000000001
 30
0.0
 11
225.0
 21
389.30000000000001
 31
0.0
  0
LINE
  5
325
  8
DATA
  6
CONTINUOUS
 62
     7
 10
465.0
 20
256.0
 30
0.0
 11
465.0
 21
238.0
 31
0.0
  0
LINE
  5
326
  8
DATA
  6
CONTINUOUS
 62
     7
 10
475.0
 20
237.0
 30
0.0
 11
465.0
 21
238.0
 31
0.0
  0
LINE
  5
327
  8
DATA
  6
CONTINUOUS
 62
     7
 10
475.0
 20
256.64999999999998
 30
0.0
 11
465.0
 21
256.0
 31
0.0
  0
LINE
  5
328
  8
DATA
  6
CONTINUOUS
 62
     7
 10
479.0
 20
268.0
 30
0.0
 11
479.0
 21
225.0
 31
0.0
  0
LINE
  5
329
  8
DATA
  6
CONTINUOUS
 62
     7
 10
479.0
 20
265.5
 30
0.0
 11
625.0
 21
265.5
 31
0.0
  0
LINE
  5
32A
  8
DATA
  6
CONTINUOUS
 62
     7
 10
489.0
 20
268.0
 30
0.0
 11
489.0
 21
225.0
 31
0.0
  0
LINE
  5
32B
  8
DATA
  6
CONTINUOUS
 62
     7
 10
489.2999999999999
 20
268.0
 30
0.0
 11
489.2999999999999
 21
225.0
 31
0.0
  0
LINE
  5
32C
  8
DATA
  6
CONTINUOUS
 62
     7
 10
500.0
 20
225.0
 30
0.0
 11
612.5
 21
225.0
 31
0.0
  0
CIRCLE
  5
32D
  8
DATA
  6
CONTINUOUS
 62
     7
 10
510.5
 20
245.0
 30
0.0
 40
5.0
  0
CIRCLE
  5
32E
  8
DATA
  6
CONTINUOUS
 62
     7
 10
510.5
 20
245.0
 30
0.0
 40
3.0
  0
LINE
  5
32F
  8
DATA
  6
CONTINUOUS
 62
     7
 10
508.69999999999987
 20
245.0
 30
0.0
 11
512.29999999999995
 21
245.0
 31
0.0
  0
LINE
  5
330
  8
DATA
  6
CONTINUOUS
 62
     7
 10
510.5
 20
243.19999999999999
 30
0.0
 11
510.5
 21
246.80000000000001
 31
0.0
  0
CIRCLE
  5
331
  8
DATA
  6
CONTINUOUS
 62
     7
 10
610.5
 20
245.0
 30
0.0
 40
5.0
  0
CIRCLE
  5
332
  8
DATA
  6
CONTINUOUS
 62
     7
 10
610.5
 20
245.0
 30
0.0
 40
3.0
  0
LINE
  5
333
  8
DATA
  6
CONTINUOUS
 62
     7
 10
608.70000000000005
 20
245.0
 30
0.0
 11
612.29999999999995
 21
245.0
 31
0.0
  0
LINE
  5
334
  8
DATA
  6
CONTINUOUS
 62
     7
 10
610.5
 20
243.19999999999999
 30
0.0
 11
610.5
 21
246.80000000000001
 31
0.0
  0
LINE
  5
335
  8
DATA
  6
CONTINUOUS
 62
     7
 10
474.69999999999987
 20
249.59604109572209
 30
0.0
 11
474.69999999999987
 21
256.39604109572213
 31
0.0
  0
LINE
  5
336
  8
DATA
  6
CONTINUOUS
 62
     7
 10
474.69999999999987
 20
237.59604109572209
 30
0.0
 11
474.69999999999987
 21
244.3960410957221
 31
0.0
  0
LINE
  5
337
  8
DATA
  6
CONTINUOUS
 62
     7
 10
474.69999999999987
 20
256.39604109572213
 30
0.0
 11
475.0
 21
256.39604109572213
 31
0.0
  0
LINE
  5
338
  8
DATA
  6
CONTINUOUS
 62
     7
 10
474.69999999999987
 20
249.59604109572209
 30
0.0
 11
475.0
 21
249.59604109572209
 31
0.0
  0
LINE
  5
339
  8
DATA
  6
CONTINUOUS
 62
     7
 10
474.69999999999987
 20
244.3960410957221
 30
0.0
 11
475.0
 21
244.3960410957221
 31
0.0
  0
LINE
  5
33A
  8
DATA
  6
CONTINUOUS
 62
     7
 10
474.69999999999987
 20
237.59604109572209
 30
0.0
 11
475.0
 21
237.59604109572209
 31
0.0
  0
LINE
  5
33B
  8
DATA
  6
CONTINUOUS
 62
     7
 10
626.00000000028353
 20
235.96955749769609
 30
0.0
 11
626.00000000028353
 21
253.96955749769609
 31
0.0
  0
LINE
  5
33C
  8
DATA
  6
CONTINUOUS
 62
     7
 10
626.00000000028353
 20
253.96955749769609
 30
0.0
 11
625.00000000028353
 21
253.96955749769609
 31
0.0
  0
LINE
  5
33D
  8
DATA
  6
CONTINUOUS
 62
     7
 10
631.00067278834842
 20
238.34808307542639
 30
0.0
 11
631.00067278834842
 21
251.34808307542639
 31
0.0
  0
LINE
  5
33E
  8
DATA
  6
CONTINUOUS
 62
     7
 10
643.0
 20
249.7190914336669
 30
0.0
 11
631.00067278834842
 21
249.7190914336669
 31
0.0
  0
LINE
  5
33F
  8
DATA
  6
CONTINUOUS
 62
     7
 10
643.0
 20
240.22002356183989
 30
0.0
 11
631.00067278834842
 21
240.22002356183989
 31
0.0
  0
LINE
  5
340
  8
DATA
  6
CONTINUOUS
 62
     7
 10
626.00000000028353
 20
235.969557497696
 30
0.0
 11
626.00000000028353
 21
253.969557497696
 31
0.0
  0
LINE
  5
341
  8
DATA
  6
CONTINUOUS
 62
     7
 10
626.00000000028353
 20
235.969557497696
 30
0.0
 11
625.00000000028353
 21
235.969557497696
 31
0.0
  0
LINE
  5
342
  8
DATA
  6
CONTINUOUS
 62
     7
 10
626.00000000028353
 20
253.969557497696
 30
0.0
 11
625.00000000028353
 21
253.969557497696
 31
0.0
  0
LINE
  5
343
  8
DATA
  6
CONTINUOUS
 62
     7
 10
631.00067278834842
 20
238.34808307542639
 30
0.0
 11
626.00000000028353
 21
238.34808307542639
 31
0.0
  0
LINE
  5
344
  8
DATA
  6
CONTINUOUS
 62
     7
 10
631.00067278834842
 20
251.34808307542639
 30
0.0
 11
626.00000000028353
 21
251.34808307542639
 31
0.0
  0
LINE
  5
345
  8
DATA
  6
CONTINUOUS
 62
     7
 10
643.0
 20
249.7190914336669
 30
0.0
 11
643.0
 21
240.22002356183989
 31
0.0
  0
TEXT
  5
346
  8
DATA
 62
     7
 10
378.16414042210198
 20
261.81773419125608
 30
0.0
 40
2.7147352430555549
  1
audio
 41
0.7
 11
378.16414042210198
 21
264.53246943431162
 31
0.0
 73
     3
  0
TEXT
  5
347
  8
DATA
 62
     7
 10
693.72456537017047
 20
756.34030435711043
 30
0.0
 40
1.5245953124999989
  1
12V 
 50
180.0
 41
0.7
 11
693.72456537017047
 21
754.81570904461034
 31
0.0
 73
     3
  0
LINE
  5
348
  8
DATA
  6
CONTINUOUS
 62
     7
 10
689.5024087867946
 20
754.92851028910832
 30
0.0
 11
686.66240878679434
 21
754.92851028910832
 31
0.0
  0
LINE
  5
349
  8
DATA
  6
STYLE_01
 62
     7
 10
689.5024087867946
 20
756.1954595379508
 30
0.0
 11
686.66240878679434
 21
756.1954595379508
 31
0.0
  0
TEXT
  5
34A
  8
DATA
 62
     7
 10
685.63803589161512
 20
756.30172273862854
 30
0.0
 40
1.5245953124999989
  1
OUT 
 50
180.0
 41
0.7
 11
685.63803589161512
 21
754.77712742612846
 31
0.0
 73
     3
  0
TEXT
  5
34B
  8
DATA
 62
     7
 10
691.20530787978271
 20
758.30688714455414
 30
0.0
 40
1.5245953124999989
  1
150mmA
 50
180.0
 41
0.7
 11
691.20530787978271
 21
756.78229183205406
 31
0.0
 73
     3
  0
TEXT
  5
34C
  8
DATA
 62
     7
 10
538.72456537017035
 20
756.34030435711043
 30
0.0
 40
1.5245953124999989
  1
12V 
 50
180.0
 41
0.7
 11
538.72456537017035
 21
754.81570904461034
 31
0.0
 73
     3
  0
LINE
  5
34D
  8
DATA
  6
CONTINUOUS
 62
     7
 10
534.50240878679472
 20
754.92851028910832
 30
0.0
 11
531.66240878679446
 21
754.92851028910832
 31
0.0
  0
LINE
  5
34E
  8
DATA
  6
STYLE_01
 62
     7
 10
534.50240878679472
 20
756.1954595379508
 30
0.0
 11
531.66240878679446
 21
756.1954595379508
 31
0.0
  0
TEXT
  5
34F
  8
DATA
 62
     7
 10
530.638035891615
 20
756.30172273862854
 30
0.0
 40
1.5245953124999989
  1
OUT 
 50
180.0
 41
0.7
 11
530.638035891615
 21
754.77712742612846
 31
0.0
 73
     3
  0
TEXT
  5
350
  8
DATA
 62
     7
 10
536.20530787978271
 20
758.30688714455414
 30
0.0
 40
1.5245953124999989
  1
150mmA
 50
180.0
 41
0.7
 11
536.20530787978271
 21
756.78229183205406
 31
0.0
 73
     3
  0
LINE
  5
351
  8
DATA
  6
CONTINUOUS
 62
     7
 10
637.25000000028353
 20
249.7190914336669
 30
0.0
 11
637.25000000028353
 21
250.7190914336669
 31
0.0
  0
LINE
  5
352
  8
DATA
  6
CONTINUOUS
 62
     7
 10
639.25000000028353
 20
249.7190914336669
 30
0.0
 11
639.25000000028353
 21
250.7190914336669
 31
0.0
  0
LINE
  5
353
  8
DATA
  6
CONTINUOUS
 62
     7
 10
637.25000000028353
 20
250.7190914336669
 30
0.0
 11
639.25000000028353
 21
250.7190914336669
 31
0.0
  0
LINE
  5
354
  8
DATA
  6
CONTINUOUS
 62
     7
 10
637.25000000028353
 20
240.22002356183989
 30
0.0
 11
637.25000000028353
 21
239.22002356183989
 31
0.0
  0
LINE
  5
355
  8
DATA
  6
CONTINUOUS
 62
     7
 10
639.25000000028353
 20
240.22002356183989
 30
0.0
 11
639.25000000028353
 21
239.22002356183989
 31
0.0
  0
LINE
  5
356
  8
DATA
  6
CONTINUOUS
 62
     7
 10
637.25000000028353
 20
239.22002356183989
 30
0.0
 11
639.25000000028353
 21
239.22002356183989
 31
0.0
  0
LINE
  5
357
  8
DATA
  6
CONTINUOUS
 62
     7
 10
710.46125985458252
 20
344.49999999984527
 30
0.0
 11
710.46125985458252
 21
344.43433915871799
 31
0.0
  0
LINE
  5
358
  8
DATA
  6
CONTINUOUS
 62
     7
 10
699.61561431098835
 20
577.49999999984493
 30
0.0
 11
699.61561431098835
 21
590.49999999984493
 31
0.0
  0
LINE
  5
359
  8
DATA
  6
CONTINUOUS
 62
     7
 10
706.61561431098846
 20
577.49999999984493
 30
0.0
 11
699.61561431098835
 21
577.49999999984493
 31
0.0
  0
LINE
  5
35A
  8
DATA
  6
CONTINUOUS
 62
     7
 10
706.61561431098846
 20
590.49999999984493
 30
0.0
 11
706.61561431098846
 21
577.49999999984493
 31
0.0
  0
LINE
  5
35B
  8
DATA
  6
CONTINUOUS
 62
     7
 10
699.61561431098835
 20
590.49999999984493
 30
0.0
 11
706.61561431098846
 21
590.49999999984493
 31
0.0
  0
LINE
  5
35C
  8
DATA
  6
CONTINUOUS
 62
     7
 10
700.41561431098864
 20
480.49999999984522
 30
0.0
 11
700.4156143109883
 21
577.49999999984493
 31
0.0
  0
LINE
  5
35D
  8
DATA
  6
CONTINUOUS
 62
     7
 10
705.81561431098862
 20
577.49999999984493
 30
0.0
 11
705.81561431098874
 21
480.49999999984522
 31
0.0
  0
LINE
  5
35E
  8
DATA
  6
CONTINUOUS
 62
     7
 10
709.61561431098835
 20
462.49999999984499
 30
0.0
 11
709.6156143109888
 21
356.71648201792817
 31
0.0
  0
LINE
  5
35F
  8
DATA
  6
CONTINUOUS
 62
     7
 10
709.61561431098835
 20
462.49999999984499
 30
0.0
 11
705.81561431098874
 21
480.49999999984522
 31
0.0
  0
LINE
  5
360
  8
DATA
  6
CONTINUOUS
 62
     7
 10
710.46125985458252
 20
344.49999999984527
 30
0.0
 11
710.05885104775507
 21
348.30687922839218
 31
0.0
  0
ARC
  5
361
  8
DATA
  6
CONTINUOUS
 62
     7
 10
789.61561431098869
 20
356.7164820179276
 30
0.0
 40
79.999999999999872
 50
179.9999999999996
 51
186.0340823241809
  0
LINE
  5
362
  8
DATA
  6
CONTINUOUS
 62
     7
 10
710.46089006466764
 20
344.80545257672168
 30
0.0
 11
710.50060531487441
 21
311.99999999980849
 31
0.0
  0
LINE
  5
363
  8
DATA
  6
CONTINUOUS
 62
     7
 10
677.73752389468007
 20
311.99999999980849
 30
0.0
 11
693.5
 21
311.99999999980849
 31
0.0
  0
LINE
  5
364
  8
DATA
  6
CONTINUOUS
 62
     7
 10
677.73752389468007
 20
326.99999999980849
 30
0.0
 11
677.73752389468007
 21
311.99999999980849
 31
0.0
  0
LINE
  5
365
  8
DATA
  6
CONTINUOUS
 62
     7
 10
693.5
 20
326.99999999980849
 30
0.0
 11
677.73752389468007
 21
326.99999999980849
 31
0.0
  0
LINE
  5
366
  8
DATA
  6
CONTINUOUS
 62
     7
 10
695.7699687673944
 20
344.49999999984527
 30
0.0
 11
695.7699687673944
 21
344.43433915871799
 31
0.0
  0
LINE
  5
367
  8
DATA
  6
CONTINUOUS
 62
     7
 10
696.61561431098835
 20
462.49999999984499
 30
0.0
 11
696.61561431098812
 21
356.71648201792817
 31
0.0
  0
LINE
  5
368
  8
DATA
  6
CONTINUOUS
 62
     7
 10
696.61561431098835
 20
462.49999999984499
 30
0.0
 11
700.4156143109883
 21
480.49999999984522
 31
0.0
  0
LINE
  5
369
  8
DATA
  6
CONTINUOUS
 62
     7
 10
695.7699687673944
 20
344.49999999984527
 30
0.0
 11
696.17237757422185
 21
348.30687922839218
 31
0.0
  0
ARC
  5
36A
  8
DATA
  6
CONTINUOUS
 62
     7
 10
616.61561431098835
 20
356.7164820179276
 30
0.0
 40
79.99999999999973
 50
353.96591767581913
 51
0.0000000000004547
  0
LINE
  5
36B
  8
DATA
  6
CONTINUOUS
 62
     7
 10
695.77033855730929
 20
344.80545257672168
 30
0.0
 11
695.73479397701828
 21
315.44504222981618
 31
0.0
  0
LINE
  5
36C
  8
DATA
  6
CONTINUOUS
 62
     7
 10
693.5
 20
311.99999999980849
 30
0.0
 11
693.5
 21
326.99999999980849
 31
0.0
  0
LINE
  5
36D
  8
DATA
  6
CONTINUOUS
 62
     7
 10
695.7478501916795
 20
326.22969116613132
 30
0.0
 11
710.48337843029753
 21
326.22969116613132
 31
0.0
  0
LINE
  5
36E
  8
DATA
  6
CONTINUOUS
 62
     7
 10
695.74724487690582
 20
325.72969116613132
 30
0.0
 11
710.48398374507121
 21
325.72969116613132
 31
0.0
  0
LINE
  5
36F
  8
DATA
  6
CONTINUOUS
 62
     7
 10
700.67846096941253
 20
311.99999999980849
 30
0.0
 11
710.50060531487441
 21
311.99999999980849
 31
0.0
  0
LINE
  5
370
  8
DATA
  6
CONTINUOUS
 62
     7
 10
693.5
 20
315.44504222981618
 30
0.0
 11
695.73479397701828
 21
315.44504222981618
 31
0.0
  0
LINE
  5
371
  8
DATA
  6
CONTINUOUS
 62
     7
 10
693.5
 20
323.55495776980092
 30
0.0
 11
695.74461208039827
 21
323.55495776980092
 31
0.0
  0
ARC
  5
372
  8
DATA
  6
CONTINUOUS
 62
     7
 10
710.33914077204679
 20
331.13278825400482
 30
0.0
 40
21.433439309380638
 50
227.0483152748786
 51
243.2095131717621
  0
LINE
  5
373
  8
DATA
  6
CONTINUOUS
 62
     7
 10
662.49999999980855
 20
314.74999999980849
 30
0.0
 11
662.49999999980855
 21
324.24999999980849
 31
0.0
  0
LINE
  5
374
  8
DATA
  6
CONTINUOUS
 62
     7
 10
662.49999999980855
 20
312.49999999980849
 30
0.0
 11
662.49999999980855
 21
326.49999999980849
 31
0.0
  0
LINE
  5
375
  8
DATA
  6
CONTINUOUS
 62
     7
 10
662.49999999980855
 20
312.49999999980849
 30
0.0
 11
664.49999999980855
 21
312.49999999980849
 31
0.0
  0
LINE
  5
376
  8
DATA
  6
CONTINUOUS
 62
     7
 10
664.49999999980855
 20
312.49999999980849
 30
0.0
 11
664.49999999980855
 21
326.49999999980849
 31
0.0
  0
LINE
  5
377
  8
DATA
  6
CONTINUOUS
 62
     7
 10
664.49999999980855
 20
326.49999999980849
 30
0.0
 11
662.49999999980855
 21
326.49999999980849
 31
0.0
  0
LINE
  5
378
  8
DATA
  6
CONTINUOUS
 62
     7
 10
664.49999999980855
 20
313.99999999980849
 30
0.0
 11
670.49999999980855
 21
313.99999999980849
 31
0.0
  0
LINE
  5
379
  8
DATA
  6
CONTINUOUS
 62
     7
 10
670.49999999980855
 20
324.99999999980849
 30
0.0
 11
664.49999999980855
 21
324.99999999980849
 31
0.0
  0
LINE
  5
37A
  8
DATA
  6
CONTINUOUS
 62
     7
 10
670.49999999980855
 20
312.74999999980849
 30
0.0
 11
670.49999999980855
 21
326.24999999980849
 31
0.0
  0
LINE
  5
37B
  8
DATA
  6
CONTINUOUS
 62
     7
 10
670.99999999980855
 20
312.24999999980849
 30
0.0
 11
670.99999999980855
 21
326.74999999980849
 31
0.0
  0
LINE
  5
37C
  8
DATA
  6
CONTINUOUS
 62
     7
 10
670.99999999980855
 20
312.24999999980849
 30
0.0
 11
674.99999999980855
 21
312.24999999980849
 31
0.0
  0
LINE
  5
37D
  8
DATA
  6
CONTINUOUS
 62
     7
 10
674.99999999980855
 20
312.24999999980849
 30
0.0
 11
674.99999999980855
 21
326.74999999980849
 31
0.0
  0
LINE
  5
37E
  8
DATA
  6
CONTINUOUS
 62
     7
 10
674.99999999980855
 20
326.74999999980849
 30
0.0
 11
670.99999999980855
 21
326.74999999980849
 31
0.0
  0
LINE
  5
37F
  8
DATA
  6
CONTINUOUS
 62
     7
 10
676.49999999980855
 20
313.74999999980849
 30
0.0
 11
676.49999999980855
 21
325.24999999980849
 31
0.0
  0
LINE
  5
380
  8
DATA
  6
CONTINUOUS
 62
     7
 10
676.49999999980855
 20
313.99999999980849
 30
0.0
 11
677.73752389468007
 21
313.99999999980849
 31
0.0
  0
LINE
  5
381
  8
DATA
  6
CONTINUOUS
 62
     7
 10
676.49999999980855
 20
324.99999999980849
 30
0.0
 11
677.73752389468007
 21
324.99999999980849
 31
0.0
  0
ARC
  5
382
  8
DATA
  6
CONTINUOUS
 62
     7
 10
674.99999999980855
 20
313.74999999980849
 30
0.0
 40
1.5
 50
270.0
 51
0.0
  0
ARC
  5
383
  8
DATA
  6
CONTINUOUS
 62
     7
 10
674.99999999980855
 20
325.24999999980849
 30
0.0
 40
1.5
 50
0.0
 51
90.0
  0
ARC
  5
384
  8
DATA
  6
CONTINUOUS
 62
     7
 10
670.99999999980855
 20
312.74999999980849
 30
0.0
 40
0.5
 50
180.0
 51
270.0
  0
ARC
  5
385
  8
DATA
  6
CONTINUOUS
 62
     7
 10
670.99999999980855
 20
326.24999999980849
 30
0.0
 40
0.5
 50
90.0
 51
180.0
  0
LINE
  5
386
  8
DATA
  6
CONTINUOUS
 62
     7
 10
670.99999999980855
 20
312.74999999980849
 30
0.0
 11
674.99999999980855
 21
312.74999999980849
 31
0.0
  0
LINE
  5
387
  8
DATA
  6
CONTINUOUS
 62
     7
 10
670.99999999980855
 20
313.24999999980849
 30
0.0
 11
674.99999999980855
 21
313.24999999980849
 31
0.0
  0
LINE
  5
388
  8
DATA
  6
CONTINUOUS
 62
     7
 10
670.99999999980855
 20
313.74999999980849
 30
0.0
 11
674.99999999980855
 21
313.74999999980849
 31
0.0
  0
LINE
  5
389
  8
DATA
  6
CONTINUOUS
 62
     7
 10
670.99999999980855
 20
314.24999999980849
 30
0.0
 11
674.99999999980855
 21
314.24999999980849
 31
0.0
  0
LINE
  5
38A
  8
DATA
  6
CONTINUOUS
 62
     7
 10
670.99999999980855
 20
314.74999999980849
 30
0.0
 11
674.99999999980855
 21
314.74999999980849
 31
0.0
  0
LINE
  5
38B
  8
DATA
  6
CONTINUOUS
 62
     7
 10
670.99999999980855
 20
315.24999999980849
 30
0.0
 11
674.99999999980855
 21
315.24999999980849
 31
0.0
  0
LINE
  5
38C
  8
DATA
  6
CONTINUOUS
 62
     7
 10
670.99999999980855
 20
315.74999999980849
 30
0.0
 11
674.99999999980855
 21
315.74999999980849
 31
0.0
  0
LINE
  5
38D
  8
DATA
  6
CONTINUOUS
 62
     7
 10
670.99999999980855
 20
316.24999999980849
 30
0.0
 11
674.99999999980855
 21
316.24999999980849
 31
0.0
  0
LINE
  5
38E
  8
DATA
  6
CONTINUOUS
 62
     7
 10
670.99999999980855
 20
316.74999999980849
 30
0.0
 11
674.99999999980855
 21
316.74999999980849
 31
0.0
  0
LINE
  5
38F
  8
DATA
  6
CONTINUOUS
 62
     7
 10
670.99999999980855
 20
317.24999999980849
 30
0.0
 11
674.99999999980855
 21
317.24999999980849
 31
0.0
  0
LINE
  5
390
  8
DATA
  6
CONTINUOUS
 62
     7
 10
670.99999999980855
 20
317.74999999980849
 30
0.0
 11
674.99999999980855
 21
317.74999999980849
 31
0.0
  0
LINE
  5
391
  8
DATA
  6
CONTINUOUS
 62
     7
 10
670.99999999980855
 20
318.24999999980849
 30
0.0
 11
674.99999999980855
 21
318.24999999980849
 31
0.0
  0
LINE
  5
392
  8
DATA
  6
CONTINUOUS
 62
     7
 10
670.99999999980855
 20
318.74999999980849
 30
0.0
 11
674.99999999980855
 21
318.74999999980849
 31
0.0
  0
LINE
  5
393
  8
DATA
  6
CONTINUOUS
 62
     7
 10
670.99999999980855
 20
319.24999999980849
 30
0.0
 11
674.99999999980855
 21
319.24999999980849
 31
0.0
  0
LINE
  5
394
  8
DATA
  6
CONTINUOUS
 62
     7
 10
670.99999999980855
 20
319.74999999980849
 30
0.0
 11
674.99999999980855
 21
319.74999999980849
 31
0.0
  0
LINE
  5
395
  8
DATA
  6
CONTINUOUS
 62
     7
 10
670.99999999980855
 20
320.24999999980849
 30
0.0
 11
674.99999999980855
 21
320.24999999980849
 31
0.0
  0
LINE
  5
396
  8
DATA
  6
CONTINUOUS
 62
     7
 10
670.99999999980855
 20
320.74999999980849
 30
0.0
 11
674.99999999980855
 21
320.74999999980849
 31
0.0
  0
LINE
  5
397
  8
DATA
  6
CONTINUOUS
 62
     7
 10
670.99999999980855
 20
321.24999999980849
 30
0.0
 11
674.99999999980855
 21
321.24999999980849
 31
0.0
  0
LINE
  5
398
  8
DATA
  6
CONTINUOUS
 62
     7
 10
670.99999999980855
 20
321.74999999980849
 30
0.0
 11
674.99999999980855
 21
321.74999999980849
 31
0.0
  0
LINE
  5
399
  8
DATA
  6
CONTINUOUS
 62
     7
 10
670.99999999980855
 20
322.24999999980849
 30
0.0
 11
674.99999999980855
 21
322.24999999980849
 31
0.0
  0
LINE
  5
39A
  8
DATA
  6
CONTINUOUS
 62
     7
 10
670.99999999980855
 20
322.74999999980849
 30
0.0
 11
674.99999999980855
 21
322.74999999980849
 31
0.0
  0
LINE
  5
39B
  8
DATA
  6
CONTINUOUS
 62
     7
 10
670.99999999980855
 20
323.24999999980849
 30
0.0
 11
674.99999999980855
 21
323.24999999980849
 31
0.0
  0
LINE
  5
39C
  8
DATA
  6
CONTINUOUS
 62
     7
 10
670.99999999980855
 20
323.74999999980849
 30
0.0
 11
674.99999999980855
 21
323.74999999980849
 31
0.0
  0
LINE
  5
39D
  8
DATA
  6
CONTINUOUS
 62
     7
 10
670.99999999980855
 20
324.24999999980849
 30
0.0
 11
674.99999999980855
 21
324.24999999980849
 31
0.0
  0
LINE
  5
39E
  8
DATA
  6
CONTINUOUS
 62
     7
 10
670.99999999980855
 20
324.74999999980849
 30
0.0
 11
674.99999999980855
 21
324.74999999980849
 31
0.0
  0
LINE
  5
39F
  8
DATA
  6
CONTINUOUS
 62
     7
 10
670.99999999980855
 20
325.24999999980849
 30
0.0
 11
674.99999999980855
 21
325.24999999980849
 31
0.0
  0
LINE
  5
3A0
  8
DATA
  6
CONTINUOUS
 62
     7
 10
670.99999999980855
 20
325.74999999980849
 30
0.0
 11
674.99999999980855
 21
325.74999999980849
 31
0.0
  0
LINE
  5
3A1
  8
DATA
  6
CONTINUOUS
 62
     7
 10
670.99999999980855
 20
326.24999999980849
 30
0.0
 11
674.99999999980855
 21
326.24999999980849
 31
0.0
  0
LINE
  5
3A2
  8
DATA
  6
CONTINUOUS
 62
     7
 10
670.99999999980855
 20
326.74999999980849
 30
0.0
 11
674.99999999980855
 21
326.74999999980849
 31
0.0
  0
ARC
  5
3A3
  8
DATA
  6
CONTINUOUS
 62
     7
 10
668.49999999980855
 20
319.49999999980861
 30
0.0
 40
1.500000000000052
 50
329.48976259376201
 51
233.11745888585361
  0
LINE
  5
3A4
  8
DATA
  6
CONTINUOUS
 62
     7
 10
668.49999999980855
 20
313.99999999980849
 30
0.0
 11
669.7923076921154
 21
318.7384615382669
 31
0.0
  0
LINE
  5
3A5
  8
DATA
  6
CONTINUOUS
 62
     7
 10
666.42695377235532
 20
313.99999999980849
 30
0.0
 11
667.59973521754205
 21
318.30019863215892
 31
0.0
  0
CIRCLE
  5
3A6
  8
DATA
  6
CONTINUOUS
 62
     7
 10
667.99999999980855
 20
319.49999999980849
 30
0.0
 40
1.0
  0
ENDSEC
  0
EOF
