  0
SECTION
  2
HEADER
  9
$ACADVER
  1
AC1015
  9
$ACADMAINTVER
 70
    20
  9
$DWGCODEPAGE
  3
ANSI_932
  9
$INSBASE
 10
0.0
 20
0.0
 30
0.0
  9
$EXTMIN
 10
-125.0137318624345
 20
-198.6585953049941
 30
-0.0015258207003583
  9
$EXTMAX
 10
325.0137339579098
 20
470.2977866466119
 30
0.0000000349246037
  9
$LIMMIN
 10
0.0
 20
0.0
  9
$LIMMAX
 10
0.0
 20
0.0
  9
$ORTHOMODE
 70
     0
  9
$REGENMODE
 70
     1
  9
$FILLMODE
 70
     1
  9
$QTEXTMODE
 70
     0
  9
$MIRRTEXT
 70
     1
  9
$LTSCALE
 40
12.7
  9
$ATTMODE
 70
     1
  9
$TEXTSIZE
 40
0.0
  9
$TRACEWID
 40
1.0
  9
$TEXTSTYLE
  7
STANDARD
  9
$CLAYER
  8
DATA
  9
$CELTYPE
  6
ByLayer
  9
$CECOLOR
 62
   256
  9
$CELTSCALE
 40
1.0
  9
$DISPSILH
 70
     0
  9
$DIMSCALE
 40
1.0
  9
$DIMASZ
 40
0.18
  9
$DIMEXO
 40
0.0625
  9
$DIMDLI
 40
0.38
  9
$DIMRND
 40
0.0
  9
$DIMDLE
 40
0.0
  9
$DIMEXE
 40
0.18
  9
$DIMTP
 40
0.0
  9
$DIMTM
 40
0.0
  9
$DIMTXT
 40
0.18
  9
$DIMCEN
 40
0.09
  9
$DIMTSZ
 40
0.0
  9
$DIMTOL
 70
     0
  9
$DIMLIM
 70
     0
  9
$DIMTIH
 70
     1
  9
$DIMTOH
 70
     1
  9
$DIMSE1
 70
     0
  9
$DIMSE2
 70
     0
  9
$DIMTAD
 70
     0
  9
$DIMZIN
 70
     0
  9
$DIMBLK
  1

  9
$DIMASO
 70
     1
  9
$DIMSHO
 70
     1
  9
$DIMPOST
  1

  9
$DIMAPOST
  1

  9
$DIMALT
 70
     0
  9
$DIMALTD
 70
     2
  9
$DIMALTF
 40
25.4
  9
$DIMLFAC
 40
1.0
  9
$DIMTOFL
 70
     0
  9
$DIMTVP
 40
0.0
  9
$DIMTIX
 70
     0
  9
$DIMSOXD
 70
     0
  9
$DIMSAH
 70
     0
  9
$DIMBLK1
  1

  9
$DIMBLK2
  1

  9
$DIMSTYLE
  2
STANDARD
  9
$DIMCLRD
 70
     0
  9
$DIMCLRE
 70
     0
  9
$DIMCLRT
 70
     0
  9
$DIMTFAC
 40
1.0
  9
$DIMGAP
 40
0.09
  9
$DIMJUST
 70
     0
  9
$DIMSD1
 70
     0
  9
$DIMSD2
 70
     0
  9
$DIMTOLJ
 70
     1
  9
$DIMTZIN
 70
     0
  9
$DIMALTZ
 70
     0
  9
$DIMALTTZ
 70
     0
  9
$DIMUPT
 70
     0
  9
$DIMDEC
 70
     4
  9
$DIMTDEC
 70
     4
  9
$DIMALTU
 70
     2
  9
$DIMALTTD
 70
     2
  9
$DIMTXSTY
  7
STANDARD
  9
$DIMAUNIT
 70
     0
  9
$DIMADEC
 70
     0
  9
$DIMALTRND
 40
0.0
  9
$DIMAZIN
 70
     0
  9
$DIMDSEP
 70
    46
  9
$DIMATFIT
 70
     3
  9
$DIMFRAC
 70
     0
  9
$DIMLDRBLK
  1

  9
$DIMLUNIT
 70
     2
  9
$DIMLWD
 70
    -2
  9
$DIMLWE
 70
    -2
  9
$DIMTMOVE
 70
     0
  9
$LUNITS
 70
     2
  9
$LUPREC
 70
     4
  9
$SKETCHINC
 40
0.1
  9
$FILLETRAD
 40
0.0
  9
$AUNITS
 70
     0
  9
$AUPREC
 70
     0
  9
$MENU
  1
acad
  9
$ELEVATION
 40
0.0
  9
$PELEVATION
 40
0.0
  9
$THICKNESS
 40
0.0
  9
$LIMCHECK
 70
     0
  9
$CHAMFERA
 40
0.0
  9
$CHAMFERB
 40
0.0
  9
$CHAMFERC
 40
0.0
  9
$CHAMFERD
 40
0.0
  9
$SKPOLY
 70
     0
  9
$TDCREATE
 40
2455202.723379630
  9
$TDUCREATE
 40
2455202.348379630
  9
$TDUPDATE
 40
2455202.723743484
  9
$TDUUPDATE
 40
2455202.348743484
  9
$TDINDWG
 40
0.0002515162
  9
$TDUSRTIMER
 40
0.0002515162
  9
$USRTIMER
 70
     1
  9
$ANGBASE
 50
0.0
  9
$ANGDIR
 70
     0
  9
$PDMODE
 70
     1
  9
$PDSIZE
 40
-2.0
  9
$PLINEWID
 40
0.0
  9
$SPLFRAME
 70
     0
  9
$SPLINETYPE
 70
     6
  9
$SPLINESEGS
 70
     8
  9
$HANDSEED
  5
2E7
  9
$SURFTAB1
 70
     6
  9
$SURFTAB2
 70
     6
  9
$SURFTYPE
 70
     6
  9
$SURFU
 70
     6
  9
$SURFV
 70
     6
  9
$UCSBASE
  2

  9
$UCSNAME
  2

  9
$UCSORG
 10
0.0
 20
0.0
 30
0.0
  9
$UCSXDIR
 10
1.0
 20
0.0
 30
0.0
  9
$UCSYDIR
 10
0.0
 20
1.0
 30
0.0
  9
$UCSORTHOREF
  2

  9
$UCSORTHOVIEW
 70
     0
  9
$UCSORGTOP
 10
0.0
 20
0.0
 30
0.0
  9
$UCSORGBOTTOM
 10
0.0
 20
0.0
 30
0.0
  9
$UCSORGLEFT
 10
0.0
 20
0.0
 30
0.0
  9
$UCSORGRIGHT
 10
0.0
 20
0.0
 30
0.0
  9
$UCSORGFRONT
 10
0.0
 20
0.0
 30
0.0
  9
$UCSORGBACK
 10
0.0
 20
0.0
 30
0.0
  9
$PUCSBASE
  2

  9
$PUCSNAME
  2

  9
$PUCSORG
 10
0.0
 20
0.0
 30
0.0
  9
$PUCSXDIR
 10
1.0
 20
0.0
 30
0.0
  9
$PUCSYDIR
 10
0.0
 20
1.0
 30
0.0
  9
$PUCSORTHOREF
  2

  9
$PUCSORTHOVIEW
 70
     0
  9
$PUCSORGTOP
 10
0.0
 20
0.0
 30
0.0
  9
$PUCSORGBOTTOM
 10
0.0
 20
0.0
 30
0.0
  9
$PUCSORGLEFT
 10
0.0
 20
0.0
 30
0.0
  9
$PUCSORGRIGHT
 10
0.0
 20
0.0
 30
0.0
  9
$PUCSORGFRONT
 10
0.0
 20
0.0
 30
0.0
  9
$PUCSORGBACK
 10
0.0
 20
0.0
 30
0.0
  9
$USERI1
 70
     0
  9
$USERI2
 70
     0
  9
$USERI3
 70
     0
  9
$USERI4
 70
     0
  9
$USERI5
 70
     0
  9
$USERR1
 40
0.0
  9
$USERR2
 40
0.0
  9
$USERR3
 40
0.0
  9
$USERR4
 40
0.0
  9
$USERR5
 40
0.0
  9
$WORLDVIEW
 70
     1
  9
$SHADEDGE
 70
     3
  9
$SHADEDIF
 70
    70
  9
$TILEMODE
 70
     1
  9
$MAXACTVP
 70
    64
  9
$PINSBASE
 10
0.0
 20
0.0
 30
0.0
  9
$PLIMCHECK
 70
     0
  9
$PEXTMIN
 10
1.000000000000000E+20
 20
1.000000000000000E+20
 30
1.000000000000000E+20
  9
$PEXTMAX
 10
-1.000000000000000E+20
 20
-1.000000000000000E+20
 30
-1.000000000000000E+20
  9
$PLIMMIN
 10
0.0
 20
0.0
  9
$PLIMMAX
 10
12.0
 20
9.0
  9
$UNITMODE
 70
     0
  9
$VISRETAIN
 70
     0
  9
$PLINEGEN
 70
     1
  9
$PSLTSCALE
 70
     0
  9
$TREEDEPTH
 70
  3020
  9
$CMLSTYLE
  2
Standard
  9
$CMLJUST
 70
     0
  9
$CMLSCALE
 40
1.0
  9
$PROXYGRAPHICS
 70
     1
  9
$MEASUREMENT
 70
     0
  9
$CELWEIGHT
370
    -1
  9
$ENDCAPS
280
     0
  9
$JOINSTYLE
280
     0
  9
$LWDISPLAY
290
     0
  9
$INSUNITS
 70
     0
  9
$HYPERLINKBASE
  1

  9
$STYLESHEET
  1

  9
$XEDIT
290
     1
  9
$CEPSNTYPE
380
     0
  9
$PSTYLEMODE
290
     1
  9
$FINGERPRINTGUID
  2
{F2D0C281-64AE-43D6-9CFB-0EB525933A63}
  9
$VERSIONGUID
  2
{8EECDD15-E5B8-4E6C-85C5-507C06D82D86}
  9
$EXTNAMES
290
     1
  9
$PSVPSCALE
 40
0.0
  9
$OLESTARTUP
290
     0
  0
ENDSEC
  0
SECTION
  2
CLASSES
  0
CLASS
  1
ACDBDICTIONARYWDFLT
  2
AcDbDictionaryWithDefault
  3
ObjectDBX Classes
 90
        0
280
     0
281
     0
  0
CLASS
  1
MATERIAL
  2
AcDbMaterial
  3
ObjectDBX Classes
 90
     1153
280
     0
281
     0
  0
CLASS
  1
VISUALSTYLE
  2
AcDbVisualStyle
  3
ObjectDBX Classes
 90
     4095
280
     0
281
     0
  0
CLASS
  1
SCALE
  2
AcDbScale
  3
ObjectDBX Classes
 90
     1153
280
     0
281
     0
  0
CLASS
  1
TABLESTYLE
  2
AcDbTableStyle
  3
ObjectDBX Classes
 90
     4095
280
     0
281
     0
  0
CLASS
  1
MLEADERSTYLE
  2
AcDbMLeaderStyle
  3
ACDB_MLEADERSTYLE_CLASS
 90
     4095
280
     0
281
     0
  0
CLASS
  1
DICTIONARYVAR
  2
AcDbDictionaryVar
  3
ObjectDBX Classes
 90
        0
280
     0
281
     0
  0
CLASS
  1
CELLSTYLEMAP
  2
AcDbCellStyleMap
  3
ObjectDBX Classes
 90
     1152
280
     0
281
     0
  0
CLASS
  1
ACDBPLACEHOLDER
  2
AcDbPlaceHolder
  3
ObjectDBX Classes
 90
        0
280
     0
281
     0
  0
CLASS
  1
LAYOUT
  2
AcDbLayout
  3
ObjectDBX Classes
 90
        0
280
     0
281
     0
  0
ENDSEC
  0
SECTION
  2
TABLES
  0
TABLE
  2
VPORT
  5
21C
330
0
100
AcDbSymbolTable
 70
     1
  0
VPORT
  5
28F
330
21C
100
AcDbSymbolTableRecord
100
AcDbViewportTableRecord
  2
*ACTIVE
 70
     0
 10
0.0
 20
0.0
 11
1.0
 21
1.0
 12
100.0000010477376
 22
135.8195956708089
 13
0.0
 23
0.0
 14
1.0
 24
1.0
 15
0.0
 25
0.0
 16
0.0
 26
0.0
 36
1.0
 17
0.0
 27
0.0
 37
0.0
 40
673.8872643738537
 41
1.964329643296433
 42
50.0
 43
0.0
 44
0.0
 50
0.0
 51
0.0
 71
     0
 72
  2000
 73
     1
 74
     1
 75
     0
 76
     0
 77
     0
 78
     0
281
     0
 65
     1
110
0.0
120
0.0
130
0.0
111
1.0
121
0.0
131
0.0
112
0.0
122
1.0
132
0.0
 79
     0
146
0.0
  0
ENDTAB
  0
TABLE
  2
LTYPE
  5
219
330
0
100
AcDbSymbolTable
 70
    11
  0
LTYPE
  5
279
330
219
100
AcDbSymbolTableRecord
100
AcDbLinetypeTableRecord
  2
ByBlock
 70
     0
  3

 72
    65
 73
     0
 40
0.0
  0
LTYPE
  5
27A
330
219
100
AcDbSymbolTableRecord
100
AcDbLinetypeTableRecord
  2
ByLayer
 70
     0
  3

 72
    65
 73
     0
 40
0.0
  0
LTYPE
  5
27B
330
219
100
AcDbSymbolTableRecord
100
AcDbLinetypeTableRecord
  2
CONTINUOUS
 70
     0
  3
Solid line
 72
    65
 73
     0
 40
0.0
  0
ENDTAB
  0
TABLE
  2
LAYER
  5
216
330
0
100
AcDbSymbolTable
 70
     5
  0
LAYER
  5
273
102
{ACAD_XDICTIONARY
360
2A2
102
}
330
216
100
AcDbSymbolTableRecord
100
AcDbLayerTableRecord
  2
0
 70
     0
 62
     7
  6
CONTINUOUS
370
    -3
390
223
  0
LAYER
  5
28E
102
{ACAD_XDICTIONARY
360
2A4
102
}
330
216
100
AcDbSymbolTableRecord
100
AcDbLayerTableRecord
  2
DATA
 70
     0
 62
     7
  6
CONTINUOUS
370
    -3
390
223
  0
LAYER
  5
29A
102
{ACAD_XDICTIONARY
360
2A6
102
}
330
216
100
AcDbSymbolTableRecord
100
AcDbLayerTableRecord
  2
HIBINO-BASE
 70
     0
 62
     7
  6
CONTINUOUS
370
    -3
390
223
  0
LAYER
  5
29B
102
{ACAD_XDICTIONARY
360
2A8
102
}
330
216
100
AcDbSymbolTableRecord
100
AcDbLayerTableRecord
  2
SPEC
 70
     0
 62
     7
  6
CONTINUOUS
370
    -3
390
223
  0
LAYER
  5
29C
102
{ACAD_XDICTIONARY
360
2AA
102
}
330
216
100
AcDbSymbolTableRecord
100
AcDbLayerTableRecord
  2
DIMNSIONS
 70
     0
 62
     7
  6
CONTINUOUS
370
    -3
390
223
  0
ENDTAB
  0
TABLE
  2
STYLE
  5
217
330
0
100
AcDbSymbolTable
 70
     3
  0
STYLE
  5
274
330
217
100
AcDbSymbolTableRecord
100
AcDbTextStyleTableRecord
  2
STANDARD
 70
     0
 40
0.0
 41
1.0
 50
0.0
 71
     0
 42
0.0
  3
txt
  4
BIGFONT.SHX
  0
ENDTAB
  0
TABLE
  2
VIEW
  5
21A
330
0
100
AcDbSymbolTable
 70
     0
  0
ENDTAB
  0
TABLE
  2
UCS
  5
21B
330
0
100
AcDbSymbolTable
 70
     0
  0
ENDTAB
  0
TABLE
  2
APPID
  5
21D
330
0
100
AcDbSymbolTable
 70
     3
  0
APPID
  5
275
330
21D
100
AcDbSymbolTableRecord
100
AcDbRegAppTableRecord
  2
ACAD
 70
     0
  0
APPID
  5
27C
330
21D
100
AcDbSymbolTableRecord
100
AcDbRegAppTableRecord
  2
AcadAnnotative
 70
     0
  0
APPID
  5
2E2
330
21D
100
AcDbSymbolTableRecord
100
AcDbRegAppTableRecord
  2
ACAD_MLEADERVER
 70
     0
  0
ENDTAB
  0
TABLE
  2
DIMSTYLE
  5
21E
330
0
100
AcDbSymbolTable
 70
     2
100
AcDbDimStyleTable
 71
     0
  0
DIMSTYLE
105
276
330
21E
100
AcDbSymbolTableRecord
100
AcDbDimStyleTableRecord
  2
STANDARD
 70
     0
279
     2
340
274
  0
ENDTAB
  0
TABLE
  2
BLOCK_RECORD
  5
215
330
0
100
AcDbSymbolTable
 70
     0
  0
BLOCK_RECORD
  5
28A
330
215
100
AcDbSymbolTableRecord
100
AcDbBlockTableRecord
  2
*Model_Space
340
28D
  0
BLOCK_RECORD
  5
286
330
215
100
AcDbSymbolTableRecord
100
AcDbBlockTableRecord
  2
*Paper_Space
340
289
  0
ENDTAB
  0
ENDSEC
  0
SECTION
  2
BLOCKS
  0
BLOCK
  5
28B
330
28A
100
AcDbEntity
  8
0
100
AcDbBlockBegin
  2
*Model_Space
 70
     0
 10
0.0
 20
0.0
 30
0.0
  3
*Model_Space
  1

  0
ENDBLK
  5
28C
330
28A
100
AcDbEntity
  8
0
100
AcDbBlockEnd
  0
BLOCK
  5
287
330
286
100
AcDbEntity
 67
     1
  8
0
100
AcDbBlockBegin
  2
*Paper_Space
 70
     0
 10
0.0
 20
0.0
 30
0.0
  3
*Paper_Space
  1

  0
ENDBLK
  5
288
330
286
100
AcDbEntity
 67
     1
  8
0
100
AcDbBlockEnd
  0
ENDSEC
  0
SECTION
  2
ENTITIES
  0
LINE
  5
2C
330
28A
100
AcDbEntity
  8
HIBINO-BASE
  6
Continuous
 62
     7
100
AcDbLine
 10
-125.0
 20
470.2774118203576
 30
0.0
 11
325.0
 21
470.2774118203576
 31
0.0
  0
LINE
  5
2D
330
28A
100
AcDbEntity
  8
HIBINO-BASE
  6
Continuous
 62
     7
100
AcDbLine
 10
325.0
 20
-179.7225881796422
 30
0.0
 11
-125.0
 21
-179.7225881796422
 31
0.0
  0
LINE
  5
2E
330
28A
100
AcDbEntity
  8
HIBINO-BASE
  6
Continuous
 62
     7
100
AcDbLine
 10
-125.0
 20
-179.7225881796422
 30
0.0
 11
-125.0
 21
470.2774118203576
 31
0.0
  0
LINE
  5
2F
330
28A
100
AcDbEntity
  8
HIBINO-BASE
  6
Continuous
 62
     7
100
AcDbLine
 10
325.0
 20
470.2774118203576
 30
0.0
 11
325.0
 21
-179.7225881796422
 31
0.0
  0
LINE
  5
30
330
28A
100
AcDbEntity
  8
HIBINO-BASE
  6
Continuous
 62
     7
100
AcDbLine
 10
100.0
 20
-123.4725881796421
 30
0.0
 11
325.0
 21
-123.4725881796421
 31
0.0
  0
LINE
  5
31
330
28A
100
AcDbEntity
  8
HIBINO-BASE
  6
Continuous
 62
     7
100
AcDbLine
 10
100.0
 20
-179.7225881796422
 30
0.0
 11
100.0
 21
-123.4725881796421
 31
0.0
  0
TEXT
  5
32
330
28A
100
AcDbEntity
  8
HIBINO-BASE
 62
     7
100
AcDbText
 10
102.25
 20
-129.7443215129755
 30
0.0
 40
4.072102864583333
  1
NOTE
 41
0.7
 11
102.25
 21
-125.6722186483921
 31
0.0
100
AcDbText
 73
     3
  0
LINE
  5
33
330
28A
100
AcDbEntity
  8
HIBINO-BASE
  6
Continuous
 62
     7
100
AcDbLine
 10
187.5
 20
-179.7225881796422
 30
0.0
 11
187.5
 21
-123.4725881796421
 31
0.0
  0
TEXT
  5
34
330
28A
100
AcDbEntity
  8
HIBINO-BASE
 62
     7
100
AcDbText
 10
189.75
 20
-129.7443215129755
 30
0.0
 40
4.072102864583333
  1
TITLE
 41
0.7
 11
189.75
 21
-125.6722186483921
 31
0.0
100
AcDbText
 73
     3
  0
LINE
  5
35
330
28A
100
AcDbEntity
  8
HIBINO-BASE
  6
Continuous
 62
     7
100
AcDbLine
 10
100.0
 20
-154.7225881796421
 30
0.0
 11
325.0
 21
-154.7225881796421
 31
0.0
  0
TEXT
  5
36
330
28A
100
AcDbEntity
  8
HIBINO-BASE
 62
     7
100
AcDbText
 10
221.0
 20
-160.8535215129755
 30
0.0
 40
4.072102864583333
  1
DRAWN
 41
0.7
 11
221.0
 21
-156.7814186483921
 31
0.0
100
AcDbText
 73
     3
  0
TEXT
  5
37
330
28A
100
AcDbEntity
  8
HIBINO-BASE
 62
     7
100
AcDbText
 10
158.5
 20
-160.8535215129755
 30
0.0
 40
4.072102864583333
  1
DATE
 41
0.7
 11
158.5
 21
-156.7814186483921
 31
0.0
100
AcDbText
 73
     3
  0
TEXT
  5
38
330
28A
100
AcDbEntity
  8
HIBINO-BASE
 62
     7
100
AcDbText
 10
133.5
 20
-160.8535215129755
 30
0.0
 40
4.072102864583333
  1
SCALE
 41
0.7
 11
133.5
 21
-156.7814186483921
 31
0.0
100
AcDbText
 73
     3
  0
TEXT
  5
39
330
28A
100
AcDbEntity
  8
HIBINO-BASE
 62
     7
100
AcDbText
 10
189.75
 20
-160.8535215129755
 30
0.0
 40
4.072102864583333
  1
DESIGN
 41
0.7
 11
189.75
 21
-156.7814186483921
 31
0.0
100
AcDbText
 73
     3
  0
TEXT
  5
3A
330
28A
100
AcDbEntity
  8
HIBINO-BASE
 62
     7
100
AcDbText
 10
283.4999999999999
 20
-160.8535215129755
 30
0.0
 40
4.072102864583333
  1
DRAWING NO.
 41
0.7
 11
283.4999999999999
 21
-156.7814186483921
 31
0.0
100
AcDbText
 73
     3
  0
TEXT
  5
3B
330
28A
100
AcDbEntity
  8
HIBINO-BASE
 62
     7
100
AcDbText
 10
252.25
 20
-160.8535215129755
 30
0.0
 40
4.072102864583333
  1
CHECK
 41
0.7
 11
252.25
 21
-156.7814186483921
 31
0.0
100
AcDbText
 73
     3
  0
LINE
  5
3C
330
28A
100
AcDbEntity
  8
HIBINO-BASE
  6
Continuous
 62
     7
100
AcDbLine
 10
135.9375
 20
-176.5975881796422
 30
0.0
 11
145.3125
 21
-167.2225881796421
 31
0.0
  0
TEXT
  5
3D
330
28A
100
AcDbEntity
  8
HIBINO-BASE
 62
     7
100
AcDbText
 10
134.375
 20
-169.9949465129755
 30
0.0
 40
4.072102864583333
  1
1
 41
0.7
 11
134.375
 21
-165.9228436483922
 31
0.0
100
AcDbText
 73
     3
  0
LINE
  5
3E
330
28A
100
AcDbEntity
  8
HIBINO-BASE
  6
Continuous
 62
     7
100
AcDbLine
 10
131.25
 20
-179.7225881796422
 30
0.0
 11
131.25
 21
-154.7225881796421
 31
0.0
  0
LINE
  5
3F
330
28A
100
AcDbEntity
  8
HIBINO-BASE
  6
Continuous
 62
     7
100
AcDbLine
 10
156.25
 20
-179.7225881796422
 30
0.0
 11
156.25
 21
-154.7225881796421
 31
0.0
  0
LINE
  5
40
330
28A
100
AcDbEntity
  8
HIBINO-BASE
  6
Continuous
 62
     7
100
AcDbLine
 10
218.75
 20
-154.7225881796421
 30
0.0
 11
218.75
 21
-179.7225881796422
 31
0.0
  0
LINE
  5
41
330
28A
100
AcDbEntity
  8
HIBINO-BASE
  6
Continuous
 62
     7
100
AcDbLine
 10
281.25
 20
-154.7225881796421
 30
0.0
 11
281.25
 21
-179.7225881796422
 31
0.0
  0
LINE
  5
42
330
28A
100
AcDbEntity
  8
HIBINO-BASE
  6
Continuous
 62
     7
100
AcDbLine
 10
250.0
 20
-179.7225881796422
 30
0.0
 11
250.0
 21
-154.7225881796421
 31
0.0
  0
TEXT
  5
43
330
28A
100
AcDbEntity
  8
HIBINO-BASE
 62
     7
100
AcDbText
 10
158.39135
 20
-172.5634715129755
 30
0.0
 40
4.072102864583333
  1
'09.07.
 41
0.7
 11
158.39135
 21
-168.4913686483922
 31
0.0
100
AcDbText
 73
     3
  0
TEXT
  5
44
330
28A
100
AcDbEntity
  8
HIBINO-BASE
 62
     7
100
AcDbText
 10
143.75
 20
-174.6824465129755
 30
0.0
 40
4.072102864583333
  1
2.5
 41
0.7
 11
143.75
 21
-170.6103436483922
 31
0.0
100
AcDbText
 73
     3
  0
TEXT
  5
45
330
28A
100
AcDbEntity
  8
HIBINO-BASE
 62
     7
100
AcDbText
 10
109.7083333333333
 20
-174.7825881796422
 30
0.0
 40
8.144205729166666
  1
A4
 41
0.7
 11
109.7083333333333
 21
-166.6383824504755
 31
0.0
100
AcDbText
 73
     3
  0
TEXT
  5
46
330
28A
100
AcDbEntity
  8
HIBINO-BASE
 62
     7
100
AcDbText
 10
102.3958333333333
 20
-161.2712256796422
 30
0.0
 40
4.072102864583333
  1
PAPER SIZE
 41
0.7
 11
102.3958333333333
 21
-157.1991228150588
 31
0.0
100
AcDbText
 73
     3
  0
TEXT
  5
47
330
28A
100
AcDbEntity
  8
HIBINO-BASE
 62
     7
100
AcDbText
 10
-117.7144731330047
 20
-195.7088220252791
 30
0.0
 40
8.822889539930553
  1
Hibino-Intersound Corporation
 41
0.7
 11
-117.7144731330047
 21
-186.8859324853486
 31
0.0
100
AcDbText
 73
     3
  0
TEXT
  5
48
330
28A
100
AcDbEntity
  8
HIBINO-BASE
 62
     7
100
AcDbText
 10
151.6149165099695
 20
-194.9329745241309
 30
0.0
 40
8.822889539930553
  1
ヒビノインターサウンド株式会社
 41
0.7
 11
151.6149165099695
 21
-186.1100849842003
 31
0.0
100
AcDbText
 73
     3
  0
TEXT
  5
49
330
28A
100
AcDbEntity
  8
HIBINO-BASE
 62
     7
100
AcDbText
 10
224.0005694961744
 20
-172.3488347417013
 30
0.0
 40
4.072102864583333
  1
T.Ootake
 41
0.7
 11
224.0005694961744
 21
-168.276731877118
 31
0.0
100
AcDbText
 73
     3
  0
LINE
  5
4A
330
28A
100
AcDbEntity
  8
SPEC
  6
Continuous
 62
     7
100
AcDbLine
 10
-106.25
 20
445.2774118203576
 30
0.0
 11
262.5
 21
445.2774118203576
 31
0.0
  0
LINE
  5
4B
330
28A
100
AcDbEntity
  8
SPEC
  6
Continuous
 62
     7
100
AcDbLine
 10
-106.25
 20
435.9024118203576
 30
0.0
 11
262.5
 21
435.9024118203576
 31
0.0
  0
LINE
  5
4C
330
28A
100
AcDbEntity
  8
SPEC
  6
Continuous
 62
     7
100
AcDbLine
 10
-106.25
 20
398.4024118203576
 30
0.0
 11
262.5
 21
398.4024118203576
 31
0.0
  0
LINE
  5
4D
330
28A
100
AcDbEntity
  8
SPEC
  6
Continuous
 62
     7
100
AcDbLine
 10
-106.25
 20
389.0274118203576
 30
0.0
 11
262.5
 21
389.0274118203576
 31
0.0
  0
LINE
  5
4E
330
28A
100
AcDbEntity
  8
SPEC
  6
Continuous
 62
     7
100
AcDbLine
 10
-106.25
 20
370.2774118203576
 30
0.0
 11
262.5
 21
370.2774118203576
 31
0.0
  0
LINE
  5
4F
330
28A
100
AcDbEntity
  8
SPEC
  6
Continuous
 62
     7
100
AcDbLine
 10
-106.25
 20
379.6524118203576
 30
0.0
 11
262.5
 21
379.6524118203576
 31
0.0
  0
LINE
  5
50
330
28A
100
AcDbEntity
  8
SPEC
  6
Continuous
 62
     7
100
AcDbLine
 10
-106.25
 20
360.9024118203576
 30
0.0
 11
262.5
 21
360.9024118203576
 31
0.0
  0
LINE
  5
51
330
28A
100
AcDbEntity
  8
SPEC
  6
Continuous
 62
     7
100
AcDbLine
 10
-106.25
 20
351.5274118203576
 30
0.0
 11
262.5
 21
351.5274118203576
 31
0.0
  0
LINE
  5
52
330
28A
100
AcDbEntity
  8
SPEC
  6
Continuous
 62
     7
100
AcDbLine
 10
-106.25
 20
426.5274118203576
 30
0.0
 11
262.5
 21
426.5274118203576
 31
0.0
  0
LINE
  5
53
330
28A
100
AcDbEntity
  8
SPEC
  6
Continuous
 62
     7
100
AcDbLine
 10
-106.25
 20
445.2774118203576
 30
0.0
 11
-106.25
 21
351.5274118203576
 31
0.0
  0
TEXT
  5
54
330
28A
100
AcDbEntity
  8
SPEC
 62
     7
100
AcDbText
 10
-103.125
 20
448.7605868203577
 30
0.0
 40
6.108154296875
  1
仕様
 41
0.7
 11
-103.125
 21
454.8687411172327
 31
0.0
100
AcDbText
 73
     3
  0
LINE
  5
55
330
28A
100
AcDbEntity
  8
SPEC
  6
Continuous
 62
     7
100
AcDbLine
 10
-25.0
 20
445.2774118203576
 30
0.0
 11
-25.0
 21
351.5274118203576
 31
0.0
  0
LINE
  5
56
330
28A
100
AcDbEntity
  8
SPEC
  6
Continuous
 62
     7
100
AcDbLine
 10
262.5
 20
445.2774118203576
 30
0.0
 11
262.5
 21
351.5274118203576
 31
0.0
  0
TEXT
  5
57
330
28A
100
AcDbEntity
  8
SPEC
 62
     7
100
AcDbText
 10
-104.1364155701091
 20
438.1450469605759
 30
0.0
 40
4.750778124999999
  1
形式
 41
0.7
 11
-104.1364155701091
 21
442.8958250855759
 31
0.0
100
AcDbText
 73
     3
  0
TEXT
  5
58
330
28A
100
AcDbEntity
  8
SPEC
 62
     7
100
AcDbText
 10
-22.67197284394149
 20
437.8758617328302
 30
0.0
 40
4.750786675347223
  1
4\U+00D71 3G-SDI切替機
 41
0.7
 11
-22.67197284394149
 21
442.6266484081775
 31
0.0
100
AcDbText
 73
     3
  0
TEXT
  5
59
330
28A
100
AcDbEntity
  8
SPEC
 62
     7
100
AcDbText
 10
-104.1364155701091
 20
428.7650469605759
 30
0.0
 40
4.750778124999999
  1
フォーマットサポート
 41
0.7
 11
-104.1364155701091
 21
433.515825085576
 31
0.0
100
AcDbText
 73
     3
  0
TEXT
  5
5A
330
28A
100
AcDbEntity
  8
SPEC
 62
     7
100
AcDbText
 10
-22.67197284394149
 20
428.4958617328302
 30
0.0
 40
4.750786675347223
  1
NTSC,PAL,全てのHDフォーマット
 41
0.7
 11
-22.67197284394149
 21
433.2466484081774
 31
0.0
100
AcDbText
 73
     3
  0
TEXT
  5
5B
330
28A
100
AcDbEntity
  8
SPEC
 62
     7
100
AcDbText
 10
-104.1364155701091
 20
419.3850469605759
 30
0.0
 40
4.750778124999999
  1
入出力端子
 41
0.7
 11
-104.1364155701091
 21
424.135825085576
 31
0.0
100
AcDbText
 73
     3
  0
TEXT
  5
5C
330
28A
100
AcDbEntity
  8
SPEC
 62
     7
100
AcDbText
 10
-22.67197284394149
 20
419.1158617328302
 30
0.0
 40
4.750786675347223
  1
HD-SDI-SMPTE 292M(1.485,1.485/1.001Gbps)
 41
0.7
 11
-22.67197284394149
 21
423.8666484081774
 31
0.0
100
AcDbText
 73
     3
  0
TEXT
  5
5D
330
28A
100
AcDbEntity
  8
SPEC
 62
     7
100
AcDbText
 10
-104.1364155701091
 20
391.245046960576
 30
0.0
 40
4.750778124999999
  1
リンクコネクター
 41
0.7
 11
-104.1364155701091
 21
395.9958250855761
 31
0.0
100
AcDbText
 73
     3
  0
TEXT
  5
5E
330
28A
100
AcDbEntity
  8
SPEC
 62
     7
100
AcDbText
 10
-22.67197284394149
 20
390.9758617328302
 30
0.0
 40
4.750786675347223
  1
BNCメス
 41
0.7
 11
-22.67197284394149
 21
395.7266484081774
 31
0.0
100
AcDbText
 73
     3
  0
TEXT
  5
5F
330
28A
100
AcDbEntity
  8
SPEC
 62
     7
100
AcDbText
 10
-22.67197284394149
 20
409.7358617328302
 30
0.0
 40
4.750786675347223
  1
HD-SDI-SMPTE 424M/424M(2.97/3.0Gbps)
 41
0.7
 11
-22.67197284394149
 21
414.4866484081775
 31
0.0
100
AcDbText
 73
     3
  0
TEXT
  5
60
330
28A
100
AcDbEntity
  8
SPEC
 62
     7
100
AcDbText
 10
-22.67197284394149
 20
400.3558617328302
 30
0.0
 40
4.750786675347223
  1
SDI-SMPTE 259M-C(270Mbps)
 41
0.7
 11
-22.67197284394149
 21
405.1066484081775
 31
0.0
100
AcDbText
 73
     3
  0
TEXT
  5
61
330
28A
100
AcDbEntity
  8
SPEC
 62
     7
100
AcDbText
 10
-104.1996172103782
 20
363.3534504900676
 30
0.0
 40
4.750786675347223
  1
寸法
 41
0.7
 11
-104.1996172103782
 21
368.1042371654148
 31
0.0
100
AcDbText
 73
     3
  0
TEXT
  5
62
330
28A
100
AcDbEntity
  8
SPEC
 62
     7
100
AcDbText
 10
-104.0833232438807
 20
353.6804414923377
 30
0.0
 40
4.750786675347223
  1
重量
 41
0.7
 11
-104.0833232438807
 21
358.431228167685
 31
0.0
100
AcDbText
 73
     3
  0
TEXT
  5
63
330
28A
100
AcDbEntity
  8
SPEC
 62
     7
100
AcDbText
 10
-104.0679233596937
 20
372.6742845942554
 30
0.0
 40
4.750786675347223
  1
消費電力
 41
0.7
 11
-104.0679233596937
 21
377.4250712696026
 31
0.0
100
AcDbText
 73
     3
  0
TEXT
  5
64
330
28A
100
AcDbEntity
  8
SPEC
 62
     7
100
AcDbText
 10
-23.10136880361092
 20
372.6004117452129
 30
0.0
 40
4.750786675347223
  1
10W(最大)
 41
0.7
 11
-23.10136880361092
 21
377.3511984205601
 31
0.0
100
AcDbText
 73
     3
  0
TEXT
  5
65
330
28A
100
AcDbEntity
  8
SPEC
 62
     7
100
AcDbText
 10
-22.72549930623897
 20
363.3068234167447
 30
0.0
 40
4.750786675347223
  1
192(W)\U+00D730(H)\U+00D788(D)mm(突起部含まず)
 41
0.7
 11
-22.72549930623897
 21
368.057610092092
 31
0.0
100
AcDbText
 73
     3
  0
TEXT
  5
66
330
28A
100
AcDbEntity
  8
SPEC
 62
     7
100
AcDbText
 10
-22.83578819845109
 20
354.211328015512
 30
0.0
 40
4.750786675347223
  1
約330g
 41
0.7
 11
-22.83578819845109
 21
358.9621146908592
 31
0.0
100
AcDbText
 73
     3
  0
TEXT
  5
67
330
28A
100
AcDbEntity
  8
SPEC
 62
     7
100
AcDbText
 10
-104.1350650034607
 20
381.9200013067215
 30
0.0
 40
4.750786675347223
  1
電源
 41
0.7
 11
-104.1350650034607
 21
386.6707879820688
 31
0.0
100
AcDbText
 73
     3
  0
TEXT
  5
68
330
28A
100
AcDbEntity
  8
SPEC
 62
     7
100
AcDbText
 10
-23.03307101226571
 20
381.9135866822988
 30
0.0
 40
4.750786675347223
  1
5V DC
 41
0.7
 11
-23.03307101226571
 21
386.664373357646
 31
0.0
100
AcDbText
 73
     3
  0
TEXT
  5
69
330
28A
100
AcDbEntity
  8
DIMNSIONS
 62
     7
100
AcDbText
 10
50.0
 20
-149.0488631796423
 30
0.0
 40
6.108154296875
  1
(単位：mm)
 41
0.7
 11
50.0
 21
-142.9407088827672
 31
0.0
100
AcDbText
 73
     3
  0
LINE
  5
6A
330
28A
100
AcDbEntity
  8
DIMNSIONS
  6
Continuous
 62
     7
100
AcDbLine
 10
-67.50000000000001
 20
-31.25
 30
0.0
 11
-86.25000000000001
 21
-31.25
 31
0.0
  0
LINE
  5
6B
330
28A
100
AcDbEntity
  8
DIMNSIONS
  6
Continuous
 62
     7
100
AcDbLine
 10
-67.50000000000001
 20
-1.25
 30
0.0
 11
-86.25000000000001
 21
-1.25
 31
0.0
  0
LINE
  5
6C
330
28A
100
AcDbEntity
  8
DIMNSIONS
  6
Continuous
 62
     7
100
AcDbLine
 10
-81.25000000000001
 20
-31.25
 30
0.0
 11
-81.25000000000001
 21
-1.25
 31
0.0
  0
LINE
  5
6D
330
28A
100
AcDbEntity
  8
DIMNSIONS
  6
Continuous
 62
     7
100
AcDbLine
 10
-81.25000000000001
 20
-31.25
 30
0.0
 11
-82.92509948787563
 21
-24.99844360351563
 31
0.0
  0
LINE
  5
6E
330
28A
100
AcDbEntity
  8
DIMNSIONS
  6
Continuous
 62
     7
100
AcDbLine
 10
-81.25000000000001
 20
-31.25
 30
0.0
 11
-79.57490051212443
 21
-24.99844360351563
 31
0.0
  0
LINE
  5
6F
330
28A
100
AcDbEntity
  8
DIMNSIONS
  6
Continuous
 62
     7
100
AcDbLine
 10
-81.25000000000001
 20
-1.25
 30
0.0
 11
-79.57490051212443
 21
-7.501556396484375
 31
0.0
  0
LINE
  5
70
330
28A
100
AcDbEntity
  8
DIMNSIONS
  6
Continuous
 62
     7
100
AcDbLine
 10
-81.25000000000001
 20
-1.25
 30
0.0
 11
-82.92509948787563
 21
-7.501556396484375
 31
0.0
  0
TEXT
  5
71
330
28A
100
AcDbEntity
  8
DIMNSIONS
 62
     7
100
AcDbText
 10
-83.73472222222225
 20
-20.65972222222223
 30
0.0
 40
6.786838107638888
  1
30
 50
90.0
 41
0.7
 11
-90.52156032986115
 21
-20.65972222222223
 31
0.0
100
AcDbText
 73
     3
  0
LINE
  5
72
330
28A
100
AcDbEntity
  8
DIMNSIONS
  6
Continuous
 62
     7
100
AcDbLine
 10
-62.50000000000002
 20
-36.25
 30
0.0
 11
-62.50000000000002
 21
-55.0
 31
0.0
  0
LINE
  5
73
330
28A
100
AcDbEntity
  8
DIMNSIONS
  6
Continuous
 62
     7
100
AcDbLine
 10
129.5
 20
-36.25
 30
0.0
 11
129.5
 21
-55.0
 31
0.0
  0
LINE
  5
74
330
28A
100
AcDbEntity
  8
DIMNSIONS
  6
Continuous
 62
     7
100
AcDbLine
 10
-62.50000000000002
 20
-50.0
 30
0.0
 11
129.5
 21
-50.0
 31
0.0
  0
LINE
  5
75
330
28A
100
AcDbEntity
  8
DIMNSIONS
  6
Continuous
 62
     7
100
AcDbLine
 10
-62.50000000000002
 20
-50.0
 30
0.0
 11
-56.24844360351564
 21
-48.32490051212439
 31
0.0
  0
LINE
  5
76
330
28A
100
AcDbEntity
  8
DIMNSIONS
  6
Continuous
 62
     7
100
AcDbLine
 10
-62.50000000000002
 20
-50.0
 30
0.0
 11
-56.24844360351564
 21
-51.67509948787561
 31
0.0
  0
LINE
  5
77
330
28A
100
AcDbEntity
  8
DIMNSIONS
  6
Continuous
 62
     7
100
AcDbLine
 10
129.5
 20
-50.0
 30
0.0
 11
123.2484436035156
 21
-51.67509948787561
 31
0.0
  0
LINE
  5
78
330
28A
100
AcDbEntity
  8
DIMNSIONS
  6
Continuous
 62
     7
100
AcDbLine
 10
129.5
 20
-50.0
 30
0.0
 11
123.2484436035156
 21
-48.32490051212439
 31
0.0
  0
TEXT
  5
79
330
28A
100
AcDbEntity
  8
DIMNSIONS
 62
     7
100
AcDbText
 10
26.88541666666666
 20
-47.51527777777775
 30
0.0
 40
6.786838107638888
  1
192
 41
0.7
 11
26.88541666666666
 21
-40.72843967013887
 31
0.0
100
AcDbText
 73
     3
  0
LINE
  5
7A
330
28A
100
AcDbEntity
  8
DIMNSIONS
  6
Continuous
 62
     7
100
AcDbLine
 10
-61.26149118418657
 20
-35.25
 30
0.0
 11
-86.25000000000001
 21
-35.25
 31
0.0
  0
LINE
  5
7B
330
28A
100
AcDbEntity
  8
DIMNSIONS
  6
Continuous
 62
     7
100
AcDbLine
 10
-67.50000000000001
 20
-31.25
 30
0.0
 11
-86.25000000000001
 21
-31.25
 31
0.0
  0
LINE
  5
7C
330
28A
100
AcDbEntity
  8
DIMNSIONS
  6
Continuous
 62
     7
100
AcDbLine
 10
-81.25000000000001
 20
-31.25
 30
0.0
 11
-81.25000000000001
 21
-35.25
 31
0.0
  0
LINE
  5
7D
330
28A
100
AcDbEntity
  8
DIMNSIONS
  6
Continuous
 62
     7
100
AcDbLine
 10
-81.25000000000001
 20
-35.25
 30
0.0
 11
-81.25000000000001
 21
-48.15972222222222
 31
0.0
  0
LINE
  5
7E
330
28A
100
AcDbEntity
  8
DIMNSIONS
  6
Continuous
 62
     7
100
AcDbLine
 10
-81.25000000000001
 20
-35.25
 30
0.0
 11
-79.57490051212443
 21
-41.50155639648438
 31
0.0
  0
LINE
  5
7F
330
28A
100
AcDbEntity
  8
DIMNSIONS
  6
Continuous
 62
     7
100
AcDbLine
 10
-81.25000000000001
 20
-35.25
 30
0.0
 11
-82.92509948787563
 21
-41.50155639648438
 31
0.0
  0
LINE
  5
80
330
28A
100
AcDbEntity
  8
DIMNSIONS
  6
Continuous
 62
     7
100
AcDbLine
 10
-81.25000000000001
 20
-31.25
 30
0.0
 11
-81.25000000000001
 21
-18.75
 31
0.0
  0
LINE
  5
81
330
28A
100
AcDbEntity
  8
DIMNSIONS
  6
Continuous
 62
     7
100
AcDbLine
 10
-81.25000000000001
 20
-31.25
 30
0.0
 11
-82.92509948787563
 21
-24.99844360351563
 31
0.0
  0
LINE
  5
82
330
28A
100
AcDbEntity
  8
DIMNSIONS
  6
Continuous
 62
     7
100
AcDbLine
 10
-81.25000000000001
 20
-31.25
 30
0.0
 11
-79.57490051212443
 21
-24.99844360351563
 31
0.0
  0
TEXT
  5
83
330
28A
100
AcDbEntity
  8
DIMNSIONS
 62
     7
100
AcDbText
 10
-83.73472222222225
 20
-48.15972222222222
 30
0.0
 40
6.786838107638888
  1
4
 50
90.0
 41
0.7
 11
-90.52156032986115
 21
-48.15972222222222
 31
0.0
100
AcDbText
 73
     3
  0
LINE
  5
84
330
28A
100
AcDbEntity
  8
DIMNSIONS
  6
Continuous
 62
     7
100
AcDbLine
 10
-67.50000000000001
 20
43.75
 30
0.0
 11
-86.25000000000001
 21
43.75
 31
0.0
  0
LINE
  5
85
330
28A
100
AcDbEntity
  8
DIMNSIONS
  6
Continuous
 62
     7
100
AcDbLine
 10
-67.50000000000001
 20
131.75
 30
0.0
 11
-86.25000000000001
 21
131.75
 31
0.0
  0
LINE
  5
86
330
28A
100
AcDbEntity
  8
DIMNSIONS
  6
Continuous
 62
     7
100
AcDbLine
 10
-81.25000000000001
 20
43.75
 30
0.0
 11
-81.25000000000001
 21
131.75
 31
0.0
  0
LINE
  5
87
330
28A
100
AcDbEntity
  8
DIMNSIONS
  6
Continuous
 62
     7
100
AcDbLine
 10
-81.25000000000001
 20
43.75
 30
0.0
 11
-82.92509948787563
 21
50.00155639648438
 31
0.0
  0
LINE
  5
88
330
28A
100
AcDbEntity
  8
DIMNSIONS
  6
Continuous
 62
     7
100
AcDbLine
 10
-81.25000000000001
 20
43.75
 30
0.0
 11
-79.57490051212443
 21
50.00155639648438
 31
0.0
  0
LINE
  5
89
330
28A
100
AcDbEntity
  8
DIMNSIONS
  6
Continuous
 62
     7
100
AcDbLine
 10
-81.25000000000001
 20
131.75
 30
0.0
 11
-79.57490051212443
 21
125.4984436035156
 31
0.0
  0
LINE
  5
8A
330
28A
100
AcDbEntity
  8
DIMNSIONS
  6
Continuous
 62
     7
100
AcDbLine
 10
-81.25000000000001
 20
131.75
 30
0.0
 11
-82.92509948787563
 21
125.4984436035156
 31
0.0
  0
TEXT
  5
8B
330
28A
100
AcDbEntity
  8
DIMNSIONS
 62
     7
100
AcDbText
 10
-83.73472222222225
 20
83.34027777777777
 30
0.0
 40
6.786838107638888
  1
88
 50
90.0
 41
0.7
 11
-90.52156032986115
 21
83.34027777777777
 31
0.0
100
AcDbText
 73
     3
  0
LINE
  5
8C
330
28A
100
AcDbEntity
  8
DIMNSIONS
  6
Continuous
 62
     7
100
AcDbLine
 10
95.79999999999998
 20
38.75
 30
0.0
 11
-86.25000000000001
 21
38.75
 31
0.0
  0
LINE
  5
8D
330
28A
100
AcDbEntity
  8
DIMNSIONS
  6
Continuous
 62
     7
100
AcDbLine
 10
-67.50000000000001
 20
43.75
 30
0.0
 11
-86.25000000000001
 21
43.75
 31
0.0
  0
LINE
  5
8E
330
28A
100
AcDbEntity
  8
DIMNSIONS
  6
Continuous
 62
     7
100
AcDbLine
 10
-81.25000000000001
 20
43.75
 30
0.0
 11
-81.25000000000001
 21
38.75
 31
0.0
  0
LINE
  5
8F
330
28A
100
AcDbEntity
  8
DIMNSIONS
  6
Continuous
 62
     7
100
AcDbLine
 10
-81.25000000000001
 20
38.75
 30
0.0
 11
-81.25000000000001
 21
26.84027777777777
 31
0.0
  0
LINE
  5
90
330
28A
100
AcDbEntity
  8
DIMNSIONS
  6
Continuous
 62
     7
100
AcDbLine
 10
-81.25000000000001
 20
38.75
 30
0.0
 11
-79.57490051212443
 21
32.49844360351563
 31
0.0
  0
LINE
  5
91
330
28A
100
AcDbEntity
  8
DIMNSIONS
  6
Continuous
 62
     7
100
AcDbLine
 10
-81.25000000000001
 20
38.75
 30
0.0
 11
-82.92509948787563
 21
32.49844360351563
 31
0.0
  0
LINE
  5
92
330
28A
100
AcDbEntity
  8
DIMNSIONS
  6
Continuous
 62
     7
100
AcDbLine
 10
-81.25000000000001
 20
43.75
 30
0.0
 11
-81.25000000000001
 21
56.25
 31
0.0
  0
LINE
  5
93
330
28A
100
AcDbEntity
  8
DIMNSIONS
  6
Continuous
 62
     7
100
AcDbLine
 10
-81.25000000000001
 20
43.75
 30
0.0
 11
-82.92509948787563
 21
50.00155639648438
 31
0.0
  0
LINE
  5
94
330
28A
100
AcDbEntity
  8
DIMNSIONS
  6
Continuous
 62
     7
100
AcDbLine
 10
-81.25000000000001
 20
43.75
 30
0.0
 11
-79.57490051212443
 21
50.00155639648438
 31
0.0
  0
TEXT
  5
95
330
28A
100
AcDbEntity
  8
DIMNSIONS
 62
     7
100
AcDbText
 10
-83.73472222222225
 20
26.84027777777777
 30
0.0
 40
6.786838107638888
  1
5
 50
90.0
 41
0.7
 11
-90.52156032986115
 21
26.84027777777777
 31
0.0
100
AcDbText
 73
     3
  0
LINE
  5
96
330
28A
100
AcDbEntity
  8
DIMNSIONS
  6
Continuous
 62
     7
100
AcDbLine
 10
-67.50000000000001
 20
131.75
 30
0.0
 11
-86.25000000000001
 21
131.75
 31
0.0
  0
LINE
  5
97
330
28A
100
AcDbEntity
  8
DIMNSIONS
  6
Continuous
 62
     7
100
AcDbLine
 10
6.749999999999985
 20
148.75
 30
0.0
 11
-86.25000000000001
 21
148.75
 31
0.0
  0
LINE
  5
98
330
28A
100
AcDbEntity
  8
DIMNSIONS
  6
Continuous
 62
     7
100
AcDbLine
 10
-81.25000000000001
 20
131.75
 30
0.0
 11
-81.25000000000001
 21
148.75
 31
0.0
  0
LINE
  5
99
330
28A
100
AcDbEntity
  8
DIMNSIONS
  6
Continuous
 62
     7
100
AcDbLine
 10
-81.25000000000001
 20
131.75
 30
0.0
 11
-82.92509948787563
 21
138.0015563964843
 31
0.0
  0
LINE
  5
9A
330
28A
100
AcDbEntity
  8
DIMNSIONS
  6
Continuous
 62
     7
100
AcDbLine
 10
-81.25000000000001
 20
131.75
 30
0.0
 11
-79.57490051212443
 21
138.0015563964843
 31
0.0
  0
LINE
  5
9B
330
28A
100
AcDbEntity
  8
DIMNSIONS
  6
Continuous
 62
     7
100
AcDbLine
 10
-81.25000000000001
 20
148.75
 30
0.0
 11
-79.57490051212443
 21
142.4984436035156
 31
0.0
  0
LINE
  5
9C
330
28A
100
AcDbEntity
  8
DIMNSIONS
  6
Continuous
 62
     7
100
AcDbLine
 10
-81.25000000000001
 20
148.75
 30
0.0
 11
-82.92509948787563
 21
142.4984436035156
 31
0.0
  0
TEXT
  5
9D
330
28A
100
AcDbEntity
  8
DIMNSIONS
 62
     7
100
AcDbText
 10
-83.73472222222225
 20
135.8402777777778
 30
0.0
 40
6.786838107638888
  1
17
 50
90.0
 41
0.7
 11
-90.52156032986115
 21
135.8402777777778
 31
0.0
100
AcDbText
 73
     3
  0
TEXT
  5
9E
330
28A
100
AcDbEntity
  8
DATA
 62
     7
100
AcDbText
 10
-100.0
 20
-169.1275881796421
 30
0.0
 40
4.072102864583333
  1
仕様および外観は予告なく変更されることがありますので、ご了承ください。
 41
0.7
 11
-100.0
 21
-165.0554853150588
 31
0.0
100
AcDbText
 73
     3
  0
LINE
  5
9F
330
28A
100
AcDbEntity
  8
DATA
  6
Continuous
 62
     7
100
AcDbLine
 10
-62.50000000000002
 20
-31.25
 30
0.0
 11
-62.50000000000002
 21
-1.25
 31
0.0
  0
LINE
  5
A0
330
28A
100
AcDbEntity
  8
DATA
  6
Continuous
 62
     7
100
AcDbLine
 10
129.5
 20
-31.25
 30
0.0
 11
-62.50000000000002
 21
-31.25
 31
0.0
  0
LINE
  5
A1
330
28A
100
AcDbEntity
  8
DATA
  6
Continuous
 62
     7
100
AcDbLine
 10
129.5
 20
-1.25
 30
0.0
 11
129.5
 21
-31.25
 31
0.0
  0
LINE
  5
A2
330
28A
100
AcDbEntity
  8
DATA
  6
Continuous
 62
     7
100
AcDbLine
 10
-62.50000000000002
 20
-1.25
 30
0.0
 11
129.5
 21
-1.25
 31
0.0
  0
LINE
  5
A3
330
28A
100
AcDbEntity
  8
DATA
  6
Continuous
 62
     7
100
AcDbLine
 10
181.25
 20
-31.25
 30
0.0
 11
181.25
 21
-1.25
 31
0.0
  0
LINE
  5
A4
330
28A
100
AcDbEntity
  8
DATA
  6
Continuous
 62
     7
100
AcDbLine
 10
269.25
 20
-31.25
 30
0.0
 11
181.25
 21
-31.25
 31
0.0
  0
LINE
  5
A5
330
28A
100
AcDbEntity
  8
DATA
  6
Continuous
 62
     7
100
AcDbLine
 10
269.25
 20
-1.25
 30
0.0
 11
269.25
 21
-31.25
 31
0.0
  0
LINE
  5
A6
330
28A
100
AcDbEntity
  8
DATA
  6
Continuous
 62
     7
100
AcDbLine
 10
181.25
 20
-1.25
 30
0.0
 11
269.25
 21
-1.25
 31
0.0
  0
LINE
  5
A7
330
28A
100
AcDbEntity
  8
DATA
  6
Continuous
 62
     7
100
AcDbLine
 10
-62.50000000000002
 20
43.75
 30
0.0
 11
-62.50000000000002
 21
131.75
 31
0.0
  0
LINE
  5
A8
330
28A
100
AcDbEntity
  8
DATA
  6
Continuous
 62
     7
100
AcDbLine
 10
129.5
 20
43.75
 30
0.0
 11
-62.50000000000002
 21
43.75
 31
0.0
  0
LINE
  5
A9
330
28A
100
AcDbEntity
  8
DATA
  6
Continuous
 62
     7
100
AcDbLine
 10
129.5
 20
131.75
 30
0.0
 11
129.5
 21
43.75
 31
0.0
  0
LINE
  5
AA
330
28A
100
AcDbEntity
  8
DATA
  6
Continuous
 62
     7
100
AcDbLine
 10
-62.50000000000002
 20
131.75
 30
0.0
 11
129.5
 21
131.75
 31
0.0
  0
LINE
  5
AB
330
28A
100
AcDbEntity
  8
DATA
  6
Continuous
 62
     7
100
AcDbLine
 10
-56.26149118418657
 20
-35.25
 30
0.0
 11
-57.51149118418657
 21
-31.25
 31
0.0
  0
LINE
  5
AC
330
28A
100
AcDbEntity
  8
DATA
  6
Continuous
 62
     7
100
AcDbLine
 10
-46.76149118418657
 20
-35.25
 30
0.0
 11
-45.51149118418657
 21
-31.25
 31
0.0
  0
LINE
  5
AD
330
28A
100
AcDbEntity
  8
DATA
  6
Continuous
 62
     7
100
AcDbLine
 10
-56.26149118418657
 20
-35.25
 30
0.0
 11
-46.76149118418657
 21
-35.25
 31
0.0
  0
LINE
  5
AE
330
28A
100
AcDbEntity
  8
DATA
  6
Continuous
 62
     7
100
AcDbLine
 10
123.2614911841865
 20
-35.25
 30
0.0
 11
124.5114911841865
 21
-31.25
 31
0.0
  0
LINE
  5
AF
330
28A
100
AcDbEntity
  8
DATA
  6
Continuous
 62
     7
100
AcDbLine
 10
113.7614911841865
 20
-35.25
 30
0.0
 11
112.5114911841865
 21
-31.25
 31
0.0
  0
LINE
  5
B0
330
28A
100
AcDbEntity
  8
DATA
  6
Continuous
 62
     7
100
AcDbLine
 10
123.2614911841865
 20
-35.25
 30
0.0
 11
113.7614911841865
 21
-35.25
 31
0.0
  0
CIRCLE
  5
B1
330
28A
100
AcDbEntity
  8
DATA
  6
Continuous
 62
     7
100
AcDbCircle
 10
105.5
 20
-20.25
 30
0.0
 40
4.699999999999999
  0
TEXT
  5
B2
330
28A
100
AcDbEntity
  8
DATA
 62
     7
100
AcDbText
 10
57.06598349825733
 20
-19.69522222201502
 30
0.0
 40
6.786838107638888
  1
4\U+00D713GSDI
 41
0.7
 11
57.06598349825733
 21
-12.90838411437613
 31
0.0
100
AcDbText
 73
     3
  0
TEXT
  5
B3
330
28A
100
AcDbEntity
  8
DATA
 62
     7
100
AcDbText
 10
67.70140624942254
 20
-26.77300553497696
 30
0.0
 40
5.429470486111111
  1
Switcher
 41
0.7
 11
67.70140624942254
 21
-21.34353504886585
 31
0.0
100
AcDbText
 73
     3
  0
CIRCLE
  5
B4
330
28A
100
AcDbEntity
  8
DATA
  6
Continuous
 62
     7
100
AcDbCircle
 10
-41.50000000000001
 20
-17.25
 30
0.0
 40
2.5
  0
CIRCLE
  5
B5
330
28A
100
AcDbEntity
  8
DATA
  6
Continuous
 62
     7
100
AcDbCircle
 10
-24.50000000000001
 20
-17.25
 30
0.0
 40
1.400000000000005
  0
CIRCLE
  5
B6
330
28A
100
AcDbEntity
  8
DATA
  6
Continuous
 62
     7
100
AcDbCircle
 10
-4.500000000000014
 20
-17.25
 30
0.0
 40
1.299999999999997
  0
CIRCLE
  5
B7
330
28A
100
AcDbEntity
  8
DATA
  6
Continuous
 62
     7
100
AcDbCircle
 10
3.999999999999985
 20
-17.25
 30
0.0
 40
1.299999999999997
  0
CIRCLE
  5
B8
330
28A
100
AcDbEntity
  8
DATA
  6
Continuous
 62
     7
100
AcDbCircle
 10
12.49999999999998
 20
-17.25
 30
0.0
 40
1.299999999999997
  0
CIRCLE
  5
B9
330
28A
100
AcDbEntity
  8
DATA
  6
Continuous
 62
     7
100
AcDbCircle
 10
20.99999999999998
 20
-17.25
 30
0.0
 40
1.299999999999997
  0
TEXT
  5
BA
330
28A
100
AcDbEntity
  8
DATA
 62
     7
100
AcDbText
 10
101.4881159800786
 20
-29.03940216915679
 30
0.0
 40
2.036051432291666
  1
Select
 41
0.7
 11
101.4881159800786
 21
-27.00335073686512
 31
0.0
100
AcDbText
 73
     3
  0
TEXT
  5
BB
330
28A
100
AcDbEntity
  8
DATA
 62
     7
100
AcDbText
 10
-42.74645421025345
 20
-24.26470750871733
 30
0.0
 40
2.036051432291666
  1
IR
 41
0.7
 11
-42.74645421025345
 21
-22.22865607642566
 31
0.0
100
AcDbText
 73
     3
  0
TEXT
  5
BC
330
28A
100
AcDbEntity
  8
DATA
 62
     7
100
AcDbText
 10
-27.85007178870966
 20
-24.26470750871733
 30
0.0
 40
2.036051432291666
  1
Power
 41
0.7
 11
-27.85007178870966
 21
-22.22865607642566
 31
0.0
100
AcDbText
 73
     3
  0
TEXT
  5
BD
330
28A
100
AcDbEntity
  8
DATA
 62
     7
100
AcDbText
 10
-5.237418509429048
 20
-24.26470750871733
 30
0.0
 40
2.036051432291666
  1
1
 41
0.7
 11
-5.237418509429048
 21
-22.22865607642566
 31
0.0
100
AcDbText
 73
     3
  0
TEXT
  5
BE
330
28A
100
AcDbEntity
  8
DATA
 62
     7
100
AcDbText
 10
3.262581490570951
 20
-24.26470750871733
 30
0.0
 40
2.036051432291666
  1
2
 41
0.7
 11
3.262581490570951
 21
-22.22865607642566
 31
0.0
100
AcDbText
 73
     3
  0
TEXT
  5
BF
330
28A
100
AcDbEntity
  8
DATA
 62
     7
100
AcDbText
 10
11.76258149057095
 20
-24.26470750871733
 30
0.0
 40
2.036051432291666
  1
3
 41
0.7
 11
11.76258149057095
 21
-22.22865607642566
 31
0.0
100
AcDbText
 73
     3
  0
TEXT
  5
C0
330
28A
100
AcDbEntity
  8
DATA
 62
     7
100
AcDbText
 10
20.26258149057095
 20
-24.26470750871733
 30
0.0
 40
2.036051432291666
  1
4
 41
0.7
 11
20.26258149057095
 21
-22.22865607642566
 31
0.0
100
AcDbText
 73
     3
  0
LINE
  5
C1
330
28A
100
AcDbEntity
  8
DATA
  6
Continuous
 62
     7
100
AcDbLine
 10
100.8
 20
38.75
 30
0.0
 11
110.2
 21
38.75
 31
0.0
  0
LINE
  5
C2
330
28A
100
AcDbEntity
  8
DATA
  6
Continuous
 62
     7
100
AcDbLine
 10
100.8
 20
38.75
 30
0.0
 11
100.8
 21
43.75
 31
0.0
  0
LINE
  5
C3
330
28A
100
AcDbEntity
  8
DATA
  6
Continuous
 62
     7
100
AcDbLine
 10
110.2
 20
38.75
 30
0.0
 11
110.2
 21
43.75
 31
0.0
  0
LINE
  5
C4
330
28A
100
AcDbEntity
  8
DATA
  6
Continuous
 62
     7
100
AcDbLine
 10
129.5
 20
52.75
 30
0.0
 11
-62.50000000000002
 21
52.75
 31
0.0
  0
ARC
  5
C5
330
28A
100
AcDbEntity
  8
DATA
  6
Continuous
 62
     7
100
AcDbCircle
 10
-24.50000000000001
 20
43.75
 30
0.0
 40
1.0
100
AcDbArc
 50
180.0
 51
0.0
  0
ARC
  5
C6
330
28A
100
AcDbEntity
  8
DATA
  6
Continuous
 62
     7
100
AcDbCircle
 10
-4.500000000000014
 20
43.75
 30
0.0
 40
0.7999999999999972
100
AcDbArc
 50
180.0
 51
0.0
  0
ARC
  5
C7
330
28A
100
AcDbEntity
  8
DATA
  6
Continuous
 62
     7
100
AcDbCircle
 10
3.999999999999985
 20
43.75
 30
0.0
 40
0.7999999999999972
100
AcDbArc
 50
180.0
 51
0.0
  0
ARC
  5
C8
330
28A
100
AcDbEntity
  8
DATA
  6
Continuous
 62
     7
100
AcDbCircle
 10
12.49999999999998
 20
43.75
 30
0.0
 40
0.7999999999999972
100
AcDbArc
 50
180.0
 51
0.0
  0
ARC
  5
C9
330
28A
100
AcDbEntity
  8
DATA
  6
Continuous
 62
     7
100
AcDbCircle
 10
20.99999999999998
 20
43.75
 30
0.0
 40
0.7999999999999972
100
AcDbArc
 50
180.0
 51
0.0
  0
LINE
  5
CA
330
28A
100
AcDbEntity
  8
DATA
  6
Continuous
 62
     7
100
AcDbLine
 10
108.25
 20
148.75
 30
0.0
 11
98.75
 21
148.75
 31
0.0
  0
LINE
  5
CB
330
28A
100
AcDbEntity
  8
DATA
  6
Continuous
 62
     7
100
AcDbLine
 10
-62.50000000000002
 20
217.5
 30
0.0
 11
-62.50000000000002
 21
187.5
 31
0.0
  0
LINE
  5
CC
330
28A
100
AcDbEntity
  8
DATA
  6
Continuous
 62
     7
100
AcDbLine
 10
129.5
 20
217.5
 30
0.0
 11
-62.50000000000002
 21
217.5
 31
0.0
  0
LINE
  5
CD
330
28A
100
AcDbEntity
  8
DATA
  6
Continuous
 62
     7
100
AcDbLine
 10
129.5
 20
187.5
 30
0.0
 11
129.5
 21
217.5
 31
0.0
  0
LINE
  5
CE
330
28A
100
AcDbEntity
  8
DATA
  6
Continuous
 62
     7
100
AcDbLine
 10
-62.50000000000002
 20
187.5
 30
0.0
 11
129.5
 21
187.5
 31
0.0
  0
LINE
  5
CF
330
28A
100
AcDbEntity
  8
DATA
  6
Continuous
 62
     7
100
AcDbLine
 10
-56.26149118418657
 20
221.5
 30
0.0
 11
-57.51149118418657
 21
217.5
 31
0.0
  0
LINE
  5
D0
330
28A
100
AcDbEntity
  8
DATA
  6
Continuous
 62
     7
100
AcDbLine
 10
-46.76149118418657
 20
221.5
 30
0.0
 11
-45.51149118418657
 21
217.5
 31
0.0
  0
LINE
  5
D1
330
28A
100
AcDbEntity
  8
DATA
  6
Continuous
 62
     7
100
AcDbLine
 10
-56.26149118418657
 20
221.5
 30
0.0
 11
-46.76149118418657
 21
221.5
 31
0.0
  0
LINE
  5
D2
330
28A
100
AcDbEntity
  8
DATA
  6
Continuous
 62
     7
100
AcDbLine
 10
123.2614911841865
 20
221.5
 30
0.0
 11
124.5114911841865
 21
217.5
 31
0.0
  0
LINE
  5
D3
330
28A
100
AcDbEntity
  8
DATA
  6
Continuous
 62
     7
100
AcDbLine
 10
113.7614911841865
 20
221.5
 30
0.0
 11
112.5114911841865
 21
217.5
 31
0.0
  0
LINE
  5
D4
330
28A
100
AcDbEntity
  8
DATA
  6
Continuous
 62
     7
100
AcDbLine
 10
123.2614911841865
 20
221.5
 30
0.0
 11
113.7614911841865
 21
221.5
 31
0.0
  0
CIRCLE
  5
D5
330
28A
100
AcDbEntity
  8
DATA
  6
Continuous
 62
     7
100
AcDbCircle
 10
103.5
 20
202.5
 30
0.0
 40
4.75
  0
ARC
  5
D6
330
28A
100
AcDbEntity
  8
DATA
  6
Continuous
 62
     7
100
AcDbCircle
 10
103.4999999999999
 20
202.5
 30
0.0
 40
7.350000000000006
100
AcDbArc
 50
114.6373448625971
 51
150.1429251864904
  0
ARC
  5
D7
330
28A
100
AcDbEntity
  8
DATA
  6
Continuous
 62
     7
100
AcDbCircle
 10
103.4999999999999
 20
202.5
 30
0.0
 40
7.350000000000007
100
AcDbArc
 50
174.6373448625926
 51
210.1429251864944
  0
ARC
  5
D8
330
28A
100
AcDbEntity
  8
DATA
  6
Continuous
 62
     7
100
AcDbCircle
 10
103.4999999999999
 20
202.5
 30
0.0
 40
7.350000000000009
100
AcDbArc
 50
234.6373448625963
 51
270.142925186491
  0
ARC
  5
D9
330
28A
100
AcDbEntity
  8
DATA
  6
Continuous
 62
     7
100
AcDbCircle
 10
103.4999999999999
 20
202.5
 30
0.0
 40
7.350000000000006
100
AcDbArc
 50
294.6373448625971
 51
330.1429251864906
  0
ARC
  5
DA
330
28A
100
AcDbEntity
  8
DATA
  6
Continuous
 62
     7
100
AcDbCircle
 10
103.4999999999999
 20
202.5
 30
0.0
 40
7.350000000000006
100
AcDbArc
 50
354.6373448625971
 51
30.14292518649005
  0
ARC
  5
DB
330
28A
100
AcDbEntity
  8
DATA
  6
Continuous
 62
     7
100
AcDbCircle
 10
103.4999999999999
 20
202.5
 30
0.0
 40
7.350000000000007
100
AcDbArc
 50
54.63734486259746
 51
90.14292518648986
  0
CIRCLE
  5
DC
330
28A
100
AcDbEntity
  8
DATA
  6
Continuous
 62
     7
100
AcDbCircle
 10
103.5
 20
202.5
 30
0.0
 40
2.0
  0
CIRCLE
  5
DD
330
28A
100
AcDbEntity
  8
DATA
  6
Continuous
 62
     7
100
AcDbCircle
 10
103.5
 20
202.5
 30
0.0
 40
0.5
  0
LWPOLYLINE
  5
DE
330
28A
100
AcDbEntity
  8
DATA
  6
Continuous
 62
     7
100
AcDbPolyline
 90
        6
 70
     1
 43
0.0
 10
95.79587247673227
 20
204.9453532339036
 10
97.53019821657922
 20
197.050706467807
 10
105.2343257398469
 20
194.6053532339035
 10
111.2041275232677
 20
200.0546467660964
 10
109.4698017834207
 20
207.9492935321929
 10
101.765674260153
 20
210.3946467660965
  0
LWPOLYLINE
  5
E7
330
28A
100
AcDbEntity
  8
DATA
  6
Continuous
 62
     7
100
AcDbPolyline
 90
        4
 70
     0
 43
0.0
 10
108.1435439052516
 20
203.5
 10
108.9999999999999
 20
203.5
 10
108.9999999999999
 20
201.5
 10
108.1435439052516
 20
201.5
  0
LWPOLYLINE
  5
EE
330
28A
100
AcDbEntity
  8
DATA
  6
Continuous
 62
     7
100
AcDbPolyline
 90
        4
 70
     0
 43
0.0
 10
98.85645609474831
 20
201.5
 10
97.99999999999997
 20
201.5
 10
97.99999999999997
 20
203.5
 10
98.85645609474831
 20
203.5
  0
CIRCLE
  5
F5
330
28A
100
AcDbEntity
  8
DATA
  6
Continuous
 62
     7
100
AcDbCircle
 10
84.49999999999999
 20
202.5
 30
0.0
 40
4.75
  0
ARC
  5
F6
330
28A
100
AcDbEntity
  8
DATA
  6
Continuous
 62
     7
100
AcDbCircle
 10
84.49999999999997
 20
202.5
 30
0.0
 40
7.350000000000006
100
AcDbArc
 50
114.637344862597
 51
150.1429251864903
  0
ARC
  5
F7
330
28A
100
AcDbEntity
  8
DATA
  6
Continuous
 62
     7
100
AcDbCircle
 10
84.49999999999997
 20
202.5
 30
0.0
 40
7.350000000000006
100
AcDbArc
 50
174.6373448625926
 51
210.1429251864944
  0
ARC
  5
F8
330
28A
100
AcDbEntity
  8
DATA
  6
Continuous
 62
     7
100
AcDbCircle
 10
84.49999999999997
 20
202.5
 30
0.0
 40
7.350000000000007
100
AcDbArc
 50
234.6373448625963
 51
270.142925186491
  0
ARC
  5
F9
330
28A
100
AcDbEntity
  8
DATA
  6
Continuous
 62
     7
100
AcDbCircle
 10
84.49999999999997
 20
202.5
 30
0.0
 40
7.350000000000006
100
AcDbArc
 50
294.6373448625971
 51
330.1429251864906
  0
ARC
  5
FA
330
28A
100
AcDbEntity
  8
DATA
  6
Continuous
 62
     7
100
AcDbCircle
 10
84.49999999999997
 20
202.5
 30
0.0
 40
7.350000000000009
100
AcDbArc
 50
354.6373448625971
 51
30.14292518649005
  0
ARC
  5
FB
330
28A
100
AcDbEntity
  8
DATA
  6
Continuous
 62
     7
100
AcDbCircle
 10
84.49999999999997
 20
202.5
 30
0.0
 40
7.350000000000007
100
AcDbArc
 50
54.63734486259746
 51
90.14292518648986
  0
CIRCLE
  5
FC
330
28A
100
AcDbEntity
  8
DATA
  6
Continuous
 62
     7
100
AcDbCircle
 10
84.49999999999999
 20
202.5
 30
0.0
 40
2.0
  0
CIRCLE
  5
FD
330
28A
100
AcDbEntity
  8
DATA
  6
Continuous
 62
     7
100
AcDbCircle
 10
84.49999999999999
 20
202.5
 30
0.0
 40
0.5
  0
LWPOLYLINE
  5
FE
330
28A
100
AcDbEntity
  8
DATA
  6
Continuous
 62
     7
100
AcDbPolyline
 90
        6
 70
     1
 43
0.0
 10
76.7958724767323
 20
204.9453532339036
 10
78.53019821657925
 20
197.050706467807
 10
86.23432573984693
 20
194.6053532339035
 10
92.20412752326769
 20
200.0546467660964
 10
90.46980178342073
 20
207.9492935321929
 10
82.76567426015303
 20
210.3946467660965
  0
LWPOLYLINE
  5
107
330
28A
100
AcDbEntity
  8
DATA
  6
Continuous
 62
     7
100
AcDbPolyline
 90
        4
 70
     0
 43
0.0
 10
89.14354390525167
 20
203.5
 10
89.99999999999996
 20
203.5
 10
89.99999999999996
 20
201.5
 10
89.14354390525167
 20
201.5
  0
LWPOLYLINE
  5
10E
330
28A
100
AcDbEntity
  8
DATA
  6
Continuous
 62
     7
100
AcDbPolyline
 90
        4
 70
     0
 43
0.0
 10
79.85645609474831
 20
201.5
 10
78.99999999999997
 20
201.5
 10
78.99999999999997
 20
203.5
 10
79.85645609474831
 20
203.5
  0
CIRCLE
  5
115
330
28A
100
AcDbEntity
  8
DATA
  6
Continuous
 62
     7
100
AcDbCircle
 10
65.49999999999998
 20
202.5
 30
0.0
 40
4.75
  0
ARC
  5
116
330
28A
100
AcDbEntity
  8
DATA
  6
Continuous
 62
     7
100
AcDbCircle
 10
65.49999999999997
 20
202.5
 30
0.0
 40
7.350000000000006
100
AcDbArc
 50
114.637344862597
 51
150.1429251864903
  0
ARC
  5
117
330
28A
100
AcDbEntity
  8
DATA
  6
Continuous
 62
     7
100
AcDbCircle
 10
65.49999999999997
 20
202.5
 30
0.0
 40
7.350000000000006
100
AcDbArc
 50
174.6373448625926
 51
210.1429251864944
  0
ARC
  5
118
330
28A
100
AcDbEntity
  8
DATA
  6
Continuous
 62
     7
100
AcDbCircle
 10
65.49999999999997
 20
202.5
 30
0.0
 40
7.350000000000007
100
AcDbArc
 50
234.6373448625963
 51
270.142925186491
  0
ARC
  5
119
330
28A
100
AcDbEntity
  8
DATA
  6
Continuous
 62
     7
100
AcDbCircle
 10
65.49999999999997
 20
202.5
 30
0.0
 40
7.350000000000007
100
AcDbArc
 50
294.6373448625972
 51
330.1429251864906
  0
ARC
  5
11A
330
28A
100
AcDbEntity
  8
DATA
  6
Continuous
 62
     7
100
AcDbCircle
 10
65.49999999999997
 20
202.5
 30
0.0
 40
7.350000000000009
100
AcDbArc
 50
354.6373448625971
 51
30.14292518649005
  0
ARC
  5
11B
330
28A
100
AcDbEntity
  8
DATA
  6
Continuous
 62
     7
100
AcDbCircle
 10
65.49999999999997
 20
202.5
 30
0.0
 40
7.350000000000007
100
AcDbArc
 50
54.63734486259746
 51
90.14292518648986
  0
CIRCLE
  5
11C
330
28A
100
AcDbEntity
  8
DATA
  6
Continuous
 62
     7
100
AcDbCircle
 10
65.49999999999998
 20
202.5
 30
0.0
 40
2.0
  0
CIRCLE
  5
11D
330
28A
100
AcDbEntity
  8
DATA
  6
Continuous
 62
     7
100
AcDbCircle
 10
65.49999999999998
 20
202.5
 30
0.0
 40
0.5
  0
LWPOLYLINE
  5
11E
330
28A
100
AcDbEntity
  8
DATA
  6
Continuous
 62
     7
100
AcDbPolyline
 90
        6
 70
     1
 43
0.0
 10
57.79587247673229
 20
204.9453532339036
 10
59.53019821657925
 20
197.050706467807
 10
67.23432573984695
 20
194.6053532339035
 10
73.20412752326769
 20
200.0546467660964
 10
71.46980178342072
 20
207.9492935321929
 10
63.76567426015302
 20
210.3946467660965
  0
LWPOLYLINE
  5
127
330
28A
100
AcDbEntity
  8
DATA
  6
Continuous
 62
     7
100
AcDbPolyline
 90
        4
 70
     0
 43
0.0
 10
70.14354390525169
 20
203.5
 10
70.99999999999997
 20
203.5
 10
70.99999999999997
 20
201.5
 10
70.14354390525166
 20
201.5
  0
LWPOLYLINE
  5
12E
330
28A
100
AcDbEntity
  8
DATA
  6
Continuous
 62
     7
100
AcDbPolyline
 90
        4
 70
     0
 43
0.0
 10
60.85645609474831
 20
201.5
 10
59.99999999999997
 20
201.5
 10
59.99999999999997
 20
203.5
 10
60.85645609474831
 20
203.5
  0
CIRCLE
  5
135
330
28A
100
AcDbEntity
  8
DATA
  6
Continuous
 62
     7
100
AcDbCircle
 10
46.49999999999999
 20
202.5
 30
0.0
 40
4.75
  0
ARC
  5
136
330
28A
100
AcDbEntity
  8
DATA
  6
Continuous
 62
     7
100
AcDbCircle
 10
46.49999999999997
 20
202.5
 30
0.0
 40
7.350000000000003
100
AcDbArc
 50
114.637344862597
 51
150.1429251864904
  0
ARC
  5
137
330
28A
100
AcDbEntity
  8
DATA
  6
Continuous
 62
     7
100
AcDbCircle
 10
46.49999999999997
 20
202.5
 30
0.0
 40
7.350000000000014
100
AcDbArc
 50
174.6373448625926
 51
210.1429251864944
  0
ARC
  5
138
330
28A
100
AcDbEntity
  8
DATA
  6
Continuous
 62
     7
100
AcDbCircle
 10
46.49999999999997
 20
202.5
 30
0.0
 40
7.350000000000012
100
AcDbArc
 50
234.6373448625963
 51
270.142925186491
  0
ARC
  5
139
330
28A
100
AcDbEntity
  8
DATA
  6
Continuous
 62
     7
100
AcDbCircle
 10
46.49999999999997
 20
202.5
 30
0.0
 40
7.350000000000007
100
AcDbArc
 50
294.6373448625972
 51
330.1429251864906
  0
ARC
  5
13A
330
28A
100
AcDbEntity
  8
DATA
  6
Continuous
 62
     7
100
AcDbCircle
 10
46.49999999999997
 20
202.5
 30
0.0
 40
7.350000000000009
100
AcDbArc
 50
354.6373448625971
 51
30.14292518649005
  0
ARC
  5
13B
330
28A
100
AcDbEntity
  8
DATA
  6
Continuous
 62
     7
100
AcDbCircle
 10
46.49999999999997
 20
202.5
 30
0.0
 40
7.350000000000007
100
AcDbArc
 50
54.63734486259746
 51
90.14292518648979
  0
CIRCLE
  5
13C
330
28A
100
AcDbEntity
  8
DATA
  6
Continuous
 62
     7
100
AcDbCircle
 10
46.49999999999999
 20
202.5
 30
0.0
 40
2.0
  0
CIRCLE
  5
13D
330
28A
100
AcDbEntity
  8
DATA
  6
Continuous
 62
     7
100
AcDbCircle
 10
46.49999999999999
 20
202.5
 30
0.0
 40
0.5
  0
LWPOLYLINE
  5
13E
330
28A
100
AcDbEntity
  8
DATA
  6
Continuous
 62
     7
100
AcDbPolyline
 90
        6
 70
     1
 43
0.0
 10
38.79587247673228
 20
204.9453532339036
 10
40.53019821657925
 20
197.050706467807
 10
48.23432573984695
 20
194.6053532339035
 10
54.20412752326768
 20
200.0546467660964
 10
52.46980178342071
 20
207.9492935321929
 10
44.76567426015303
 20
210.3946467660965
  0
LWPOLYLINE
  5
147
330
28A
100
AcDbEntity
  8
DATA
  6
Continuous
 62
     7
100
AcDbPolyline
 90
        4
 70
     0
 43
0.0
 10
51.14354390525168
 20
203.5
 10
51.99999999999997
 20
203.5
 10
51.99999999999997
 20
201.5
 10
51.14354390525165
 20
201.5
  0
LWPOLYLINE
  5
14E
330
28A
100
AcDbEntity
  8
DATA
  6
Continuous
 62
     7
100
AcDbPolyline
 90
        4
 70
     0
 43
0.0
 10
41.85645609474831
 20
201.5
 10
40.99999999999996
 20
201.5
 10
40.99999999999996
 20
203.5
 10
41.85645609474831
 20
203.5
  0
CIRCLE
  5
155
330
28A
100
AcDbEntity
  8
DATA
  6
Continuous
 62
     7
100
AcDbCircle
 10
16.49999999999998
 20
202.5
 30
0.0
 40
4.75
  0
ARC
  5
156
330
28A
100
AcDbEntity
  8
DATA
  6
Continuous
 62
     7
100
AcDbCircle
 10
16.49999999999997
 20
202.5
 30
0.0
 40
7.350000000000003
100
AcDbArc
 50
114.637344862597
 51
150.1429251864904
  0
ARC
  5
157
330
28A
100
AcDbEntity
  8
DATA
  6
Continuous
 62
     7
100
AcDbCircle
 10
16.49999999999997
 20
202.5
 30
0.0
 40
7.350000000000014
100
AcDbArc
 50
174.6373448625926
 51
210.1429251864944
  0
ARC
  5
158
330
28A
100
AcDbEntity
  8
DATA
  6
Continuous
 62
     7
100
AcDbCircle
 10
16.49999999999997
 20
202.5
 30
0.0
 40
7.350000000000012
100
AcDbArc
 50
234.6373448625963
 51
270.142925186491
  0
ARC
  5
159
330
28A
100
AcDbEntity
  8
DATA
  6
Continuous
 62
     7
100
AcDbCircle
 10
16.49999999999997
 20
202.5
 30
0.0
 40
7.350000000000007
100
AcDbArc
 50
294.6373448625972
 51
330.1429251864906
  0
ARC
  5
15A
330
28A
100
AcDbEntity
  8
DATA
  6
Continuous
 62
     7
100
AcDbCircle
 10
16.49999999999997
 20
202.5
 30
0.0
 40
7.350000000000015
100
AcDbArc
 50
354.6373448625971
 51
30.14292518649005
  0
ARC
  5
15B
330
28A
100
AcDbEntity
  8
DATA
  6
Continuous
 62
     7
100
AcDbCircle
 10
16.49999999999997
 20
202.5
 30
0.0
 40
7.350000000000007
100
AcDbArc
 50
54.63734486259746
 51
90.14292518648979
  0
CIRCLE
  5
15C
330
28A
100
AcDbEntity
  8
DATA
  6
Continuous
 62
     7
100
AcDbCircle
 10
16.49999999999998
 20
202.5
 30
0.0
 40
2.0
  0
CIRCLE
  5
15D
330
28A
100
AcDbEntity
  8
DATA
  6
Continuous
 62
     7
100
AcDbCircle
 10
16.49999999999998
 20
202.5
 30
0.0
 40
0.5
  0
LWPOLYLINE
  5
15E
330
28A
100
AcDbEntity
  8
DATA
  6
Continuous
 62
     7
100
AcDbPolyline
 90
        6
 70
     1
 43
0.0
 10
8.795872476732286
 20
204.9453532339036
 10
10.53019821657925
 20
197.050706467807
 10
18.23432573984695
 20
194.6053532339035
 10
24.2041275232677
 20
200.0546467660964
 10
22.46980178342072
 20
207.9492935321929
 10
14.76567426015302
 20
210.3946467660965
  0
LWPOLYLINE
  5
167
330
28A
100
AcDbEntity
  8
DATA
  6
Continuous
 62
     7
100
AcDbPolyline
 90
        4
 70
     0
 43
0.0
 10
21.14354390525166
 20
203.5
 10
21.99999999999997
 20
203.5
 10
21.99999999999997
 20
201.5
 10
21.14354390525166
 20
201.5
  0
LWPOLYLINE
  5
16E
330
28A
100
AcDbEntity
  8
DATA
  6
Continuous
 62
     7
100
AcDbPolyline
 90
        4
 70
     0
 43
0.0
 10
11.85645609474831
 20
201.5
 10
10.99999999999997
 20
201.5
 10
10.99999999999997
 20
203.5
 10
11.85645609474831
 20
203.5
  0
CIRCLE
  5
175
330
28A
100
AcDbEntity
  8
DATA
  6
Continuous
 62
     7
100
AcDbCircle
 10
-24.00739817742457
 20
203.4265363646246
 30
0.0
 40
1.175000000000068
  0
LWPOLYLINE
  5
176
330
28A
100
AcDbEntity
  8
DATA
  6
Continuous
 62
     7
100
AcDbPolyline
 90
        6
 70
     1
 43
0.0
 10
-24.00739817742457
 20
200.7265363646248
 10
-21.66912958720665
 20
202.0765363646248
 10
-21.66912958720665
 20
204.7765363646245
 10
-24.00739817742457
 20
206.1265363646245
 10
-26.34566676764261
 20
204.7765363646245
 10
-26.34566676764261
 20
202.0765363646248
  0
CIRCLE
  5
17F
330
28A
100
AcDbEntity
  8
DATA
  6
Continuous
 62
     7
100
AcDbCircle
 10
0.9926018225755941
 20
203.4265363646246
 30
0.0
 40
1.175000000000068
  0
LWPOLYLINE
  5
180
330
28A
100
AcDbEntity
  8
DATA
  6
Continuous
 62
     7
100
AcDbPolyline
 90
        6
 70
     1
 43
0.0
 10
0.9926018225755941
 20
200.7265363646248
 10
3.330870412793515
 20
202.0765363646248
 10
3.330870412793515
 20
204.7765363646245
 10
0.9926018225755941
 20
206.1265363646245
 10
-1.345666767642441
 20
204.7765363646245
 10
-1.345666767642441
 20
202.0765363646248
  0
LINE
  5
189
330
28A
100
AcDbEntity
  8
DATA
  6
Continuous
 62
     7
100
AcDbLine
 10
-17.10916138761312
 20
207.4265363646245
 30
0.0
 11
-5.905634967235911
 21
207.4265363646245
 31
0.0
  0
LINE
  5
18A
330
28A
100
AcDbEntity
  8
DATA
  6
Continuous
 62
     7
100
AcDbLine
 10
-5.093134967236025
 20
199.4265363646248
 30
0.0
 11
-17.92166138761313
 21
199.4265363646248
 31
0.0
  0
LINE
  5
18B
330
28A
100
AcDbEntity
  8
DATA
  6
Continuous
 62
     7
100
AcDbLine
 10
-4.522418119984352
 20
206.2426639970075
 30
0.0
 11
-3.709918119984464
 21
201.0426639970079
 31
0.0
  0
LINE
  5
18C
330
28A
100
AcDbEntity
  8
DATA
  6
Continuous
 62
     7
100
AcDbLine
 10
-19.30487823486469
 20
201.0426639970079
 30
0.0
 11
-18.49237823486468
 21
206.2426639970075
 31
0.0
  0
CIRCLE
  5
18D
330
28A
100
AcDbEntity
  8
DATA
  6
Continuous
 62
     7
100
AcDbCircle
 10
-11.48076840694965
 20
201.7902281934711
 30
0.0
 40
0.5
  0
ARC
  5
18E
330
28A
100
AcDbEntity
  8
DATA
  6
Continuous
 62
     7
100
AcDbCircle
 10
-5.093134967236025
 20
200.8265363646248
 30
0.0
 40
1.399999999999998
100
AcDbArc
 50
270.0
 51
8.880659150519649
  0
ARC
  5
18F
330
28A
100
AcDbEntity
  8
DATA
  6
Continuous
 62
     7
100
AcDbCircle
 10
-17.92166138761313
 20
200.8265363646248
 30
0.0
 40
1.40000000000002
100
AcDbArc
 50
171.1193408494792
 51
270.0
  0
ARC
  5
190
330
28A
100
AcDbEntity
  8
DATA
  6
Continuous
 62
     7
100
AcDbCircle
 10
-5.905634967235911
 20
206.0265363646245
 30
0.0
 40
1.400000000000015
100
AcDbArc
 50
8.880659150519383
 51
89.99999999999998
  0
ARC
  5
191
330
28A
100
AcDbEntity
  8
DATA
  6
Continuous
 62
     7
100
AcDbCircle
 10
-17.10916138761312
 20
206.0265363646245
 30
0.0
 40
1.399999999999991
100
AcDbArc
 50
90.0
 51
171.1193408494795
  0
LINE
  5
192
330
28A
100
AcDbEntity
  8
DATA
  6
Continuous
 62
     7
100
AcDbLine
 10
-18.66620210807871
 20
209.4265363646244
 30
0.0
 11
-4.348594246770446
 21
209.4265363646244
 31
0.0
  0
LINE
  5
193
330
28A
100
AcDbEntity
  8
DATA
  6
Continuous
 62
     7
100
AcDbLine
 10
-3.329752526174061
 20
197.4265363646248
 30
0.0
 11
-19.68504382867507
 21
197.4265363646248
 31
0.0
  0
LINE
  5
194
330
28A
100
AcDbEntity
  8
DATA
  6
Continuous
 62
     7
100
AcDbLine
 10
-1.357907299030657
 20
199.7609409103358
 30
0.0
 11
-2.771118065055802
 21
208.0940600011933
 31
0.0
  0
LINE
  5
195
330
28A
100
AcDbEntity
  8
DATA
  6
Continuous
 62
     7
100
AcDbLine
 10
-21.65688905581833
 20
199.7609409103358
 30
0.0
 11
-20.24367828979329
 21
208.0940600011933
 31
0.0
  0
ARC
  5
196
330
28A
100
AcDbEntity
  8
DATA
  6
Continuous
 62
     7
100
AcDbCircle
 10
-3.329752526174061
 20
199.4265363646248
 30
0.0
 40
2.000000000000042
100
AcDbArc
 50
270.0
 51
9.625192943621298
  0
ARC
  5
197
330
28A
100
AcDbEntity
  8
DATA
  6
Continuous
 62
     7
100
AcDbCircle
 10
-19.68504382867507
 20
199.4265363646248
 30
0.0
 40
1.999999999999962
100
AcDbArc
 50
170.374807056378
 51
270.0
  0
ARC
  5
198
330
28A
100
AcDbEntity
  8
DATA
  6
Continuous
 62
     7
100
AcDbCircle
 10
-4.348594246770559
 20
207.8265363646245
 30
0.0
 40
1.600000000000114
100
AcDbArc
 50
9.625192943620671
 51
89.99999999999594
  0
ARC
  5
199
330
28A
100
AcDbEntity
  8
DATA
  6
Continuous
 62
     7
100
AcDbCircle
 10
-18.66620210807871
 20
207.8265363646245
 30
0.0
 40
1.599999999999994
100
AcDbArc
 50
90.0
 51
170.3748070563783
  0
CIRCLE
  5
19A
330
28A
100
AcDbEntity
  8
DATA
  6
Continuous
 62
     7
100
AcDbCircle
 10
-8.98076840694965
 20
201.7902281934711
 30
0.0
 40
0.5
  0
CIRCLE
  5
19B
330
28A
100
AcDbEntity
  8
DATA
  6
Continuous
 62
     7
100
AcDbCircle
 10
-6.480768406949649
 20
201.7902281934711
 30
0.0
 40
0.5
  0
CIRCLE
  5
19C
330
28A
100
AcDbEntity
  8
DATA
  6
Continuous
 62
     7
100
AcDbCircle
 10
-13.98076840694965
 20
201.7902281934711
 30
0.0
 40
0.5
  0
CIRCLE
  5
19D
330
28A
100
AcDbEntity
  8
DATA
  6
Continuous
 62
     7
100
AcDbCircle
 10
-16.48076840694965
 20
201.7902281934711
 30
0.0
 40
0.5
  0
CIRCLE
  5
19E
330
28A
100
AcDbEntity
  8
DATA
  6
Continuous
 62
     7
100
AcDbCircle
 10
-10.28525723087834
 20
205.4087486122336
 30
0.0
 40
0.5
  0
CIRCLE
  5
19F
330
28A
100
AcDbEntity
  8
DATA
  6
Continuous
 62
     7
100
AcDbCircle
 10
-7.785257230878342
 20
205.4087486122336
 30
0.0
 40
0.5
  0
CIRCLE
  5
1A0
330
28A
100
AcDbEntity
  8
DATA
  6
Continuous
 62
     7
100
AcDbCircle
 10
-12.78525723087834
 20
205.4087486122336
 30
0.0
 40
0.5
  0
CIRCLE
  5
1A1
330
28A
100
AcDbEntity
  8
DATA
  6
Continuous
 62
     7
100
AcDbCircle
 10
-15.28525723087834
 20
205.4087486122336
 30
0.0
 40
0.5
  0
TEXT
  5
1A2
330
28A
100
AcDbEntity
  8
DATA
 62
     7
100
AcDbText
 10
-6.129972766945257
 20
215.2309843125524
 30
0.0
 40
2.44326171875
  1
RS-232
 50
180.0
 41
0.7
 11
-6.129972766945257
 21
212.7877225938024
 31
0.0
100
AcDbText
 73
     3
  0
CIRCLE
  5
1A3
330
28A
100
AcDbEntity
  8
DATA
  6
Continuous
 62
     7
100
AcDbCircle
 10
-37.50000000000002
 20
202.5
 30
0.0
 40
3.900000000000005
  0
CIRCLE
  5
1A4
330
28A
100
AcDbEntity
  8
DATA
  6
Continuous
 62
     7
100
AcDbCircle
 10
-37.50000000000002
 20
202.5
 30
0.0
 40
0.75
  0
CIRCLE
  5
1A5
330
28A
100
AcDbEntity
  8
DATA
  6
Continuous
 62
     7
100
AcDbCircle
 10
-37.50000000000002
 20
202.5
 30
0.0
 40
5.25
  0
TEXT
  5
1A6
330
28A
100
AcDbEntity
  8
DATA
 62
     7
100
AcDbText
 10
-33.46498583311337
 20
215.2309843125524
 30
0.0
 40
2.44326171875
  1
5V DC
 50
180.0
 41
0.7
 11
-33.46498583311337
 21
212.7877225938024
 31
0.0
100
AcDbText
 73
     3
  0
TEXT
  5
1A7
330
28A
100
AcDbEntity
  8
DATA
 62
     7
100
AcDbText
 10
23.71183860319837
 20
215.2309843125524
 30
0.0
 40
2.44326171875
  1
3GSDI Out
 50
180.0
 41
0.7
 11
23.71183860319837
 21
212.7877225938024
 31
0.0
100
AcDbText
 73
     3
  0
TEXT
  5
1A8
330
28A
100
AcDbEntity
  8
DATA
 62
     7
100
AcDbText
 10
106.8673590793541
 20
215.2309843125524
 30
0.0
 40
2.44326171875
  1
In 1
 50
180.0
 41
0.7
 11
106.8673590793541
 21
212.7877225938024
 31
0.0
100
AcDbText
 73
     3
  0
TEXT
  5
1A9
330
28A
100
AcDbEntity
  8
DATA
 62
     7
100
AcDbText
 10
87.86735907935414
 20
215.2309843125524
 30
0.0
 40
2.44326171875
  1
In 2
 50
180.0
 41
0.7
 11
87.86735907935414
 21
212.7877225938024
 31
0.0
100
AcDbText
 73
     3
  0
TEXT
  5
1AA
330
28A
100
AcDbEntity
  8
DATA
 62
     7
100
AcDbText
 10
68.86735907935416
 20
215.2309843125524
 30
0.0
 40
2.44326171875
  1
In 3
 50
180.0
 41
0.7
 11
68.86735907935416
 21
212.7877225938024
 31
0.0
100
AcDbText
 73
     3
  0
TEXT
  5
1AB
330
28A
100
AcDbEntity
  8
DATA
 62
     7
100
AcDbText
 10
49.86735907935415
 20
215.2309843125524
 30
0.0
 40
2.44326171875
  1
In 4
 50
180.0
 41
0.7
 11
49.86735907935415
 21
212.7877225938024
 31
0.0
100
AcDbText
 73
     3
  0
TEXT
  5
1AC
330
28A
100
AcDbEntity
  8
DATA
 62
     7
100
AcDbText
 10
79.08060239601056
 20
192.5555
 30
0.0
 40
2.44326171875
  1
3GSDI
 50
180.0
 41
0.7
 11
79.08060239601056
 21
190.11223828125
 31
0.0
100
AcDbText
 73
     3
  0
LINE
  5
1AD
330
28A
100
AcDbEntity
  8
DATA
  6
Continuous
 62
     7
100
AcDbLine
 10
111.2041275232677
 20
136.75
 30
0.0
 11
95.79587247673227
 21
136.75
 31
0.0
  0
LINE
  5
1AE
330
28A
100
AcDbEntity
  8
DATA
  6
Continuous
 62
     7
100
AcDbLine
 10
98.75
 20
148.75
 30
0.0
 11
98.75
 21
136.75
 31
0.0
  0
LINE
  5
1AF
330
28A
100
AcDbEntity
  8
DATA
  6
Continuous
 62
     7
100
AcDbLine
 10
108.25
 20
148.75
 30
0.0
 11
108.25
 21
136.75
 31
0.0
  0
LINE
  5
1B0
330
28A
100
AcDbEntity
  8
DATA
  6
Continuous
 62
     7
100
AcDbLine
 10
97.99999999999997
 20
145.75
 30
0.0
 11
97.99999999999997
 21
143.75
 31
0.0
  0
LINE
  5
1B1
330
28A
100
AcDbEntity
  8
DATA
  6
Continuous
 62
     7
100
AcDbLine
 10
108.9999999999999
 20
145.75
 30
0.0
 11
108.9999999999999
 21
143.75
 31
0.0
  0
LINE
  5
1B2
330
28A
100
AcDbEntity
  8
DATA
  6
Continuous
 62
     7
100
AcDbLine
 10
97.99999999999997
 20
145.75
 30
0.0
 11
98.75
 21
145.75
 31
0.0
  0
LINE
  5
1B3
330
28A
100
AcDbEntity
  8
DATA
  6
Continuous
 62
     7
100
AcDbLine
 10
108.25
 20
145.75
 30
0.0
 11
108.9999999999999
 21
145.75
 31
0.0
  0
LINE
  5
1B4
330
28A
100
AcDbEntity
  8
DATA
  6
Continuous
 62
     7
100
AcDbLine
 10
97.99999999999997
 20
143.75
 30
0.0
 11
98.75
 21
143.75
 31
0.0
  0
LINE
  5
1B5
330
28A
100
AcDbEntity
  8
DATA
  6
Continuous
 62
     7
100
AcDbLine
 10
108.25
 20
143.75
 30
0.0
 11
108.9999999999999
 21
143.75
 31
0.0
  0
LINE
  5
1B6
330
28A
100
AcDbEntity
  8
DATA
  6
Continuous
 62
     7
100
AcDbLine
 10
95.79587247673227
 20
136.75
 30
0.0
 11
95.79587247673227
 21
131.75
 31
0.0
  0
LINE
  5
1B7
330
28A
100
AcDbEntity
  8
DATA
  6
Continuous
 62
     7
100
AcDbLine
 10
111.2041275232677
 20
136.75
 30
0.0
 11
111.2041275232677
 21
131.75
 31
0.0
  0
LINE
  5
1B8
330
28A
100
AcDbEntity
  8
DATA
  6
Continuous
 62
     7
100
AcDbLine
 10
89.24999999999998
 20
148.75
 30
0.0
 11
79.74999999999998
 21
148.75
 31
0.0
  0
LINE
  5
1B9
330
28A
100
AcDbEntity
  8
DATA
  6
Continuous
 62
     7
100
AcDbLine
 10
92.20412752326769
 20
136.75
 30
0.0
 11
76.7958724767323
 21
136.75
 31
0.0
  0
LINE
  5
1BA
330
28A
100
AcDbEntity
  8
DATA
  6
Continuous
 62
     7
100
AcDbLine
 10
79.74999999999998
 20
148.75
 30
0.0
 11
79.74999999999998
 21
136.75
 31
0.0
  0
LINE
  5
1BB
330
28A
100
AcDbEntity
  8
DATA
  6
Continuous
 62
     7
100
AcDbLine
 10
89.24999999999998
 20
148.75
 30
0.0
 11
89.24999999999998
 21
136.75
 31
0.0
  0
LINE
  5
1BC
330
28A
100
AcDbEntity
  8
DATA
  6
Continuous
 62
     7
100
AcDbLine
 10
78.99999999999997
 20
145.75
 30
0.0
 11
78.99999999999997
 21
143.75
 31
0.0
  0
LINE
  5
1BD
330
28A
100
AcDbEntity
  8
DATA
  6
Continuous
 62
     7
100
AcDbLine
 10
89.99999999999996
 20
145.75
 30
0.0
 11
89.99999999999996
 21
143.75
 31
0.0
  0
LINE
  5
1BE
330
28A
100
AcDbEntity
  8
DATA
  6
Continuous
 62
     7
100
AcDbLine
 10
78.99999999999997
 20
145.75
 30
0.0
 11
79.74999999999998
 21
145.75
 31
0.0
  0
LINE
  5
1BF
330
28A
100
AcDbEntity
  8
DATA
  6
Continuous
 62
     7
100
AcDbLine
 10
89.24999999999998
 20
145.75
 30
0.0
 11
89.99999999999996
 21
145.75
 31
0.0
  0
LINE
  5
1C0
330
28A
100
AcDbEntity
  8
DATA
  6
Continuous
 62
     7
100
AcDbLine
 10
78.99999999999997
 20
143.75
 30
0.0
 11
79.74999999999998
 21
143.75
 31
0.0
  0
LINE
  5
1C1
330
28A
100
AcDbEntity
  8
DATA
  6
Continuous
 62
     7
100
AcDbLine
 10
89.24999999999998
 20
143.75
 30
0.0
 11
89.99999999999996
 21
143.75
 31
0.0
  0
LINE
  5
1C2
330
28A
100
AcDbEntity
  8
DATA
  6
Continuous
 62
     7
100
AcDbLine
 10
76.7958724767323
 20
136.75
 30
0.0
 11
76.7958724767323
 21
131.75
 31
0.0
  0
LINE
  5
1C3
330
28A
100
AcDbEntity
  8
DATA
  6
Continuous
 62
     7
100
AcDbLine
 10
92.20412752326769
 20
136.75
 30
0.0
 11
92.20412752326769
 21
131.75
 31
0.0
  0
LINE
  5
1C4
330
28A
100
AcDbEntity
  8
DATA
  6
Continuous
 62
     7
100
AcDbLine
 10
70.24999999999998
 20
148.75
 30
0.0
 11
60.74999999999999
 21
148.75
 31
0.0
  0
LINE
  5
1C5
330
28A
100
AcDbEntity
  8
DATA
  6
Continuous
 62
     7
100
AcDbLine
 10
73.20412752326769
 20
136.75
 30
0.0
 11
57.79587247673229
 21
136.75
 31
0.0
  0
LINE
  5
1C6
330
28A
100
AcDbEntity
  8
DATA
  6
Continuous
 62
     7
100
AcDbLine
 10
60.74999999999999
 20
148.75
 30
0.0
 11
60.74999999999999
 21
136.75
 31
0.0
  0
LINE
  5
1C7
330
28A
100
AcDbEntity
  8
DATA
  6
Continuous
 62
     7
100
AcDbLine
 10
70.24999999999998
 20
148.75
 30
0.0
 11
70.24999999999998
 21
136.75
 31
0.0
  0
LINE
  5
1C8
330
28A
100
AcDbEntity
  8
DATA
  6
Continuous
 62
     7
100
AcDbLine
 10
59.99999999999997
 20
145.75
 30
0.0
 11
59.99999999999997
 21
143.75
 31
0.0
  0
LINE
  5
1C9
330
28A
100
AcDbEntity
  8
DATA
  6
Continuous
 62
     7
100
AcDbLine
 10
70.99999999999997
 20
145.75
 30
0.0
 11
70.99999999999997
 21
143.75
 31
0.0
  0
LINE
  5
1CA
330
28A
100
AcDbEntity
  8
DATA
  6
Continuous
 62
     7
100
AcDbLine
 10
59.99999999999997
 20
145.75
 30
0.0
 11
60.74999999999999
 21
145.75
 31
0.0
  0
LINE
  5
1CB
330
28A
100
AcDbEntity
  8
DATA
  6
Continuous
 62
     7
100
AcDbLine
 10
70.24999999999998
 20
145.75
 30
0.0
 11
70.99999999999997
 21
145.75
 31
0.0
  0
LINE
  5
1CC
330
28A
100
AcDbEntity
  8
DATA
  6
Continuous
 62
     7
100
AcDbLine
 10
59.99999999999997
 20
143.75
 30
0.0
 11
60.74999999999999
 21
143.75
 31
0.0
  0
LINE
  5
1CD
330
28A
100
AcDbEntity
  8
DATA
  6
Continuous
 62
     7
100
AcDbLine
 10
70.24999999999998
 20
143.75
 30
0.0
 11
70.99999999999997
 21
143.75
 31
0.0
  0
LINE
  5
1CE
330
28A
100
AcDbEntity
  8
DATA
  6
Continuous
 62
     7
100
AcDbLine
 10
57.79587247673229
 20
136.75
 30
0.0
 11
57.79587247673229
 21
131.75
 31
0.0
  0
LINE
  5
1CF
330
28A
100
AcDbEntity
  8
DATA
  6
Continuous
 62
     7
100
AcDbLine
 10
73.20412752326769
 20
136.75
 30
0.0
 11
73.20412752326769
 21
131.75
 31
0.0
  0
LINE
  5
1D0
330
28A
100
AcDbEntity
  8
DATA
  6
Continuous
 62
     7
100
AcDbLine
 10
51.25
 20
148.75
 30
0.0
 11
41.74999999999999
 21
148.75
 31
0.0
  0
LINE
  5
1D1
330
28A
100
AcDbEntity
  8
DATA
  6
Continuous
 62
     7
100
AcDbLine
 10
54.20412752326768
 20
136.75
 30
0.0
 11
38.79587247673228
 21
136.75
 31
0.0
  0
LINE
  5
1D2
330
28A
100
AcDbEntity
  8
DATA
  6
Continuous
 62
     7
100
AcDbLine
 10
41.74999999999999
 20
148.75
 30
0.0
 11
41.74999999999999
 21
136.75
 31
0.0
  0
LINE
  5
1D3
330
28A
100
AcDbEntity
  8
DATA
  6
Continuous
 62
     7
100
AcDbLine
 10
51.25
 20
148.75
 30
0.0
 11
51.25
 21
136.75
 31
0.0
  0
LINE
  5
1D4
330
28A
100
AcDbEntity
  8
DATA
  6
Continuous
 62
     7
100
AcDbLine
 10
40.99999999999996
 20
145.75
 30
0.0
 11
40.99999999999996
 21
143.75
 31
0.0
  0
LINE
  5
1D5
330
28A
100
AcDbEntity
  8
DATA
  6
Continuous
 62
     7
100
AcDbLine
 10
51.99999999999997
 20
145.75
 30
0.0
 11
51.99999999999997
 21
143.75
 31
0.0
  0
LINE
  5
1D6
330
28A
100
AcDbEntity
  8
DATA
  6
Continuous
 62
     7
100
AcDbLine
 10
40.99999999999996
 20
145.75
 30
0.0
 11
41.74999999999999
 21
145.75
 31
0.0
  0
LINE
  5
1D7
330
28A
100
AcDbEntity
  8
DATA
  6
Continuous
 62
     7
100
AcDbLine
 10
51.25
 20
145.75
 30
0.0
 11
51.99999999999997
 21
145.75
 31
0.0
  0
LINE
  5
1D8
330
28A
100
AcDbEntity
  8
DATA
  6
Continuous
 62
     7
100
AcDbLine
 10
40.99999999999996
 20
143.75
 30
0.0
 11
41.74999999999999
 21
143.75
 31
0.0
  0
LINE
  5
1D9
330
28A
100
AcDbEntity
  8
DATA
  6
Continuous
 62
     7
100
AcDbLine
 10
51.25
 20
143.75
 30
0.0
 11
51.99999999999997
 21
143.75
 31
0.0
  0
LINE
  5
1DA
330
28A
100
AcDbEntity
  8
DATA
  6
Continuous
 62
     7
100
AcDbLine
 10
38.79587247673228
 20
136.75
 30
0.0
 11
38.79587247673228
 21
131.75
 31
0.0
  0
LINE
  5
1DB
330
28A
100
AcDbEntity
  8
DATA
  6
Continuous
 62
     7
100
AcDbLine
 10
54.20412752326768
 20
136.75
 30
0.0
 11
54.20412752326768
 21
131.75
 31
0.0
  0
LINE
  5
1DC
330
28A
100
AcDbEntity
  8
DATA
  6
Continuous
 62
     7
100
AcDbLine
 10
21.24999999999998
 20
148.75
 30
0.0
 11
11.74999999999998
 21
148.75
 31
0.0
  0
LINE
  5
1DD
330
28A
100
AcDbEntity
  8
DATA
  6
Continuous
 62
     7
100
AcDbLine
 10
24.2041275232677
 20
136.75
 30
0.0
 11
8.795872476732286
 21
136.75
 31
0.0
  0
LINE
  5
1DE
330
28A
100
AcDbEntity
  8
DATA
  6
Continuous
 62
     7
100
AcDbLine
 10
11.74999999999998
 20
148.75
 30
0.0
 11
11.74999999999998
 21
136.75
 31
0.0
  0
LINE
  5
1DF
330
28A
100
AcDbEntity
  8
DATA
  6
Continuous
 62
     7
100
AcDbLine
 10
21.24999999999998
 20
148.75
 30
0.0
 11
21.24999999999998
 21
136.75
 31
0.0
  0
LINE
  5
1E0
330
28A
100
AcDbEntity
  8
DATA
  6
Continuous
 62
     7
100
AcDbLine
 10
10.99999999999997
 20
145.75
 30
0.0
 11
10.99999999999997
 21
143.75
 31
0.0
  0
LINE
  5
1E1
330
28A
100
AcDbEntity
  8
DATA
  6
Continuous
 62
     7
100
AcDbLine
 10
21.99999999999997
 20
145.75
 30
0.0
 11
21.99999999999997
 21
143.75
 31
0.0
  0
LINE
  5
1E2
330
28A
100
AcDbEntity
  8
DATA
  6
Continuous
 62
     7
100
AcDbLine
 10
10.99999999999997
 20
145.75
 30
0.0
 11
11.74999999999998
 21
145.75
 31
0.0
  0
LINE
  5
1E3
330
28A
100
AcDbEntity
  8
DATA
  6
Continuous
 62
     7
100
AcDbLine
 10
21.24999999999998
 20
145.75
 30
0.0
 11
21.99999999999997
 21
145.75
 31
0.0
  0
LINE
  5
1E4
330
28A
100
AcDbEntity
  8
DATA
  6
Continuous
 62
     7
100
AcDbLine
 10
10.99999999999997
 20
143.75
 30
0.0
 11
11.74999999999998
 21
143.75
 31
0.0
  0
LINE
  5
1E5
330
28A
100
AcDbEntity
  8
DATA
  6
Continuous
 62
     7
100
AcDbLine
 10
21.24999999999998
 20
143.75
 30
0.0
 11
21.99999999999997
 21
143.75
 31
0.0
  0
LINE
  5
1E6
330
28A
100
AcDbEntity
  8
DATA
  6
Continuous
 62
     7
100
AcDbLine
 10
8.795872476732286
 20
136.75
 30
0.0
 11
8.795872476732286
 21
131.75
 31
0.0
  0
LINE
  5
1E7
330
28A
100
AcDbEntity
  8
DATA
  6
Continuous
 62
     7
100
AcDbLine
 10
24.2041275232677
 20
136.75
 30
0.0
 11
24.2041275232677
 21
131.75
 31
0.0
  0
LINE
  5
1E8
330
28A
100
AcDbEntity
  8
DATA
  6
Continuous
 62
     7
100
AcDbLine
 10
-42.75000000000001
 20
133.75
 30
0.0
 11
-42.75000000000001
 21
131.75
 31
0.0
  0
LINE
  5
1E9
330
28A
100
AcDbEntity
  8
DATA
  6
Continuous
 62
     7
100
AcDbLine
 10
-32.25000000000001
 20
133.75
 30
0.0
 11
-32.25000000000001
 21
131.75
 31
0.0
  0
LINE
  5
1EA
330
28A
100
AcDbEntity
  8
DATA
  6
Continuous
 62
     7
100
AcDbLine
 10
-41.40000000000003
 20
137.25
 30
0.0
 11
-41.40000000000003
 21
133.75
 31
0.0
  0
LINE
  5
1EB
330
28A
100
AcDbEntity
  8
DATA
  6
Continuous
 62
     7
100
AcDbLine
 10
-33.6157368781203
 20
137.25
 30
0.0
 11
-33.6157368781203
 21
133.75
 31
0.0
  0
LINE
  5
1EC
330
28A
100
AcDbEntity
  8
DATA
  6
Continuous
 62
     7
100
AcDbLine
 10
-41.40000000000003
 20
137.25
 30
0.0
 11
-33.6157368781203
 21
137.25
 31
0.0
  0
LINE
  5
1ED
330
28A
100
AcDbEntity
  8
DATA
  6
Continuous
 62
     7
100
AcDbLine
 10
-42.75000000000001
 20
133.75
 30
0.0
 11
-32.25000000000001
 21
133.75
 31
0.0
  0
LINE
  5
1EE
330
28A
100
AcDbEntity
  8
DATA
  6
Continuous
 62
     7
100
AcDbLine
 10
-2.686142842891768
 20
136.2500000002158
 30
0.0
 11
-20.50701584099109
 21
136.2500000002158
 31
0.0
  0
LINE
  5
1EF
330
28A
100
AcDbEntity
  8
DATA
  6
Continuous
 62
     7
100
AcDbLine
 10
-20.50701584099109
 20
136.2500000002158
 30
0.0
 11
-20.50701584099109
 21
131.749999999855
 31
0.0
  0
LINE
  5
1F0
330
28A
100
AcDbEntity
  8
DATA
  6
Continuous
 62
     7
100
AcDbLine
 10
-2.686142842891768
 20
136.2500000002158
 30
0.0
 11
-2.686142842891768
 21
131.749999999855
 31
0.0
  0
LINE
  5
1F1
330
28A
100
AcDbEntity
  8
DATA
  6
Continuous
 62
     7
100
AcDbLine
 10
-26.34566676764261
 20
136.2500000002158
 30
0.0
 11
-26.34566676764261
 21
131.75
 31
0.0
  0
LINE
  5
1F2
330
28A
100
AcDbEntity
  8
DATA
  6
Continuous
 62
     7
100
AcDbLine
 10
-21.66912958720665
 20
136.2500000002158
 30
0.0
 11
-21.66912958720665
 21
131.75
 31
0.0
  0
LINE
  5
1F3
330
28A
100
AcDbEntity
  8
DATA
  6
Continuous
 62
     7
100
AcDbLine
 10
3.330870412793515
 20
136.2500000002158
 30
0.0
 11
3.330870412793515
 21
131.75
 31
0.0
  0
LINE
  5
1F4
330
28A
100
AcDbEntity
  8
DATA
  6
Continuous
 62
     7
100
AcDbLine
 10
-1.345666767642441
 20
136.2500000002158
 30
0.0
 11
-1.345666767642441
 21
131.75
 31
0.0
  0
LINE
  5
1F5
330
28A
100
AcDbEntity
  8
DATA
  6
Continuous
 62
     7
100
AcDbLine
 10
-21.66912958720665
 20
136.2500000002158
 30
0.0
 11
-26.34566676764261
 21
136.2500000002158
 31
0.0
  0
LINE
  5
1F6
330
28A
100
AcDbEntity
  8
DATA
  6
Continuous
 62
     7
100
AcDbLine
 10
-1.345666767642441
 20
136.2500000002158
 30
0.0
 11
3.330870412793515
 21
136.2500000002158
 31
0.0
  0
LINE
  5
1F7
330
28A
100
AcDbEntity
  8
DATA
  6
Continuous
 62
     7
100
AcDbLine
 10
197.0114911841865
 20
-35.25
 30
0.0
 11
198.2614911841865
 21
-31.25
 31
0.0
  0
LINE
  5
1F8
330
28A
100
AcDbEntity
  8
DATA
  6
Continuous
 62
     7
100
AcDbLine
 10
187.5114911841865
 20
-35.25
 30
0.0
 11
186.2614911841865
 21
-31.25
 31
0.0
  0
LINE
  5
1F9
330
28A
100
AcDbEntity
  8
DATA
  6
Continuous
 62
     7
100
AcDbLine
 10
197.0114911841865
 20
-35.25
 30
0.0
 11
187.5114911841865
 21
-35.25
 31
0.0
  0
LINE
  5
1FA
330
28A
100
AcDbEntity
  8
DATA
  6
Continuous
 62
     7
100
AcDbLine
 10
246.1024495942446
 20
-35.25
 30
0.0
 11
244.8524495942446
 21
-31.25
 31
0.0
  0
LINE
  5
1FB
330
28A
100
AcDbEntity
  8
DATA
  6
Continuous
 62
     7
100
AcDbLine
 10
255.6024495942446
 20
-35.25
 30
0.0
 11
256.8524495942446
 21
-31.25
 31
0.0
  0
LINE
  5
1FC
330
28A
100
AcDbEntity
  8
DATA
  6
Continuous
 62
     7
100
AcDbLine
 10
246.1024495942446
 20
-35.25
 30
0.0
 11
255.6024495942446
 21
-35.25
 31
0.0
  0
LINE
  5
1FD
330
28A
100
AcDbEntity
  8
DATA
  6
Continuous
 62
     7
100
AcDbLine
 10
176.25
 20
-15.55000000000001
 30
0.0
 11
181.25
 21
-15.55000000000001
 31
0.0
  0
LINE
  5
1FE
330
28A
100
AcDbEntity
  8
DATA
  6
Continuous
 62
     7
100
AcDbLine
 10
176.25
 20
-24.94999999999999
 30
0.0
 11
181.25
 21
-24.94999999999999
 31
0.0
  0
LINE
  5
1FF
330
28A
100
AcDbEntity
  8
DATA
  6
Continuous
 62
     7
100
AcDbLine
 10
176.25
 20
-24.94999999999999
 30
0.0
 11
176.25
 21
-15.55000000000001
 31
0.0
  0
LINE
  5
200
330
28A
100
AcDbEntity
  8
DATA
  6
Continuous
 62
     7
100
AcDbLine
 10
286.2499999998912
 20
-21.46710407539337
 30
0.0
 11
286.2499999998912
 21
-11.96710407539336
 31
0.0
  0
LINE
  5
201
330
28A
100
AcDbEntity
  8
DATA
  6
Continuous
 62
     7
100
AcDbLine
 10
274.2499999998912
 20
-24.42123159866105
 30
0.0
 11
274.2499999998912
 21
-9.012976552125678
 31
0.0
  0
LINE
  5
202
330
28A
100
AcDbEntity
  8
DATA
  6
Continuous
 62
     7
100
AcDbLine
 10
286.2499999998912
 20
-11.96710407539336
 30
0.0
 11
274.2499999998912
 21
-11.96710407539336
 31
0.0
  0
LINE
  5
203
330
28A
100
AcDbEntity
  8
DATA
  6
Continuous
 62
     7
100
AcDbLine
 10
286.2499999998912
 20
-21.46710407539337
 30
0.0
 11
274.2499999998912
 21
-21.46710407539337
 31
0.0
  0
LINE
  5
204
330
28A
100
AcDbEntity
  8
DATA
  6
Continuous
 62
     7
100
AcDbLine
 10
274.2499999998912
 20
-9.012976552125678
 30
0.0
 11
269.2499999998911
 21
-9.012976552125678
 31
0.0
  0
LINE
  5
205
330
28A
100
AcDbEntity
  8
DATA
  6
Continuous
 62
     7
100
AcDbLine
 10
274.2499999998912
 20
-24.42123159866105
 30
0.0
 11
269.2499999998911
 21
-24.42123159866105
 31
0.0
  0
CIRCLE
  5
206
330
28A
100
AcDbEntity
  8
DATA
  6
Continuous
 62
     7
100
AcDbCircle
 10
195.25
 20
-25.75
 30
0.0
 40
2.650000000000005
  0
LINE
  5
207
330
28A
100
AcDbEntity
  8
DATA
  6
Continuous
 62
     7
100
AcDbLine
 10
195.25
 20
-27.29000000000002
 30
0.0
 11
195.25
 21
-24.20999999999998
 31
0.0
  0
LINE
  5
208
330
28A
100
AcDbEntity
  8
DATA
  6
Continuous
 62
     7
100
AcDbLine
 10
193.71
 20
-25.75
 30
0.0
 11
196.79
 21
-25.75
 31
0.0
  0
CIRCLE
  5
209
330
28A
100
AcDbEntity
  8
DATA
  6
Continuous
 62
     7
100
AcDbCircle
 10
195.25
 20
-7.25
 30
0.0
 40
2.650000000000005
  0
LINE
  5
20A
330
28A
100
AcDbEntity
  8
DATA
  6
Continuous
 62
     7
100
AcDbLine
 10
195.25
 20
-8.790000000000018
 30
0.0
 11
195.25
 21
-5.70999999999998
 31
0.0
  0
LINE
  5
20B
330
28A
100
AcDbEntity
  8
DATA
  6
Continuous
 62
     7
100
AcDbLine
 10
193.71
 20
-7.25
 30
0.0
 11
196.79
 21
-7.25
 31
0.0
  0
CIRCLE
  5
20C
330
28A
100
AcDbEntity
  8
DATA
  6
Continuous
 62
     7
100
AcDbCircle
 10
250.25
 20
-25.75
 30
0.0
 40
2.650000000000005
  0
LINE
  5
20D
330
28A
100
AcDbEntity
  8
DATA
  6
Continuous
 62
     7
100
AcDbLine
 10
250.25
 20
-27.29000000000002
 30
0.0
 11
250.25
 21
-24.20999999999998
 31
0.0
  0
LINE
  5
20E
330
28A
100
AcDbEntity
  8
DATA
  6
Continuous
 62
     7
100
AcDbLine
 10
248.71
 20
-25.75
 30
0.0
 11
251.79
 21
-25.75
 31
0.0
  0
CIRCLE
  5
20F
330
28A
100
AcDbEntity
  8
DATA
  6
Continuous
 62
     7
100
AcDbCircle
 10
282.2499999998912
 20
-16.71710407539336
 30
0.0
 40
1.0
  0
TEXT
  5
210
330
28A
100
AcDbEntity
  8
DATA
 62
     7
100
AcDbText
 10
224.6250000000001
 20
-152.044866404543
 30
0.0
 40
6.108154296875
  1
EXT-3GSDI-441
 41
0.7
 11
224.6250000000001
 21
-145.9367121076679
 31
0.0
100
AcDbText
 73
     3
  0
TEXT
  5
211
330
28A
100
AcDbEntity
  8
DATA
 62
     7
100
AcDbText
 10
224.7201084423569
 20
-132.1950743186985
 30
0.0
 40
6.108154296875
  1
Gefen
 41
0.7
 11
224.7201084423569
 21
-126.0869200218235
 31
0.0
100
AcDbText
 73
     3
  0
TEXT
  5
212
330
28A
100
AcDbEntity
  8
DATA
 62
     7
100
AcDbText
 10
219.7500000000001
 20
-141.4173244863696
 30
0.0
 40
4.072102864583333
  1
4\U+00D71 3G-SDI切替機
 41
0.7
 11
219.7500000000001
 21
-137.3452216217863
 31
0.0
100
AcDbText
 73
     3
  0
ENDSEC
  0
SECTION
  2
OBJECTS
  0
DICTIONARY
  5
220
330
0
100
AcDbDictionary
281
     1
  3
ACAD_COLOR
350
281
  3
ACAD_GROUP
350
221
  3
ACAD_LAYOUT
350
280
  3
ACAD_MATERIAL
350
224
  3
ACAD_MLEADERSTYLE
350
284
  3
ACAD_MLINESTYLE
350
27D
  3
ACAD_PLOTSETTINGS
350
27F
  3
ACAD_PLOTSTYLENAME
350
222
  3
ACAD_SCALELIST
350
251
  3
ACAD_TABLESTYLE
350
282
  3
ACAD_VISUALSTYLE
350
23D
  3
ACDB_RECOMPOSE_DATA
350
2B6
  3
AcDbVariableDictionary
350
2AC
  3
DWGPROPS
350
2B7
  0
DICTIONARY
  5
2A2
330
273
100
AcDbDictionary
280
     1
281
     1
  3
ADSK_XREC_LAYER_RECONCILED
360
2A3
  0
DICTIONARY
  5
2A4
330
28E
100
AcDbDictionary
280
     1
281
     1
  3
ADSK_XREC_LAYER_RECONCILED
360
2A5
  0
DICTIONARY
  5
2A6
330
29A
100
AcDbDictionary
280
     1
281
     1
  3
ADSK_XREC_LAYER_RECONCILED
360
2A7
  0
DICTIONARY
  5
2A8
330
29B
100
AcDbDictionary
280
     1
281
     1
  3
ADSK_XREC_LAYER_RECONCILED
360
2A9
  0
DICTIONARY
  5
2AA
330
29C
100
AcDbDictionary
280
     1
281
     1
  3
ADSK_XREC_LAYER_RECONCILED
360
2AB
  0
DICTIONARY
  5
281
102
{ACAD_REACTORS
330
220
102
}
330
220
100
AcDbDictionary
281
     1
  0
DICTIONARY
  5
221
102
{ACAD_REACTORS
330
220
102
}
330
220
100
AcDbDictionary
281
     1
  0
DICTIONARY
  5
280
102
{ACAD_REACTORS
330
220
102
}
330
220
100
AcDbDictionary
281
     1
  3
Model
350
28D
  3
レイアウト1
350
289
  0
DICTIONARY
  5
224
102
{ACAD_REACTORS
330
220
102
}
330
220
100
AcDbDictionary
281
     1
  3
ByBlock
350
22D
  3
ByLayer
350
225
  3
Global
350
235
  0
DICTIONARY
  5
284
102
{ACAD_REACTORS
330
220
102
}
330
220
100
AcDbDictionary
281
     1
  3
Standard
350
285
  0
DICTIONARY
  5
27D
102
{ACAD_REACTORS
330
220
102
}
330
220
100
AcDbDictionary
281
     1
  3
Standard
350
27E
  0
DICTIONARY
  5
27F
102
{ACAD_REACTORS
330
220
102
}
330
220
100
AcDbDictionary
281
     1
  0
ACDBDICTIONARYWDFLT
  5
222
102
{ACAD_REACTORS
330
220
102
}
330
220
100
AcDbDictionary
281
     1
  3
Normal
350
223
100
AcDbDictionaryWithDefault
340
223
  0
DICTIONARY
  5
251
102
{ACAD_REACTORS
330
220
102
}
330
220
100
AcDbDictionary
281
     1
  3
A0
350
252
  3
A1
350
253
  3
A2
350
254
  3
A3
350
255
  3
A4
350
256
  3
A5
350
257
  3
A6
350
258
  3
A7
350
259
  3
A8
350
25A
  3
A9
350
25B
  3
B0
350
25C
  3
B1
350
25D
  3
B2
350
25E
  3
B3
350
25F
  3
B4
350
260
  3
B5
350
261
  3
B6
350
262
  3
B7
350
263
  3
B8
350
264
  3
B9
350
265
  3
C0
350
266
  3
C1
350
267
  3
C2
350
268
  3
C3
350
269
  3
C4
350
26A
  3
C5
350
26B
  3
C6
350
26C
  3
C7
350
26D
  3
C8
350
26E
  3
C9
350
26F
  3
D0
350
270
  3
D1
350
271
  3
D2
350
272
  0
DICTIONARY
  5
282
102
{ACAD_REACTORS
330
220
102
}
330
220
100
AcDbDictionary
281
     1
  3
Standard
350
283
  0
DICTIONARY
  5
23D
102
{ACAD_REACTORS
330
220
102
}
330
220
100
AcDbDictionary
281
     1
  3
2dWireframe
350
243
  3
3D Hidden
350
245
  3
3dWireframe
350
244
  3
Basic
350
242
  3
Brighten
350
249
  3
ColorChange
350
24D
  3
Conceptual
350
246
  3
Dim
350
248
  3
EdgeColorOff
350
250
  3
Facepattern
350
24C
  3
Flat
350
23E
  3
FlatWithEdges
350
23F
  3
Gouraud
350
240
  3
GouraudWithEdges
350
241
  3
JitterOff
350
24E
  3
Linepattern
350
24B
  3
OverhangOff
350
24F
  3
Realistic
350
247
  3
Thicken
350
24A
  0
XRECORD
  5
2B6
102
{ACAD_REACTORS
330
220
102
}
330
220
100
AcDbXrecord
280
     1
 90
        1
330
283
  0
DICTIONARY
  5
2AC
102
{ACAD_REACTORS
330
220
102
}
330
220
100
AcDbDictionary
281
     1
  3
CANNOSCALE
350
2AF
  3
CMLEADERSTYLE
350
2AE
  3
CTABLESTYLE
350
2AD
  3
DIMASSOC
350
2B2
  3
INDEXCTL
350
2B1
  3
SORTENTS
350
2B0
  3
XCLIPFRAME
350
2B3
  0
XRECORD
  5
2B7
102
{ACAD_REACTORS
330
220
102
}
330
220
100
AcDbXrecord
280
     1
  1
DWGPROPS COOKIE
  2

  3

  4

  6

  7

  8
sasaki_n
  9

300
=
301
=
302
=
303
=
304
=
305
=
306
=
307
=
308
=
309
=
 40
0.0002515162037037
 41
2455202.72337963
 42
2455202.723743484
  1

 90
        0
  0
XRECORD
  5
2A3
102
{ACAD_REACTORS
330
2A2
102
}
330
2A2
100
AcDbXrecord
280
     1
290
     1
  0
XRECORD
  5
2A5
102
{ACAD_REACTORS
330
2A4
102
}
330
2A4
100
AcDbXrecord
280
     1
290
     1
  0
XRECORD
  5
2A7
102
{ACAD_REACTORS
330
2A6
102
}
330
2A6
100
AcDbXrecord
280
     1
290
     1
  0
XRECORD
  5
2A9
102
{ACAD_REACTORS
330
2A8
102
}
330
2A8
100
AcDbXrecord
280
     1
290
     1
  0
XRECORD
  5
2AB
102
{ACAD_REACTORS
330
2AA
102
}
330
2AA
100
AcDbXrecord
280
     1
290
     1
  0
LAYOUT
  5
28D
102
{ACAD_XDICTIONARY
360
2E5
102
}
102
{ACAD_REACTORS
330
280
102
}
330
280
100
AcDbPlotSettings
  1

  2
DocuPrint 255-1
  4

  6

 40
0.0
 41
0.0
 42
0.0
 43
0.0
 44
0.0
 45
0.0
 46
0.0
 47
0.0
 48
0.0
 49
0.0
140
0.0
141
0.0
142
1.0
143
1.0
 70
  1712
 72
     0
 73
     0
 74
     0
  7

 75
     0
147
1.0
148
0.0
149
0.0
100
AcDbLayout
  1
Model
 70
     1
 71
     0
 10
0.0
 20
0.0
 11
12.0
 21
9.0
 12
0.0
 22
0.0
 32
0.0
 14
0.0
 24
0.0
 34
0.0
 15
0.0
 25
0.0
 35
0.0
146
0.0
 13
0.0
 23
0.0
 33
0.0
 16
1.0
 26
0.0
 36
0.0
 17
0.0
 27
1.0
 37
0.0
 76
     0
330
28A
331
28F
  0
LAYOUT
  5
289
102
{ACAD_XDICTIONARY
360
2E3
102
}
102
{ACAD_REACTORS
330
280
102
}
330
280
100
AcDbPlotSettings
  1

  2
DocuPrint 255-1
  4

  6

 40
0.0
 41
0.0
 42
0.0
 43
0.0
 44
0.0
 45
0.0
 46
0.0
 47
0.0
 48
0.0
 49
0.0
140
0.0
141
0.0
142
1.0
143
1.0
 70
   688
 72
     0
 73
     0
 74
     5
  7

 75
    16
147
1.0
148
0.0
149
0.0
100
AcDbLayout
  1
レイアウト1
 70
     0
 71
     1
 10
0.0
 20
0.0
 11
12.0
 21
9.0
 12
0.0
 22
0.0
 32
0.0
 14
1.000000000000000E+20
 24
1.000000000000000E+20
 34
1.000000000000000E+20
 15
-1.000000000000000E+20
 25
-1.000000000000000E+20
 35
-1.000000000000000E+20
146
0.0
 13
0.0
 23
0.0
 33
0.0
 16
1.0
 26
0.0
 36
0.0
 17
0.0
 27
1.0
 37
0.0
 76
     0
330
286
  0
MATERIAL
  5
22D
102
{ACAD_XDICTIONARY
360
22E
102
}
102
{ACAD_REACTORS
330
224
102
}
330
224
100
AcDbMaterial
  1
ByBlock
 72
     0
 43
0.0208333333333333
 43
0.0
 43
0.0
 43
0.0
 43
0.0
 43
0.0208333333333333
 43
0.0
 43
0.0
 43
0.0
 43
0.0
 43
1.0
 43
0.0
 43
0.0
 43
0.0
 43
0.0
 43
1.0
 77
     0
 47
0.0208333333333333
 47
0.0
 47
0.0
 47
0.0
 47
0.0
 47
0.0208333333333333
 47
0.0
 47
0.0
 47
0.0
 47
0.0
 47
1.0
 47
0.0
 47
0.0
 47
0.0
 47
0.0
 47
1.0
171
     0
 49
0.0208333333333333
 49
0.0
 49
0.0
 49
0.0
 49
0.0
 49
0.0208333333333333
 49
0.0
 49
0.0
 49
0.0
 49
0.0
 49
1.0
 49
0.0
 49
0.0
 49
0.0
 49
0.0
 49
1.0
175
     0
142
0.0208333333333333
142
0.0
142
0.0
142
0.0
142
0.0
142
0.0208333333333333
142
0.0
142
0.0
142
0.0
142
0.0
142
1.0
142
0.0
142
0.0
142
0.0
142
0.0
142
1.0
179
     0
144
0.0208333333333333
144
0.0
144
0.0
144
0.0
144
0.0
144
0.0208333333333333
144
0.0
144
0.0
144
0.0
144
0.0
144
1.0
144
0.0
144
0.0
144
0.0
144
0.0
144
1.0
147
0.0208333333333333
147
0.0
147
0.0
147
0.0
147
0.0
147
0.0208333333333333
147
0.0
147
0.0
147
0.0
147
0.0
147
1.0
147
0.0
147
0.0
147
0.0
147
0.0
147
1.0
  0
MATERIAL
  5
225
102
{ACAD_XDICTIONARY
360
226
102
}
102
{ACAD_REACTORS
330
224
102
}
330
224
100
AcDbMaterial
  1
ByLayer
 72
     0
 43
0.0208333333333333
 43
0.0
 43
0.0
 43
0.0
 43
0.0
 43
0.0208333333333333
 43
0.0
 43
0.0
 43
0.0
 43
0.0
 43
1.0
 43
0.0
 43
0.0
 43
0.0
 43
0.0
 43
1.0
 77
     0
 47
0.0208333333333333
 47
0.0
 47
0.0
 47
0.0
 47
0.0
 47
0.0208333333333333
 47
0.0
 47
0.0
 47
0.0
 47
0.0
 47
1.0
 47
0.0
 47
0.0
 47
0.0
 47
0.0
 47
1.0
171
     0
 49
0.0208333333333333
 49
0.0
 49
0.0
 49
0.0
 49
0.0
 49
0.0208333333333333
 49
0.0
 49
0.0
 49
0.0
 49
0.0
 49
1.0
 49
0.0
 49
0.0
 49
0.0
 49
0.0
 49
1.0
175
     0
142
0.0208333333333333
142
0.0
142
0.0
142
0.0
142
0.0
142
0.0208333333333333
142
0.0
142
0.0
142
0.0
142
0.0
142
1.0
142
0.0
142
0.0
142
0.0
142
0.0
142
1.0
179
     0
144
0.0208333333333333
144
0.0
144
0.0
144
0.0
144
0.0
144
0.0208333333333333
144
0.0
144
0.0
144
0.0
144
0.0
144
1.0
144
0.0
144
0.0
144
0.0
144
0.0
144
1.0
147
0.0208333333333333
147
0.0
147
0.0
147
0.0
147
0.0
147
0.0208333333333333
147
0.0
147
0.0
147
0.0
147
0.0
147
1.0
147
0.0
147
0.0
147
0.0
147
0.0
147
1.0
  0
MATERIAL
  5
235
102
{ACAD_XDICTIONARY
360
236
102
}
102
{ACAD_REACTORS
330
224
102
}
330
224
100
AcDbMaterial
  1
Global
 72
     0
 43
0.0208333333333333
 43
0.0
 43
0.0
 43
0.0
 43
0.0
 43
0.0208333333333333
 43
0.0
 43
0.0
 43
0.0
 43
0.0
 43
1.0
 43
0.0
 43
0.0
 43
0.0
 43
0.0
 43
1.0
 77
     0
 47
0.0208333333333333
 47
0.0
 47
0.0
 47
0.0
 47
0.0
 47
0.0208333333333333
 47
0.0
 47
0.0
 47
0.0
 47
0.0
 47
1.0
 47
0.0
 47
0.0
 47
0.0
 47
0.0
 47
1.0
171
     0
 49
0.0208333333333333
 49
0.0
 49
0.0
 49
0.0
 49
0.0
 49
0.0208333333333333
 49
0.0
 49
0.0
 49
0.0
 49
0.0
 49
1.0
 49
0.0
 49
0.0
 49
0.0
 49
0.0
 49
1.0
175
     0
142
0.0208333333333333
142
0.0
142
0.0
142
0.0
142
0.0
142
0.0208333333333333
142
0.0
142
0.0
142
0.0
142
0.0
142
1.0
142
0.0
142
0.0
142
0.0
142
0.0
142
1.0
179
     0
144
0.0208333333333333
144
0.0
144
0.0
144
0.0
144
0.0
144
0.0208333333333333
144
0.0
144
0.0
144
0.0
144
0.0
144
1.0
144
0.0
144
0.0
144
0.0
144
0.0
144
1.0
147
0.0208333333333333
147
0.0
147
0.0
147
0.0
147
0.0
147
0.0208333333333333
147
0.0
147
0.0
147
0.0
147
0.0
147
1.0
147
0.0
147
0.0
147
0.0
147
0.0
147
1.0
  0
MLEADERSTYLE
  5
285
102
{ACAD_REACTORS
330
284
102
}
330
284
100
AcDbMLeaderStyle
170
     2
171
     1
172
     0
 90
        2
 40
0.0
 41
0.0
173
     1
 91
-1056964608
340
279
 92
       -2
290
     1
 42
0.09
291
     1
 43
0.36
  3
Standard
 44
0.18
300

342
274
174
     1
178
     6
175
     1
176
     0
 93
-1056964608
 45
0.18
292
     0
297
     0
 46
0.18
 94
-1056964608
 47
1.0
 49
1.0
140
1.0
293
     1
141
0.0
294
     1
177
     0
142
1.0
295
     0
296
     0
143
0.125
1001
ACAD_MLEADERVER
1070
     2
  0
MLINESTYLE
  5
27E
102
{ACAD_REACTORS
330
27D
102
}
330
27D
100
AcDbMlineStyle
  2
STANDARD
 70
     0
  3

 62
   256
 51
90.0
 52
90.0
 71
     2
 49
0.5
 62
   256
  6
BYLAYER
 49
-0.5
 62
   256
  6
BYLAYER
  0
ACDBPLACEHOLDER
  5
223
102
{ACAD_REACTORS
330
222
102
}
330
222
  0
SCALE
  5
252
102
{ACAD_REACTORS
330
251
102
}
330
251
100
AcDbScale
 70
     0
300
1:1
140
1.0
141
1.0
290
     1
  0
SCALE
  5
253
102
{ACAD_REACTORS
330
251
102
}
330
251
100
AcDbScale
 70
     0
300
1:2
140
1.0
141
2.0
290
     0
  0
SCALE
  5
254
102
{ACAD_REACTORS
330
251
102
}
330
251
100
AcDbScale
 70
     0
300
1:4
140
1.0
141
4.0
290
     0
  0
SCALE
  5
255
102
{ACAD_REACTORS
330
251
102
}
330
251
100
AcDbScale
 70
     0
300
1:5
140
1.0
141
5.0
290
     0
  0
SCALE
  5
256
102
{ACAD_REACTORS
330
251
102
}
330
251
100
AcDbScale
 70
     0
300
1:8
140
1.0
141
8.0
290
     0
  0
SCALE
  5
257
102
{ACAD_REACTORS
330
251
102
}
330
251
100
AcDbScale
 70
     0
300
1:10
140
1.0
141
10.0
290
     0
  0
SCALE
  5
258
102
{ACAD_REACTORS
330
251
102
}
330
251
100
AcDbScale
 70
     0
300
1:16
140
1.0
141
16.0
290
     0
  0
SCALE
  5
259
102
{ACAD_REACTORS
330
251
102
}
330
251
100
AcDbScale
 70
     0
300
1:20
140
1.0
141
20.0
290
     0
  0
SCALE
  5
25A
102
{ACAD_REACTORS
330
251
102
}
330
251
100
AcDbScale
 70
     0
300
1:30
140
1.0
141
30.0
290
     0
  0
SCALE
  5
25B
102
{ACAD_REACTORS
330
251
102
}
330
251
100
AcDbScale
 70
     0
300
1:40
140
1.0
141
40.0
290
     0
  0
SCALE
  5
25C
102
{ACAD_REACTORS
330
251
102
}
330
251
100
AcDbScale
 70
     0
300
1:50
140
1.0
141
50.0
290
     0
  0
SCALE
  5
25D
102
{ACAD_REACTORS
330
251
102
}
330
251
100
AcDbScale
 70
     0
300
1:100
140
1.0
141
100.0
290
     0
  0
SCALE
  5
25E
102
{ACAD_REACTORS
330
251
102
}
330
251
100
AcDbScale
 70
     0
300
2:1
140
2.0
141
1.0
290
     0
  0
SCALE
  5
25F
102
{ACAD_REACTORS
330
251
102
}
330
251
100
AcDbScale
 70
     0
300
4:1
140
4.0
141
1.0
290
     0
  0
SCALE
  5
260
102
{ACAD_REACTORS
330
251
102
}
330
251
100
AcDbScale
 70
     0
300
8:1
140
8.0
141
1.0
290
     0
  0
SCALE
  5
261
102
{ACAD_REACTORS
330
251
102
}
330
251
100
AcDbScale
 70
     0
300
10:1
140
10.0
141
1.0
290
     0
  0
SCALE
  5
262
102
{ACAD_REACTORS
330
251
102
}
330
251
100
AcDbScale
 70
     0
300
100:1
140
100.0
141
1.0
290
     0
  0
SCALE
  5
263
102
{ACAD_REACTORS
330
251
102
}
330
251
100
AcDbScale
 70
     0
300
1/128" = 1'-0"
140
0.0078125
141
12.0
290
     0
  0
SCALE
  5
264
102
{ACAD_REACTORS
330
251
102
}
330
251
100
AcDbScale
 70
     0
300
1/64" = 1'-0"
140
0.015625
141
12.0
290
     0
  0
SCALE
  5
265
102
{ACAD_REACTORS
330
251
102
}
330
251
100
AcDbScale
 70
     0
300
1/32" = 1'-0"
140
0.03125
141
12.0
290
     0
  0
SCALE
  5
266
102
{ACAD_REACTORS
330
251
102
}
330
251
100
AcDbScale
 70
     0
300
1/16" = 1'-0"
140
0.0625
141
12.0
290
     0
  0
SCALE
  5
267
102
{ACAD_REACTORS
330
251
102
}
330
251
100
AcDbScale
 70
     0
300
3/32" = 1'-0"
140
0.09375
141
12.0
290
     0
  0
SCALE
  5
268
102
{ACAD_REACTORS
330
251
102
}
330
251
100
AcDbScale
 70
     0
300
1/8" = 1'-0"
140
0.125
141
12.0
290
     0
  0
SCALE
  5
269
102
{ACAD_REACTORS
330
251
102
}
330
251
100
AcDbScale
 70
     0
300
3/16" = 1'-0"
140
0.1875
141
12.0
290
     0
  0
SCALE
  5
26A
102
{ACAD_REACTORS
330
251
102
}
330
251
100
AcDbScale
 70
     0
300
1/4" = 1'-0"
140
0.25
141
12.0
290
     0
  0
SCALE
  5
26B
102
{ACAD_REACTORS
330
251
102
}
330
251
100
AcDbScale
 70
     0
300
3/8" = 1'-0"
140
0.375
141
12.0
290
     0
  0
SCALE
  5
26C
102
{ACAD_REACTORS
330
251
102
}
330
251
100
AcDbScale
 70
     0
300
1/2" = 1'-0"
140
0.5
141
12.0
290
     0
  0
SCALE
  5
26D
102
{ACAD_REACTORS
330
251
102
}
330
251
100
AcDbScale
 70
     0
300
3/4" = 1'-0"
140
0.75
141
12.0
290
     0
  0
SCALE
  5
26E
102
{ACAD_REACTORS
330
251
102
}
330
251
100
AcDbScale
 70
     0
300
1" = 1'-0"
140
1.0
141
12.0
290
     0
  0
SCALE
  5
26F
102
{ACAD_REACTORS
330
251
102
}
330
251
100
AcDbScale
 70
     0
300
1-1/2" = 1'-0"
140
1.5
141
12.0
290
     0
  0
SCALE
  5
270
102
{ACAD_REACTORS
330
251
102
}
330
251
100
AcDbScale
 70
     0
300
3" = 1'-0"
140
3.0
141
12.0
290
     0
  0
SCALE
  5
271
102
{ACAD_REACTORS
330
251
102
}
330
251
100
AcDbScale
 70
     0
300
6" = 1'-0"
140
6.0
141
12.0
290
     0
  0
SCALE
  5
272
102
{ACAD_REACTORS
330
251
102
}
330
251
100
AcDbScale
 70
     0
300
1'-0" = 1'-0"
140
12.0
141
12.0
290
     0
  0
TABLESTYLE
  5
283
102
{ACAD_XDICTIONARY
360
2B4
102
}
102
{ACAD_REACTORS
330
282
102
}
330
282
100
AcDbTableStyle
  3
Standard
 70
     0
 71
     0
 40
0.06
 41
0.06
280
     0
281
     0
  7
STANDARD
140
0.18
170
     2
 62
     0
 63
     7
283
     0
274
    -2
284
     1
 64
     0
275
    -2
285
     1
 65
     0
276
    -2
286
     1
 66
     0
277
    -2
287
     1
 67
     0
278
    -2
288
     1
 68
     0
279
    -2
289
     1
 69
     0
  7
STANDARD
140
0.25
170
     5
 62
     0
 63
     7
283
     0
274
    -2
284
     1
 64
     0
275
    -2
285
     1
 65
     0
276
    -2
286
     1
 66
     0
277
    -2
287
     1
 67
     0
278
    -2
288
     1
 68
     0
279
    -2
289
     1
 69
     0
  7
STANDARD
140
0.18
170
     5
 62
     0
 63
     7
283
     0
274
    -2
284
     1
 64
     0
275
    -2
285
     1
 65
     0
276
    -2
286
     1
 66
     0
277
    -2
287
     1
 67
     0
278
    -2
288
     1
 68
     0
279
    -2
289
     1
 69
     0
  0
VISUALSTYLE
  5
243
102
{ACAD_XDICTIONARY
360
2C5
102
}
102
{ACAD_REACTORS
330
23D
102
}
330
23D
100
AcDbVisualStyle
  2
2dWireframe
 70
     4
 71
     0
 72
     2
 73
     0
 90
        0
 40
-0.6
 41
-30.0
 62
     5
 63
     7
 74
     1
 91
        4
 64
     7
 65
   257
 75
     1
175
     1
 42
1.0
 92
        0
 66
   257
 43
1.0
 76
     1
 77
     6
 78
     2
 67
     7
 79
     5
170
     0
171
     0
290
     0
174
     0
 93
        1
 44
0.0
173
     0
291
     0
 45
0.0
1001
ACAD
1000
AcDbSavedByObjectVersion
1070
     0
  0
VISUALSTYLE
  5
245
102
{ACAD_XDICTIONARY
360
2C9
102
}
102
{ACAD_REACTORS
330
23D
102
}
330
23D
100
AcDbVisualStyle
  2
3D Hidden
 70
     6
 71
     1
 72
     2
 73
     2
 90
        0
 40
-0.6
 41
-30.0
 62
     5
 63
     7
 74
     2
 91
        2
 64
     7
 65
   257
 75
     2
175
     1
 42
179.0
 92
        0
 66
   257
 43
1.0
 76
     1
 77
     6
 78
     2
 67
     7
 79
     3
170
     0
171
     0
290
     0
174
     0
 93
        1
 44
0.0
173
     0
291
     0
 45
0.0
1001
ACAD
1000
AcDbSavedByObjectVersion
1070
     0
  0
VISUALSTYLE
  5
244
102
{ACAD_XDICTIONARY
360
2C7
102
}
102
{ACAD_REACTORS
330
23D
102
}
330
23D
100
AcDbVisualStyle
  2
3dWireframe
 70
     5
 71
     0
 72
     2
 73
     0
 90
        0
 40
-0.6
 41
-30.0
 62
     5
 63
     7
 74
     1
 91
        4
 64
     7
 65
   257
 75
     1
175
     1
 42
1.0
 92
        0
 66
   257
 43
1.0
 76
     1
 77
     6
 78
     2
 67
     7
 79
     5
170
     0
171
     0
290
     0
174
     0
 93
        1
 44
0.0
173
     0
291
     0
 45
0.0
1001
ACAD
1000
AcDbSavedByObjectVersion
1070
     0
  0
VISUALSTYLE
  5
242
102
{ACAD_XDICTIONARY
360
2C3
102
}
102
{ACAD_REACTORS
330
23D
102
}
330
23D
100
AcDbVisualStyle
  2
Basic
 70
     7
 71
     1
 72
     0
 73
     1
 90
        0
 40
-0.6
 41
-30.0
 62
     5
 63
     7
 74
     0
 91
        4
 64
     7
 65
   257
 75
     1
175
     1
 42
1.0
 92
        8
 66
     7
 43
1.0
 76
     1
 77
     6
 78
     2
 67
     7
 79
     5
170
     0
171
     0
290
     0
174
     0
 93
        1
 44
0.0
173
     0
291
     1
 45
0.0
1001
ACAD
1000
AcDbSavedByObjectVersion
1070
     0
  0
VISUALSTYLE
  5
249
102
{ACAD_XDICTIONARY
360
2D1
102
}
102
{ACAD_REACTORS
330
23D
102
}
330
23D
100
AcDbVisualStyle
  2
Brighten
 70
    12
 71
     2
 72
     2
 73
     0
 90
        0
 40
-0.6
 41
-30.0
 62
     5
 63
     7
 74
     1
 91
        4
 64
     7
 65
   257
 75
     1
175
     1
 42
1.0
 92
        8
 66
     7
 43
1.0
 76
     1
 77
     6
 78
     2
 67
     7
 79
     5
170
     0
171
     0
290
     0
174
     0
 93
        1
 44
50.0
173
     0
291
     1
 45
0.0
1001
ACAD
1000
AcDbSavedByObjectVersion
1070
     0
  0
VISUALSTYLE
  5
24D
102
{ACAD_XDICTIONARY
360
2D9
102
}
102
{ACAD_REACTORS
330
23D
102
}
330
23D
100
AcDbVisualStyle
  2
ColorChange
 70
    16
 71
     2
 72
     2
 73
     3
 90
        0
 40
-0.6
 41
-30.0
 62
     5
 63
     8
 74
     1
 91
        4
 64
     7
 65
   257
 75
     1
175
     1
 42
1.0
 92
        8
 66
     8
 43
1.0
 76
     1
 77
     6
 78
     2
 67
     7
 79
     5
170
     0
171
     0
290
     0
174
     0
 93
        1
 44
0.0
173
     0
291
     1
 45
0.0
1001
ACAD
1000
AcDbSavedByObjectVersion
1070
     0
  0
VISUALSTYLE
  5
246
102
{ACAD_XDICTIONARY
360
2CB
102
}
102
{ACAD_REACTORS
330
23D
102
}
330
23D
100
AcDbVisualStyle
  2
Conceptual
 70
     9
 71
     3
 72
     2
 73
     0
 90
        0
 40
-0.6
 41
-30.0
 62
     5
 63
     7
 74
     2
 91
        2
 64
     7
 65
   257
 75
     1
175
     1
 42
179.0
 92
        8
 66
     7
 43
1.0
 76
     1
 77
     6
 78
     2
 67
     7
 79
     3
170
     0
171
     0
290
     0
174
     0
 93
        1
 44
0.0
173
     0
291
     0
 45
0.0
1001
ACAD
1000
AcDbSavedByObjectVersion
1070
     0
  0
VISUALSTYLE
  5
248
102
{ACAD_XDICTIONARY
360
2CF
102
}
102
{ACAD_REACTORS
330
23D
102
}
330
23D
100
AcDbVisualStyle
  2
Dim
 70
    11
 71
     2
 72
     2
 73
     0
 90
        0
 40
-0.6
 41
-30.0
 62
     5
 63
     7
 74
     1
 91
        4
 64
     7
 65
   257
 75
     1
175
     1
 42
1.0
 92
        8
 66
     7
 43
1.0
 76
     1
 77
     6
 78
     2
 67
     7
 79
     5
170
     0
171
     0
290
     0
174
     0
 93
        1
 44
-50.0
173
     0
291
     1
 45
0.0
1001
ACAD
1000
AcDbSavedByObjectVersion
1070
     0
  0
VISUALSTYLE
  5
250
102
{ACAD_XDICTIONARY
360
2DF
102
}
102
{ACAD_REACTORS
330
23D
102
}
330
23D
100
AcDbVisualStyle
  2
EdgeColorOff
 70
    22
 71
     2
 72
     2
 73
     0
 90
        0
 40
-0.6
 41
-30.0
 62
     5
 63
     7
 74
     1
 91
        4
 64
     7
 65
   257
 75
     1
175
     1
 42
1.0
 92
        8
 66
     7
 43
1.0
 76
     1
 77
     6
 78
     2
 67
     7
 79
     5
170
     0
171
     0
290
     0
174
     0
 93
        1
 44
0.0
173
     0
291
     1
 45
0.0
1001
ACAD
1000
AcDbSavedByObjectVersion
1070
     0
  0
VISUALSTYLE
  5
24C
102
{ACAD_XDICTIONARY
360
2D7
102
}
102
{ACAD_REACTORS
330
23D
102
}
330
23D
100
AcDbVisualStyle
  2
Facepattern
 70
    15
 71
     2
 72
     2
 73
     0
 90
        0
 40
-0.6
 41
-30.0
 62
     5
 63
     7
 74
     1
 91
        4
 64
     7
 65
   257
 75
     1
175
     1
 42
1.0
 92
        8
 66
     7
 43
1.0
 76
     1
 77
     6
 78
     2
 67
     7
 79
     5
170
     0
171
     0
290
     0
174
     0
 93
        1
 44
0.0
173
     0
291
     1
 45
0.0
1001
ACAD
1000
AcDbSavedByObjectVersion
1070
     0
  0
VISUALSTYLE
  5
23E
102
{ACAD_XDICTIONARY
360
2BB
102
}
102
{ACAD_REACTORS
330
23D
102
}
330
23D
100
AcDbVisualStyle
  2
Flat
 70
     0
 71
     2
 72
     1
 73
     1
 90
        2
 40
-0.6
 41
30.0
 62
     5
 63
     7
 74
     0
 91
        4
 64
     7
 65
   257
 75
     1
175
     1
 42
1.0
 92
        8
 66
     7
 43
1.0
 76
     1
 77
     6
 78
     2
 67
     7
 79
     5
170
     0
171
     0
290
     0
174
     0
 93
       13
 44
0.0
173
     0
291
     1
 45
0.0
1001
ACAD
1000
AcDbSavedByObjectVersion
1070
     0
  0
VISUALSTYLE
  5
23F
102
{ACAD_XDICTIONARY
360
2BD
102
}
102
{ACAD_REACTORS
330
23D
102
}
330
23D
100
AcDbVisualStyle
  2
FlatWithEdges
 70
     1
 71
     2
 72
     1
 73
     1
 90
        2
 40
-0.6
 41
30.0
 62
     5
 63
     7
 74
     1
 91
        4
 64
     7
 65
   257
 75
     1
175
     1
 42
1.0
 92
        0
 66
   257
 43
1.0
 76
     1
 77
     6
 78
     2
 67
     7
 79
     5
170
     0
171
     0
290
     0
174
     0
 93
       13
 44
0.0
173
     0
291
     1
 45
0.0
1001
ACAD
1000
AcDbSavedByObjectVersion
1070
     0
  0
VISUALSTYLE
  5
240
102
{ACAD_XDICTIONARY
360
2BF
102
}
102
{ACAD_REACTORS
330
23D
102
}
330
23D
100
AcDbVisualStyle
  2
Gouraud
 70
     2
 71
     2
 72
     2
 73
     1
 90
        2
 40
-0.6
 41
30.0
 62
     5
 63
     7
 74
     0
 91
        4
 64
     7
 65
   257
 75
     1
175
     1
 42
1.0
 92
        0
 66
     7
 43
1.0
 76
     1
 77
     6
 78
     2
 67
     7
 79
     5
170
     0
171
     0
290
     0
174
     0
 93
       13
 44
0.0
173
     0
291
     1
 45
0.0
1001
ACAD
1000
AcDbSavedByObjectVersion
1070
     0
  0
VISUALSTYLE
  5
241
102
{ACAD_XDICTIONARY
360
2C1
102
}
102
{ACAD_REACTORS
330
23D
102
}
330
23D
100
AcDbVisualStyle
  2
GouraudWithEdges
 70
     3
 71
     2
 72
     2
 73
     1
 90
        2
 40
-0.6
 41
30.0
 62
     5
 63
     7
 74
     1
 91
        4
 64
     7
 65
   257
 75
     1
175
     1
 42
1.0
 92
        0
 66
   257
 43
1.0
 76
     1
 77
     6
 78
     2
 67
     7
 79
     5
170
     0
171
     0
290
     0
174
     0
 93
       13
 44
0.0
173
     0
291
     1
 45
0.0
1001
ACAD
1000
AcDbSavedByObjectVersion
1070
     0
  0
VISUALSTYLE
  5
24E
102
{ACAD_XDICTIONARY
360
2DB
102
}
102
{ACAD_REACTORS
330
23D
102
}
330
23D
100
AcDbVisualStyle
  2
JitterOff
 70
    20
 71
     2
 72
     2
 73
     0
 90
        0
 40
-0.6
 41
-30.0
 62
     5
 63
     7
 74
     1
 91
        4
 64
     7
 65
   257
 75
     1
175
     1
 42
1.0
 92
       10
 66
     7
 43
1.0
 76
     1
 77
     6
 78
     2
 67
     7
 79
     5
170
     0
171
     0
290
     0
174
     0
 93
        1
 44
0.0
173
     0
291
     1
 45
0.0
1001
ACAD
1000
AcDbSavedByObjectVersion
1070
     0
  0
VISUALSTYLE
  5
24B
102
{ACAD_XDICTIONARY
360
2D5
102
}
102
{ACAD_REACTORS
330
23D
102
}
330
23D
100
AcDbVisualStyle
  2
Linepattern
 70
    14
 71
     2
 72
     2
 73
     0
 90
        0
 40
-0.6
 41
-30.0
 62
     5
 63
     7
 74
     1
 91
        4
 64
     7
 65
   257
 75
     7
175
     7
 42
1.0
 92
        8
 66
     7
 43
1.0
 76
     1
 77
     6
 78
     2
 67
     7
 79
     5
170
     0
171
     0
290
     0
174
     0
 93
        1
 44
0.0
173
     0
291
     1
 45
0.0
1001
ACAD
1000
AcDbSavedByObjectVersion
1070
     0
  0
VISUALSTYLE
  5
24F
102
{ACAD_XDICTIONARY
360
2DD
102
}
102
{ACAD_REACTORS
330
23D
102
}
330
23D
100
AcDbVisualStyle
  2
OverhangOff
 70
    21
 71
     2
 72
     2
 73
     0
 90
        0
 40
-0.6
 41
-30.0
 62
     5
 63
     7
 74
     1
 91
        4
 64
     7
 65
   257
 75
     1
175
     1
 42
1.0
 92
        9
 66
     7
 43
1.0
 76
     1
 77
     6
 78
     2
 67
     7
 79
     5
170
     0
171
     0
290
     0
174
     0
 93
        1
 44
0.0
173
     0
291
     1
 45
0.0
1001
ACAD
1000
AcDbSavedByObjectVersion
1070
     0
  0
VISUALSTYLE
  5
247
102
{ACAD_XDICTIONARY
360
2CD
102
}
102
{ACAD_REACTORS
330
23D
102
}
330
23D
100
AcDbVisualStyle
  2
Realistic
 70
     8
 71
     2
 72
     2
 73
     0
 90
        0
 40
-0.6
 41
-30.0
 62
     5
 63
     7
 74
     1
 91
        0
 64
     7
 65
   257
 75
     1
175
     1
 42
1.0
 92
        8
 66
     8
 43
1.0
 76
     1
 77
     6
 78
     2
 67
     7
 79
     5
170
     0
171
     0
290
     0
174
     0
 93
       13
 44
0.0
173
     0
291
     0
 45
0.0
1001
ACAD
1000
AcDbSavedByObjectVersion
1070
     0
  0
VISUALSTYLE
  5
24A
102
{ACAD_XDICTIONARY
360
2D3
102
}
102
{ACAD_REACTORS
330
23D
102
}
330
23D
100
AcDbVisualStyle
  2
Thicken
 70
    13
 71
     2
 72
     2
 73
     0
 90
        0
 40
-0.6
 41
-30.0
 62
     5
 63
     7
 74
     1
 91
        4
 64
     7
 65
   257
 75
     1
175
     1
 42
1.0
 92
       12
 66
     7
 43
1.0
 76
     1
 77
     6
 78
     2
 67
     7
 79
     5
170
     0
171
     0
290
     0
174
     0
 93
        1
 44
0.0
173
     0
291
     1
 45
0.0
1001
ACAD
1000
AcDbSavedByObjectVersion
1070
     0
  0
DICTIONARYVAR
  5
2AF
102
{ACAD_REACTORS
330
2AC
102
}
330
2AC
100
DictionaryVariables
280
     0
  1
1:1
  0
DICTIONARYVAR
  5
2AE
102
{ACAD_REACTORS
330
2AC
102
}
330
2AC
100
DictionaryVariables
280
     0
  1
STANDARD
  0
DICTIONARYVAR
  5
2AD
102
{ACAD_REACTORS
330
2AC
102
}
330
2AC
100
DictionaryVariables
280
     0
  1
STANDARD
  0
DICTIONARYVAR
  5
2B2
102
{ACAD_REACTORS
330
2AC
102
}
330
2AC
100
DictionaryVariables
280
     0
  1
1
  0
DICTIONARYVAR
  5
2B1
102
{ACAD_REACTORS
330
2AC
102
}
330
2AC
100
DictionaryVariables
280
     0
  1
0
  0
DICTIONARYVAR
  5
2B0
102
{ACAD_REACTORS
330
2AC
102
}
330
2AC
100
DictionaryVariables
280
     0
  1
127
  0
DICTIONARYVAR
  5
2B3
102
{ACAD_REACTORS
330
2AC
102
}
330
2AC
100
DictionaryVariables
280
     0
  1
2
  0
DICTIONARY
  5
2E5
330
28D
100
AcDbDictionary
280
     1
281
     1
  3
ACAD_XREC_ROUNDTRIP
360
2E6
  0
DICTIONARY
  5
2E3
330
289
100
AcDbDictionary
280
     1
281
     1
  3
ACAD_XREC_ROUNDTRIP
360
2E4
  0
DICTIONARY
  5
22E
330
22D
100
AcDbDictionary
280
     1
281
     1
  3
ACAD_XREC_ROUNDTRIP
360
2B9
  3
BUMPTILE
360
230
  3
DIFFUSETILE
360
22F
  3
OPACITYTILE
360
233
  3
REFLECTIONTILE
360
232
  3
REFRACTIONTILE
360
234
  3
SPECULARTILE
360
231
  0
DICTIONARY
  5
226
330
225
100
AcDbDictionary
280
     1
281
     1
  3
ACAD_XREC_ROUNDTRIP
360
2B8
  3
BUMPTILE
360
228
  3
DIFFUSETILE
360
227
  3
OPACITYTILE
360
22B
  3
REFLECTIONTILE
360
22A
  3
REFRACTIONTILE
360
22C
  3
SPECULARTILE
360
229
  0
DICTIONARY
  5
236
330
235
100
AcDbDictionary
280
     1
281
     1
  3
ACAD_XREC_ROUNDTRIP
360
2BA
  3
BUMPTILE
360
238
  3
DIFFUSETILE
360
237
  3
OPACITYTILE
360
23B
  3
REFLECTIONTILE
360
23A
  3
REFRACTIONTILE
360
23C
  3
SPECULARTILE
360
239
  0
DICTIONARY
  5
2B4
330
283
100
AcDbDictionary
280
     1
281
     1
  3
ACAD_ROUNDTRIP_2008_TABLESTYLE_CELLSTYLEMAP
360
2B5
  3
ACAD_XREC_ROUNDTRIP
360
2E1
  0
DICTIONARY
  5
2C5
330
243
100
AcDbDictionary
280
     1
281
     1
  3
ACAD_XREC_ROUNDTRIP
360
2C6
  0
DICTIONARY
  5
2C9
330
245
100
AcDbDictionary
280
     1
281
     1
  3
ACAD_XREC_ROUNDTRIP
360
2CA
  0
DICTIONARY
  5
2C7
330
244
100
AcDbDictionary
280
     1
281
     1
  3
ACAD_XREC_ROUNDTRIP
360
2C8
  0
DICTIONARY
  5
2C3
330
242
100
AcDbDictionary
280
     1
281
     1
  3
ACAD_XREC_ROUNDTRIP
360
2C4
  0
DICTIONARY
  5
2D1
330
249
100
AcDbDictionary
280
     1
281
     1
  3
ACAD_XREC_ROUNDTRIP
360
2D2
  0
DICTIONARY
  5
2D9
330
24D
100
AcDbDictionary
280
     1
281
     1
  3
ACAD_XREC_ROUNDTRIP
360
2DA
  0
DICTIONARY
  5
2CB
330
246
100
AcDbDictionary
280
     1
281
     1
  3
ACAD_XREC_ROUNDTRIP
360
2CC
  0
DICTIONARY
  5
2CF
330
248
100
AcDbDictionary
280
     1
281
     1
  3
ACAD_XREC_ROUNDTRIP
360
2D0
  0
DICTIONARY
  5
2DF
330
250
100
AcDbDictionary
280
     1
281
     1
  3
ACAD_XREC_ROUNDTRIP
360
2E0
  0
DICTIONARY
  5
2D7
330
24C
100
AcDbDictionary
280
     1
281
     1
  3
ACAD_XREC_ROUNDTRIP
360
2D8
  0
DICTIONARY
  5
2BB
330
23E
100
AcDbDictionary
280
     1
281
     1
  3
ACAD_XREC_ROUNDTRIP
360
2BC
  0
DICTIONARY
  5
2BD
330
23F
100
AcDbDictionary
280
     1
281
     1
  3
ACAD_XREC_ROUNDTRIP
360
2BE
  0
DICTIONARY
  5
2BF
330
240
100
AcDbDictionary
280
     1
281
     1
  3
ACAD_XREC_ROUNDTRIP
360
2C0
  0
DICTIONARY
  5
2C1
330
241
100
AcDbDictionary
280
     1
281
     1
  3
ACAD_XREC_ROUNDTRIP
360
2C2
  0
DICTIONARY
  5
2DB
330
24E
100
AcDbDictionary
280
     1
281
     1
  3
ACAD_XREC_ROUNDTRIP
360
2DC
  0
DICTIONARY
  5
2D5
330
24B
100
AcDbDictionary
280
     1
281
     1
  3
ACAD_XREC_ROUNDTRIP
360
2D6
  0
DICTIONARY
  5
2DD
330
24F
100
AcDbDictionary
280
     1
281
     1
  3
ACAD_XREC_ROUNDTRIP
360
2DE
  0
DICTIONARY
  5
2CD
330
247
100
AcDbDictionary
280
     1
281
     1
  3
ACAD_XREC_ROUNDTRIP
360
2CE
  0
DICTIONARY
  5
2D3
330
24A
100
AcDbDictionary
280
     1
281
     1
  3
ACAD_XREC_ROUNDTRIP
360
2D4
  0
XRECORD
  5
2E6
102
{ACAD_REACTORS
330
2E5
102
}
330
2E5
100
AcDbXrecord
280
     1
102
SHADEPLOT
 70
     0
102
SHADEPLOTRESLEVEL
 70
     2
102
SHADEPLOTCUSTOMDPI
 70
   300
  0
XRECORD
  5
2E4
102
{ACAD_REACTORS
330
2E3
102
}
330
2E3
100
AcDbXrecord
280
     1
102
SHADEPLOT
 70
     0
102
SHADEPLOTRESLEVEL
 70
     2
102
SHADEPLOTCUSTOMDPI
 70
   300
  0
XRECORD
  5
2B9
102
{ACAD_REACTORS
330
22E
102
}
330
22E
100
AcDbXrecord
280
     1
102
MATERIAL
148
0.0
149
0.0
149
0.0
 93
        0
 94
      127
282
     0
 72
     0
 77
     0
171
     0
175
     0
179
     0
273
     0
  0
XRECORD
  5
230
102
{ACAD_REACTORS
330
22E
102
}
330
22E
100
AcDbXrecord
280
     1
270
     1
271
     1
  0
XRECORD
  5
22F
102
{ACAD_REACTORS
330
22E
102
}
330
22E
100
AcDbXrecord
280
     1
270
     1
271
     1
  0
XRECORD
  5
233
102
{ACAD_REACTORS
330
22E
102
}
330
22E
100
AcDbXrecord
280
     1
270
     1
271
     1
  0
XRECORD
  5
232
102
{ACAD_REACTORS
330
22E
102
}
330
22E
100
AcDbXrecord
280
     1
270
     1
271
     1
  0
XRECORD
  5
234
102
{ACAD_REACTORS
330
22E
102
}
330
22E
100
AcDbXrecord
280
     1
270
     1
271
     1
  0
XRECORD
  5
231
102
{ACAD_REACTORS
330
22E
102
}
330
22E
100
AcDbXrecord
280
     1
270
     1
271
     1
  0
XRECORD
  5
2B8
102
{ACAD_REACTORS
330
226
102
}
330
226
100
AcDbXrecord
280
     1
102
MATERIAL
148
0.0
149
0.0
149
0.0
 93
        0
 94
      127
282
     0
 72
     0
 77
     0
171
     0
175
     0
179
     0
273
     0
  0
XRECORD
  5
228
102
{ACAD_REACTORS
330
226
102
}
330
226
100
AcDbXrecord
280
     1
270
     1
271
     1
  0
XRECORD
  5
227
102
{ACAD_REACTORS
330
226
102
}
330
226
100
AcDbXrecord
280
     1
270
     1
271
     1
  0
XRECORD
  5
22B
102
{ACAD_REACTORS
330
226
102
}
330
226
100
AcDbXrecord
280
     1
270
     1
271
     1
  0
XRECORD
  5
22A
102
{ACAD_REACTORS
330
226
102
}
330
226
100
AcDbXrecord
280
     1
270
     1
271
     1
  0
XRECORD
  5
22C
102
{ACAD_REACTORS
330
226
102
}
330
226
100
AcDbXrecord
280
     1
270
     1
271
     1
  0
XRECORD
  5
229
102
{ACAD_REACTORS
330
226
102
}
330
226
100
AcDbXrecord
280
     1
270
     1
271
     1
  0
XRECORD
  5
2BA
102
{ACAD_REACTORS
330
236
102
}
330
236
100
AcDbXrecord
280
     1
102
MATERIAL
148
0.0
149
0.0
149
0.0
 93
        0
 94
      127
282
     0
 72
     0
 77
     0
171
     0
175
     0
179
     0
273
     0
  0
XRECORD
  5
238
102
{ACAD_REACTORS
330
236
102
}
330
236
100
AcDbXrecord
280
     1
270
     1
271
     1
  0
XRECORD
  5
237
102
{ACAD_REACTORS
330
236
102
}
330
236
100
AcDbXrecord
280
     1
270
     1
271
     1
  0
XRECORD
  5
23B
102
{ACAD_REACTORS
330
236
102
}
330
236
100
AcDbXrecord
280
     1
270
     1
271
     1
  0
XRECORD
  5
23A
102
{ACAD_REACTORS
330
236
102
}
330
236
100
AcDbXrecord
280
     1
270
     1
271
     1
  0
XRECORD
  5
23C
102
{ACAD_REACTORS
330
236
102
}
330
236
100
AcDbXrecord
280
     1
270
     1
271
     1
  0
XRECORD
  5
239
102
{ACAD_REACTORS
330
236
102
}
330
236
100
AcDbXrecord
280
     1
270
     1
271
     1
  0
CELLSTYLEMAP
  5
2B5
102
{ACAD_REACTORS
330
2B4
102
}
330
2B4
100
AcDbCellStyleMap
 90
        3
300
CELLSTYLE
  1
TABLEFORMAT_BEGIN
 90
        5
170
     1
 91
        0
 92
    32768
 62
   257
 93
        1
300
CONTENTFORMAT
  1
CONTENTFORMAT_BEGIN
 90
        0
 91
        0
 92
      512
 93
        0
300

 40
0.0
140
1.0
 94
        5
 62
     0
340
274
144
0.25
309
CONTENTFORMAT_END
171
     0
 94
        0
309
TABLEFORMAT_END
  1
CELLSTYLE_BEGIN
 90
        1
 91
        1
300
_TITLE
309
CELLSTYLE_END
300
CELLSTYLE
  1
TABLEFORMAT_BEGIN
 90
        5
170
     1
 91
        0
 92
        0
 62
   257
 93
        1
300
CONTENTFORMAT
  1
CONTENTFORMAT_BEGIN
 90
        0
 91
        0
 92
      512
 93
        0
300

 40
0.0
140
1.0
 94
        5
 62
     0
340
274
144
0.18
309
CONTENTFORMAT_END
171
     0
 94
        0
309
TABLEFORMAT_END
  1
CELLSTYLE_BEGIN
 90
        2
 91
        1
300
_HEADER
309
CELLSTYLE_END
300
CELLSTYLE
  1
TABLEFORMAT_BEGIN
 90
        5
170
     1
 91
        0
 92
        0
 62
   257
 93
        1
300
CONTENTFORMAT
  1
CONTENTFORMAT_BEGIN
 90
        0
 91
        0
 92
      512
 93
        0
300

 40
0.0
140
1.0
 94
        2
 62
     0
340
274
144
0.18
309
CONTENTFORMAT_END
171
     0
 94
        0
309
TABLEFORMAT_END
  1
CELLSTYLE_BEGIN
 90
        3
 91
        2
300
_DATA
309
CELLSTYLE_END
  0
XRECORD
  5
2E1
102
{ACAD_REACTORS
330
2B4
102
}
330
2B4
100
AcDbXrecord
280
     1
102
ACAD_ROUNDTRIP_PRE2007_TABLESTYLE
 90
      512
 91
        0
  1

 92
      512
 93
        0
  2

 94
      512
 95
        0
  3

  0
XRECORD
  5
2C6
102
{ACAD_REACTORS
330
2C5
102
}
330
2C5
100
AcDbXrecord
280
     1
102
RTVSPropertyOp0
 70
     1
102
RTVSPropertyOp1
 70
     1
102
RTVSPropertyOp2
 70
     1
102
RTVSPropertyOp3
 70
     1
102
RTVSPropertyOp4
 70
     1
102
RTVSPropertyOp5
 70
     1
102
RTVSPropertyOp6
 70
     1
102
RTVSPropertyOp7
 70
     1
102
RTVSPropertyOp8
 70
     1
102
RTVSPropertyOp9
 70
     1
102
RTVSPropertyOp10
 70
     1
102
RTVSPropertyOp11
 70
     1
102
RTVSPropertyOp12
 70
     1
102
RTVSPropertyOp13
 70
     1
102
RTVSPropertyOp14
 70
     1
102
RTVSPropertyOp15
 70
     1
102
RTVSPropertyOp16
 70
     1
102
RTVSPropertyOp17
 70
     1
102
RTVSPropertyOp18
 70
     1
102
RTVSPropertyOp19
 70
     1
102
RTVSPropertyOp20
 70
     1
102
RTVSPropertyOp21
 70
     1
102
RTVSPropertyOp22
 70
     1
102
RTVSPropertyOp23
 70
     1
102
RTVSPropertyOp24
 70
     1
102
RTVSPropertyOp25
 70
     1
102
RTVSPropertyOp26
 70
     1
102
RTVSPropertyOp27
 70
     1
  0
XRECORD
  5
2CA
102
{ACAD_REACTORS
330
2C9
102
}
330
2C9
100
AcDbXrecord
280
     1
102
RTVSPropertyOp0
 70
     1
102
RTVSPropertyOp1
 70
     1
102
RTVSPropertyOp2
 70
     1
102
RTVSPropertyOp3
 70
     1
102
RTVSPropertyOp4
 70
     1
102
RTVSPropertyOp5
 70
     1
102
RTVSPropertyOp6
 70
     1
102
RTVSPropertyOp7
 70
     1
102
RTVSPropertyOp8
 70
     1
102
RTVSPropertyOp9
 70
     1
102
RTVSPropertyOp10
 70
     1
102
RTVSPropertyOp11
 70
     1
102
RTVSPropertyOp12
 70
     1
102
RTVSPropertyOp13
 70
     1
102
RTVSPropertyOp14
 70
     1
102
RTVSPropertyOp15
 70
     1
102
RTVSPropertyOp16
 70
     1
102
RTVSPropertyOp17
 70
     1
102
RTVSPropertyOp18
 70
     1
102
RTVSPropertyOp19
 70
     1
102
RTVSPropertyOp20
 70
     1
102
RTVSPropertyOp21
 70
     1
102
RTVSPropertyOp22
 70
     1
102
RTVSPropertyOp23
 70
     1
102
RTVSPropertyOp24
 70
     1
102
RTVSPropertyOp25
 70
     1
102
RTVSPropertyOp26
 70
     1
102
RTVSPropertyOp27
 70
     1
  0
XRECORD
  5
2C8
102
{ACAD_REACTORS
330
2C7
102
}
330
2C7
100
AcDbXrecord
280
     1
102
RTVSPropertyOp0
 70
     1
102
RTVSPropertyOp1
 70
     1
102
RTVSPropertyOp2
 70
     1
102
RTVSPropertyOp3
 70
     1
102
RTVSPropertyOp4
 70
     1
102
RTVSPropertyOp5
 70
     1
102
RTVSPropertyOp6
 70
     1
102
RTVSPropertyOp7
 70
     1
102
RTVSPropertyOp8
 70
     1
102
RTVSPropertyOp9
 70
     1
102
RTVSPropertyOp10
 70
     1
102
RTVSPropertyOp11
 70
     1
102
RTVSPropertyOp12
 70
     1
102
RTVSPropertyOp13
 70
     1
102
RTVSPropertyOp14
 70
     1
102
RTVSPropertyOp15
 70
     1
102
RTVSPropertyOp16
 70
     1
102
RTVSPropertyOp17
 70
     1
102
RTVSPropertyOp18
 70
     1
102
RTVSPropertyOp19
 70
     1
102
RTVSPropertyOp20
 70
     1
102
RTVSPropertyOp21
 70
     1
102
RTVSPropertyOp22
 70
     1
102
RTVSPropertyOp23
 70
     1
102
RTVSPropertyOp24
 70
     1
102
RTVSPropertyOp25
 70
     1
102
RTVSPropertyOp26
 70
     1
102
RTVSPropertyOp27
 70
     1
  0
XRECORD
  5
2C4
102
{ACAD_REACTORS
330
2C3
102
}
330
2C3
100
AcDbXrecord
280
     1
102
RTVSPropertyOp0
 70
     1
102
RTVSPropertyOp1
 70
     1
102
RTVSPropertyOp2
 70
     1
102
RTVSPropertyOp3
 70
     1
102
RTVSPropertyOp4
 70
     1
102
RTVSPropertyOp5
 70
     1
102
RTVSPropertyOp6
 70
     1
102
RTVSPropertyOp7
 70
     1
102
RTVSPropertyOp8
 70
     1
102
RTVSPropertyOp9
 70
     1
102
RTVSPropertyOp10
 70
     1
102
RTVSPropertyOp11
 70
     1
102
RTVSPropertyOp12
 70
     1
102
RTVSPropertyOp13
 70
     1
102
RTVSPropertyOp14
 70
     1
102
RTVSPropertyOp15
 70
     1
102
RTVSPropertyOp16
 70
     1
102
RTVSPropertyOp17
 70
     1
102
RTVSPropertyOp18
 70
     1
102
RTVSPropertyOp19
 70
     1
102
RTVSPropertyOp20
 70
     1
102
RTVSPropertyOp21
 70
     1
102
RTVSPropertyOp22
 70
     1
102
RTVSPropertyOp23
 70
     1
102
RTVSPropertyOp24
 70
     1
102
RTVSPropertyOp25
 70
     1
102
RTVSPropertyOp26
 70
     1
102
RTVSPropertyOp27
 70
     1
  0
XRECORD
  5
2D2
102
{ACAD_REACTORS
330
2D1
102
}
330
2D1
100
AcDbXrecord
280
     1
102
RTVSPropertyOp0
 70
     1
102
RTVSPropertyOp1
 70
     1
102
RTVSPropertyOp2
 70
     1
102
RTVSPropertyOp3
 70
     1
102
RTVSPropertyOp4
 70
     1
102
RTVSPropertyOp5
 70
     1
102
RTVSPropertyOp6
 70
     1
102
RTVSPropertyOp7
 70
     1
102
RTVSPropertyOp8
 70
     1
102
RTVSPropertyOp9
 70
     1
102
RTVSPropertyOp10
 70
     1
102
RTVSPropertyOp11
 70
     1
102
RTVSPropertyOp12
 70
     1
102
RTVSPropertyOp13
 70
     1
102
RTVSPropertyOp14
 70
     1
102
RTVSPropertyOp15
 70
     1
102
RTVSPropertyOp16
 70
     1
102
RTVSPropertyOp17
 70
     1
102
RTVSPropertyOp18
 70
     1
102
RTVSPropertyOp19
 70
     1
102
RTVSPropertyOp20
 70
     1
102
RTVSPropertyOp21
 70
     1
102
RTVSPropertyOp22
 70
     1
102
RTVSPropertyOp23
 70
     1
102
RTVSPropertyOp24
 70
     1
102
RTVSPropertyOp25
 70
     1
102
RTVSPropertyOp26
 70
     1
102
RTVSPropertyOp27
 70
     1
  0
XRECORD
  5
2DA
102
{ACAD_REACTORS
330
2D9
102
}
330
2D9
100
AcDbXrecord
280
     1
102
RTVSPropertyOp0
 70
     1
102
RTVSPropertyOp1
 70
     1
102
RTVSPropertyOp2
 70
     1
102
RTVSPropertyOp3
 70
     1
102
RTVSPropertyOp4
 70
     1
102
RTVSPropertyOp5
 70
     1
102
RTVSPropertyOp6
 70
     1
102
RTVSPropertyOp7
 70
     1
102
RTVSPropertyOp8
 70
     1
102
RTVSPropertyOp9
 70
     1
102
RTVSPropertyOp10
 70
     1
102
RTVSPropertyOp11
 70
     1
102
RTVSPropertyOp12
 70
     1
102
RTVSPropertyOp13
 70
     1
102
RTVSPropertyOp14
 70
     1
102
RTVSPropertyOp15
 70
     1
102
RTVSPropertyOp16
 70
     1
102
RTVSPropertyOp17
 70
     1
102
RTVSPropertyOp18
 70
     1
102
RTVSPropertyOp19
 70
     1
102
RTVSPropertyOp20
 70
     1
102
RTVSPropertyOp21
 70
     1
102
RTVSPropertyOp22
 70
     1
102
RTVSPropertyOp23
 70
     1
102
RTVSPropertyOp24
 70
     1
102
RTVSPropertyOp25
 70
     1
102
RTVSPropertyOp26
 70
     1
102
RTVSPropertyOp27
 70
     1
  0
XRECORD
  5
2CC
102
{ACAD_REACTORS
330
2CB
102
}
330
2CB
100
AcDbXrecord
280
     1
102
RTVSPropertyOp0
 70
     1
102
RTVSPropertyOp1
 70
     1
102
RTVSPropertyOp2
 70
     1
102
RTVSPropertyOp3
 70
     1
102
RTVSPropertyOp4
 70
     1
102
RTVSPropertyOp5
 70
     1
102
RTVSPropertyOp6
 70
     1
102
RTVSPropertyOp7
 70
     1
102
RTVSPropertyOp8
 70
     1
102
RTVSPropertyOp9
 70
     1
102
RTVSPropertyOp10
 70
     1
102
RTVSPropertyOp11
 70
     1
102
RTVSPropertyOp12
 70
     1
102
RTVSPropertyOp13
 70
     1
102
RTVSPropertyOp14
 70
     1
102
RTVSPropertyOp15
 70
     1
102
RTVSPropertyOp16
 70
     1
102
RTVSPropertyOp17
 70
     1
102
RTVSPropertyOp18
 70
     1
102
RTVSPropertyOp19
 70
     1
102
RTVSPropertyOp20
 70
     1
102
RTVSPropertyOp21
 70
     1
102
RTVSPropertyOp22
 70
     1
102
RTVSPropertyOp23
 70
     1
102
RTVSPropertyOp24
 70
     1
102
RTVSPropertyOp25
 70
     1
102
RTVSPropertyOp26
 70
     1
102
RTVSPropertyOp27
 70
     1
  0
XRECORD
  5
2D0
102
{ACAD_REACTORS
330
2CF
102
}
330
2CF
100
AcDbXrecord
280
     1
102
RTVSPropertyOp0
 70
     1
102
RTVSPropertyOp1
 70
     1
102
RTVSPropertyOp2
 70
     1
102
RTVSPropertyOp3
 70
     1
102
RTVSPropertyOp4
 70
     1
102
RTVSPropertyOp5
 70
     1
102
RTVSPropertyOp6
 70
     1
102
RTVSPropertyOp7
 70
     1
102
RTVSPropertyOp8
 70
     1
102
RTVSPropertyOp9
 70
     1
102
RTVSPropertyOp10
 70
     1
102
RTVSPropertyOp11
 70
     1
102
RTVSPropertyOp12
 70
     1
102
RTVSPropertyOp13
 70
     1
102
RTVSPropertyOp14
 70
     1
102
RTVSPropertyOp15
 70
     1
102
RTVSPropertyOp16
 70
     1
102
RTVSPropertyOp17
 70
     1
102
RTVSPropertyOp18
 70
     1
102
RTVSPropertyOp19
 70
     1
102
RTVSPropertyOp20
 70
     1
102
RTVSPropertyOp21
 70
     1
102
RTVSPropertyOp22
 70
     1
102
RTVSPropertyOp23
 70
     1
102
RTVSPropertyOp24
 70
     1
102
RTVSPropertyOp25
 70
     1
102
RTVSPropertyOp26
 70
     1
102
RTVSPropertyOp27
 70
     1
  0
XRECORD
  5
2E0
102
{ACAD_REACTORS
330
2DF
102
}
330
2DF
100
AcDbXrecord
280
     1
102
RTVSPropertyOp0
 70
     0
102
RTVSPropertyOp1
 70
     0
102
RTVSPropertyOp2
 70
     0
102
RTVSPropertyOp3
 70
     0
102
RTVSPropertyOp4
 70
     0
102
RTVSPropertyOp5
 70
     0
102
RTVSPropertyOp6
 70
     0
102
RTVSPropertyOp7
 70
     0
102
RTVSPropertyOp8
 70
     0
102
RTVSPropertyOp9
 70
     0
102
RTVSPropertyOp10
 70
     0
102
RTVSPropertyOp11
 70
     0
102
RTVSPropertyOp12
 70
     0
102
RTVSPropertyOp13
 70
     0
102
RTVSPropertyOp14
 70
     2
102
RTVSPropertyOp15
 70
     0
102
RTVSPropertyOp16
 70
     0
102
RTVSPropertyOp17
 70
     0
102
RTVSPropertyOp18
 70
     0
102
RTVSPropertyOp19
 70
     0
102
RTVSPropertyOp20
 70
     0
102
RTVSPropertyOp21
 70
     0
102
RTVSPropertyOp22
 70
     0
102
RTVSPropertyOp23
 70
     0
102
RTVSPropertyOp24
 70
     0
102
RTVSPropertyOp25
 70
     0
102
RTVSPropertyOp26
 70
     0
102
RTVSPropertyOp27
 70
     0
  0
XRECORD
  5
2D8
102
{ACAD_REACTORS
330
2D7
102
}
330
2D7
100
AcDbXrecord
280
     1
102
RTVSPropertyOp0
 70
     1
102
RTVSPropertyOp1
 70
     1
102
RTVSPropertyOp2
 70
     1
102
RTVSPropertyOp3
 70
     1
102
RTVSPropertyOp4
 70
     1
102
RTVSPropertyOp5
 70
     1
102
RTVSPropertyOp6
 70
     1
102
RTVSPropertyOp7
 70
     1
102
RTVSPropertyOp8
 70
     1
102
RTVSPropertyOp9
 70
     1
102
RTVSPropertyOp10
 70
     1
102
RTVSPropertyOp11
 70
     1
102
RTVSPropertyOp12
 70
     1
102
RTVSPropertyOp13
 70
     1
102
RTVSPropertyOp14
 70
     1
102
RTVSPropertyOp15
 70
     1
102
RTVSPropertyOp16
 70
     1
102
RTVSPropertyOp17
 70
     1
102
RTVSPropertyOp18
 70
     1
102
RTVSPropertyOp19
 70
     1
102
RTVSPropertyOp20
 70
     1
102
RTVSPropertyOp21
 70
     1
102
RTVSPropertyOp22
 70
     1
102
RTVSPropertyOp23
 70
     1
102
RTVSPropertyOp24
 70
     1
102
RTVSPropertyOp25
 70
     1
102
RTVSPropertyOp26
 70
     1
102
RTVSPropertyOp27
 70
     1
  0
XRECORD
  5
2BC
102
{ACAD_REACTORS
330
2BB
102
}
330
2BB
100
AcDbXrecord
280
     1
102
RTVSPropertyOp0
 70
     1
102
RTVSPropertyOp1
 70
     1
102
RTVSPropertyOp2
 70
     1
102
RTVSPropertyOp3
 70
     1
102
RTVSPropertyOp4
 70
     1
102
RTVSPropertyOp5
 70
     1
102
RTVSPropertyOp6
 70
     1
102
RTVSPropertyOp7
 70
     1
102
RTVSPropertyOp8
 70
     1
102
RTVSPropertyOp9
 70
     1
102
RTVSPropertyOp10
 70
     1
102
RTVSPropertyOp11
 70
     1
102
RTVSPropertyOp12
 70
     1
102
RTVSPropertyOp13
 70
     1
102
RTVSPropertyOp14
 70
     1
102
RTVSPropertyOp15
 70
     1
102
RTVSPropertyOp16
 70
     1
102
RTVSPropertyOp17
 70
     1
102
RTVSPropertyOp18
 70
     1
102
RTVSPropertyOp19
 70
     1
102
RTVSPropertyOp20
 70
     1
102
RTVSPropertyOp21
 70
     1
102
RTVSPropertyOp22
 70
     1
102
RTVSPropertyOp23
 70
     1
102
RTVSPropertyOp24
 70
     1
102
RTVSPropertyOp25
 70
     1
102
RTVSPropertyOp26
 70
     1
102
RTVSPropertyOp27
 70
     1
  0
XRECORD
  5
2BE
102
{ACAD_REACTORS
330
2BD
102
}
330
2BD
100
AcDbXrecord
280
     1
102
RTVSPropertyOp0
 70
     1
102
RTVSPropertyOp1
 70
     1
102
RTVSPropertyOp2
 70
     1
102
RTVSPropertyOp3
 70
     1
102
RTVSPropertyOp4
 70
     1
102
RTVSPropertyOp5
 70
     1
102
RTVSPropertyOp6
 70
     1
102
RTVSPropertyOp7
 70
     1
102
RTVSPropertyOp8
 70
     1
102
RTVSPropertyOp9
 70
     1
102
RTVSPropertyOp10
 70
     1
102
RTVSPropertyOp11
 70
     1
102
RTVSPropertyOp12
 70
     1
102
RTVSPropertyOp13
 70
     1
102
RTVSPropertyOp14
 70
     1
102
RTVSPropertyOp15
 70
     1
102
RTVSPropertyOp16
 70
     1
102
RTVSPropertyOp17
 70
     1
102
RTVSPropertyOp18
 70
     1
102
RTVSPropertyOp19
 70
     1
102
RTVSPropertyOp20
 70
     1
102
RTVSPropertyOp21
 70
     1
102
RTVSPropertyOp22
 70
     1
102
RTVSPropertyOp23
 70
     1
102
RTVSPropertyOp24
 70
     1
102
RTVSPropertyOp25
 70
     1
102
RTVSPropertyOp26
 70
     1
102
RTVSPropertyOp27
 70
     1
  0
XRECORD
  5
2C0
102
{ACAD_REACTORS
330
2BF
102
}
330
2BF
100
AcDbXrecord
280
     1
102
RTVSPropertyOp0
 70
     1
102
RTVSPropertyOp1
 70
     1
102
RTVSPropertyOp2
 70
     1
102
RTVSPropertyOp3
 70
     1
102
RTVSPropertyOp4
 70
     1
102
RTVSPropertyOp5
 70
     1
102
RTVSPropertyOp6
 70
     1
102
RTVSPropertyOp7
 70
     1
102
RTVSPropertyOp8
 70
     1
102
RTVSPropertyOp9
 70
     1
102
RTVSPropertyOp10
 70
     1
102
RTVSPropertyOp11
 70
     1
102
RTVSPropertyOp12
 70
     1
102
RTVSPropertyOp13
 70
     1
102
RTVSPropertyOp14
 70
     1
102
RTVSPropertyOp15
 70
     1
102
RTVSPropertyOp16
 70
     1
102
RTVSPropertyOp17
 70
     1
102
RTVSPropertyOp18
 70
     1
102
RTVSPropertyOp19
 70
     1
102
RTVSPropertyOp20
 70
     1
102
RTVSPropertyOp21
 70
     1
102
RTVSPropertyOp22
 70
     1
102
RTVSPropertyOp23
 70
     1
102
RTVSPropertyOp24
 70
     1
102
RTVSPropertyOp25
 70
     1
102
RTVSPropertyOp26
 70
     1
102
RTVSPropertyOp27
 70
     1
  0
XRECORD
  5
2C2
102
{ACAD_REACTORS
330
2C1
102
}
330
2C1
100
AcDbXrecord
280
     1
102
RTVSPropertyOp0
 70
     1
102
RTVSPropertyOp1
 70
     1
102
RTVSPropertyOp2
 70
     1
102
RTVSPropertyOp3
 70
     1
102
RTVSPropertyOp4
 70
     1
102
RTVSPropertyOp5
 70
     1
102
RTVSPropertyOp6
 70
     1
102
RTVSPropertyOp7
 70
     1
102
RTVSPropertyOp8
 70
     1
102
RTVSPropertyOp9
 70
     1
102
RTVSPropertyOp10
 70
     1
102
RTVSPropertyOp11
 70
     1
102
RTVSPropertyOp12
 70
     1
102
RTVSPropertyOp13
 70
     1
102
RTVSPropertyOp14
 70
     1
102
RTVSPropertyOp15
 70
     1
102
RTVSPropertyOp16
 70
     1
102
RTVSPropertyOp17
 70
     1
102
RTVSPropertyOp18
 70
     1
102
RTVSPropertyOp19
 70
     1
102
RTVSPropertyOp20
 70
     1
102
RTVSPropertyOp21
 70
     1
102
RTVSPropertyOp22
 70
     1
102
RTVSPropertyOp23
 70
     1
102
RTVSPropertyOp24
 70
     1
102
RTVSPropertyOp25
 70
     1
102
RTVSPropertyOp26
 70
     1
102
RTVSPropertyOp27
 70
     1
  0
XRECORD
  5
2DC
102
{ACAD_REACTORS
330
2DB
102
}
330
2DB
100
AcDbXrecord
280
     1
102
RTVSPropertyOp0
 70
     0
102
RTVSPropertyOp1
 70
     0
102
RTVSPropertyOp2
 70
     0
102
RTVSPropertyOp3
 70
     0
102
RTVSPropertyOp4
 70
     0
102
RTVSPropertyOp5
 70
     0
102
RTVSPropertyOp6
 70
     0
102
RTVSPropertyOp7
 70
     0
102
RTVSPropertyOp8
 70
     0
102
RTVSPropertyOp9
 70
     0
102
RTVSPropertyOp10
 70
     0
102
RTVSPropertyOp11
 70
     0
102
RTVSPropertyOp12
 70
     0
102
RTVSPropertyOp13
 70
     0
102
RTVSPropertyOp14
 70
     2
102
RTVSPropertyOp15
 70
     0
102
RTVSPropertyOp16
 70
     0
102
RTVSPropertyOp17
 70
     0
102
RTVSPropertyOp18
 70
     0
102
RTVSPropertyOp19
 70
     0
102
RTVSPropertyOp20
 70
     0
102
RTVSPropertyOp21
 70
     0
102
RTVSPropertyOp22
 70
     0
102
RTVSPropertyOp23
 70
     0
102
RTVSPropertyOp24
 70
     0
102
RTVSPropertyOp25
 70
     0
102
RTVSPropertyOp26
 70
     0
102
RTVSPropertyOp27
 70
     0
  0
XRECORD
  5
2D6
102
{ACAD_REACTORS
330
2D5
102
}
330
2D5
100
AcDbXrecord
280
     1
102
RTVSPropertyOp0
 70
     1
102
RTVSPropertyOp1
 70
     1
102
RTVSPropertyOp2
 70
     1
102
RTVSPropertyOp3
 70
     1
102
RTVSPropertyOp4
 70
     1
102
RTVSPropertyOp5
 70
     1
102
RTVSPropertyOp6
 70
     1
102
RTVSPropertyOp7
 70
     1
102
RTVSPropertyOp8
 70
     1
102
RTVSPropertyOp9
 70
     1
102
RTVSPropertyOp10
 70
     1
102
RTVSPropertyOp11
 70
     1
102
RTVSPropertyOp12
 70
     1
102
RTVSPropertyOp13
 70
     1
102
RTVSPropertyOp14
 70
     1
102
RTVSPropertyOp15
 70
     1
102
RTVSPropertyOp16
 70
     1
102
RTVSPropertyOp17
 70
     1
102
RTVSPropertyOp18
 70
     1
102
RTVSPropertyOp19
 70
     1
102
RTVSPropertyOp20
 70
     1
102
RTVSPropertyOp21
 70
     1
102
RTVSPropertyOp22
 70
     1
102
RTVSPropertyOp23
 70
     1
102
RTVSPropertyOp24
 70
     1
102
RTVSPropertyOp25
 70
     1
102
RTVSPropertyOp26
 70
     1
102
RTVSPropertyOp27
 70
     1
  0
XRECORD
  5
2DE
102
{ACAD_REACTORS
330
2DD
102
}
330
2DD
100
AcDbXrecord
280
     1
102
RTVSPropertyOp0
 70
     0
102
RTVSPropertyOp1
 70
     0
102
RTVSPropertyOp2
 70
     0
102
RTVSPropertyOp3
 70
     0
102
RTVSPropertyOp4
 70
     0
102
RTVSPropertyOp5
 70
     0
102
RTVSPropertyOp6
 70
     0
102
RTVSPropertyOp7
 70
     0
102
RTVSPropertyOp8
 70
     0
102
RTVSPropertyOp9
 70
     0
102
RTVSPropertyOp10
 70
     0
102
RTVSPropertyOp11
 70
     0
102
RTVSPropertyOp12
 70
     0
102
RTVSPropertyOp13
 70
     0
102
RTVSPropertyOp14
 70
     2
102
RTVSPropertyOp15
 70
     0
102
RTVSPropertyOp16
 70
     0
102
RTVSPropertyOp17
 70
     0
102
RTVSPropertyOp18
 70
     0
102
RTVSPropertyOp19
 70
     0
102
RTVSPropertyOp20
 70
     0
102
RTVSPropertyOp21
 70
     0
102
RTVSPropertyOp22
 70
     0
102
RTVSPropertyOp23
 70
     0
102
RTVSPropertyOp24
 70
     0
102
RTVSPropertyOp25
 70
     0
102
RTVSPropertyOp26
 70
     0
102
RTVSPropertyOp27
 70
     0
  0
XRECORD
  5
2CE
102
{ACAD_REACTORS
330
2CD
102
}
330
2CD
100
AcDbXrecord
280
     1
102
RTVSPropertyOp0
 70
     1
102
RTVSPropertyOp1
 70
     1
102
RTVSPropertyOp2
 70
     1
102
RTVSPropertyOp3
 70
     1
102
RTVSPropertyOp4
 70
     1
102
RTVSPropertyOp5
 70
     1
102
RTVSPropertyOp6
 70
     1
102
RTVSPropertyOp7
 70
     1
102
RTVSPropertyOp8
 70
     1
102
RTVSPropertyOp9
 70
     1
102
RTVSPropertyOp10
 70
     1
102
RTVSPropertyOp11
 70
     1
102
RTVSPropertyOp12
 70
     1
102
RTVSPropertyOp13
 70
     1
102
RTVSPropertyOp14
 70
     1
102
RTVSPropertyOp15
 70
     1
102
RTVSPropertyOp16
 70
     1
102
RTVSPropertyOp17
 70
     1
102
RTVSPropertyOp18
 70
     1
102
RTVSPropertyOp19
 70
     1
102
RTVSPropertyOp20
 70
     1
102
RTVSPropertyOp21
 70
     1
102
RTVSPropertyOp22
 70
     1
102
RTVSPropertyOp23
 70
     1
102
RTVSPropertyOp24
 70
     1
102
RTVSPropertyOp25
 70
     1
102
RTVSPropertyOp26
 70
     1
102
RTVSPropertyOp27
 70
     1
  0
XRECORD
  5
2D4
102
{ACAD_REACTORS
330
2D3
102
}
330
2D3
100
AcDbXrecord
280
     1
102
RTVSPropertyOp0
 70
     1
102
RTVSPropertyOp1
 70
     1
102
RTVSPropertyOp2
 70
     1
102
RTVSPropertyOp3
 70
     1
102
RTVSPropertyOp4
 70
     1
102
RTVSPropertyOp5
 70
     1
102
RTVSPropertyOp6
 70
     1
102
RTVSPropertyOp7
 70
     1
102
RTVSPropertyOp8
 70
     1
102
RTVSPropertyOp9
 70
     1
102
RTVSPropertyOp10
 70
     1
102
RTVSPropertyOp11
 70
     1
102
RTVSPropertyOp12
 70
     1
102
RTVSPropertyOp13
 70
     1
102
RTVSPropertyOp14
 70
     1
102
RTVSPropertyOp15
 70
     1
102
RTVSPropertyOp16
 70
     1
102
RTVSPropertyOp17
 70
     1
102
RTVSPropertyOp18
 70
     1
102
RTVSPropertyOp19
 70
     1
102
RTVSPropertyOp20
 70
     1
102
RTVSPropertyOp21
 70
     1
102
RTVSPropertyOp22
 70
     1
102
RTVSPropertyOp23
 70
     1
102
RTVSPropertyOp24
 70
     1
102
RTVSPropertyOp25
 70
     1
102
RTVSPropertyOp26
 70
     1
102
RTVSPropertyOp27
 70
     1
  0
ENDSEC
  0
EOF
