  0
SECTION
  2
HEADER
  9
$ACADVER
  1
AC1009
  9
$INSBASE
 10
0.0
 20
0.0
 30
0.0
  9
$EXTMIN
 10
-530.07690077638654
 20
-802.09187015331634
 30
-0.0000000349181948
  9
$EXTMAX
 10
730.07691251140841
 20
1071.3160030160529
 30
0.0000000814935747
  9
$LIMMIN
 10
0.0
 20
0.0
  9
$LIMMAX
 10
0.0
 20
0.0
  9
$ORTHOMODE
 70
     0
  9
$REGENMODE
 70
     1
  9
$FILLMODE
 70
     1
  9
$QTEXTMODE
 70
     0
  9
$MIRRTEXT
 70
     1
  9
$DRAGMODE
 70
     2
  9
$LTSCALE
 40
35.559999999999988
  9
$OSMODE
 70
   231
  9
$ATTMODE
 70
     1
  9
$TEXTSIZE
 40
0.0
  9
$TRACEWID
 40
1.0
  9
$TEXTSTYLE
  7
STANDARD
  9
$CLAYER
  8
DATA
  9
$CELTYPE
  6
BYLAYER
  9
$CECOLOR
 62
   256
  9
$DIMSCALE
 40
1.0
  9
$DIMASZ
 40
0.18
  9
$DIMEXO
 40
0.0625
  9
$DIMDLI
 40
0.38
  9
$DIMRND
 40
0.0
  9
$DIMDLE
 40
0.0
  9
$DIMEXE
 40
0.18
  9
$DIMTP
 40
0.0
  9
$DIMTM
 40
0.0
  9
$DIMTXT
 40
0.18
  9
$DIMCEN
 40
0.09
  9
$DIMTSZ
 40
0.0
  9
$DIMTOL
 70
     0
  9
$DIMLIM
 70
     0
  9
$DIMTIH
 70
     1
  9
$DIMTOH
 70
     1
  9
$DIMSE1
 70
     0
  9
$DIMSE2
 70
     0
  9
$DIMTAD
 70
     0
  9
$DIMZIN
 70
     0
  9
$DIMBLK
  1

  9
$DIMASO
 70
     1
  9
$DIMSHO
 70
     1
  9
$DIMPOST
  1

  9
$DIMAPOST
  1

  9
$DIMALT
 70
     0
  9
$DIMALTD
 70
     2
  9
$DIMALTF
 40
25.399999999999999
  9
$DIMLFAC
 40
1.0
  9
$DIMTOFL
 70
     0
  9
$DIMTVP
 40
0.0
  9
$DIMTIX
 70
     0
  9
$DIMSOXD
 70
     0
  9
$DIMSAH
 70
     0
  9
$DIMBLK1
  1

  9
$DIMBLK2
  1

  9
$DIMSTYLE
  2
STANDARD
  9
$DIMCLRD
 70
     0
  9
$DIMCLRE
 70
     0
  9
$DIMCLRT
 70
     0
  9
$DIMTFAC
 40
1.0
  9
$DIMGAP
 40
0.09
  9
$LUNITS
 70
     2
  9
$LUPREC
 70
     4
  9
$SKETCHINC
 40
0.1
  9
$FILLETRAD
 40
0.0
  9
$AUNITS
 70
     0
  9
$AUPREC
 70
     0
  9
$MENU
  1
acad
  9
$ELEVATION
 40
0.0
  9
$PELEVATION
 40
0.0
  9
$THICKNESS
 40
0.0
  9
$LIMCHECK
 70
     0
  9
$BLIPMODE
 70
     0
  9
$CHAMFERA
 40
0.0
  9
$CHAMFERB
 40
0.0
  9
$SKPOLY
 70
     0
  9
$TDCREATE
 40
2456059.7222685181
  9
$TDUPDATE
 40
2456059.756133345
  9
$TDINDWG
 40
0.0006702431
  9
$TDUSRTIMER
 40
0.0006702431
  9
$USRTIMER
 70
     1
  9
$ANGBASE
 50
0.0
  9
$ANGDIR
 70
     0
  9
$PDMODE
 70
     1
  9
$PDSIZE
 40
-2.0
  9
$PLINEWID
 40
0.0
  9
$COORDS
 70
     2
  9
$SPLFRAME
 70
     0
  9
$SPLINETYPE
 70
     6
  9
$SPLINESEGS
 70
     8
  9
$ATTDIA
 70
     0
  9
$ATTREQ
 70
     1
  9
$HANDLING
 70
     1
  9
$HANDSEED
  5
100F
  9
$SURFTAB1
 70
     6
  9
$SURFTAB2
 70
     6
  9
$SURFTYPE
 70
     6
  9
$SURFU
 70
     6
  9
$SURFV
 70
     6
  9
$UCSNAME
  2

  9
$UCSORG
 10
0.0
 20
0.0
 30
0.0
  9
$UCSXDIR
 10
1.0
 20
0.0
 30
0.0
  9
$UCSYDIR
 10
0.0
 20
1.0
 30
0.0
  9
$PUCSNAME
  2

  9
$PUCSORG
 10
0.0
 20
0.0
 30
0.0
  9
$PUCSXDIR
 10
1.0
 20
0.0
 30
0.0
  9
$PUCSYDIR
 10
0.0
 20
1.0
 30
0.0
  9
$USERI1
 70
     0
  9
$USERI2
 70
     0
  9
$USERI3
 70
     0
  9
$USERI4
 70
     0
  9
$USERI5
 70
     0
  9
$USERR1
 40
0.0
  9
$USERR2
 40
0.0
  9
$USERR3
 40
0.0
  9
$USERR4
 40
0.0
  9
$USERR5
 40
0.0
  9
$WORLDVIEW
 70
     1
  9
$SHADEDGE
 70
     3
  9
$SHADEDIF
 70
    70
  9
$TILEMODE
 70
     1
  9
$MAXACTVP
 70
    64
  9
$PLIMCHECK
 70
     0
  9
$PEXTMIN
 10
1.0000000000000000E+020
 20
1.0000000000000000E+020
 30
1.0000000000000000E+020
  9
$PEXTMAX
 10
-1.0000000000000000E+020
 20
-1.0000000000000000E+020
 30
-1.0000000000000000E+020
  9
$PLIMMIN
 10
0.0
 20
0.0
  9
$PLIMMAX
 10
12.0
 20
9.0
  9
$UNITMODE
 70
     0
  9
$VISRETAIN
 70
     0
  9
$PLINEGEN
 70
     1
  9
$PSLTSCALE
 70
     0
  0
ENDSEC
  0
SECTION
  2
TABLES
  0
TABLE
  2
VPORT
 70
     1
  0
VPORT
  2
*ACTIVE
 70
     0
 10
0.0
 20
0.0
 11
1.0
 21
1.0
 12
100.00000586751069
 22
134.61206643136839
 13
0.0
 23
0.0
 14
1.0
 24
1.0
 15
0.0
 25
0.0
 16
0.0
 26
0.0
 36
1.0
 17
0.0
 27
0.0
 37
0.0
 40
1888.0629543154139
 41
2.1540469973890342
 42
50.0
 43
0.0
 44
0.0
 50
0.0
 51
0.0
 71
     0
 72
  2000
 73
     1
 74
     1
 75
     0
 76
     0
 77
     0
 78
     0
  0
ENDTAB
  0
TABLE
  2
LTYPE
 70
     1
  0
LTYPE
  2
CONTINUOUS
 70
     0
  3
Solid line
 72
    65
 73
     0
 40
0.0
  0
ENDTAB
  0
TABLE
  2
LAYER
 70
     5
  0
LAYER
  2
0
 70
     0
 62
     7
  6
CONTINUOUS
  0
LAYER
  2
DATA
 70
     0
 62
     7
  6
CONTINUOUS
  0
LAYER
  2
HIBINO-BASE
 70
     0
 62
     7
  6
CONTINUOUS
  0
LAYER
  2
SPEC
 70
     0
 62
     7
  6
CONTINUOUS
  0
LAYER
  2
DIMNSIONS
 70
     0
 62
     7
  6
CONTINUOUS
  0
ENDTAB
  0
TABLE
  2
STYLE
 70
     4
  0
STYLE
  2
STANDARD
 70
     0
 40
0.0
 41
1.0
 50
0.0
 71
     0
 42
0.0
  3
txt
  4
BIGFONT.SHX
  0
ENDTAB
  0
TABLE
  2
VIEW
 70
     0
  0
ENDTAB
  0
TABLE
  2
UCS
 70
     0
  0
ENDTAB
  0
TABLE
  2
APPID
 70
     4
  0
APPID
  2
ACAD
 70
     0
  0
APPID
  2
ACADANNOTATIVE
 70
     0
  0
APPID
  2
ACAD_NAV_VCDISPLAY
 70
     0
  0
APPID
  2
ACAD_MLEADERVER
 70
     0
  0
ENDTAB
  0
TABLE
  2
DIMSTYLE
 70
     2
  0
DIMSTYLE
  2
STANDARD
 70
     0
  3

  4

  5

  6

  7

 40
1.0
 41
0.18
 42
0.0625
 43
0.38
 44
0.18
 45
0.0
 46
0.0
 47
0.0
 48
0.0
140
0.18
141
0.09
142
0.0
143
25.399999999999999
144
1.0
145
0.0
146
1.0
147
0.09
 71
     0
 72
     0
 73
     1
 74
     1
 75
     0
 76
     0
 77
     0
 78
     0
170
     0
171
     2
172
     0
173
     0
174
     0
175
     0
176
     0
177
     0
178
     0
  0
ENDTAB
  0
ENDSEC
  0
SECTION
  2
BLOCKS
  0
BLOCK
  8
0
  2
$MODEL_SPACE
 70
     0
 10
0.0
 20
0.0
 30
0.0
  3
$MODEL_SPACE
  1

  0
ENDBLK
  5
C79
  8
0
  0
BLOCK
 67
     1
  8
0
  2
$PAPER_SPACE
 70
     0
 10
0.0
 20
0.0
 30
0.0
  3
$PAPER_SPACE
  1

  0
ENDBLK
  5
C75
 67
     1
  8
0
  0
ENDSEC
  0
SECTION
  2
ENTITIES
  0
LINE
  5
2D
  8
HIBINO-BASE
  6
CONTINUOUS
 62
     7
 10
-529.99999999999977
 20
1071.201887369195
 30
0.0
 11
730.0
 21
1071.201887369195
 31
0.0
  0
LINE
  5
2E
  8
HIBINO-BASE
  6
CONTINUOUS
 62
     7
 10
730.0
 20
-748.79811263080444
 30
0.0
 11
-529.99999999999977
 21
-748.79811263080444
 31
0.0
  0
LINE
  5
2F
  8
HIBINO-BASE
  6
CONTINUOUS
 62
     7
 10
-529.99999999999977
 20
-748.79811263080444
 30
0.0
 11
-529.99999999999977
 21
1071.201887369195
 31
0.0
  0
LINE
  5
30
  8
HIBINO-BASE
  6
CONTINUOUS
 62
     7
 10
730.0
 20
1071.201887369195
 30
0.0
 11
730.0
 21
-748.79811263080444
 31
0.0
  0
LINE
  5
31
  8
HIBINO-BASE
  6
CONTINUOUS
 62
     7
 10
100.0
 20
-591.29811263080455
 30
0.0
 11
730.0
 21
-591.29811263080455
 31
0.0
  0
LINE
  5
32
  8
HIBINO-BASE
  6
CONTINUOUS
 62
     7
 10
100.0
 20
-748.79811263080444
 30
0.0
 11
100.0
 21
-591.29811263080455
 31
0.0
  0
TEXT
  5
33
  8
HIBINO-BASE
 62
     7
 10
106.3
 20
-608.85896596413784
 30
0.0
 40
11.401888020833329
  1
NOTE
 41
0.7
 11
106.3
 21
-597.45707794330451
 31
0.0
 73
     3
  0
LINE
  5
34
  8
HIBINO-BASE
  6
CONTINUOUS
 62
     7
 10
345.0
 20
-748.79811263080444
 30
0.0
 11
345.0
 21
-591.29811263080455
 31
0.0
  0
TEXT
  5
35
  8
HIBINO-BASE
 62
     7
 10
351.2999999999999
 20
-608.85896596413784
 30
0.0
 40
11.401888020833329
  1
TITLE
 41
0.7
 11
351.2999999999999
 21
-597.45707794330451
 31
0.0
 73
     3
  0
LINE
  5
36
  8
HIBINO-BASE
  6
CONTINUOUS
 62
     7
 10
100.0
 20
-678.79811263080455
 30
0.0
 11
730.0
 21
-678.79811263080455
 31
0.0
  0
TEXT
  5
37
  8
HIBINO-BASE
 62
     7
 10
438.79999999999978
 20
-695.96472596413776
 30
0.0
 40
11.401888020833329
  1
DRAWN
 41
0.7
 11
438.79999999999978
 21
-684.56283794330454
 31
0.0
 73
     3
  0
TEXT
  5
38
  8
HIBINO-BASE
 62
     7
 10
263.7999999999999
 20
-695.96472596413776
 30
0.0
 40
11.401888020833329
  1
DATE
 41
0.7
 11
263.7999999999999
 21
-684.56283794330454
 31
0.0
 73
     3
  0
TEXT
  5
39
  8
HIBINO-BASE
 62
     7
 10
193.7999999999999
 20
-695.96472596413776
 30
0.0
 40
11.401888020833329
  1
SCALE
 41
0.7
 11
193.7999999999999
 21
-684.56283794330454
 31
0.0
 73
     3
  0
TEXT
  5
3A
  8
HIBINO-BASE
 62
     7
 10
351.2999999999999
 20
-695.96472596413776
 30
0.0
 40
11.401888020833329
  1
DESIGN
 41
0.7
 11
351.2999999999999
 21
-684.56283794330454
 31
0.0
 73
     3
  0
TEXT
  5
3B
  8
HIBINO-BASE
 62
     7
 10
613.79999999999995
 20
-695.96472596413776
 30
0.0
 40
11.401888020833329
  1
DRAWING NO.
 41
0.7
 11
613.79999999999995
 21
-684.56283794330454
 31
0.0
 73
     3
  0
TEXT
  5
3C
  8
HIBINO-BASE
 62
     7
 10
526.29999999999995
 20
-695.96472596413776
 30
0.0
 40
11.401888020833329
  1
CHECK
 41
0.7
 11
526.29999999999995
 21
-684.56283794330454
 31
0.0
 73
     3
  0
LINE
  5
3D
  8
HIBINO-BASE
  6
CONTINUOUS
 62
     7
 10
200.625
 20
-740.04811263080444
 30
0.0
 11
226.875
 21
-713.79811263080444
 31
0.0
  0
TEXT
  5
3E
  8
HIBINO-BASE
 62
     7
 10
196.25
 20
-721.56071596413767
 30
0.0
 40
11.401888020833329
  1
1
 41
0.7
 11
196.25
 21
-710.15882794330446
 31
0.0
 73
     3
  0
LINE
  5
3F
  8
HIBINO-BASE
  6
CONTINUOUS
 62
     7
 10
187.5
 20
-748.79811263080444
 30
0.0
 11
187.5
 21
-678.79811263080455
 31
0.0
  0
LINE
  5
40
  8
HIBINO-BASE
  6
CONTINUOUS
 62
     7
 10
257.49999999999989
 20
-748.79811263080444
 30
0.0
 11
257.49999999999989
 21
-678.79811263080455
 31
0.0
  0
LINE
  5
41
  8
HIBINO-BASE
  6
CONTINUOUS
 62
     7
 10
432.5
 20
-678.79811263080455
 30
0.0
 11
432.5
 21
-748.79811263080444
 31
0.0
  0
LINE
  5
42
  8
HIBINO-BASE
  6
CONTINUOUS
 62
     7
 10
607.5
 20
-678.79811263080455
 30
0.0
 11
607.5
 21
-748.79811263080444
 31
0.0
  0
LINE
  5
43
  8
HIBINO-BASE
  6
CONTINUOUS
 62
     7
 10
519.99999999999989
 20
-748.79811263080444
 30
0.0
 11
519.99999999999989
 21
-678.79811263080455
 31
0.0
  0
TEXT
  5
44
  8
HIBINO-BASE
 62
     7
 10
263.49578000000002
 20
-728.75258596413778
 30
0.0
 40
11.401888020833329
  1
'12.04.
 41
0.7
 11
263.49578000000002
 21
-717.35069794330445
 31
0.0
 73
     3
  0
TEXT
  5
45
  8
HIBINO-BASE
 62
     7
 10
222.5
 20
-734.68571596413778
 30
0.0
 40
11.401888020833329
  1
7
 41
0.7
 11
222.5
 21
-723.28382794330435
 31
0.0
 73
     3
  0
TEXT
  5
46
  8
HIBINO-BASE
 62
     7
 10
443.04067007724223
 20
-728.75258596413778
 30
0.0
 40
11.401888020833329
  1
Ootake
 41
0.7
 11
443.04067007724223
 21
-717.35069794330445
 31
0.0
 73
     3
  0
TEXT
  5
47
  8
HIBINO-BASE
 62
     7
 10
127.18333333333339
 20
-734.96611263080422
 30
0.0
 40
22.803776041666669
  1
A4
 41
0.7
 11
127.18333333333339
 21
-712.16233658913745
 31
0.0
 73
     3
  0
TEXT
  5
48
  8
HIBINO-BASE
 62
     7
 10
106.7083333333333
 20
-697.13429763080444
 30
0.0
 40
11.401888020833329
  1
PAPER SIZE
 41
0.7
 11
106.7083333333333
 21
-685.73240960997111
 31
0.0
 73
     3
  0
TEXT
  5
49
  8
HIBINO-BASE
 62
     7
 10
-510.68255320176871
 20
-793.77479427003811
 30
0.0
 40
24.704090711805559
  1
Hibino-Intersound Corporation
 41
0.7
 11
-510.68255320176871
 21
-769.07070355823259
 31
0.0
 73
     3
  0
TEXT
  5
4A
  8
HIBINO-BASE
 62
     7
 10
241.26426776149731
 20
-791.31717649701216
 30
0.0
 40
24.704090711805559
  1
ヒビノインターサウンド株式会社
 41
0.7
 11
241.26426776149731
 21
-766.61308578520675
 31
0.0
 73
     3
  0
TEXT
  5
4B
  8
SPEC
 62
     7
 10
-468.74999999999989
 20
1010.954777369195
 30
0.0
 40
17.102832031249999
  1
仕様
 41
0.7
 11
-468.74999999999989
 21
1028.057609400445
 31
0.0
 73
     3
  0
LINE
  5
4C
  8
SPEC
  6
CONTINUOUS
 62
     7
 10
-469.99859294950511
 20
1001.227645121586
 30
0.0
 11
562.50140705049262
 21
1001.227645121586
 31
0.0
  0
LINE
  5
4D
  8
SPEC
  6
CONTINUOUS
 62
     7
 10
-469.99859294950511
 20
974.97764512158494
 30
0.0
 11
562.50140705049262
 21
974.97764512158494
 31
0.0
  0
LINE
  5
4E
  8
SPEC
  6
CONTINUOUS
 62
     7
 10
-469.99859294950511
 20
922.47764512158358
 30
0.0
 11
562.50140705049262
 21
922.47764512158358
 31
0.0
  0
LINE
  5
4F
  8
SPEC
  6
CONTINUOUS
 62
     7
 10
-469.99859294950511
 20
948.72764512158437
 30
0.0
 11
562.50140705049262
 21
948.72764512158437
 31
0.0
  0
LINE
  5
50
  8
SPEC
  6
CONTINUOUS
 62
     7
 10
-469.99859294950511
 20
1001.227645121586
 30
0.0
 11
-469.99859294950511
 21
659.97764512157607
 31
0.0
  0
LINE
  5
51
  8
SPEC
  6
CONTINUOUS
 62
     7
 10
-242.49859294950679
 20
1001.227645121586
 30
0.0
 11
-242.49859294950679
 21
659.97764512157607
 31
0.0
  0
LINE
  5
52
  8
SPEC
  6
CONTINUOUS
 62
     7
 10
-469.99859294950511
 20
896.22764512158278
 30
0.0
 11
562.50140705049262
 21
896.22764512158278
 31
0.0
  0
LINE
  5
53
  8
SPEC
  6
CONTINUOUS
 62
     7
 10
-469.99859294950511
 20
869.9776451215821
 30
0.0
 11
562.50140705049262
 21
869.9776451215821
 31
0.0
  0
LINE
  5
54
  8
SPEC
  6
CONTINUOUS
 62
     7
 10
-469.99859294950511
 20
843.72764512158153
 30
0.0
 11
562.50140705049262
 21
843.72764512158153
 31
0.0
  0
LINE
  5
55
  8
SPEC
  6
CONTINUOUS
 62
     7
 10
-469.99859294950511
 20
817.47764512158051
 30
0.0
 11
562.50140705049262
 21
817.47764512158051
 31
0.0
  0
LINE
  5
56
  8
SPEC
  6
CONTINUOUS
 62
     7
 10
-469.99859294950511
 20
791.22764512157994
 30
0.0
 11
562.50140705049262
 21
791.22764512157994
 31
0.0
  0
LINE
  5
57
  8
SPEC
  6
CONTINUOUS
 62
     7
 10
-469.99859294950511
 20
764.97764512157903
 30
0.0
 11
562.50140705049262
 21
764.97764512157903
 31
0.0
  0
LINE
  5
58
  8
SPEC
  6
CONTINUOUS
 62
     7
 10
-469.99859294950511
 20
738.72764512157823
 30
0.0
 11
562.50140705049262
 21
738.72764512157823
 31
0.0
  0
LINE
  5
59
  8
SPEC
  6
CONTINUOUS
 62
     7
 10
-469.99859294950511
 20
712.47764512157778
 30
0.0
 11
562.50140705049262
 21
712.47764512157778
 31
0.0
  0
LINE
  5
5A
  8
SPEC
  6
CONTINUOUS
 62
     7
 10
-469.99859294950511
 20
686.22764512157698
 30
0.0
 11
562.50140705049262
 21
686.22764512157698
 31
0.0
  0
TEXT
  5
5B
  8
SPEC
 62
     7
 10
-464.5010488466848
 20
719.40136627924733
 30
0.0
 40
13.302202690972219
  1
寸法
 41
0.7
 11
-464.5010488466848
 21
732.70356897021952
 31
0.0
 73
     3
  0
TEXT
  5
5C
  8
SPEC
 62
     7
 10
-235.94415010772011
 20
718.58410613212595
 30
0.0
 40
13.302202690972219
  1
435(W)\U+00D744(H)\U+00D7130(D)mm(突起部含まず）
 41
0.7
 11
-235.94415010772011
 21
731.88630882309815
 31
0.0
 73
     3
  0
TEXT
  5
5D
  8
SPEC
 62
     7
 10
-236.21545504284251
 20
693.41758043697882
 30
0.0
 40
13.302202690972219
  1
約800g(送受信機共に)
 41
0.7
 11
-236.21545504284251
 21
706.71978312795102
 31
0.0
 73
     3
  0
TEXT
  5
5E
  8
SPEC
 62
     7
 10
-464.04190817594252
 20
692.84813058665998
 30
0.0
 40
13.302202690972219
  1
重量
 41
0.7
 11
-464.04190817594252
 21
706.15033327763217
 31
0.0
 73
     3
  0
TEXT
  5
5F
  8
SPEC
 62
     7
 10
-464.01584212826509
 20
771.81335246585274
 30
0.0
 40
13.302202690972219
  1
消費電力
 41
0.7
 11
-464.01584212826509
 21
785.11555515682505
 31
0.0
 73
     3
  0
TEXT
  5
60
  8
SPEC
 62
     7
 10
-236.10966966813601
 20
770.78059163016462
 30
0.0
 40
13.302202690972219
  1
20W送受信機共に 
 41
0.7
 11
-236.10966966813601
 21
784.08279432113682
 31
0.0
 73
     3
  0
TEXT
  5
61
  8
SPEC
 62
     7
 10
-464.46854029639161
 20
798.14926532526215
 30
0.0
 40
13.302202690972219
  1
電源
 41
0.7
 11
-464.46854029639161
 21
811.45146801623434
 31
0.0
 73
     3
  0
TEXT
  5
62
  8
SPEC
 62
     7
 10
-236.1508177712561
 20
797.6198822690219
 30
0.0
 40
13.302202690972219
  1
5V DC
 41
0.7
 11
-236.1508177712561
 21
810.92208495999409
 31
0.0
 73
     3
  0
TEXT
  5
63
  8
SPEC
 62
     7
 10
-467.27946650910621
 20
824.66684993026638
 30
0.0
 40
13.302202690972219
  1
リンク端子
 41
0.7
 11
-467.27946650910621
 21
837.96905262123869
 31
0.0
 73
     3
  0
TEXT
  5
64
  8
SPEC
 62
     7
 10
-236.2341836164324
 20
824.03692016998082
 30
0.0
 40
13.302202690972219
  1
RJ-45
 41
0.7
 11
-236.2341836164324
 21
837.33912286095313
 31
0.0
 73
     3
  0
TEXT
  5
65
  8
SPEC
 62
     7
 10
-463.86719520208862
 20
850.68984243756313
 30
0.0
 40
13.302202690972219
  1
DVI入出力端子
 41
0.7
 11
-463.86719520208862
 21
863.99204512853544
 31
0.0
 73
     3
  0
TEXT
  5
66
  8
SPEC
 62
     7
 10
-236.26115305242681
 20
850.42606607695393
 30
0.0
 40
13.302202690972219
  1
DVI-I 29ピン　メス送受信機共に
 41
0.7
 11
-236.26115305242681
 21
863.72826876792612
 31
0.0
 73
     3
  0
TEXT
  5
67
  8
SPEC
 62
     7
 10
-463.52152136715478
 20
877.74805134612609
 30
0.0
 40
13.302202690972219
  1
USB端子(受信機)
 41
0.7
 11
-463.52152136715478
 21
891.0502540370984
 31
0.0
 73
     3
  0
TEXT
  5
68
  8
SPEC
 62
     7
 10
-236.1069104048311
 20
876.22034916360406
 30
0.0
 40
13.302202690972219
  1
Type-A
 41
0.7
 11
-236.1069104048311
 21
889.52255185457636
 31
0.0
 73
     3
  0
TEXT
  5
69
  8
SPEC
 62
     7
 10
-463.62869340971559
 20
902.99342572378623
 30
0.0
 40
13.302202690972219
  1
USB端子(送信機)
 41
0.7
 11
-463.62869340971559
 21
916.29562841475831
 31
0.0
 73
     3
  0
TEXT
  5
6A
  8
SPEC
 62
     7
 10
-236.10644856212991
 20
902.28012768342614
 30
0.0
 40
13.302202690972219
  1
Type-B
 41
0.7
 11
-236.10644856212991
 21
915.58233037439845
 31
0.0
 73
     3
  0
TEXT
  5
6B
  8
SPEC
 62
     7
 10
-464.11480258181558
 20
929.37305483634748
 30
0.0
 40
13.302202690972219
  1
入力DDC信号
 41
0.7
 11
-464.11480258181558
 21
942.67525752731956
 31
0.0
 73
     3
  0
TEXT
  5
6C
  8
SPEC
 62
     7
 10
-236.10598615603399
 20
928.71896279041027
 30
0.0
 40
13.302202690972219
  1
5V p-p(TTL)
 41
0.7
 11
-236.10598615603399
 21
942.02116548138235
 31
0.0
 73
     3
  0
TEXT
  5
6D
  8
SPEC
 62
     7
 10
-463.9360188018851
 20
955.71885304450313
 30
0.0
 40
13.302202690972219
  1
入力ビデオ信号
 41
0.7
 11
-463.9360188018851
 21
969.02105573547533
 31
0.0
 73
     3
  0
TEXT
  5
6E
  8
SPEC
 62
     7
 10
-236.99184099823171
 20
955.15849129505057
 30
0.0
 40
13.302202690972219
  1
1.2V p-p
 41
0.7
 11
-236.99184099823171
 21
968.46069398602265
 31
0.0
 73
     3
  0
TEXT
  5
6F
  8
SPEC
 62
     7
 10
-466.92947862177482
 20
981.17388365895226
 30
0.0
 40
13.302202690972219
  1
ビデオアンプ帯域
 41
0.7
 11
-466.92947862177482
 21
994.47608634992434
 31
0.0
 73
     3
  0
TEXT
  5
70
  8
SPEC
 62
     7
 10
-237.11842474919359
 20
980.90215629120382
 30
0.0
 40
13.302202690972219
  1
165MHz
 41
0.7
 11
-237.11842474919359
 21
994.20435898217613
 31
0.0
 73
     3
  0
TEXT
  5
71
  8
SPEC
 62
     7
 10
-236.9657543595296
 20
666.91748066474895
 30
0.0
 40
13.302202690972219
  1
1U
 41
0.7
 11
-236.9657543595296
 21
680.21968335572114
 31
0.0
 73
     3
  0
TEXT
  5
72
  8
SPEC
 62
     7
 10
-465.20963345737482
 20
666.65852695758394
 30
0.0
 40
13.302202690972219
  1
ラックマウントサイズ
 41
0.7
 11
-465.20963345737482
 21
679.96072964855614
 31
0.0
 73
     3
  0
LINE
  5
73
  8
SPEC
  6
CONTINUOUS
 62
     7
 10
-469.99859294950511
 20
659.97764512157607
 30
0.0
 11
562.50140705049262
 21
659.97764512157607
 31
0.0
  0
LINE
  5
74
  8
SPEC
  6
CONTINUOUS
 62
     7
 10
562.50140705049262
 20
1001.227645121586
 30
0.0
 11
562.50140705049262
 21
659.97764512157607
 31
0.0
  0
TEXT
  5
75
  8
SPEC
 62
     7
 10
-464.01584212826509
 20
745.56335246585195
 30
0.0
 40
13.302202690972219
  1
動作温度
 41
0.7
 11
-464.01584212826509
 21
758.86555515682414
 31
0.0
 73
     3
  0
TEXT
  5
76
  8
SPEC
 62
     7
 10
-236.10966966813601
 20
744.53059163016371
 30
0.0
 40
13.302202690972219
  1
0～40\U+00B0
 41
0.7
 11
-236.10966966813601
 21
757.83279432113591
 31
0.0
 73
     3
  0
TEXT
  5
77
  8
DIMNSIONS
 62
     7
 10
-40.0
 20
-662.91168263080453
 30
0.0
 40
17.102832031249999
  1
(単位：mm)
 41
0.7
 11
-40.0
 21
-645.80885059955449
 31
0.0
 73
     3
  0
LINE
  5
78
  8
DIMNSIONS
  6
CONTINUOUS
 62
     7
 10
-414.00000000003342
 20
-349.9999999999705
 30
0.0
 11
-464.0
 21
-349.9999999999705
 31
0.0
  0
LINE
  5
79
  8
DIMNSIONS
  6
CONTINUOUS
 62
     7
 10
-414.00000000003342
 20
-219.9999999999705
 30
0.0
 11
-464.0
 21
-219.9999999999705
 31
0.0
  0
LINE
  5
7A
  8
DIMNSIONS
  6
CONTINUOUS
 62
     7
 10
-450.0
 20
-349.9999999999705
 30
0.0
 11
-450.0
 21
-219.9999999999705
 31
0.0
  0
LINE
  5
7B
  8
DIMNSIONS
  6
CONTINUOUS
 62
     7
 10
-450.0
 20
-349.9999999999705
 30
0.0
 11
-454.69027856605169
 21
-332.49564208981428
 31
0.0
  0
LINE
  5
7C
  8
DIMNSIONS
  6
CONTINUOUS
 62
     7
 10
-450.0
 20
-349.9999999999705
 30
0.0
 11
-445.30972143394831
 21
-332.49564208981428
 31
0.0
  0
LINE
  5
7D
  8
DIMNSIONS
  6
CONTINUOUS
 62
     7
 10
-450.0
 20
-219.9999999999705
 30
0.0
 11
-445.30972143394831
 21
-237.5043579101268
 31
0.0
  0
LINE
  5
7E
  8
DIMNSIONS
  6
CONTINUOUS
 62
     7
 10
-450.0
 20
-219.9999999999705
 30
0.0
 11
-454.69027856605169
 21
-237.50435791012671
 31
0.0
  0
TEXT
  5
7F
  8
DIMNSIONS
 62
     7
 10
-459.67361120310511
 20
-305.74333474633141
 30
0.0
 40
17.68482375889479
  1
130
 50
90.0
 41
0.7
 11
-477.35843496199999
 21
-305.74333474633141
 31
0.0
 73
     3
  0
LINE
  5
80
  8
DIMNSIONS
  6
CONTINUOUS
 62
     7
 10
-414.00000000003342
 20
-449.99999999997061
 30
0.0
 11
-464.0
 21
-449.99999999997061
 31
0.0
  0
LINE
  5
81
  8
DIMNSIONS
  6
CONTINUOUS
 62
     7
 10
-414.00000000003342
 20
-405.99999999997038
 30
0.0
 11
-464.0
 21
-405.99999999997038
 31
0.0
  0
LINE
  5
82
  8
DIMNSIONS
  6
CONTINUOUS
 62
     7
 10
-450.0
 20
-449.99999999997061
 30
0.0
 11
-450.0
 21
-405.99999999997038
 31
0.0
  0
LINE
  5
83
  8
DIMNSIONS
  6
CONTINUOUS
 62
     7
 10
-450.0
 20
-449.99999999997061
 30
0.0
 11
-454.69027856605169
 21
-432.49564208981428
 31
0.0
  0
LINE
  5
84
  8
DIMNSIONS
  6
CONTINUOUS
 62
     7
 10
-450.0
 20
-449.99999999997061
 30
0.0
 11
-445.30972143394831
 21
-432.49564208981428
 31
0.0
  0
LINE
  5
85
  8
DIMNSIONS
  6
CONTINUOUS
 62
     7
 10
-450.0
 20
-405.99999999997038
 30
0.0
 11
-445.30972143394831
 21
-423.50435791012683
 31
0.0
  0
LINE
  5
86
  8
DIMNSIONS
  6
CONTINUOUS
 62
     7
 10
-450.0
 20
-405.99999999997038
 30
0.0
 11
-454.69027856605169
 21
-423.50435791012683
 31
0.0
  0
TEXT
  5
87
  8
DIMNSIONS
 62
     7
 10
-459.67361120310511
 20
-441.8288886533548
 30
0.0
 40
17.68482375889479
  1
44
 50
90.0
 41
0.7
 11
-477.35843496199999
 21
-441.8288886533548
 31
0.0
 73
     3
  0
LINE
  5
88
  8
DIMNSIONS
  6
CONTINUOUS
 62
     7
 10
-410.96920235631649
 20
-453.99999999997061
 30
0.0
 11
-464.0
 21
-453.99999999997061
 31
0.0
  0
LINE
  5
89
  8
DIMNSIONS
  6
CONTINUOUS
 62
     7
 10
-414.00000000003342
 20
-449.99999999997061
 30
0.0
 11
-464.0
 21
-449.99999999997061
 31
0.0
  0
LINE
  5
8A
  8
DIMNSIONS
  6
CONTINUOUS
 62
     7
 10
-450.0
 20
-449.99999999997061
 30
0.0
 11
-450.0
 21
-453.99999999997061
 31
0.0
  0
LINE
  5
8B
  8
DIMNSIONS
  6
CONTINUOUS
 62
     7
 10
-450.0
 20
-453.99999999997061
 30
0.0
 11
-450.0
 21
-491.33695207569332
 31
0.0
  0
LINE
  5
8C
  8
DIMNSIONS
  6
CONTINUOUS
 62
     7
 10
-450.0
 20
-453.99999999997061
 30
0.0
 11
-445.30972143394831
 21
-471.50435791012683
 31
0.0
  0
LINE
  5
8D
  8
DIMNSIONS
  6
CONTINUOUS
 62
     7
 10
-450.0
 20
-453.99999999997061
 30
0.0
 11
-454.69027856605169
 21
-471.50435791012683
 31
0.0
  0
LINE
  5
8E
  8
DIMNSIONS
  6
CONTINUOUS
 62
     7
 10
-450.0
 20
-449.99999999997061
 30
0.0
 11
-450.0
 21
-414.9999999999705
 31
0.0
  0
LINE
  5
8F
  8
DIMNSIONS
  6
CONTINUOUS
 62
     7
 10
-450.0
 20
-449.99999999997061
 30
0.0
 11
-454.69027856605169
 21
-432.49564208981428
 31
0.0
  0
LINE
  5
90
  8
DIMNSIONS
  6
CONTINUOUS
 62
     7
 10
-450.0
 20
-449.99999999997061
 30
0.0
 11
-445.30972143394831
 21
-432.49564208981428
 31
0.0
  0
TEXT
  5
91
  8
DIMNSIONS
 62
     7
 10
-459.67361120310511
 20
-491.33695207569332
 30
0.0
 40
17.68482375889479
  1
4
 50
90.0
 41
0.7
 11
-477.35843496199999
 21
-491.33695207569332
 31
0.0
 73
     3
  0
LINE
  5
92
  8
DIMNSIONS
  6
CONTINUOUS
 62
     7
 10
-400.0000000000332
 20
-463.99999999997038
 30
0.0
 11
-400.0000000000332
 21
-514.0
 31
0.0
  0
LINE
  5
93
  8
DIMNSIONS
  6
CONTINUOUS
 62
     7
 10
34.999999999966533
 20
-463.99999999997038
 30
0.0
 11
34.999999999966533
 21
-514.0
 31
0.0
  0
LINE
  5
94
  8
DIMNSIONS
  6
CONTINUOUS
 62
     7
 10
-400.0000000000332
 20
-500.0
 30
0.0
 11
34.999999999966533
 21
-500.0
 31
0.0
  0
LINE
  5
95
  8
DIMNSIONS
  6
CONTINUOUS
 62
     7
 10
-400.0000000000332
 20
-500.0
 30
0.0
 11
-382.49564208987721
 21
-495.30972143394831
 31
0.0
  0
LINE
  5
96
  8
DIMNSIONS
  6
CONTINUOUS
 62
     7
 10
-400.0000000000332
 20
-500.0
 30
0.0
 11
-382.49564208987721
 21
-504.69027856605169
 31
0.0
  0
LINE
  5
97
  8
DIMNSIONS
  6
CONTINUOUS
 62
     7
 10
34.999999999966533
 20
-500.0
 30
0.0
 11
17.495642089810289
 21
-504.69027856605169
 31
0.0
  0
LINE
  5
98
  8
DIMNSIONS
  6
CONTINUOUS
 62
     7
 10
34.999999999966533
 20
-500.0
 30
0.0
 11
17.495642089810289
 21
-495.30972143394831
 31
0.0
  0
TEXT
  5
99
  8
DIMNSIONS
 62
     7
 10
-203.2433347463942
 20
-490.32638879689461
 30
0.0
 40
17.68482375889479
  1
435
 41
0.7
 11
-203.2433347463942
 21
-472.6415650379999
 31
0.0
 73
     3
  0
LINE
  5
9A
  8
DIMNSIONS
  6
CONTINUOUS
 62
     7
 10
-414.00000000003342
 20
-219.9999999999705
 30
0.0
 11
-464.0
 21
-219.9999999999705
 31
0.0
  0
LINE
  5
9B
  8
DIMNSIONS
  6
CONTINUOUS
 62
     7
 10
-398.90000000003329
 20
-213.9999999999705
 30
0.0
 11
-464.0
 21
-213.9999999999705
 31
0.0
  0
LINE
  5
9C
  8
DIMNSIONS
  6
CONTINUOUS
 62
     7
 10
-450.0
 20
-213.9999999999705
 30
0.0
 11
-450.0
 21
-219.9999999999705
 31
0.0
  0
LINE
  5
9D
  8
DIMNSIONS
  6
CONTINUOUS
 62
     7
 10
-450.0
 20
-219.9999999999705
 30
0.0
 11
-450.0
 21
-254.9999999999705
 31
0.0
  0
LINE
  5
9E
  8
DIMNSIONS
  6
CONTINUOUS
 62
     7
 10
-450.0
 20
-219.9999999999705
 30
0.0
 11
-445.30972143394831
 21
-237.5043579101268
 31
0.0
  0
LINE
  5
9F
  8
DIMNSIONS
  6
CONTINUOUS
 62
     7
 10
-450.0
 20
-219.9999999999705
 30
0.0
 11
-454.69027856605169
 21
-237.50435791012671
 31
0.0
  0
LINE
  5
A0
  8
DIMNSIONS
  6
CONTINUOUS
 62
     7
 10
-450.0
 20
-213.9999999999705
 30
0.0
 11
-450.0
 21
-175.12030542430671
 31
0.0
  0
LINE
  5
A1
  8
DIMNSIONS
  6
CONTINUOUS
 62
     7
 10
-450.0
 20
-213.9999999999705
 30
0.0
 11
-454.69027856605169
 21
-196.4956420898142
 31
0.0
  0
LINE
  5
A2
  8
DIMNSIONS
  6
CONTINUOUS
 62
     7
 10
-450.0
 20
-213.9999999999705
 30
0.0
 11
-445.30972143394831
 21
-196.4956420898142
 31
0.0
  0
TEXT
  5
A3
  8
DIMNSIONS
 62
     7
 10
-459.67361120310511
 20
-188.949194077691
 30
0.0
 40
17.68482375889479
  1
6
 50
90.0
 41
0.7
 11
-477.35843496199999
 21
-188.949194077691
 31
0.0
 73
     3
  0
LINE
  5
A4
  8
DIMNSIONS
  6
CONTINUOUS
 62
     7
 10
-400.0000000000332
 20
161.00000000002939
 30
0.0
 11
-400.0000000000332
 21
110.9999999999999
 31
0.0
  0
LINE
  5
A5
  8
DIMNSIONS
  6
CONTINUOUS
 62
     7
 10
34.999999999966533
 20
161.0000000000295
 30
0.0
 11
34.999999999966533
 21
111.0
 31
0.0
  0
LINE
  5
A6
  8
DIMNSIONS
  6
CONTINUOUS
 62
     7
 10
-400.0000000000332
 20
124.9999999999999
 30
0.0
 11
34.999999999966533
 21
125.0
 31
0.0
  0
LINE
  5
A7
  8
DIMNSIONS
  6
CONTINUOUS
 62
     7
 10
-400.0000000000332
 20
124.9999999999999
 30
0.0
 11
-382.49564208987721
 21
129.6902785660516
 31
0.0
  0
LINE
  5
A8
  8
DIMNSIONS
  6
CONTINUOUS
 62
     7
 10
-400.0000000000332
 20
124.9999999999999
 30
0.0
 11
-382.49564208987721
 21
120.3097214339482
 31
0.0
  0
LINE
  5
A9
  8
DIMNSIONS
  6
CONTINUOUS
 62
     7
 10
34.999999999966533
 20
125.0
 30
0.0
 11
17.495642089810289
 21
120.3097214339483
 31
0.0
  0
LINE
  5
AA
  8
DIMNSIONS
  6
CONTINUOUS
 62
     7
 10
34.999999999966533
 20
125.0
 30
0.0
 11
17.495642089810289
 21
129.69027856605169
 31
0.0
  0
TEXT
  5
AB
  8
DIMNSIONS
 62
     7
 10
-203.2433347463942
 20
116.9743054359633
 30
0.0
 40
17.68482375889479
  1
435
 41
0.7
 11
-203.2433347463942
 21
134.65912919485811
 31
0.0
 73
     3
  0
LINE
  5
AC
  8
DIMNSIONS
  6
CONTINUOUS
 62
     7
 10
-414.00000000003342
 20
175.00000000002939
 30
0.0
 11
-464.0
 21
175.00000000002939
 31
0.0
  0
LINE
  5
AD
  8
DIMNSIONS
  6
CONTINUOUS
 62
     7
 10
-414.00000000003342
 20
219.0000000000295
 30
0.0
 11
-464.0
 21
219.0000000000295
 31
0.0
  0
LINE
  5
AE
  8
DIMNSIONS
  6
CONTINUOUS
 62
     7
 10
-450.0
 20
175.00000000002939
 30
0.0
 11
-450.0
 21
219.0000000000295
 31
0.0
  0
LINE
  5
AF
  8
DIMNSIONS
  6
CONTINUOUS
 62
     7
 10
-450.0
 20
175.00000000002939
 30
0.0
 11
-454.69027856605169
 21
192.50435791018569
 31
0.0
  0
LINE
  5
B0
  8
DIMNSIONS
  6
CONTINUOUS
 62
     7
 10
-450.0
 20
175.00000000002939
 30
0.0
 11
-445.30972143394831
 21
192.50435791018569
 31
0.0
  0
LINE
  5
B1
  8
DIMNSIONS
  6
CONTINUOUS
 62
     7
 10
-450.0
 20
219.0000000000295
 30
0.0
 11
-445.30972143394831
 21
201.49564208987329
 31
0.0
  0
LINE
  5
B2
  8
DIMNSIONS
  6
CONTINUOUS
 62
     7
 10
-450.0
 20
219.0000000000295
 30
0.0
 11
-454.69027856605169
 21
201.49564208987329
 31
0.0
  0
TEXT
  5
B3
  8
DIMNSIONS
 62
     7
 10
-459.67361120310511
 20
183.1711113466452
 30
0.0
 40
17.68482375889479
  1
44
 50
90.0
 41
0.7
 11
-477.35843496199999
 21
183.1711113466452
 31
0.0
 73
     3
  0
LINE
  5
B4
  8
DIMNSIONS
  6
CONTINUOUS
 62
     7
 10
-410.96920235631649
 20
171.0000000000295
 30
0.0
 11
-464.0
 21
171.0000000000295
 31
0.0
  0
LINE
  5
B5
  8
DIMNSIONS
  6
CONTINUOUS
 62
     7
 10
-414.00000000003342
 20
175.00000000002939
 30
0.0
 11
-464.0
 21
175.00000000002939
 31
0.0
  0
LINE
  5
B6
  8
DIMNSIONS
  6
CONTINUOUS
 62
     7
 10
-450.0
 20
175.00000000002939
 30
0.0
 11
-450.0
 21
171.0000000000295
 31
0.0
  0
LINE
  5
B7
  8
DIMNSIONS
  6
CONTINUOUS
 62
     7
 10
-450.0
 20
171.0000000000295
 30
0.0
 11
-450.0
 21
135.6630479243066
 31
0.0
  0
LINE
  5
B8
  8
DIMNSIONS
  6
CONTINUOUS
 62
     7
 10
-450.0
 20
171.0000000000295
 30
0.0
 11
-445.30972143394831
 21
153.4956420898732
 31
0.0
  0
LINE
  5
B9
  8
DIMNSIONS
  6
CONTINUOUS
 62
     7
 10
-450.0
 20
171.0000000000295
 30
0.0
 11
-454.69027856605169
 21
153.4956420898732
 31
0.0
  0
LINE
  5
BA
  8
DIMNSIONS
  6
CONTINUOUS
 62
     7
 10
-450.0
 20
175.00000000002939
 30
0.0
 11
-450.0
 21
210.00000000002939
 31
0.0
  0
LINE
  5
BB
  8
DIMNSIONS
  6
CONTINUOUS
 62
     7
 10
-450.0
 20
175.00000000002939
 30
0.0
 11
-454.69027856605169
 21
192.50435791018569
 31
0.0
  0
LINE
  5
BC
  8
DIMNSIONS
  6
CONTINUOUS
 62
     7
 10
-450.0
 20
175.00000000002939
 30
0.0
 11
-445.30972143394831
 21
192.50435791018569
 31
0.0
  0
TEXT
  5
BD
  8
DIMNSIONS
 62
     7
 10
-459.67361120310511
 20
135.6630479243066
 30
0.0
 40
17.68482375889479
  1
4
 50
90.0
 41
0.7
 11
-477.35843496199999
 21
135.6630479243066
 31
0.0
 73
     3
  0
LINE
  5
BE
  8
DIMNSIONS
  6
CONTINUOUS
 62
     7
 10
-414.00000000003342
 20
275.0000000000295
 30
0.0
 11
-464.0
 21
275.0000000000295
 31
0.0
  0
LINE
  5
BF
  8
DIMNSIONS
  6
CONTINUOUS
 62
     7
 10
-414.00000000003342
 20
405.00000000002927
 30
0.0
 11
-464.0
 21
405.00000000002927
 31
0.0
  0
LINE
  5
C0
  8
DIMNSIONS
  6
CONTINUOUS
 62
     7
 10
-450.0
 20
275.0000000000295
 30
0.0
 11
-450.0
 21
405.00000000002927
 31
0.0
  0
LINE
  5
C1
  8
DIMNSIONS
  6
CONTINUOUS
 62
     7
 10
-450.0
 20
275.0000000000295
 30
0.0
 11
-454.69027856605169
 21
292.50435791018572
 31
0.0
  0
LINE
  5
C2
  8
DIMNSIONS
  6
CONTINUOUS
 62
     7
 10
-450.0
 20
275.0000000000295
 30
0.0
 11
-445.30972143394831
 21
292.50435791018572
 31
0.0
  0
LINE
  5
C3
  8
DIMNSIONS
  6
CONTINUOUS
 62
     7
 10
-450.0
 20
405.00000000002927
 30
0.0
 11
-445.30972143394831
 21
387.49564208987329
 31
0.0
  0
LINE
  5
C4
  8
DIMNSIONS
  6
CONTINUOUS
 62
     7
 10
-450.0
 20
405.00000000002927
 30
0.0
 11
-454.69027856605169
 21
387.49564208987329
 31
0.0
  0
TEXT
  5
C5
  8
DIMNSIONS
 62
     7
 10
-459.67361120310511
 20
319.25666525366881
 30
0.0
 40
17.68482375889479
  1
130
 50
90.0
 41
0.7
 11
-477.35843496199999
 21
319.25666525366881
 31
0.0
 73
     3
  0
LINE
  5
C6
  8
DIMNSIONS
  6
CONTINUOUS
 62
     7
 10
-414.00000000003342
 20
405.00000000002927
 30
0.0
 11
-464.0
 21
405.00000000002927
 31
0.0
  0
LINE
  5
C7
  8
DIMNSIONS
  6
CONTINUOUS
 62
     7
 10
-398.90000000003329
 20
411.00000000002939
 30
0.0
 11
-464.0
 21
411.00000000002939
 31
0.0
  0
LINE
  5
C8
  8
DIMNSIONS
  6
CONTINUOUS
 62
     7
 10
-450.0
 20
411.00000000002939
 30
0.0
 11
-450.0
 21
405.00000000002927
 31
0.0
  0
LINE
  5
C9
  8
DIMNSIONS
  6
CONTINUOUS
 62
     7
 10
-450.0
 20
405.00000000002927
 30
0.0
 11
-450.0
 21
370.0000000000295
 31
0.0
  0
LINE
  5
CA
  8
DIMNSIONS
  6
CONTINUOUS
 62
     7
 10
-450.0
 20
405.00000000002927
 30
0.0
 11
-445.30972143394831
 21
387.49564208987329
 31
0.0
  0
LINE
  5
CB
  8
DIMNSIONS
  6
CONTINUOUS
 62
     7
 10
-450.0
 20
405.00000000002927
 30
0.0
 11
-454.69027856605169
 21
387.49564208987329
 31
0.0
  0
LINE
  5
CC
  8
DIMNSIONS
  6
CONTINUOUS
 62
     7
 10
-450.0
 20
411.00000000002939
 30
0.0
 11
-450.0
 21
450.71195207569332
 31
0.0
  0
LINE
  5
CD
  8
DIMNSIONS
  6
CONTINUOUS
 62
     7
 10
-450.0
 20
411.00000000002939
 30
0.0
 11
-454.69027856605169
 21
428.50435791018572
 31
0.0
  0
LINE
  5
CE
  8
DIMNSIONS
  6
CONTINUOUS
 62
     7
 10
-450.0
 20
411.00000000002939
 30
0.0
 11
-445.30972143394831
 21
428.50435791018572
 31
0.0
  0
TEXT
  5
CF
  8
DIMNSIONS
 62
     7
 10
-459.67361120310511
 20
436.88306342230902
 30
0.0
 40
17.68482375889479
  1
6
 50
90.0
 41
0.7
 11
-477.35843496199999
 21
436.88306342230902
 31
0.0
 73
     3
  0
TEXT
  5
D0
  8
DATA
 62
     7
 10
450.0
 20
-672.62771116512124
 30
0.0
 40
17.102832031249999
  1
EXT-CAT5-5600HD
 41
0.7
 11
450.0
 21
-655.5248791338712
 31
0.0
 73
     3
  0
TEXT
  5
D1
  8
DATA
 62
     7
 10
450.0
 20
-620.13188263080428
 30
0.0
 40
17.102832031249999
  1
Gefen
 41
0.7
 11
450.0
 21
-603.02905059955435
 31
0.0
 73
     3
  0
TEXT
  5
D2
  8
DATA
 62
     7
 10
444.19428834926538
 20
-643.41814300078772
 30
0.0
 40
11.401888020833329
  1
DVIKVM延長機
 41
0.7
 11
444.19428834926538
 21
-632.0162549799544
 31
0.0
 73
     3
  0
TEXT
  5
D3
  8
DATA
 62
     7
 10
-459.99999999999989
 20
-719.13211263080461
 30
0.0
 40
11.401888020833329
  1
仕様および外観は予告なく変更されることがありますので、ご了承ください。
 41
0.7
 11
-459.99999999999989
 21
-707.73022460997117
 31
0.0
 73
     3
  0
LINE
  5
D4
  8
DATA
  6
CONTINUOUS
 62
     7
 10
-400.0000000000332
 20
175.0000000000295
 30
0.0
 11
-400.0000000000332
 21
219.0000000000295
 31
0.0
  0
LINE
  5
D5
  8
DATA
  6
CONTINUOUS
 62
     7
 10
34.999999999966533
 20
175.0000000000295
 30
0.0
 11
-400.0000000000332
 21
175.0000000000295
 31
0.0
  0
LINE
  5
D6
  8
DATA
  6
CONTINUOUS
 62
     7
 10
34.999999999966533
 20
219.0000000000295
 30
0.0
 11
34.999999999966533
 21
175.0000000000295
 31
0.0
  0
LINE
  5
D7
  8
DATA
  6
CONTINUOUS
 62
     7
 10
-400.0000000000332
 20
219.0000000000295
 30
0.0
 11
34.999999999966533
 21
219.0000000000295
 31
0.0
  0
LINE
  5
D8
  8
DATA
  6
CONTINUOUS
 62
     7
 10
-400.0000000000332
 20
275.0000000000295
 30
0.0
 11
-400.0000000000332
 21
405.00000000002927
 31
0.0
  0
LINE
  5
D9
  8
DATA
  6
CONTINUOUS
 62
     7
 10
34.999999999966533
 20
275.0000000000295
 30
0.0
 11
-400.0000000000332
 21
275.0000000000295
 31
0.0
  0
LINE
  5
DA
  8
DATA
  6
CONTINUOUS
 62
     7
 10
34.999999999966533
 20
405.00000000002927
 30
0.0
 11
34.999999999966533
 21
275.0000000000295
 31
0.0
  0
LINE
  5
DB
  8
DATA
  6
CONTINUOUS
 62
     7
 10
-400.0000000000332
 20
405.00000000002927
 30
0.0
 11
34.999999999966533
 21
405.00000000002927
 31
0.0
  0
LINE
  5
DC
  8
DATA
  6
CONTINUOUS
 62
     7
 10
-381.03079764375042
 20
171.0000000000295
 30
0.0
 11
-396.96920235631649
 21
171.0000000000295
 31
0.0
  0
LINE
  5
DD
  8
DATA
  6
CONTINUOUS
 62
     7
 10
-398.00000000003342
 20
175.0000000000295
 30
0.0
 11
-396.96920235631649
 21
171.0000000000295
 31
0.0
  0
LINE
  5
DE
  8
DATA
  6
CONTINUOUS
 62
     7
 10
-380.00000000003342
 20
175.0000000000295
 30
0.0
 11
-381.03079764375042
 21
171.0000000000295
 31
0.0
  0
LINE
  5
DF
  8
DATA
  6
CONTINUOUS
 62
     7
 10
16.030797643683471
 20
171.0000000000295
 30
0.0
 11
31.9692023562496
 21
171.0000000000295
 31
0.0
  0
LINE
  5
E0
  8
DATA
  6
CONTINUOUS
 62
     7
 10
32.999999999966541
 20
175.0000000000295
 30
0.0
 11
31.9692023562496
 21
171.0000000000295
 31
0.0
  0
LINE
  5
E1
  8
DATA
  6
CONTINUOUS
 62
     7
 10
14.99999999996653
 20
175.0000000000295
 30
0.0
 11
16.030797643683471
 21
171.0000000000295
 31
0.0
  0
CIRCLE
  5
E2
  8
DATA
  6
CONTINUOUS
 62
     7
 10
-201.00000000003351
 20
191.0000000000295
 30
0.0
 40
1.399999999999977
  0
TEXT
  5
E3
  8
DATA
 62
     7
 10
-206.46337748883559
 20
180.887845194725
 30
0.0
 40
3.031684072953392
  1
Link 1
 41
0.7
 11
-206.46337748883559
 21
183.9195292676784
 31
0.0
 73
     3
  0
TEXT
  5
E4
  8
DATA
 62
     7
 10
-74.397992387184516
 20
202.02446975637039
 30
0.0
 40
10.105613576511301
  1
CAT5-5600HDS
 41
0.7
 11
-74.397992387184516
 21
212.1300833328817
 31
0.0
 73
     3
  0
TEXT
  5
E5
  8
DATA
 62
     7
 10
-22.02085997943604
 20
190.24833329235969
 30
0.0
 40
6.0633681459067841
  1
DVIｷUSB 2.0
 41
0.7
 11
-22.02085997943604
 21
196.31170143826651
 31
0.0
 73
     3
  0
CIRCLE
  5
E6
  8
DATA
  6
CONTINUOUS
 62
     7
 10
-372.00000000003342
 20
188.0000000000295
 30
0.0
 40
1.399999999999977
  0
TEXT
  5
E7
  8
DATA
 62
     7
 10
-377.38102406016611
 20
179.98999994325601
 30
0.0
 40
3.031684072953392
  1
Link 2
 41
0.7
 11
-377.38102406016611
 21
183.02168401620941
 31
0.0
 73
     3
  0
TEXT
  5
E8
  8
DATA
 62
     7
 10
-377.95800214253251
 20
193.96034443859071
 30
0.0
 40
3.031684072953392
  1
Power
 41
0.7
 11
-377.95800214253251
 21
196.99202851154411
 31
0.0
 73
     3
  0
LINE
  5
E9
  8
DATA
  6
CONTINUOUS
 62
     7
 10
34.999999999966533
 20
282.0000000000295
 30
0.0
 11
-400.0000000000332
 21
282.0000000000295
 31
0.0
  0
LINE
  5
EA
  8
DATA
  6
CONTINUOUS
 62
     7
 10
34.999999999966533
 20
518.99999999995907
 30
0.0
 11
34.999999999966533
 21
474.99999999995941
 31
0.0
  0
LINE
  5
EB
  8
DATA
  6
CONTINUOUS
 62
     7
 10
-400.0000000000332
 20
518.99999999995907
 30
0.0
 11
34.999999999966533
 21
518.99999999995907
 31
0.0
  0
LINE
  5
EC
  8
DATA
  6
CONTINUOUS
 62
     7
 10
-400.0000000000332
 20
474.99999999995941
 30
0.0
 11
-400.0000000000332
 21
518.99999999995907
 31
0.0
  0
LINE
  5
ED
  8
DATA
  6
CONTINUOUS
 62
     7
 10
34.999999999966533
 20
474.99999999995941
 30
0.0
 11
-400.0000000000332
 21
474.99999999995941
 31
0.0
  0
LINE
  5
EE
  8
DATA
  6
CONTINUOUS
 62
     7
 10
16.030797643683471
 20
522.99999999995907
 30
0.0
 11
31.9692023562496
 21
522.99999999995907
 31
0.0
  0
LINE
  5
EF
  8
DATA
  6
CONTINUOUS
 62
     7
 10
32.999999999966541
 20
518.99999999995907
 30
0.0
 11
31.9692023562496
 21
522.99999999995907
 31
0.0
  0
LINE
  5
F0
  8
DATA
  6
CONTINUOUS
 62
     7
 10
14.99999999996653
 20
518.99999999995907
 30
0.0
 11
16.030797643683471
 21
522.99999999995907
 31
0.0
  0
LINE
  5
F1
  8
DATA
  6
CONTINUOUS
 62
     7
 10
-381.03079764375042
 20
522.99999999995907
 30
0.0
 11
-396.96920235631649
 21
522.99999999995907
 31
0.0
  0
LINE
  5
F2
  8
DATA
  6
CONTINUOUS
 62
     7
 10
-398.00000000003342
 20
518.99999999995907
 30
0.0
 11
-396.96920235631649
 21
522.99999999995907
 31
0.0
  0
LINE
  5
F3
  8
DATA
  6
CONTINUOUS
 62
     7
 10
-380.00000000003342
 20
518.99999999995907
 30
0.0
 11
-381.03079764375042
 21
522.99999999995907
 31
0.0
  0
CIRCLE
  5
F4
  8
DATA
  6
CONTINUOUS
 62
     7
 10
-321.94286032084739
 20
506.0770199026785
 30
0.0
 40
1.1750000000000671
  0
POLYLINE
  5
F5
  8
DATA
  6
CONTINUOUS
 62
     7
 66
     1
 10
0.0
 20
0.0
 30
0.0
 70
     1
  0
VERTEX
  5
C9A
  8
DATA
  6
CONTINUOUS
 62
     7
 10
-321.94286032084739
 20
503.3770199026784
 30
0.0
  0
VERTEX
  5
C9B
  8
DATA
  6
CONTINUOUS
 62
     7
 10
-319.60459173062941
 20
504.72701990267848
 30
0.0
  0
VERTEX
  5
C9C
  8
DATA
  6
CONTINUOUS
 62
     7
 10
-319.60459173062941
 20
507.42701990267852
 30
0.0
  0
VERTEX
  5
C9D
  8
DATA
  6
CONTINUOUS
 62
     7
 10
-321.94286032084739
 20
508.77701990267838
 30
0.0
  0
VERTEX
  5
C9E
  8
DATA
  6
CONTINUOUS
 62
     7
 10
-324.28112891106548
 20
507.42701990267852
 30
0.0
  0
VERTEX
  5
C9F
  8
DATA
  6
CONTINUOUS
 62
     7
 10
-324.28112891106548
 20
504.72701990267848
 30
0.0
  0
SEQEND
  5
CA0
  8
DATA
  6
CONTINUOUS
 62
     7
  0
CIRCLE
  5
FE
  8
DATA
  6
CONTINUOUS
 62
     7
 10
-354.44286032084761
 20
506.0770199026785
 30
0.0
 40
1.1750000000000671
  0
POLYLINE
  5
FF
  8
DATA
  6
CONTINUOUS
 62
     7
 66
     1
 10
0.0
 20
0.0
 30
0.0
 70
     1
  0
VERTEX
  5
CA1
  8
DATA
  6
CONTINUOUS
 62
     7
 10
-354.44286032084761
 20
503.3770199026784
 30
0.0
  0
VERTEX
  5
CA2
  8
DATA
  6
CONTINUOUS
 62
     7
 10
-352.10459173062958
 20
504.72701990267848
 30
0.0
  0
VERTEX
  5
CA3
  8
DATA
  6
CONTINUOUS
 62
     7
 10
-352.10459173062958
 20
507.42701990267852
 30
0.0
  0
VERTEX
  5
CA4
  8
DATA
  6
CONTINUOUS
 62
     7
 10
-354.44286032084761
 20
508.77701990267838
 30
0.0
  0
VERTEX
  5
CA5
  8
DATA
  6
CONTINUOUS
 62
     7
 10
-356.78112891106559
 20
507.42701990267852
 30
0.0
  0
VERTEX
  5
CA6
  8
DATA
  6
CONTINUOUS
 62
     7
 10
-356.78112891106559
 20
504.72701990267848
 30
0.0
  0
SEQEND
  5
CA7
  8
DATA
  6
CONTINUOUS
 62
     7
  0
LINE
  5
108
  8
DATA
  6
CONTINUOUS
 62
     7
 10
-327.24295543365599
 20
502.15201990267849
 30
0.0
 11
-349.14276520803929
 21
502.15201990267849
 31
0.0
  0
LINE
  5
109
  8
DATA
  6
CONTINUOUS
 62
     7
 10
-348.58384801058708
 20
510.00201990267851
 30
0.0
 11
-327.80187263110832
 21
510.00201990267851
 31
0.0
  0
POLYLINE
  5
10A
  8
DATA
  6
CONTINUOUS
 62
     7
 66
     1
 10
0.0
 20
0.0
 30
0.0
 70
     1
  0
VERTEX
  5
CA8
  8
DATA
  6
CONTINUOUS
 62
     7
 10
-328.72279414966852
 20
506.84201990267849
 30
0.0
  0
VERTEX
  5
CA9
  8
DATA
  6
CONTINUOUS
 62
     7
 10
-327.19279414966849
 20
506.84201990267849
 30
0.0
  0
VERTEX
  5
CAA
  8
DATA
  6
CONTINUOUS
 62
     7
 10
-327.19279414966849
 20
505.31201990267851
 30
0.0
  0
VERTEX
  5
CAB
  8
DATA
  6
CONTINUOUS
 62
     7
 10
-328.72279414966852
 20
505.31201990267851
 30
0.0
  0
SEQEND
  5
CAC
  8
DATA
  6
CONTINUOUS
 62
     7
  0
POLYLINE
  5
111
  8
DATA
  6
CONTINUOUS
 62
     7
 66
     1
 10
0.0
 20
0.0
 30
0.0
 70
     1
  0
VERTEX
  5
CAD
  8
DATA
  6
CONTINUOUS
 62
     7
 10
-330.72279414966857
 20
506.84201990267849
 30
0.0
  0
VERTEX
  5
CAE
  8
DATA
  6
CONTINUOUS
 62
     7
 10
-329.19279414966837
 20
506.84201990267849
 30
0.0
  0
VERTEX
  5
CAF
  8
DATA
  6
CONTINUOUS
 62
     7
 10
-329.19279414966837
 20
505.31201990267851
 30
0.0
  0
VERTEX
  5
CB0
  8
DATA
  6
CONTINUOUS
 62
     7
 10
-330.72279414966857
 20
505.31201990267851
 30
0.0
  0
SEQEND
  5
CB1
  8
DATA
  6
CONTINUOUS
 62
     7
  0
POLYLINE
  5
118
  8
DATA
  6
CONTINUOUS
 62
     7
 66
     1
 10
0.0
 20
0.0
 30
0.0
 70
     1
  0
VERTEX
  5
CB2
  8
DATA
  6
CONTINUOUS
 62
     7
 10
-332.72279414966818
 20
506.84201990267849
 30
0.0
  0
VERTEX
  5
CB3
  8
DATA
  6
CONTINUOUS
 62
     7
 10
-331.19279414966832
 20
506.84201990267849
 30
0.0
  0
VERTEX
  5
CB4
  8
DATA
  6
CONTINUOUS
 62
     7
 10
-331.19279414966832
 20
505.31201990267851
 30
0.0
  0
VERTEX
  5
CB5
  8
DATA
  6
CONTINUOUS
 62
     7
 10
-332.72279414966818
 20
505.31201990267851
 30
0.0
  0
SEQEND
  5
CB6
  8
DATA
  6
CONTINUOUS
 62
     7
  0
POLYLINE
  5
11F
  8
DATA
  6
CONTINUOUS
 62
     7
 66
     1
 10
0.0
 20
0.0
 30
0.0
 70
     1
  0
VERTEX
  5
CB7
  8
DATA
  6
CONTINUOUS
 62
     7
 10
-334.72279414966829
 20
506.84201990267849
 30
0.0
  0
VERTEX
  5
CB8
  8
DATA
  6
CONTINUOUS
 62
     7
 10
-333.19279414966832
 20
506.84201990267849
 30
0.0
  0
VERTEX
  5
CB9
  8
DATA
  6
CONTINUOUS
 62
     7
 10
-333.19279414966832
 20
505.31201990267851
 30
0.0
  0
VERTEX
  5
CBA
  8
DATA
  6
CONTINUOUS
 62
     7
 10
-334.72279414966829
 20
505.31201990267851
 30
0.0
  0
SEQEND
  5
CBB
  8
DATA
  6
CONTINUOUS
 62
     7
  0
POLYLINE
  5
126
  8
DATA
  6
CONTINUOUS
 62
     7
 66
     1
 10
0.0
 20
0.0
 30
0.0
 70
     1
  0
VERTEX
  5
CBC
  8
DATA
  6
CONTINUOUS
 62
     7
 10
-336.72279414966829
 20
506.84201990267849
 30
0.0
  0
VERTEX
  5
CBD
  8
DATA
  6
CONTINUOUS
 62
     7
 10
-335.19279414966832
 20
506.84201990267849
 30
0.0
  0
VERTEX
  5
CBE
  8
DATA
  6
CONTINUOUS
 62
     7
 10
-335.19279414966832
 20
505.31201990267851
 30
0.0
  0
VERTEX
  5
CBF
  8
DATA
  6
CONTINUOUS
 62
     7
 10
-336.72279414966829
 20
505.31201990267851
 30
0.0
  0
SEQEND
  5
CC0
  8
DATA
  6
CONTINUOUS
 62
     7
  0
POLYLINE
  5
12D
  8
DATA
  6
CONTINUOUS
 62
     7
 66
     1
 10
0.0
 20
0.0
 30
0.0
 70
     1
  0
VERTEX
  5
CC1
  8
DATA
  6
CONTINUOUS
 62
     7
 10
-338.72279414966829
 20
506.84201990267849
 30
0.0
  0
VERTEX
  5
CC2
  8
DATA
  6
CONTINUOUS
 62
     7
 10
-337.19279414966832
 20
506.84201990267849
 30
0.0
  0
VERTEX
  5
CC3
  8
DATA
  6
CONTINUOUS
 62
     7
 10
-337.19279414966832
 20
505.31201990267851
 30
0.0
  0
VERTEX
  5
CC4
  8
DATA
  6
CONTINUOUS
 62
     7
 10
-338.72279414966829
 20
505.31201990267851
 30
0.0
  0
SEQEND
  5
CC5
  8
DATA
  6
CONTINUOUS
 62
     7
  0
POLYLINE
  5
134
  8
DATA
  6
CONTINUOUS
 62
     7
 66
     1
 10
0.0
 20
0.0
 30
0.0
 70
     1
  0
VERTEX
  5
CC6
  8
DATA
  6
CONTINUOUS
 62
     7
 10
-340.72279414966818
 20
506.84201990267849
 30
0.0
  0
VERTEX
  5
CC7
  8
DATA
  6
CONTINUOUS
 62
     7
 10
-339.19279414966832
 20
506.84201990267849
 30
0.0
  0
VERTEX
  5
CC8
  8
DATA
  6
CONTINUOUS
 62
     7
 10
-339.19279414966832
 20
505.31201990267851
 30
0.0
  0
VERTEX
  5
CC9
  8
DATA
  6
CONTINUOUS
 62
     7
 10
-340.72279414966818
 20
505.31201990267851
 30
0.0
  0
SEQEND
  5
CCA
  8
DATA
  6
CONTINUOUS
 62
     7
  0
POLYLINE
  5
13B
  8
DATA
  6
CONTINUOUS
 62
     7
 66
     1
 10
0.0
 20
0.0
 30
0.0
 70
     1
  0
VERTEX
  5
CCB
  8
DATA
  6
CONTINUOUS
 62
     7
 10
-342.72279414966818
 20
506.84201990267849
 30
0.0
  0
VERTEX
  5
CCC
  8
DATA
  6
CONTINUOUS
 62
     7
 10
-341.19279414966832
 20
506.84201990267849
 30
0.0
  0
VERTEX
  5
CCD
  8
DATA
  6
CONTINUOUS
 62
     7
 10
-341.19279414966832
 20
505.31201990267851
 30
0.0
  0
VERTEX
  5
CCE
  8
DATA
  6
CONTINUOUS
 62
     7
 10
-342.72279414966818
 20
505.31201990267851
 30
0.0
  0
SEQEND
  5
CCF
  8
DATA
  6
CONTINUOUS
 62
     7
  0
POLYLINE
  5
142
  8
DATA
  6
CONTINUOUS
 62
     7
 66
     1
 10
0.0
 20
0.0
 30
0.0
 70
     1
  0
VERTEX
  5
CD0
  8
DATA
  6
CONTINUOUS
 62
     7
 10
-328.72279414966852
 20
504.84201990267849
 30
0.0
  0
VERTEX
  5
CD1
  8
DATA
  6
CONTINUOUS
 62
     7
 10
-327.19279414966849
 20
504.84201990267849
 30
0.0
  0
VERTEX
  5
CD2
  8
DATA
  6
CONTINUOUS
 62
     7
 10
-327.19279414966849
 20
503.31201990267851
 30
0.0
  0
VERTEX
  5
CD3
  8
DATA
  6
CONTINUOUS
 62
     7
 10
-328.72279414966852
 20
503.31201990267851
 30
0.0
  0
SEQEND
  5
CD4
  8
DATA
  6
CONTINUOUS
 62
     7
  0
POLYLINE
  5
149
  8
DATA
  6
CONTINUOUS
 62
     7
 66
     1
 10
0.0
 20
0.0
 30
0.0
 70
     1
  0
VERTEX
  5
CD5
  8
DATA
  6
CONTINUOUS
 62
     7
 10
-330.72279414966857
 20
504.84201990267849
 30
0.0
  0
VERTEX
  5
CD6
  8
DATA
  6
CONTINUOUS
 62
     7
 10
-329.19279414966837
 20
504.84201990267849
 30
0.0
  0
VERTEX
  5
CD7
  8
DATA
  6
CONTINUOUS
 62
     7
 10
-329.19279414966837
 20
503.31201990267851
 30
0.0
  0
VERTEX
  5
CD8
  8
DATA
  6
CONTINUOUS
 62
     7
 10
-330.72279414966857
 20
503.31201990267851
 30
0.0
  0
SEQEND
  5
CD9
  8
DATA
  6
CONTINUOUS
 62
     7
  0
POLYLINE
  5
150
  8
DATA
  6
CONTINUOUS
 62
     7
 66
     1
 10
0.0
 20
0.0
 30
0.0
 70
     1
  0
VERTEX
  5
CDA
  8
DATA
  6
CONTINUOUS
 62
     7
 10
-332.72279414966818
 20
504.84201990267849
 30
0.0
  0
VERTEX
  5
CDB
  8
DATA
  6
CONTINUOUS
 62
     7
 10
-331.19279414966832
 20
504.84201990267849
 30
0.0
  0
VERTEX
  5
CDC
  8
DATA
  6
CONTINUOUS
 62
     7
 10
-331.19279414966832
 20
503.31201990267851
 30
0.0
  0
VERTEX
  5
CDD
  8
DATA
  6
CONTINUOUS
 62
     7
 10
-332.72279414966818
 20
503.31201990267851
 30
0.0
  0
SEQEND
  5
CDE
  8
DATA
  6
CONTINUOUS
 62
     7
  0
POLYLINE
  5
157
  8
DATA
  6
CONTINUOUS
 62
     7
 66
     1
 10
0.0
 20
0.0
 30
0.0
 70
     1
  0
VERTEX
  5
CDF
  8
DATA
  6
CONTINUOUS
 62
     7
 10
-334.72279414966829
 20
504.84201990267849
 30
0.0
  0
VERTEX
  5
CE0
  8
DATA
  6
CONTINUOUS
 62
     7
 10
-333.19279414966832
 20
504.84201990267849
 30
0.0
  0
VERTEX
  5
CE1
  8
DATA
  6
CONTINUOUS
 62
     7
 10
-333.19279414966832
 20
503.31201990267851
 30
0.0
  0
VERTEX
  5
CE2
  8
DATA
  6
CONTINUOUS
 62
     7
 10
-334.72279414966829
 20
503.31201990267851
 30
0.0
  0
SEQEND
  5
CE3
  8
DATA
  6
CONTINUOUS
 62
     7
  0
POLYLINE
  5
15E
  8
DATA
  6
CONTINUOUS
 62
     7
 66
     1
 10
0.0
 20
0.0
 30
0.0
 70
     1
  0
VERTEX
  5
CE4
  8
DATA
  6
CONTINUOUS
 62
     7
 10
-336.72279414966829
 20
504.84201990267849
 30
0.0
  0
VERTEX
  5
CE5
  8
DATA
  6
CONTINUOUS
 62
     7
 10
-335.19279414966832
 20
504.84201990267849
 30
0.0
  0
VERTEX
  5
CE6
  8
DATA
  6
CONTINUOUS
 62
     7
 10
-335.19279414966832
 20
503.31201990267851
 30
0.0
  0
VERTEX
  5
CE7
  8
DATA
  6
CONTINUOUS
 62
     7
 10
-336.72279414966829
 20
503.31201990267851
 30
0.0
  0
SEQEND
  5
CE8
  8
DATA
  6
CONTINUOUS
 62
     7
  0
POLYLINE
  5
165
  8
DATA
  6
CONTINUOUS
 62
     7
 66
     1
 10
0.0
 20
0.0
 30
0.0
 70
     1
  0
VERTEX
  5
CE9
  8
DATA
  6
CONTINUOUS
 62
     7
 10
-338.72279414966829
 20
504.84201990267849
 30
0.0
  0
VERTEX
  5
CEA
  8
DATA
  6
CONTINUOUS
 62
     7
 10
-337.19279414966832
 20
504.84201990267849
 30
0.0
  0
VERTEX
  5
CEB
  8
DATA
  6
CONTINUOUS
 62
     7
 10
-337.19279414966832
 20
503.31201990267851
 30
0.0
  0
VERTEX
  5
CEC
  8
DATA
  6
CONTINUOUS
 62
     7
 10
-338.72279414966829
 20
503.31201990267851
 30
0.0
  0
SEQEND
  5
CED
  8
DATA
  6
CONTINUOUS
 62
     7
  0
POLYLINE
  5
16C
  8
DATA
  6
CONTINUOUS
 62
     7
 66
     1
 10
0.0
 20
0.0
 30
0.0
 70
     1
  0
VERTEX
  5
CEE
  8
DATA
  6
CONTINUOUS
 62
     7
 10
-340.72279414966818
 20
504.84201990267849
 30
0.0
  0
VERTEX
  5
CEF
  8
DATA
  6
CONTINUOUS
 62
     7
 10
-339.19279414966832
 20
504.84201990267849
 30
0.0
  0
VERTEX
  5
CF0
  8
DATA
  6
CONTINUOUS
 62
     7
 10
-339.19279414966832
 20
503.31201990267851
 30
0.0
  0
VERTEX
  5
CF1
  8
DATA
  6
CONTINUOUS
 62
     7
 10
-340.72279414966818
 20
503.31201990267851
 30
0.0
  0
SEQEND
  5
CF2
  8
DATA
  6
CONTINUOUS
 62
     7
  0
POLYLINE
  5
173
  8
DATA
  6
CONTINUOUS
 62
     7
 66
     1
 10
0.0
 20
0.0
 30
0.0
 70
     1
  0
VERTEX
  5
CF3
  8
DATA
  6
CONTINUOUS
 62
     7
 10
-342.72279414966818
 20
504.84201990267849
 30
0.0
  0
VERTEX
  5
CF4
  8
DATA
  6
CONTINUOUS
 62
     7
 10
-341.19279414966832
 20
504.84201990267849
 30
0.0
  0
VERTEX
  5
CF5
  8
DATA
  6
CONTINUOUS
 62
     7
 10
-341.19279414966832
 20
503.31201990267851
 30
0.0
  0
VERTEX
  5
CF6
  8
DATA
  6
CONTINUOUS
 62
     7
 10
-342.72279414966818
 20
503.31201990267851
 30
0.0
  0
SEQEND
  5
CF7
  8
DATA
  6
CONTINUOUS
 62
     7
  0
POLYLINE
  5
17A
  8
DATA
  6
CONTINUOUS
 62
     7
 66
     1
 10
0.0
 20
0.0
 30
0.0
 70
     1
  0
VERTEX
  5
CF8
  8
DATA
  6
CONTINUOUS
 62
     7
 10
-328.72279414966852
 20
508.84201990267849
 30
0.0
  0
VERTEX
  5
CF9
  8
DATA
  6
CONTINUOUS
 62
     7
 10
-327.19279414966849
 20
508.84201990267849
 30
0.0
  0
VERTEX
  5
CFA
  8
DATA
  6
CONTINUOUS
 62
     7
 10
-327.19279414966849
 20
507.31201990267851
 30
0.0
  0
VERTEX
  5
CFB
  8
DATA
  6
CONTINUOUS
 62
     7
 10
-328.72279414966852
 20
507.31201990267851
 30
0.0
  0
SEQEND
  5
CFC
  8
DATA
  6
CONTINUOUS
 62
     7
  0
POLYLINE
  5
181
  8
DATA
  6
CONTINUOUS
 62
     7
 66
     1
 10
0.0
 20
0.0
 30
0.0
 70
     1
  0
VERTEX
  5
CFD
  8
DATA
  6
CONTINUOUS
 62
     7
 10
-330.72279414966857
 20
508.84201990267849
 30
0.0
  0
VERTEX
  5
CFE
  8
DATA
  6
CONTINUOUS
 62
     7
 10
-329.19279414966837
 20
508.84201990267849
 30
0.0
  0
VERTEX
  5
CFF
  8
DATA
  6
CONTINUOUS
 62
     7
 10
-329.19279414966837
 20
507.31201990267851
 30
0.0
  0
VERTEX
  5
D00
  8
DATA
  6
CONTINUOUS
 62
     7
 10
-330.72279414966857
 20
507.31201990267851
 30
0.0
  0
SEQEND
  5
D01
  8
DATA
  6
CONTINUOUS
 62
     7
  0
POLYLINE
  5
188
  8
DATA
  6
CONTINUOUS
 62
     7
 66
     1
 10
0.0
 20
0.0
 30
0.0
 70
     1
  0
VERTEX
  5
D02
  8
DATA
  6
CONTINUOUS
 62
     7
 10
-332.72279414966818
 20
508.84201990267849
 30
0.0
  0
VERTEX
  5
D03
  8
DATA
  6
CONTINUOUS
 62
     7
 10
-331.19279414966832
 20
508.84201990267849
 30
0.0
  0
VERTEX
  5
D04
  8
DATA
  6
CONTINUOUS
 62
     7
 10
-331.19279414966832
 20
507.31201990267851
 30
0.0
  0
VERTEX
  5
D05
  8
DATA
  6
CONTINUOUS
 62
     7
 10
-332.72279414966818
 20
507.31201990267851
 30
0.0
  0
SEQEND
  5
D06
  8
DATA
  6
CONTINUOUS
 62
     7
  0
POLYLINE
  5
18F
  8
DATA
  6
CONTINUOUS
 62
     7
 66
     1
 10
0.0
 20
0.0
 30
0.0
 70
     1
  0
VERTEX
  5
D07
  8
DATA
  6
CONTINUOUS
 62
     7
 10
-334.72279414966829
 20
508.84201990267849
 30
0.0
  0
VERTEX
  5
D08
  8
DATA
  6
CONTINUOUS
 62
     7
 10
-333.19279414966832
 20
508.84201990267849
 30
0.0
  0
VERTEX
  5
D09
  8
DATA
  6
CONTINUOUS
 62
     7
 10
-333.19279414966832
 20
507.31201990267851
 30
0.0
  0
VERTEX
  5
D0A
  8
DATA
  6
CONTINUOUS
 62
     7
 10
-334.72279414966829
 20
507.31201990267851
 30
0.0
  0
SEQEND
  5
D0B
  8
DATA
  6
CONTINUOUS
 62
     7
  0
POLYLINE
  5
196
  8
DATA
  6
CONTINUOUS
 62
     7
 66
     1
 10
0.0
 20
0.0
 30
0.0
 70
     1
  0
VERTEX
  5
D0C
  8
DATA
  6
CONTINUOUS
 62
     7
 10
-336.72279414966829
 20
508.84201990267849
 30
0.0
  0
VERTEX
  5
D0D
  8
DATA
  6
CONTINUOUS
 62
     7
 10
-335.19279414966832
 20
508.84201990267849
 30
0.0
  0
VERTEX
  5
D0E
  8
DATA
  6
CONTINUOUS
 62
     7
 10
-335.19279414966832
 20
507.31201990267851
 30
0.0
  0
VERTEX
  5
D0F
  8
DATA
  6
CONTINUOUS
 62
     7
 10
-336.72279414966829
 20
507.31201990267851
 30
0.0
  0
SEQEND
  5
D10
  8
DATA
  6
CONTINUOUS
 62
     7
  0
POLYLINE
  5
19D
  8
DATA
  6
CONTINUOUS
 62
     7
 66
     1
 10
0.0
 20
0.0
 30
0.0
 70
     1
  0
VERTEX
  5
D11
  8
DATA
  6
CONTINUOUS
 62
     7
 10
-338.72279414966829
 20
508.84201990267849
 30
0.0
  0
VERTEX
  5
D12
  8
DATA
  6
CONTINUOUS
 62
     7
 10
-337.19279414966832
 20
508.84201990267849
 30
0.0
  0
VERTEX
  5
D13
  8
DATA
  6
CONTINUOUS
 62
     7
 10
-337.19279414966832
 20
507.31201990267851
 30
0.0
  0
VERTEX
  5
D14
  8
DATA
  6
CONTINUOUS
 62
     7
 10
-338.72279414966829
 20
507.31201990267851
 30
0.0
  0
SEQEND
  5
D15
  8
DATA
  6
CONTINUOUS
 62
     7
  0
POLYLINE
  5
1A4
  8
DATA
  6
CONTINUOUS
 62
     7
 66
     1
 10
0.0
 20
0.0
 30
0.0
 70
     1
  0
VERTEX
  5
D16
  8
DATA
  6
CONTINUOUS
 62
     7
 10
-340.72279414966818
 20
508.84201990267849
 30
0.0
  0
VERTEX
  5
D17
  8
DATA
  6
CONTINUOUS
 62
     7
 10
-339.19279414966832
 20
508.84201990267849
 30
0.0
  0
VERTEX
  5
D18
  8
DATA
  6
CONTINUOUS
 62
     7
 10
-339.19279414966832
 20
507.31201990267851
 30
0.0
  0
VERTEX
  5
D19
  8
DATA
  6
CONTINUOUS
 62
     7
 10
-340.72279414966818
 20
507.31201990267851
 30
0.0
  0
SEQEND
  5
D1A
  8
DATA
  6
CONTINUOUS
 62
     7
  0
POLYLINE
  5
1AB
  8
DATA
  6
CONTINUOUS
 62
     7
 66
     1
 10
0.0
 20
0.0
 30
0.0
 70
     1
  0
VERTEX
  5
D1B
  8
DATA
  6
CONTINUOUS
 62
     7
 10
-342.72279414966818
 20
508.84201990267849
 30
0.0
  0
VERTEX
  5
D1C
  8
DATA
  6
CONTINUOUS
 62
     7
 10
-341.19279414966832
 20
508.84201990267849
 30
0.0
  0
VERTEX
  5
D1D
  8
DATA
  6
CONTINUOUS
 62
     7
 10
-341.19279414966832
 20
507.31201990267851
 30
0.0
  0
VERTEX
  5
D1E
  8
DATA
  6
CONTINUOUS
 62
     7
 10
-342.72279414966818
 20
507.31201990267851
 30
0.0
  0
SEQEND
  5
D1F
  8
DATA
  6
CONTINUOUS
 62
     7
  0
POLYLINE
  5
1B2
  8
DATA
  6
CONTINUOUS
 62
     7
 66
     1
 10
0.0
 20
0.0
 30
0.0
  0
VERTEX
  5
D20
  8
DATA
  6
CONTINUOUS
 62
     7
 10
-346.74286032084763
 20
505.67701990267852
 30
0.0
  0
VERTEX
  5
D21
  8
DATA
  6
CONTINUOUS
 62
     7
 10
-348.84286032084759
 20
505.67701990267852
 30
0.0
  0
VERTEX
  5
D22
  8
DATA
  6
CONTINUOUS
 62
     7
 10
-348.84286032084759
 20
506.47701990267848
 30
0.0
  0
VERTEX
  5
D23
  8
DATA
  6
CONTINUOUS
 62
     7
 10
-346.74286032084763
 20
506.47701990267848
 30
0.0
  0
SEQEND
  5
D24
  8
DATA
  6
CONTINUOUS
 62
     7
  0
POLYLINE
  5
1B9
  8
DATA
  6
CONTINUOUS
 62
     7
 66
     1
 10
0.0
 20
0.0
 30
0.0
  0
VERTEX
  5
D25
  8
DATA
  6
CONTINUOUS
 62
     7
 10
-345.94286032084779
 20
506.47701990267848
 30
0.0
  0
VERTEX
  5
D26
  8
DATA
  6
CONTINUOUS
 62
     7
 10
-343.84286032084759
 20
506.47701990267848
 30
0.0
  0
VERTEX
  5
D27
  8
DATA
  6
CONTINUOUS
 62
     7
 10
-343.84286032084759
 20
505.67701990267852
 30
0.0
  0
VERTEX
  5
D28
  8
DATA
  6
CONTINUOUS
 62
     7
 10
-345.94286032084779
 20
505.67701990267852
 30
0.0
  0
SEQEND
  5
D29
  8
DATA
  6
CONTINUOUS
 62
     7
  0
POLYLINE
  5
1C0
  8
DATA
  6
CONTINUOUS
 62
     7
 66
     1
 10
0.0
 20
0.0
 30
0.0
  0
VERTEX
  5
D2A
  8
DATA
  6
CONTINUOUS
 62
     7
 10
-346.74286032084763
 20
506.47701990267848
 30
0.0
  0
VERTEX
  5
D2B
  8
DATA
  6
CONTINUOUS
 62
     7
 10
-346.74286032084763
 20
508.5770199026785
 30
0.0
  0
VERTEX
  5
D2C
  8
DATA
  6
CONTINUOUS
 62
     7
 10
-345.94286032084779
 20
508.5770199026785
 30
0.0
  0
VERTEX
  5
D2D
  8
DATA
  6
CONTINUOUS
 62
     7
 10
-345.94286032084779
 20
506.47701990267848
 30
0.0
  0
SEQEND
  5
D2E
  8
DATA
  6
CONTINUOUS
 62
     7
  0
POLYLINE
  5
1C7
  8
DATA
  6
CONTINUOUS
 62
     7
 66
     1
 10
0.0
 20
0.0
 30
0.0
  0
VERTEX
  5
D2F
  8
DATA
  6
CONTINUOUS
 62
     7
 10
-345.94286032084779
 20
505.67701990267852
 30
0.0
  0
VERTEX
  5
D30
  8
DATA
  6
CONTINUOUS
 62
     7
 10
-345.94286032084779
 20
503.57701990267827
 30
0.0
  0
VERTEX
  5
D31
  8
DATA
  6
CONTINUOUS
 62
     7
 10
-346.74286032084763
 20
503.57701990267827
 30
0.0
  0
VERTEX
  5
D32
  8
DATA
  6
CONTINUOUS
 62
     7
 10
-346.74286032084763
 20
505.67701990267852
 30
0.0
  0
SEQEND
  5
D33
  8
DATA
  6
CONTINUOUS
 62
     7
  0
POLYLINE
  5
1CE
  8
DATA
  6
CONTINUOUS
 62
     7
 66
     1
 10
0.0
 20
0.0
 30
0.0
 70
     1
  0
VERTEX
  5
D34
  8
DATA
  6
CONTINUOUS
 62
     7
 10
-345.48257589037593
 20
505.31759209202858
 30
0.0
  0
VERTEX
  5
D35
  8
DATA
  6
CONTINUOUS
 62
     7
 10
-344.48257589037593
 20
505.31759209202858
 30
0.0
  0
VERTEX
  5
D36
  8
DATA
  6
CONTINUOUS
 62
     7
 10
-344.48257589037593
 20
504.31759209202852
 30
0.0
  0
VERTEX
  5
D37
  8
DATA
  6
CONTINUOUS
 62
     7
 10
-345.48257589037593
 20
504.31759209202852
 30
0.0
  0
SEQEND
  5
D38
  8
DATA
  6
CONTINUOUS
 62
     7
  0
POLYLINE
  5
1D5
  8
DATA
  6
CONTINUOUS
 62
     7
 66
     1
 10
0.0
 20
0.0
 30
0.0
 70
     1
  0
VERTEX
  5
D39
  8
DATA
  6
CONTINUOUS
 62
     7
 10
-348.20314475131943
 20
505.31759209202858
 30
0.0
  0
VERTEX
  5
D3A
  8
DATA
  6
CONTINUOUS
 62
     7
 10
-347.20314475131943
 20
505.31759209202858
 30
0.0
  0
VERTEX
  5
D3B
  8
DATA
  6
CONTINUOUS
 62
     7
 10
-347.20314475131943
 20
504.31759209202852
 30
0.0
  0
VERTEX
  5
D3C
  8
DATA
  6
CONTINUOUS
 62
     7
 10
-348.20314475131943
 20
504.31759209202852
 30
0.0
  0
SEQEND
  5
D3D
  8
DATA
  6
CONTINUOUS
 62
     7
  0
POLYLINE
  5
1DC
  8
DATA
  6
CONTINUOUS
 62
     7
 66
     1
 10
0.0
 20
0.0
 30
0.0
 70
     1
  0
VERTEX
  5
D3E
  8
DATA
  6
CONTINUOUS
 62
     7
 10
-345.48257589037593
 20
507.83644771332843
 30
0.0
  0
VERTEX
  5
D3F
  8
DATA
  6
CONTINUOUS
 62
     7
 10
-344.48257589037593
 20
507.83644771332843
 30
0.0
  0
VERTEX
  5
D40
  8
DATA
  6
CONTINUOUS
 62
     7
 10
-344.48257589037593
 20
506.83644771332843
 30
0.0
  0
VERTEX
  5
D41
  8
DATA
  6
CONTINUOUS
 62
     7
 10
-345.48257589037593
 20
506.83644771332843
 30
0.0
  0
SEQEND
  5
D42
  8
DATA
  6
CONTINUOUS
 62
     7
  0
POLYLINE
  5
1E3
  8
DATA
  6
CONTINUOUS
 62
     7
 66
     1
 10
0.0
 20
0.0
 30
0.0
 70
     1
  0
VERTEX
  5
D43
  8
DATA
  6
CONTINUOUS
 62
     7
 10
-348.20314475131943
 20
507.83644771332843
 30
0.0
  0
VERTEX
  5
D44
  8
DATA
  6
CONTINUOUS
 62
     7
 10
-347.20314475131943
 20
507.83644771332843
 30
0.0
  0
VERTEX
  5
D45
  8
DATA
  6
CONTINUOUS
 62
     7
 10
-347.20314475131943
 20
506.83644771332843
 30
0.0
  0
VERTEX
  5
D46
  8
DATA
  6
CONTINUOUS
 62
     7
 10
-348.20314475131943
 20
506.83644771332843
 30
0.0
  0
SEQEND
  5
D47
  8
DATA
  6
CONTINUOUS
 62
     7
  0
LINE
  5
1EA
  8
DATA
  6
CONTINUOUS
 62
     7
 10
-326.24748850290052
 20
503.24712820816472
 30
0.0
 11
-326.8064057003528
 21
509.0971282081648
 31
0.0
  0
LINE
  5
1EB
  8
DATA
  6
CONTINUOUS
 62
     7
 10
-350.13823213879482
 20
503.24712820816472
 30
0.0
 11
-349.57931494134249
 21
509.09712820816452
 31
0.0
  0
ARC
  5
1EC
  8
DATA
  6
CONTINUOUS
 62
     7
 10
-327.24295543365599
 20
503.15201990267832
 30
0.0
 40
0.9999999999998864
 50
270.0
 51
5.4575534851103358
  0
ARC
  5
1ED
  8
DATA
  6
CONTINUOUS
 62
     7
 10
-349.14276520803929
 20
503.15201990267849
 30
0.0
 40
0.9999999999999703
 50
174.54244651489549
 51
270.0
  0
ARC
  5
1EE
  8
DATA
  6
CONTINUOUS
 62
     7
 10
-327.80187263110838
 20
509.00201990267851
 30
0.0
 40
1.000000000000093
 50
5.4575534851103331
 51
89.999999999993477
  0
ARC
  5
1EF
  8
DATA
  6
CONTINUOUS
 62
     7
 10
-348.58384801058708
 20
509.00201990267851
 30
0.0
 40
1.0
 50
90.0
 51
174.54244651489549
  0
TEXT
  5
1F0
  8
DATA
 62
     7
 10
-327.44866163005838
 20
516.98780444287377
 30
0.0
 40
3.121945529513888
  1
DVI In 2 
 50
180.0
 41
0.7
 11
-327.44866163005838
 21
513.86585891335994
 31
0.0
 73
     3
  0
LINE
  5
1F1
  8
DATA
  6
CONTINUOUS
 62
     7
 10
-285.92641014004619
 20
510.01931257987189
 30
0.0
 11
-285.92641014004619
 21
496.71931257987222
 31
0.0
  0
LINE
  5
1F2
  8
DATA
  6
CONTINUOUS
 62
     7
 10
-301.626410140046
 20
510.01931257987189
 30
0.0
 11
-301.626410140046
 21
496.71931257987222
 31
0.0
  0
LINE
  5
1F3
  8
DATA
  6
CONTINUOUS
 62
     7
 10
-301.626410140046
 20
496.71931257987222
 30
0.0
 11
-285.92641014004619
 21
496.71931257987222
 31
0.0
  0
LINE
  5
1F4
  8
DATA
  6
CONTINUOUS
 62
     7
 10
-301.626410140046
 20
510.01931257987189
 30
0.0
 11
-285.92641014004619
 21
510.01931257987189
 31
0.0
  0
LINE
  5
1F5
  8
DATA
  6
CONTINUOUS
 62
     7
 10
-299.92641014004619
 20
507.01931257987189
 30
0.0
 11
-287.62641014004612
 21
507.01931257987189
 31
0.0
  0
LINE
  5
1F6
  8
DATA
  6
CONTINUOUS
 62
     7
 10
-299.92641014004619
 20
507.01931257987189
 30
0.0
 11
-299.92641014004619
 21
499.71931257987222
 31
0.0
  0
LINE
  5
1F7
  8
DATA
  6
CONTINUOUS
 62
     7
 10
-287.62641014004612
 20
507.01931257987189
 30
0.0
 11
-287.62641014004612
 21
499.71931257987222
 31
0.0
  0
LINE
  5
1F8
  8
DATA
  6
CONTINUOUS
 62
     7
 10
-296.001410140046
 20
496.71931257987222
 30
0.0
 11
-296.001410140046
 21
498.21931257987222
 31
0.0
  0
LINE
  5
1F9
  8
DATA
  6
CONTINUOUS
 62
     7
 10
-291.55141014004619
 20
498.21931257987222
 30
0.0
 11
-291.55141014004619
 21
496.71931257987222
 31
0.0
  0
LINE
  5
1FA
  8
DATA
  6
CONTINUOUS
 62
     7
 10
-297.12641014004612
 20
498.21931257987222
 30
0.0
 11
-296.001410140046
 21
498.21931257987222
 31
0.0
  0
LINE
  5
1FB
  8
DATA
  6
CONTINUOUS
 62
     7
 10
-291.55141014004619
 20
498.21931257987222
 30
0.0
 11
-290.42641014004619
 21
498.21931257987222
 31
0.0
  0
LINE
  5
1FC
  8
DATA
  6
CONTINUOUS
 62
     7
 10
-299.92641014004619
 20
499.71931257987222
 30
0.0
 11
-297.12641014004612
 21
499.71931257987222
 31
0.0
  0
LINE
  5
1FD
  8
DATA
  6
CONTINUOUS
 62
     7
 10
-290.42641014004619
 20
499.71931257987222
 30
0.0
 11
-287.62641014004612
 21
499.71931257987222
 31
0.0
  0
LINE
  5
1FE
  8
DATA
  6
CONTINUOUS
 62
     7
 10
-297.12641014004612
 20
498.21931257987222
 30
0.0
 11
-297.12641014004612
 21
499.71931257987222
 31
0.0
  0
LINE
  5
1FF
  8
DATA
  6
CONTINUOUS
 62
     7
 10
-290.42641014004619
 20
499.71931257987222
 30
0.0
 11
-290.42641014004619
 21
498.21931257987222
 31
0.0
  0
TEXT
  5
200
  8
DATA
 62
     7
 10
-286.72843468445109
 20
515.65038842341585
 30
0.0
 40
3.121945529513888
  1
Video 2
 50
180.0
 41
0.7
 11
-286.72843468445109
 21
512.52844289390202
 31
0.0
 73
     3
  0
TEXT
  5
201
  8
DATA
 62
     7
 10
-288.43804133031648
 20
495.46714062544459
 30
0.0
 40
3.121945529513888
  1
CAT-6 
 50
180.0
 41
0.7
 11
-288.43804133031648
 21
492.34519509593071
 31
0.0
 73
     3
  0
CIRCLE
  5
202
  8
DATA
  6
CONTINUOUS
 62
     7
 10
-381.00000000003342
 20
500.9999999999593
 30
0.0
 40
3.899999999999975
  0
POLYLINE
  5
203
  8
DATA
  6
CONTINUOUS
 62
     7
 66
     1
 10
0.0
 20
0.0
 30
0.0
 70
     1
  0
VERTEX
  5
D48
  8
DATA
  6
CONTINUOUS
 62
     7
 10
-380.63000000003342
 20
505.98629120685871
 30
0.0
  0
VERTEX
  5
D49
  8
DATA
  6
CONTINUOUS
 62
     7
 10
-385.13325485587518
 20
503.81357500280922
 30
0.0
  0
VERTEX
  5
D4A
  8
DATA
  6
CONTINUOUS
 62
     7
 10
-385.5032548558753
 20
498.82728379590958
 30
0.0
  0
VERTEX
  5
D4B
  8
DATA
  6
CONTINUOUS
 62
     7
 10
-381.37000000003331
 20
496.01370879305989
 30
0.0
  0
VERTEX
  5
D4C
  8
DATA
  6
CONTINUOUS
 62
     7
 10
-376.86674514419161
 20
498.18642499710921
 30
0.0
  0
VERTEX
  5
D4D
  8
DATA
  6
CONTINUOUS
 62
     7
 10
-376.49674514419161
 20
503.17271620400879
 30
0.0
  0
SEQEND
  5
D4E
  8
DATA
  6
CONTINUOUS
 62
     7
  0
CIRCLE
  5
20C
  8
DATA
  6
CONTINUOUS
 62
     7
 10
-381.00000000003342
 20
500.9999999999593
 30
0.0
 40
1.0
  0
TEXT
  5
20D
  8
DATA
 62
     7
 10
-376.01795850865477
 20
516.94265998164201
 30
0.0
 40
3.121945529513888
  1
5V DC
 50
180.0
 41
0.7
 11
-376.01795850865477
 21
513.82071445212796
 31
0.0
 73
     3
  0
CIRCLE
  5
20E
  8
DATA
  6
CONTINUOUS
 62
     7
 10
-149.9428603208473
 20
506.0770199026785
 30
0.0
 40
1.1750000000000951
  0
POLYLINE
  5
20F
  8
DATA
  6
CONTINUOUS
 62
     7
 66
     1
 10
0.0
 20
0.0
 30
0.0
 70
     1
  0
VERTEX
  5
D4F
  8
DATA
  6
CONTINUOUS
 62
     7
 10
-149.9428603208473
 20
503.3770199026784
 30
0.0
  0
VERTEX
  5
D50
  8
DATA
  6
CONTINUOUS
 62
     7
 10
-147.60459173062941
 20
504.72701990267848
 30
0.0
  0
VERTEX
  5
D51
  8
DATA
  6
CONTINUOUS
 62
     7
 10
-147.60459173062941
 20
507.42701990267852
 30
0.0
  0
VERTEX
  5
D52
  8
DATA
  6
CONTINUOUS
 62
     7
 10
-149.9428603208473
 20
508.77701990267838
 30
0.0
  0
VERTEX
  5
D53
  8
DATA
  6
CONTINUOUS
 62
     7
 10
-152.28112891106551
 20
507.42701990267852
 30
0.0
  0
VERTEX
  5
D54
  8
DATA
  6
CONTINUOUS
 62
     7
 10
-152.28112891106551
 20
504.72701990267848
 30
0.0
  0
SEQEND
  5
D55
  8
DATA
  6
CONTINUOUS
 62
     7
  0
CIRCLE
  5
218
  8
DATA
  6
CONTINUOUS
 62
     7
 10
-182.44286032084759
 20
506.0770199026785
 30
0.0
 40
1.1750000000000671
  0
POLYLINE
  5
219
  8
DATA
  6
CONTINUOUS
 62
     7
 66
     1
 10
0.0
 20
0.0
 30
0.0
 70
     1
  0
VERTEX
  5
D56
  8
DATA
  6
CONTINUOUS
 62
     7
 10
-182.44286032084759
 20
503.3770199026784
 30
0.0
  0
VERTEX
  5
D57
  8
DATA
  6
CONTINUOUS
 62
     7
 10
-180.10459173062961
 20
504.72701990267848
 30
0.0
  0
VERTEX
  5
D58
  8
DATA
  6
CONTINUOUS
 62
     7
 10
-180.10459173062961
 20
507.42701990267852
 30
0.0
  0
VERTEX
  5
D59
  8
DATA
  6
CONTINUOUS
 62
     7
 10
-182.44286032084759
 20
508.77701990267838
 30
0.0
  0
VERTEX
  5
D5A
  8
DATA
  6
CONTINUOUS
 62
     7
 10
-184.78112891106559
 20
507.42701990267852
 30
0.0
  0
VERTEX
  5
D5B
  8
DATA
  6
CONTINUOUS
 62
     7
 10
-184.78112891106559
 20
504.72701990267848
 30
0.0
  0
SEQEND
  5
D5C
  8
DATA
  6
CONTINUOUS
 62
     7
  0
LINE
  5
222
  8
DATA
  6
CONTINUOUS
 62
     7
 10
-155.24295543365599
 20
502.15201990267849
 30
0.0
 11
-177.14276520803929
 21
502.15201990267849
 31
0.0
  0
LINE
  5
223
  8
DATA
  6
CONTINUOUS
 62
     7
 10
-176.5838480105871
 20
510.00201990267851
 30
0.0
 11
-155.8018726311083
 21
510.00201990267851
 31
0.0
  0
POLYLINE
  5
224
  8
DATA
  6
CONTINUOUS
 62
     7
 66
     1
 10
0.0
 20
0.0
 30
0.0
 70
     1
  0
VERTEX
  5
D5D
  8
DATA
  6
CONTINUOUS
 62
     7
 10
-156.7227941496684
 20
506.84201990267849
 30
0.0
  0
VERTEX
  5
D5E
  8
DATA
  6
CONTINUOUS
 62
     7
 10
-155.1927941496684
 20
506.84201990267849
 30
0.0
  0
VERTEX
  5
D5F
  8
DATA
  6
CONTINUOUS
 62
     7
 10
-155.1927941496684
 20
505.31201990267851
 30
0.0
  0
VERTEX
  5
D60
  8
DATA
  6
CONTINUOUS
 62
     7
 10
-156.7227941496684
 20
505.31201990267851
 30
0.0
  0
SEQEND
  5
D61
  8
DATA
  6
CONTINUOUS
 62
     7
  0
POLYLINE
  5
22B
  8
DATA
  6
CONTINUOUS
 62
     7
 66
     1
 10
0.0
 20
0.0
 30
0.0
 70
     1
  0
VERTEX
  5
D62
  8
DATA
  6
CONTINUOUS
 62
     7
 10
-158.7227941496686
 20
506.84201990267849
 30
0.0
  0
VERTEX
  5
D63
  8
DATA
  6
CONTINUOUS
 62
     7
 10
-157.1927941496684
 20
506.84201990267849
 30
0.0
  0
VERTEX
  5
D64
  8
DATA
  6
CONTINUOUS
 62
     7
 10
-157.1927941496684
 20
505.31201990267851
 30
0.0
  0
VERTEX
  5
D65
  8
DATA
  6
CONTINUOUS
 62
     7
 10
-158.7227941496686
 20
505.31201990267851
 30
0.0
  0
SEQEND
  5
D66
  8
DATA
  6
CONTINUOUS
 62
     7
  0
POLYLINE
  5
232
  8
DATA
  6
CONTINUOUS
 62
     7
 66
     1
 10
0.0
 20
0.0
 30
0.0
 70
     1
  0
VERTEX
  5
D67
  8
DATA
  6
CONTINUOUS
 62
     7
 10
-160.72279414966809
 20
506.84201990267849
 30
0.0
  0
VERTEX
  5
D68
  8
DATA
  6
CONTINUOUS
 62
     7
 10
-159.19279414966829
 20
506.84201990267849
 30
0.0
  0
VERTEX
  5
D69
  8
DATA
  6
CONTINUOUS
 62
     7
 10
-159.19279414966829
 20
505.31201990267851
 30
0.0
  0
VERTEX
  5
D6A
  8
DATA
  6
CONTINUOUS
 62
     7
 10
-160.72279414966809
 20
505.31201990267851
 30
0.0
  0
SEQEND
  5
D6B
  8
DATA
  6
CONTINUOUS
 62
     7
  0
POLYLINE
  5
239
  8
DATA
  6
CONTINUOUS
 62
     7
 66
     1
 10
0.0
 20
0.0
 30
0.0
 70
     1
  0
VERTEX
  5
D6C
  8
DATA
  6
CONTINUOUS
 62
     7
 10
-162.72279414966809
 20
506.84201990267849
 30
0.0
  0
VERTEX
  5
D6D
  8
DATA
  6
CONTINUOUS
 62
     7
 10
-161.19279414966829
 20
506.84201990267849
 30
0.0
  0
VERTEX
  5
D6E
  8
DATA
  6
CONTINUOUS
 62
     7
 10
-161.19279414966829
 20
505.31201990267851
 30
0.0
  0
VERTEX
  5
D6F
  8
DATA
  6
CONTINUOUS
 62
     7
 10
-162.72279414966809
 20
505.31201990267851
 30
0.0
  0
SEQEND
  5
D70
  8
DATA
  6
CONTINUOUS
 62
     7
  0
POLYLINE
  5
240
  8
DATA
  6
CONTINUOUS
 62
     7
 66
     1
 10
0.0
 20
0.0
 30
0.0
 70
     1
  0
VERTEX
  5
D71
  8
DATA
  6
CONTINUOUS
 62
     7
 10
-164.72279414966809
 20
506.84201990267849
 30
0.0
  0
VERTEX
  5
D72
  8
DATA
  6
CONTINUOUS
 62
     7
 10
-163.19279414966829
 20
506.84201990267849
 30
0.0
  0
VERTEX
  5
D73
  8
DATA
  6
CONTINUOUS
 62
     7
 10
-163.19279414966829
 20
505.31201990267851
 30
0.0
  0
VERTEX
  5
D74
  8
DATA
  6
CONTINUOUS
 62
     7
 10
-164.72279414966809
 20
505.31201990267851
 30
0.0
  0
SEQEND
  5
D75
  8
DATA
  6
CONTINUOUS
 62
     7
  0
POLYLINE
  5
247
  8
DATA
  6
CONTINUOUS
 62
     7
 66
     1
 10
0.0
 20
0.0
 30
0.0
 70
     1
  0
VERTEX
  5
D76
  8
DATA
  6
CONTINUOUS
 62
     7
 10
-166.72279414966809
 20
506.84201990267849
 30
0.0
  0
VERTEX
  5
D77
  8
DATA
  6
CONTINUOUS
 62
     7
 10
-165.19279414966829
 20
506.84201990267849
 30
0.0
  0
VERTEX
  5
D78
  8
DATA
  6
CONTINUOUS
 62
     7
 10
-165.19279414966829
 20
505.31201990267851
 30
0.0
  0
VERTEX
  5
D79
  8
DATA
  6
CONTINUOUS
 62
     7
 10
-166.72279414966809
 20
505.31201990267851
 30
0.0
  0
SEQEND
  5
D7A
  8
DATA
  6
CONTINUOUS
 62
     7
  0
POLYLINE
  5
24E
  8
DATA
  6
CONTINUOUS
 62
     7
 66
     1
 10
0.0
 20
0.0
 30
0.0
 70
     1
  0
VERTEX
  5
D7B
  8
DATA
  6
CONTINUOUS
 62
     7
 10
-168.72279414966809
 20
506.84201990267849
 30
0.0
  0
VERTEX
  5
D7C
  8
DATA
  6
CONTINUOUS
 62
     7
 10
-167.19279414966829
 20
506.84201990267849
 30
0.0
  0
VERTEX
  5
D7D
  8
DATA
  6
CONTINUOUS
 62
     7
 10
-167.19279414966829
 20
505.31201990267851
 30
0.0
  0
VERTEX
  5
D7E
  8
DATA
  6
CONTINUOUS
 62
     7
 10
-168.72279414966809
 20
505.31201990267851
 30
0.0
  0
SEQEND
  5
D7F
  8
DATA
  6
CONTINUOUS
 62
     7
  0
POLYLINE
  5
255
  8
DATA
  6
CONTINUOUS
 62
     7
 66
     1
 10
0.0
 20
0.0
 30
0.0
 70
     1
  0
VERTEX
  5
D80
  8
DATA
  6
CONTINUOUS
 62
     7
 10
-170.72279414966809
 20
506.84201990267849
 30
0.0
  0
VERTEX
  5
D81
  8
DATA
  6
CONTINUOUS
 62
     7
 10
-169.19279414966829
 20
506.84201990267849
 30
0.0
  0
VERTEX
  5
D82
  8
DATA
  6
CONTINUOUS
 62
     7
 10
-169.19279414966829
 20
505.31201990267851
 30
0.0
  0
VERTEX
  5
D83
  8
DATA
  6
CONTINUOUS
 62
     7
 10
-170.72279414966809
 20
505.31201990267851
 30
0.0
  0
SEQEND
  5
D84
  8
DATA
  6
CONTINUOUS
 62
     7
  0
POLYLINE
  5
25C
  8
DATA
  6
CONTINUOUS
 62
     7
 66
     1
 10
0.0
 20
0.0
 30
0.0
 70
     1
  0
VERTEX
  5
D85
  8
DATA
  6
CONTINUOUS
 62
     7
 10
-156.7227941496684
 20
504.84201990267849
 30
0.0
  0
VERTEX
  5
D86
  8
DATA
  6
CONTINUOUS
 62
     7
 10
-155.1927941496684
 20
504.84201990267849
 30
0.0
  0
VERTEX
  5
D87
  8
DATA
  6
CONTINUOUS
 62
     7
 10
-155.1927941496684
 20
503.31201990267851
 30
0.0
  0
VERTEX
  5
D88
  8
DATA
  6
CONTINUOUS
 62
     7
 10
-156.7227941496684
 20
503.31201990267851
 30
0.0
  0
SEQEND
  5
D89
  8
DATA
  6
CONTINUOUS
 62
     7
  0
POLYLINE
  5
263
  8
DATA
  6
CONTINUOUS
 62
     7
 66
     1
 10
0.0
 20
0.0
 30
0.0
 70
     1
  0
VERTEX
  5
D8A
  8
DATA
  6
CONTINUOUS
 62
     7
 10
-158.7227941496686
 20
504.84201990267849
 30
0.0
  0
VERTEX
  5
D8B
  8
DATA
  6
CONTINUOUS
 62
     7
 10
-157.1927941496684
 20
504.84201990267849
 30
0.0
  0
VERTEX
  5
D8C
  8
DATA
  6
CONTINUOUS
 62
     7
 10
-157.1927941496684
 20
503.31201990267851
 30
0.0
  0
VERTEX
  5
D8D
  8
DATA
  6
CONTINUOUS
 62
     7
 10
-158.7227941496686
 20
503.31201990267851
 30
0.0
  0
SEQEND
  5
D8E
  8
DATA
  6
CONTINUOUS
 62
     7
  0
POLYLINE
  5
26A
  8
DATA
  6
CONTINUOUS
 62
     7
 66
     1
 10
0.0
 20
0.0
 30
0.0
 70
     1
  0
VERTEX
  5
D8F
  8
DATA
  6
CONTINUOUS
 62
     7
 10
-160.72279414966809
 20
504.84201990267849
 30
0.0
  0
VERTEX
  5
D90
  8
DATA
  6
CONTINUOUS
 62
     7
 10
-159.19279414966829
 20
504.84201990267849
 30
0.0
  0
VERTEX
  5
D91
  8
DATA
  6
CONTINUOUS
 62
     7
 10
-159.19279414966829
 20
503.31201990267851
 30
0.0
  0
VERTEX
  5
D92
  8
DATA
  6
CONTINUOUS
 62
     7
 10
-160.72279414966809
 20
503.31201990267851
 30
0.0
  0
SEQEND
  5
D93
  8
DATA
  6
CONTINUOUS
 62
     7
  0
POLYLINE
  5
271
  8
DATA
  6
CONTINUOUS
 62
     7
 66
     1
 10
0.0
 20
0.0
 30
0.0
 70
     1
  0
VERTEX
  5
D94
  8
DATA
  6
CONTINUOUS
 62
     7
 10
-162.72279414966809
 20
504.84201990267849
 30
0.0
  0
VERTEX
  5
D95
  8
DATA
  6
CONTINUOUS
 62
     7
 10
-161.19279414966829
 20
504.84201990267849
 30
0.0
  0
VERTEX
  5
D96
  8
DATA
  6
CONTINUOUS
 62
     7
 10
-161.19279414966829
 20
503.31201990267851
 30
0.0
  0
VERTEX
  5
D97
  8
DATA
  6
CONTINUOUS
 62
     7
 10
-162.72279414966809
 20
503.31201990267851
 30
0.0
  0
SEQEND
  5
D98
  8
DATA
  6
CONTINUOUS
 62
     7
  0
POLYLINE
  5
278
  8
DATA
  6
CONTINUOUS
 62
     7
 66
     1
 10
0.0
 20
0.0
 30
0.0
 70
     1
  0
VERTEX
  5
D99
  8
DATA
  6
CONTINUOUS
 62
     7
 10
-164.72279414966809
 20
504.84201990267849
 30
0.0
  0
VERTEX
  5
D9A
  8
DATA
  6
CONTINUOUS
 62
     7
 10
-163.19279414966829
 20
504.84201990267849
 30
0.0
  0
VERTEX
  5
D9B
  8
DATA
  6
CONTINUOUS
 62
     7
 10
-163.19279414966829
 20
503.31201990267851
 30
0.0
  0
VERTEX
  5
D9C
  8
DATA
  6
CONTINUOUS
 62
     7
 10
-164.72279414966809
 20
503.31201990267851
 30
0.0
  0
SEQEND
  5
D9D
  8
DATA
  6
CONTINUOUS
 62
     7
  0
POLYLINE
  5
27F
  8
DATA
  6
CONTINUOUS
 62
     7
 66
     1
 10
0.0
 20
0.0
 30
0.0
 70
     1
  0
VERTEX
  5
D9E
  8
DATA
  6
CONTINUOUS
 62
     7
 10
-166.72279414966809
 20
504.84201990267849
 30
0.0
  0
VERTEX
  5
D9F
  8
DATA
  6
CONTINUOUS
 62
     7
 10
-165.19279414966829
 20
504.84201990267849
 30
0.0
  0
VERTEX
  5
DA0
  8
DATA
  6
CONTINUOUS
 62
     7
 10
-165.19279414966829
 20
503.31201990267851
 30
0.0
  0
VERTEX
  5
DA1
  8
DATA
  6
CONTINUOUS
 62
     7
 10
-166.72279414966809
 20
503.31201990267851
 30
0.0
  0
SEQEND
  5
DA2
  8
DATA
  6
CONTINUOUS
 62
     7
  0
POLYLINE
  5
286
  8
DATA
  6
CONTINUOUS
 62
     7
 66
     1
 10
0.0
 20
0.0
 30
0.0
 70
     1
  0
VERTEX
  5
DA3
  8
DATA
  6
CONTINUOUS
 62
     7
 10
-168.72279414966809
 20
504.84201990267849
 30
0.0
  0
VERTEX
  5
DA4
  8
DATA
  6
CONTINUOUS
 62
     7
 10
-167.19279414966829
 20
504.84201990267849
 30
0.0
  0
VERTEX
  5
DA5
  8
DATA
  6
CONTINUOUS
 62
     7
 10
-167.19279414966829
 20
503.31201990267851
 30
0.0
  0
VERTEX
  5
DA6
  8
DATA
  6
CONTINUOUS
 62
     7
 10
-168.72279414966809
 20
503.31201990267851
 30
0.0
  0
SEQEND
  5
DA7
  8
DATA
  6
CONTINUOUS
 62
     7
  0
POLYLINE
  5
28D
  8
DATA
  6
CONTINUOUS
 62
     7
 66
     1
 10
0.0
 20
0.0
 30
0.0
 70
     1
  0
VERTEX
  5
DA8
  8
DATA
  6
CONTINUOUS
 62
     7
 10
-170.72279414966809
 20
504.84201990267849
 30
0.0
  0
VERTEX
  5
DA9
  8
DATA
  6
CONTINUOUS
 62
     7
 10
-169.19279414966829
 20
504.84201990267849
 30
0.0
  0
VERTEX
  5
DAA
  8
DATA
  6
CONTINUOUS
 62
     7
 10
-169.19279414966829
 20
503.31201990267851
 30
0.0
  0
VERTEX
  5
DAB
  8
DATA
  6
CONTINUOUS
 62
     7
 10
-170.72279414966809
 20
503.31201990267851
 30
0.0
  0
SEQEND
  5
DAC
  8
DATA
  6
CONTINUOUS
 62
     7
  0
POLYLINE
  5
294
  8
DATA
  6
CONTINUOUS
 62
     7
 66
     1
 10
0.0
 20
0.0
 30
0.0
 70
     1
  0
VERTEX
  5
DAD
  8
DATA
  6
CONTINUOUS
 62
     7
 10
-156.7227941496684
 20
508.84201990267849
 30
0.0
  0
VERTEX
  5
DAE
  8
DATA
  6
CONTINUOUS
 62
     7
 10
-155.1927941496684
 20
508.84201990267849
 30
0.0
  0
VERTEX
  5
DAF
  8
DATA
  6
CONTINUOUS
 62
     7
 10
-155.1927941496684
 20
507.31201990267851
 30
0.0
  0
VERTEX
  5
DB0
  8
DATA
  6
CONTINUOUS
 62
     7
 10
-156.7227941496684
 20
507.31201990267851
 30
0.0
  0
SEQEND
  5
DB1
  8
DATA
  6
CONTINUOUS
 62
     7
  0
POLYLINE
  5
29B
  8
DATA
  6
CONTINUOUS
 62
     7
 66
     1
 10
0.0
 20
0.0
 30
0.0
 70
     1
  0
VERTEX
  5
DB2
  8
DATA
  6
CONTINUOUS
 62
     7
 10
-158.7227941496686
 20
508.84201990267849
 30
0.0
  0
VERTEX
  5
DB3
  8
DATA
  6
CONTINUOUS
 62
     7
 10
-157.1927941496684
 20
508.84201990267849
 30
0.0
  0
VERTEX
  5
DB4
  8
DATA
  6
CONTINUOUS
 62
     7
 10
-157.1927941496684
 20
507.31201990267851
 30
0.0
  0
VERTEX
  5
DB5
  8
DATA
  6
CONTINUOUS
 62
     7
 10
-158.7227941496686
 20
507.31201990267851
 30
0.0
  0
SEQEND
  5
DB6
  8
DATA
  6
CONTINUOUS
 62
     7
  0
POLYLINE
  5
2A2
  8
DATA
  6
CONTINUOUS
 62
     7
 66
     1
 10
0.0
 20
0.0
 30
0.0
 70
     1
  0
VERTEX
  5
DB7
  8
DATA
  6
CONTINUOUS
 62
     7
 10
-160.72279414966809
 20
508.84201990267849
 30
0.0
  0
VERTEX
  5
DB8
  8
DATA
  6
CONTINUOUS
 62
     7
 10
-159.19279414966829
 20
508.84201990267849
 30
0.0
  0
VERTEX
  5
DB9
  8
DATA
  6
CONTINUOUS
 62
     7
 10
-159.19279414966829
 20
507.31201990267851
 30
0.0
  0
VERTEX
  5
DBA
  8
DATA
  6
CONTINUOUS
 62
     7
 10
-160.72279414966809
 20
507.31201990267851
 30
0.0
  0
SEQEND
  5
DBB
  8
DATA
  6
CONTINUOUS
 62
     7
  0
POLYLINE
  5
2A9
  8
DATA
  6
CONTINUOUS
 62
     7
 66
     1
 10
0.0
 20
0.0
 30
0.0
 70
     1
  0
VERTEX
  5
DBC
  8
DATA
  6
CONTINUOUS
 62
     7
 10
-162.72279414966809
 20
508.84201990267849
 30
0.0
  0
VERTEX
  5
DBD
  8
DATA
  6
CONTINUOUS
 62
     7
 10
-161.19279414966829
 20
508.84201990267849
 30
0.0
  0
VERTEX
  5
DBE
  8
DATA
  6
CONTINUOUS
 62
     7
 10
-161.19279414966829
 20
507.31201990267851
 30
0.0
  0
VERTEX
  5
DBF
  8
DATA
  6
CONTINUOUS
 62
     7
 10
-162.72279414966809
 20
507.31201990267851
 30
0.0
  0
SEQEND
  5
DC0
  8
DATA
  6
CONTINUOUS
 62
     7
  0
POLYLINE
  5
2B0
  8
DATA
  6
CONTINUOUS
 62
     7
 66
     1
 10
0.0
 20
0.0
 30
0.0
 70
     1
  0
VERTEX
  5
DC1
  8
DATA
  6
CONTINUOUS
 62
     7
 10
-164.72279414966809
 20
508.84201990267849
 30
0.0
  0
VERTEX
  5
DC2
  8
DATA
  6
CONTINUOUS
 62
     7
 10
-163.19279414966829
 20
508.84201990267849
 30
0.0
  0
VERTEX
  5
DC3
  8
DATA
  6
CONTINUOUS
 62
     7
 10
-163.19279414966829
 20
507.31201990267851
 30
0.0
  0
VERTEX
  5
DC4
  8
DATA
  6
CONTINUOUS
 62
     7
 10
-164.72279414966809
 20
507.31201990267851
 30
0.0
  0
SEQEND
  5
DC5
  8
DATA
  6
CONTINUOUS
 62
     7
  0
POLYLINE
  5
2B7
  8
DATA
  6
CONTINUOUS
 62
     7
 66
     1
 10
0.0
 20
0.0
 30
0.0
 70
     1
  0
VERTEX
  5
DC6
  8
DATA
  6
CONTINUOUS
 62
     7
 10
-166.72279414966809
 20
508.84201990267849
 30
0.0
  0
VERTEX
  5
DC7
  8
DATA
  6
CONTINUOUS
 62
     7
 10
-165.19279414966829
 20
508.84201990267849
 30
0.0
  0
VERTEX
  5
DC8
  8
DATA
  6
CONTINUOUS
 62
     7
 10
-165.19279414966829
 20
507.31201990267851
 30
0.0
  0
VERTEX
  5
DC9
  8
DATA
  6
CONTINUOUS
 62
     7
 10
-166.72279414966809
 20
507.31201990267851
 30
0.0
  0
SEQEND
  5
DCA
  8
DATA
  6
CONTINUOUS
 62
     7
  0
POLYLINE
  5
2BE
  8
DATA
  6
CONTINUOUS
 62
     7
 66
     1
 10
0.0
 20
0.0
 30
0.0
 70
     1
  0
VERTEX
  5
DCB
  8
DATA
  6
CONTINUOUS
 62
     7
 10
-168.72279414966809
 20
508.84201990267849
 30
0.0
  0
VERTEX
  5
DCC
  8
DATA
  6
CONTINUOUS
 62
     7
 10
-167.19279414966829
 20
508.84201990267849
 30
0.0
  0
VERTEX
  5
DCD
  8
DATA
  6
CONTINUOUS
 62
     7
 10
-167.19279414966829
 20
507.31201990267851
 30
0.0
  0
VERTEX
  5
DCE
  8
DATA
  6
CONTINUOUS
 62
     7
 10
-168.72279414966809
 20
507.31201990267851
 30
0.0
  0
SEQEND
  5
DCF
  8
DATA
  6
CONTINUOUS
 62
     7
  0
POLYLINE
  5
2C5
  8
DATA
  6
CONTINUOUS
 62
     7
 66
     1
 10
0.0
 20
0.0
 30
0.0
 70
     1
  0
VERTEX
  5
DD0
  8
DATA
  6
CONTINUOUS
 62
     7
 10
-170.72279414966809
 20
508.84201990267849
 30
0.0
  0
VERTEX
  5
DD1
  8
DATA
  6
CONTINUOUS
 62
     7
 10
-169.19279414966829
 20
508.84201990267849
 30
0.0
  0
VERTEX
  5
DD2
  8
DATA
  6
CONTINUOUS
 62
     7
 10
-169.19279414966829
 20
507.31201990267851
 30
0.0
  0
VERTEX
  5
DD3
  8
DATA
  6
CONTINUOUS
 62
     7
 10
-170.72279414966809
 20
507.31201990267851
 30
0.0
  0
SEQEND
  5
DD4
  8
DATA
  6
CONTINUOUS
 62
     7
  0
POLYLINE
  5
2CC
  8
DATA
  6
CONTINUOUS
 62
     7
 66
     1
 10
0.0
 20
0.0
 30
0.0
  0
VERTEX
  5
DD5
  8
DATA
  6
CONTINUOUS
 62
     7
 10
-174.7428603208476
 20
505.67701990267852
 30
0.0
  0
VERTEX
  5
DD6
  8
DATA
  6
CONTINUOUS
 62
     7
 10
-176.84286032084759
 20
505.67701990267852
 30
0.0
  0
VERTEX
  5
DD7
  8
DATA
  6
CONTINUOUS
 62
     7
 10
-176.84286032084759
 20
506.47701990267848
 30
0.0
  0
VERTEX
  5
DD8
  8
DATA
  6
CONTINUOUS
 62
     7
 10
-174.7428603208476
 20
506.47701990267848
 30
0.0
  0
SEQEND
  5
DD9
  8
DATA
  6
CONTINUOUS
 62
     7
  0
POLYLINE
  5
2D3
  8
DATA
  6
CONTINUOUS
 62
     7
 66
     1
 10
0.0
 20
0.0
 30
0.0
  0
VERTEX
  5
DDA
  8
DATA
  6
CONTINUOUS
 62
     7
 10
-173.9428603208477
 20
506.47701990267848
 30
0.0
  0
VERTEX
  5
DDB
  8
DATA
  6
CONTINUOUS
 62
     7
 10
-171.84286032084759
 20
506.47701990267848
 30
0.0
  0
VERTEX
  5
DDC
  8
DATA
  6
CONTINUOUS
 62
     7
 10
-171.84286032084759
 20
505.67701990267852
 30
0.0
  0
VERTEX
  5
DDD
  8
DATA
  6
CONTINUOUS
 62
     7
 10
-173.9428603208477
 20
505.67701990267852
 30
0.0
  0
SEQEND
  5
DDE
  8
DATA
  6
CONTINUOUS
 62
     7
  0
POLYLINE
  5
2DA
  8
DATA
  6
CONTINUOUS
 62
     7
 66
     1
 10
0.0
 20
0.0
 30
0.0
  0
VERTEX
  5
DDF
  8
DATA
  6
CONTINUOUS
 62
     7
 10
-174.7428603208476
 20
506.47701990267848
 30
0.0
  0
VERTEX
  5
DE0
  8
DATA
  6
CONTINUOUS
 62
     7
 10
-174.7428603208476
 20
508.5770199026785
 30
0.0
  0
VERTEX
  5
DE1
  8
DATA
  6
CONTINUOUS
 62
     7
 10
-173.9428603208477
 20
508.5770199026785
 30
0.0
  0
VERTEX
  5
DE2
  8
DATA
  6
CONTINUOUS
 62
     7
 10
-173.9428603208477
 20
506.47701990267848
 30
0.0
  0
SEQEND
  5
DE3
  8
DATA
  6
CONTINUOUS
 62
     7
  0
POLYLINE
  5
2E1
  8
DATA
  6
CONTINUOUS
 62
     7
 66
     1
 10
0.0
 20
0.0
 30
0.0
  0
VERTEX
  5
DE4
  8
DATA
  6
CONTINUOUS
 62
     7
 10
-173.9428603208477
 20
505.67701990267852
 30
0.0
  0
VERTEX
  5
DE5
  8
DATA
  6
CONTINUOUS
 62
     7
 10
-173.9428603208477
 20
503.57701990267827
 30
0.0
  0
VERTEX
  5
DE6
  8
DATA
  6
CONTINUOUS
 62
     7
 10
-174.7428603208476
 20
503.57701990267827
 30
0.0
  0
VERTEX
  5
DE7
  8
DATA
  6
CONTINUOUS
 62
     7
 10
-174.7428603208476
 20
505.67701990267852
 30
0.0
  0
SEQEND
  5
DE8
  8
DATA
  6
CONTINUOUS
 62
     7
  0
POLYLINE
  5
2E8
  8
DATA
  6
CONTINUOUS
 62
     7
 66
     1
 10
0.0
 20
0.0
 30
0.0
 70
     1
  0
VERTEX
  5
DE9
  8
DATA
  6
CONTINUOUS
 62
     7
 10
-173.4825758903759
 20
505.31759209202858
 30
0.0
  0
VERTEX
  5
DEA
  8
DATA
  6
CONTINUOUS
 62
     7
 10
-172.48257589037581
 20
505.31759209202858
 30
0.0
  0
VERTEX
  5
DEB
  8
DATA
  6
CONTINUOUS
 62
     7
 10
-172.48257589037581
 20
504.31759209202852
 30
0.0
  0
VERTEX
  5
DEC
  8
DATA
  6
CONTINUOUS
 62
     7
 10
-173.4825758903759
 20
504.31759209202852
 30
0.0
  0
SEQEND
  5
DED
  8
DATA
  6
CONTINUOUS
 62
     7
  0
POLYLINE
  5
2EF
  8
DATA
  6
CONTINUOUS
 62
     7
 66
     1
 10
0.0
 20
0.0
 30
0.0
 70
     1
  0
VERTEX
  5
DEE
  8
DATA
  6
CONTINUOUS
 62
     7
 10
-176.2031447513194
 20
505.31759209202858
 30
0.0
  0
VERTEX
  5
DEF
  8
DATA
  6
CONTINUOUS
 62
     7
 10
-175.2031447513194
 20
505.31759209202858
 30
0.0
  0
VERTEX
  5
DF0
  8
DATA
  6
CONTINUOUS
 62
     7
 10
-175.2031447513194
 20
504.31759209202852
 30
0.0
  0
VERTEX
  5
DF1
  8
DATA
  6
CONTINUOUS
 62
     7
 10
-176.2031447513194
 20
504.31759209202852
 30
0.0
  0
SEQEND
  5
DF2
  8
DATA
  6
CONTINUOUS
 62
     7
  0
POLYLINE
  5
2F6
  8
DATA
  6
CONTINUOUS
 62
     7
 66
     1
 10
0.0
 20
0.0
 30
0.0
 70
     1
  0
VERTEX
  5
DF3
  8
DATA
  6
CONTINUOUS
 62
     7
 10
-173.4825758903759
 20
507.83644771332843
 30
0.0
  0
VERTEX
  5
DF4
  8
DATA
  6
CONTINUOUS
 62
     7
 10
-172.48257589037581
 20
507.83644771332843
 30
0.0
  0
VERTEX
  5
DF5
  8
DATA
  6
CONTINUOUS
 62
     7
 10
-172.48257589037581
 20
506.83644771332843
 30
0.0
  0
VERTEX
  5
DF6
  8
DATA
  6
CONTINUOUS
 62
     7
 10
-173.4825758903759
 20
506.83644771332843
 30
0.0
  0
SEQEND
  5
DF7
  8
DATA
  6
CONTINUOUS
 62
     7
  0
POLYLINE
  5
2FD
  8
DATA
  6
CONTINUOUS
 62
     7
 66
     1
 10
0.0
 20
0.0
 30
0.0
 70
     1
  0
VERTEX
  5
DF8
  8
DATA
  6
CONTINUOUS
 62
     7
 10
-176.2031447513194
 20
507.83644771332843
 30
0.0
  0
VERTEX
  5
DF9
  8
DATA
  6
CONTINUOUS
 62
     7
 10
-175.2031447513194
 20
507.83644771332843
 30
0.0
  0
VERTEX
  5
DFA
  8
DATA
  6
CONTINUOUS
 62
     7
 10
-175.2031447513194
 20
506.83644771332843
 30
0.0
  0
VERTEX
  5
DFB
  8
DATA
  6
CONTINUOUS
 62
     7
 10
-176.2031447513194
 20
506.83644771332843
 30
0.0
  0
SEQEND
  5
DFC
  8
DATA
  6
CONTINUOUS
 62
     7
  0
LINE
  5
304
  8
DATA
  6
CONTINUOUS
 62
     7
 10
-154.24748850290061
 20
503.24712820816472
 30
0.0
 11
-154.80640570035291
 21
509.0971282081648
 31
0.0
  0
LINE
  5
305
  8
DATA
  6
CONTINUOUS
 62
     7
 10
-178.13823213879471
 20
503.24712820816472
 30
0.0
 11
-177.5793149413424
 21
509.09712820816452
 31
0.0
  0
ARC
  5
306
  8
DATA
  6
CONTINUOUS
 62
     7
 10
-155.24295543365599
 20
503.15201990267832
 30
0.0
 40
0.9999999999998864
 50
270.0
 51
5.4575534851103358
  0
ARC
  5
307
  8
DATA
  6
CONTINUOUS
 62
     7
 10
-177.14276520803929
 20
503.15201990267849
 30
0.0
 40
0.9999999999999703
 50
174.54244651489549
 51
270.0
  0
ARC
  5
308
  8
DATA
  6
CONTINUOUS
 62
     7
 10
-155.80187263110841
 20
509.00201990267851
 30
0.0
 40
1.000000000000093
 50
5.4575534851103331
 51
89.99999999999838
  0
ARC
  5
309
  8
DATA
  6
CONTINUOUS
 62
     7
 10
-176.5838480105871
 20
509.00201990267851
 30
0.0
 40
1.0
 50
90.0
 51
174.54244651489549
  0
TEXT
  5
30A
  8
DATA
 62
     7
 10
-155.4486616300583
 20
516.98780444287377
 30
0.0
 40
3.121945529513888
  1
DVI In 1 
 50
180.0
 41
0.7
 11
-155.4486616300583
 21
513.86585891335994
 31
0.0
 73
     3
  0
LINE
  5
30B
  8
DATA
  6
CONTINUOUS
 62
     7
 10
-113.9264101400462
 20
510.01931257987189
 30
0.0
 11
-113.9264101400462
 21
496.71931257987222
 31
0.0
  0
LINE
  5
30C
  8
DATA
  6
CONTINUOUS
 62
     7
 10
-129.62641014004609
 20
510.01931257987189
 30
0.0
 11
-129.62641014004609
 21
496.71931257987222
 31
0.0
  0
LINE
  5
30D
  8
DATA
  6
CONTINUOUS
 62
     7
 10
-129.62641014004609
 20
496.71931257987222
 30
0.0
 11
-113.9264101400462
 21
496.71931257987222
 31
0.0
  0
LINE
  5
30E
  8
DATA
  6
CONTINUOUS
 62
     7
 10
-129.62641014004609
 20
510.01931257987189
 30
0.0
 11
-113.9264101400462
 21
510.01931257987189
 31
0.0
  0
LINE
  5
30F
  8
DATA
  6
CONTINUOUS
 62
     7
 10
-127.9264101400461
 20
507.01931257987189
 30
0.0
 11
-115.6264101400461
 21
507.01931257987189
 31
0.0
  0
LINE
  5
310
  8
DATA
  6
CONTINUOUS
 62
     7
 10
-127.9264101400461
 20
507.01931257987189
 30
0.0
 11
-127.9264101400461
 21
499.71931257987222
 31
0.0
  0
LINE
  5
311
  8
DATA
  6
CONTINUOUS
 62
     7
 10
-115.6264101400461
 20
507.01931257987189
 30
0.0
 11
-115.6264101400461
 21
499.71931257987222
 31
0.0
  0
LINE
  5
312
  8
DATA
  6
CONTINUOUS
 62
     7
 10
-124.0014101400461
 20
496.71931257987222
 30
0.0
 11
-124.0014101400461
 21
498.21931257987222
 31
0.0
  0
LINE
  5
313
  8
DATA
  6
CONTINUOUS
 62
     7
 10
-119.5514101400462
 20
498.21931257987222
 30
0.0
 11
-119.5514101400462
 21
496.71931257987222
 31
0.0
  0
LINE
  5
314
  8
DATA
  6
CONTINUOUS
 62
     7
 10
-125.1264101400461
 20
498.21931257987222
 30
0.0
 11
-124.0014101400461
 21
498.21931257987222
 31
0.0
  0
LINE
  5
315
  8
DATA
  6
CONTINUOUS
 62
     7
 10
-119.5514101400462
 20
498.21931257987222
 30
0.0
 11
-118.4264101400462
 21
498.21931257987222
 31
0.0
  0
LINE
  5
316
  8
DATA
  6
CONTINUOUS
 62
     7
 10
-127.9264101400461
 20
499.71931257987222
 30
0.0
 11
-125.1264101400461
 21
499.71931257987222
 31
0.0
  0
LINE
  5
317
  8
DATA
  6
CONTINUOUS
 62
     7
 10
-118.4264101400462
 20
499.71931257987222
 30
0.0
 11
-115.6264101400461
 21
499.71931257987222
 31
0.0
  0
LINE
  5
318
  8
DATA
  6
CONTINUOUS
 62
     7
 10
-125.1264101400461
 20
498.21931257987222
 30
0.0
 11
-125.1264101400461
 21
499.71931257987222
 31
0.0
  0
LINE
  5
319
  8
DATA
  6
CONTINUOUS
 62
     7
 10
-118.4264101400462
 20
499.71931257987222
 30
0.0
 11
-118.4264101400462
 21
498.21931257987222
 31
0.0
  0
TEXT
  5
31A
  8
DATA
 62
     7
 10
-114.7284346844511
 20
515.65038842341585
 30
0.0
 40
3.121945529513888
  1
Video 1
 50
180.0
 41
0.7
 11
-114.7284346844511
 21
512.52844289390202
 31
0.0
 73
     3
  0
TEXT
  5
31B
  8
DATA
 62
     7
 10
-116.43804133031659
 20
495.46714062544459
 30
0.0
 40
3.121945529513888
  1
CAT-6 
 50
180.0
 41
0.7
 11
-116.43804133031659
 21
492.34519509593071
 31
0.0
 73
     3
  0
LINE
  5
31C
  8
DATA
  6
CONTINUOUS
 62
     7
 10
-64.626410140046076
 20
480.83302224138077
 30
0.0
 11
-64.626410140046076
 21
494.13302224138079
 31
0.0
  0
LINE
  5
31D
  8
DATA
  6
CONTINUOUS
 62
     7
 10
-48.926410140046173
 20
480.83302224138077
 30
0.0
 11
-48.926410140046173
 21
494.13302224138079
 31
0.0
  0
LINE
  5
31E
  8
DATA
  6
CONTINUOUS
 62
     7
 10
-48.926410140046173
 20
494.13302224138079
 30
0.0
 11
-64.626410140046076
 21
494.13302224138079
 31
0.0
  0
LINE
  5
31F
  8
DATA
  6
CONTINUOUS
 62
     7
 10
-48.926410140046173
 20
480.83302224138077
 30
0.0
 11
-64.626410140046076
 21
480.83302224138077
 31
0.0
  0
LINE
  5
320
  8
DATA
  6
CONTINUOUS
 62
     7
 10
-50.626410140046097
 20
483.83302224138077
 30
0.0
 11
-62.926410140046137
 21
483.83302224138077
 31
0.0
  0
LINE
  5
321
  8
DATA
  6
CONTINUOUS
 62
     7
 10
-50.626410140046097
 20
483.83302224138077
 30
0.0
 11
-50.626410140046097
 21
491.13302224138079
 31
0.0
  0
LINE
  5
322
  8
DATA
  6
CONTINUOUS
 62
     7
 10
-62.926410140046137
 20
483.83302224138077
 30
0.0
 11
-62.926410140046137
 21
491.13302224138079
 31
0.0
  0
LINE
  5
323
  8
DATA
  6
CONTINUOUS
 62
     7
 10
-54.55141014004613
 20
494.13302224138079
 30
0.0
 11
-54.55141014004613
 21
492.63302224138079
 31
0.0
  0
LINE
  5
324
  8
DATA
  6
CONTINUOUS
 62
     7
 10
-59.001410140046083
 20
492.63302224138079
 30
0.0
 11
-59.001410140046083
 21
494.13302224138079
 31
0.0
  0
LINE
  5
325
  8
DATA
  6
CONTINUOUS
 62
     7
 10
-53.426410140046158
 20
492.63302224138079
 30
0.0
 11
-54.55141014004613
 21
492.63302224138079
 31
0.0
  0
LINE
  5
326
  8
DATA
  6
CONTINUOUS
 62
     7
 10
-59.001410140046083
 20
492.63302224138079
 30
0.0
 11
-60.126410140046083
 21
492.63302224138079
 31
0.0
  0
LINE
  5
327
  8
DATA
  6
CONTINUOUS
 62
     7
 10
-50.626410140046097
 20
491.13302224138079
 30
0.0
 11
-53.426410140046158
 21
491.13302224138079
 31
0.0
  0
LINE
  5
328
  8
DATA
  6
CONTINUOUS
 62
     7
 10
-60.126410140046083
 20
491.13302224138079
 30
0.0
 11
-62.926410140046137
 21
491.13302224138079
 31
0.0
  0
LINE
  5
329
  8
DATA
  6
CONTINUOUS
 62
     7
 10
-53.426410140046158
 20
492.63302224138079
 30
0.0
 11
-53.426410140046158
 21
491.13302224138079
 31
0.0
  0
LINE
  5
32A
  8
DATA
  6
CONTINUOUS
 62
     7
 10
-60.126410140046083
 20
491.13302224138079
 30
0.0
 11
-60.126410140046083
 21
492.63302224138079
 31
0.0
  0
TEXT
  5
32B
  8
DATA
 62
     7
 10
-51.63077854904553
 20
479.39084155984068
 30
0.0
 40
3.121945529513888
  1
CAT-5 
 50
180.0
 41
0.7
 11
-51.63077854904553
 21
476.2688960303268
 31
0.0
 73
     3
  0
TEXT
  5
32C
  8
DATA
 62
     7
 10
-53.074873719829853
 20
498.65711890570662
 30
0.0
 40
3.121945529513888
  1
USB 
 50
180.0
 41
0.7
 11
-53.074873719829853
 21
495.53517337619269
 31
0.0
 73
     3
  0
CIRCLE
  5
32D
  8
DATA
  6
CONTINUOUS
 62
     7
 10
-76.77641014004611
 20
490.8080222413808
 30
0.0
 40
3.5
  0
LINE
  5
32E
  8
DATA
  6
CONTINUOUS
 62
     7
 10
-76.77641014004611
 20
492.8080222413808
 30
0.0
 11
-76.77641014004611
 21
488.8080222413808
 31
0.0
  0
LINE
  5
32F
  8
DATA
  6
CONTINUOUS
 62
     7
 10
-74.776410140046139
 20
490.8080222413808
 30
0.0
 11
-78.776410140046139
 21
490.8080222413808
 31
0.0
  0
CIRCLE
  5
330
  8
DATA
  6
CONTINUOUS
 62
     7
 10
21.223589859953861
 20
490.8080222413808
 30
0.0
 40
3.5
  0
LINE
  5
331
  8
DATA
  6
CONTINUOUS
 62
     7
 10
21.223589859953861
 20
492.8080222413808
 30
0.0
 11
21.223589859953861
 21
488.8080222413808
 31
0.0
  0
LINE
  5
332
  8
DATA
  6
CONTINUOUS
 62
     7
 10
23.223589859953861
 20
490.8080222413808
 30
0.0
 11
19.223589859953851
 21
490.8080222413808
 31
0.0
  0
POLYLINE
  5
333
  8
DATA
  6
CONTINUOUS
 62
     7
 66
     1
 10
0.0
 20
0.0
 30
0.0
 70
     1
  0
VERTEX
  5
DFD
  8
DATA
  6
CONTINUOUS
 62
     7
 10
-22.087127913984531
 20
494.16557828228258
 30
0.0
  0
VERTEX
  5
DFE
  8
DATA
  6
CONTINUOUS
 62
     7
 10
-10.58712791398453
 20
494.16557828228258
 30
0.0
  0
VERTEX
  5
DFF
  8
DATA
  6
CONTINUOUS
 62
     7
 10
-10.58712791398453
 20
482.66557828228252
 30
0.0
  0
VERTEX
  5
E00
  8
DATA
  6
CONTINUOUS
 62
     7
 10
-22.087127913984531
 20
482.66557828228252
 30
0.0
  0
SEQEND
  5
E01
  8
DATA
  6
CONTINUOUS
 62
     7
  0
POLYLINE
  5
33A
  8
DATA
  6
CONTINUOUS
 62
     7
 66
     1
 10
0.0
 20
0.0
 30
0.0
  0
VERTEX
  5
E02
  8
DATA
  6
CONTINUOUS
 62
     7
 10
-20.637127913984539
 20
485.3155782822825
 30
0.0
  0
VERTEX
  5
E03
  8
DATA
  6
CONTINUOUS
 62
     7
 10
-20.637127913984539
 20
492.71557828228248
 30
0.0
  0
VERTEX
  5
E04
  8
DATA
  6
CONTINUOUS
 62
     7
 10
-12.03712791398452
 20
492.71557828228248
 30
0.0
  0
VERTEX
  5
E05
  8
DATA
  6
CONTINUOUS
 62
     7
 10
-12.03712791398452
 20
485.3155782822825
 30
0.0
  0
SEQEND
  5
E06
  8
DATA
  6
CONTINUOUS
 62
     7
  0
LINE
  5
341
  8
DATA
  6
CONTINUOUS
 62
     7
 10
-13.23712791398453
 20
484.11557828228251
 30
0.0
 11
-19.437127913984529
 21
484.11557828228251
 31
0.0
  0
POLYLINE
  5
342
  8
DATA
  6
CONTINUOUS
 62
     7
 66
     1
 10
0.0
 20
0.0
 30
0.0
 70
     1
  0
VERTEX
  5
E07
  8
DATA
  6
CONTINUOUS
 62
     7
 10
-19.337127913984531
 20
490.41557828228252
 30
0.0
  0
VERTEX
  5
E08
  8
DATA
  6
CONTINUOUS
 62
     7
 10
-13.33712791398453
 20
490.41557828228252
 30
0.0
  0
VERTEX
  5
E09
  8
DATA
  6
CONTINUOUS
 62
     7
 10
-13.33712791398453
 20
486.41557828228258
 30
0.0
  0
VERTEX
  5
E0A
  8
DATA
  6
CONTINUOUS
 62
     7
 10
-19.337127913984531
 20
486.41557828228258
 30
0.0
  0
SEQEND
  5
E0B
  8
DATA
  6
CONTINUOUS
 62
     7
  0
LINE
  5
349
  8
DATA
  6
CONTINUOUS
 62
     7
 10
-19.437127913984529
 20
484.11557828228251
 30
0.0
 11
-20.637127913984539
 21
485.3155782822825
 31
0.0
  0
LINE
  5
34A
  8
DATA
  6
CONTINUOUS
 62
     7
 10
-13.23712791398453
 20
484.11557828228251
 30
0.0
 11
-12.03712791398452
 21
485.3155782822825
 31
0.0
  0
TEXT
  5
34B
  8
DATA
 62
     7
 10
-10.59198870596518
 20
498.65711890570662
 30
0.0
 40
3.121945529513888
  1
USB In
 50
180.0
 41
0.7
 11
-10.59198870596518
 21
495.53517337619269
 31
0.0
 73
     3
  0
CIRCLE
  5
34C
  8
DATA
  6
CONTINUOUS
 62
     7
 10
-4.8994411832473332
 20
491.3552566758691
 30
0.0
 40
1.5
  0
TEXT
  5
34D
  8
DATA
 62
     7
 10
-1.1146918599629161
 20
498.65711890570662
 30
0.0
 40
3.121945529513888
  1
HOST
 50
180.0
 41
0.7
 11
-1.1146918599629161
 21
495.53517337619269
 31
0.0
 73
     3
  0
LINE
  5
34E
  8
DATA
  6
CONTINUOUS
 62
     7
 10
-356.78112891106559
 20
410.0000000000295
 30
0.0
 11
-356.78112891106559
 21
405.00000000002927
 31
0.0
  0
LINE
  5
34F
  8
DATA
  6
CONTINUOUS
 62
     7
 10
-352.10459173062958
 20
410.0000000000295
 30
0.0
 11
-352.10459173062958
 21
405.00000000002927
 31
0.0
  0
LINE
  5
350
  8
DATA
  6
CONTINUOUS
 62
     7
 10
-350.14086212367988
 20
410.0000000000295
 30
0.0
 11
-350.14086212367988
 21
405.00000000002927
 31
0.0
  0
LINE
  5
351
  8
DATA
  6
CONTINUOUS
 62
     7
 10
-324.28112891106548
 20
410.0000000000295
 30
0.0
 11
-324.28112891106548
 21
405.00000000002927
 31
0.0
  0
LINE
  5
352
  8
DATA
  6
CONTINUOUS
 62
     7
 10
-319.60459173062941
 20
410.0000000000295
 30
0.0
 11
-319.60459173062941
 21
405.00000000002927
 31
0.0
  0
LINE
  5
353
  8
DATA
  6
CONTINUOUS
 62
     7
 10
-326.29411708293662
 20
410.0000000000295
 30
0.0
 11
-326.29411708293662
 21
405.00000000002927
 31
0.0
  0
LINE
  5
354
  8
DATA
  6
CONTINUOUS
 62
     7
 10
-385.5032548558753
 20
406.5000000000295
 30
0.0
 11
-385.5032548558753
 21
405.00000000002927
 31
0.0
  0
LINE
  5
355
  8
DATA
  6
CONTINUOUS
 62
     7
 10
-376.86674514419161
 20
406.5000000000295
 30
0.0
 11
-376.86674514419161
 21
405.00000000002927
 31
0.0
  0
LINE
  5
356
  8
DATA
  6
CONTINUOUS
 62
     7
 10
-384.9000000000334
 20
411.00000000002939
 30
0.0
 11
-384.9000000000334
 21
406.5000000000295
 31
0.0
  0
LINE
  5
357
  8
DATA
  6
CONTINUOUS
 62
     7
 10
-377.1000000000335
 20
411.00000000002939
 30
0.0
 11
-377.1000000000335
 21
406.5000000000295
 31
0.0
  0
LINE
  5
358
  8
DATA
  6
CONTINUOUS
 62
     7
 10
-384.9000000000334
 20
411.0000000000295
 30
0.0
 11
-377.1000000000335
 21
411.0000000000295
 31
0.0
  0
LINE
  5
359
  8
DATA
  6
CONTINUOUS
 62
     7
 10
-385.5032548558753
 20
406.5000000000295
 30
0.0
 11
-376.86674514419161
 21
406.5000000000295
 31
0.0
  0
LINE
  5
35A
  8
DATA
  6
CONTINUOUS
 62
     7
 10
-356.78112891106559
 20
410.0000000000295
 30
0.0
 11
-352.10459173062958
 21
410.0000000000295
 31
0.0
  0
LINE
  5
35B
  8
DATA
  6
CONTINUOUS
 62
     7
 10
-350.14086212367988
 20
410.0000000000295
 30
0.0
 11
-326.29411708293679
 21
410.0000000000295
 31
0.0
  0
LINE
  5
35C
  8
DATA
  6
CONTINUOUS
 62
     7
 10
-324.28112891106548
 20
410.0000000000295
 30
0.0
 11
-319.60459173062941
 21
410.0000000000295
 31
0.0
  0
LINE
  5
35D
  8
DATA
  6
CONTINUOUS
 62
     7
 10
-184.78112891106559
 20
410.0000000000295
 30
0.0
 11
-184.78112891106559
 21
405.00000000002927
 31
0.0
  0
LINE
  5
35E
  8
DATA
  6
CONTINUOUS
 62
     7
 10
-180.10459173062961
 20
410.0000000000295
 30
0.0
 11
-180.10459173062961
 21
405.00000000002927
 31
0.0
  0
LINE
  5
35F
  8
DATA
  6
CONTINUOUS
 62
     7
 10
-178.1408621236798
 20
410.0000000000295
 30
0.0
 11
-178.1408621236798
 21
405.00000000002927
 31
0.0
  0
LINE
  5
360
  8
DATA
  6
CONTINUOUS
 62
     7
 10
-152.28112891106551
 20
410.0000000000295
 30
0.0
 11
-152.28112891106551
 21
405.00000000002927
 31
0.0
  0
LINE
  5
361
  8
DATA
  6
CONTINUOUS
 62
     7
 10
-147.60459173062941
 20
410.0000000000295
 30
0.0
 11
-147.60459173062941
 21
405.00000000002927
 31
0.0
  0
LINE
  5
362
  8
DATA
  6
CONTINUOUS
 62
     7
 10
-154.29411708293659
 20
410.0000000000295
 30
0.0
 11
-154.29411708293659
 21
405.00000000002927
 31
0.0
  0
LINE
  5
363
  8
DATA
  6
CONTINUOUS
 62
     7
 10
-184.78112891106559
 20
410.0000000000295
 30
0.0
 11
-180.10459173062961
 21
410.0000000000295
 31
0.0
  0
LINE
  5
364
  8
DATA
  6
CONTINUOUS
 62
     7
 10
-178.1408621236798
 20
410.0000000000295
 30
0.0
 11
-154.29411708293671
 21
410.0000000000295
 31
0.0
  0
LINE
  5
365
  8
DATA
  6
CONTINUOUS
 62
     7
 10
-152.28112891106551
 20
410.0000000000295
 30
0.0
 11
-147.60459173062941
 21
410.0000000000295
 31
0.0
  0
LINE
  5
366
  8
DATA
  6
CONTINUOUS
 62
     7
 10
-80.27641014004611
 20
405.5000000000295
 30
0.0
 11
-80.27641014004611
 21
405.00000000002927
 31
0.0
  0
LINE
  5
367
  8
DATA
  6
CONTINUOUS
 62
     7
 10
-73.276410140046139
 20
405.5000000000295
 30
0.0
 11
-73.276410140046139
 21
405.00000000002927
 31
0.0
  0
LINE
  5
368
  8
DATA
  6
CONTINUOUS
 62
     7
 10
17.723589859953861
 20
405.5000000000295
 30
0.0
 11
17.723589859953861
 21
405.00000000002927
 31
0.0
  0
LINE
  5
369
  8
DATA
  6
CONTINUOUS
 62
     7
 10
24.723589859953861
 20
405.5000000000295
 30
0.0
 11
24.723589859953861
 21
405.00000000002927
 31
0.0
  0
ARC
  5
36A
  8
DATA
  6
CONTINUOUS
 62
     7
 10
-76.77641014004611
 20
402.16666666669602
 30
0.0
 40
4.8333333333333579
 50
43.60281897270395
 51
136.397181027296
  0
ARC
  5
36B
  8
DATA
  6
CONTINUOUS
 62
     7
 10
21.223589859953861
 20
402.16666666669602
 30
0.0
 40
4.8333333333333579
 50
43.60281897270395
 51
136.397181027296
  0
ARC
  5
36C
  8
DATA
  6
CONTINUOUS
 62
     7
 10
-201.00000000003351
 20
274.91100577179702
 30
0.0
 40
1.4000000000000741
 50
176.35540432688259
 51
3.6445956731176352
  0
ARC
  5
36D
  8
DATA
  6
CONTINUOUS
 62
     7
 10
-372.00000000003342
 20
275.259657032814
 30
0.0
 40
1.399999999999977
 50
190.6884953653325
 51
349.31150463466741
  0
LINE
  5
36E
  8
DATA
  6
CONTINUOUS
 62
     7
 10
88.999999999966505
 20
219.0000000000295
 30
0.0
 11
217.49999999996641
 21
219.0000000000295
 31
0.0
  0
LINE
  5
36F
  8
DATA
  6
CONTINUOUS
 62
     7
 10
88.999999999966505
 20
175.0000000000295
 30
0.0
 11
215.99999999996649
 21
175.0000000000295
 31
0.0
  0
LINE
  5
370
  8
DATA
  6
CONTINUOUS
 62
     7
 10
87.499999999966505
 20
176.5000000000295
 30
0.0
 11
87.499999999966505
 21
217.5000000000295
 31
0.0
  0
LINE
  5
371
  8
DATA
  6
CONTINUOUS
 62
     7
 10
217.49999999996641
 20
176.5000000000295
 30
0.0
 11
217.49999999996641
 21
219.0000000000295
 31
0.0
  0
LINE
  5
372
  8
DATA
  6
CONTINUOUS
 62
     7
 10
95.499999999966505
 20
218.0000000000295
 30
0.0
 11
95.499999999966505
 21
219.0000000000295
 31
0.0
  0
LINE
  5
373
  8
DATA
  6
CONTINUOUS
 62
     7
 10
88.499999999966519
 20
177.5000000000295
 30
0.0
 11
88.499999999966519
 21
216.5000000000295
 31
0.0
  0
LINE
  5
374
  8
DATA
  6
CONTINUOUS
 62
     7
 10
89.999999999966505
 20
218.0000000000295
 30
0.0
 11
95.499999999966505
 21
218.0000000000295
 31
0.0
  0
LINE
  5
375
  8
DATA
  6
CONTINUOUS
 62
     7
 10
94.499999999966505
 20
175.0000000000295
 30
0.0
 11
94.499999999966505
 21
176.0000000000295
 31
0.0
  0
LINE
  5
376
  8
DATA
  6
CONTINUOUS
 62
     7
 10
94.499999999966505
 20
176.0000000000295
 30
0.0
 11
89.999999999966505
 21
176.0000000000295
 31
0.0
  0
ARC
  5
377
  8
DATA
  6
CONTINUOUS
 62
     7
 10
88.999999999966505
 20
217.5000000000295
 30
0.0
 40
1.5
 50
90.0
 51
180.0
  0
ARC
  5
378
  8
DATA
  6
CONTINUOUS
 62
     7
 10
89.999999999966505
 20
216.5000000000295
 30
0.0
 40
1.5
 50
90.0
 51
180.0
  0
ARC
  5
379
  8
DATA
  6
CONTINUOUS
 62
     7
 10
89.999999999966505
 20
177.5000000000295
 30
0.0
 40
1.5
 50
180.0
 51
270.0
  0
ARC
  5
37A
  8
DATA
  6
CONTINUOUS
 62
     7
 10
88.999999999966505
 20
176.5000000000295
 30
0.0
 40
1.5
 50
180.0
 51
270.0
  0
LINE
  5
37B
  8
DATA
  6
CONTINUOUS
 62
     7
 10
205.49999999996649
 20
175.0000000000295
 30
0.0
 11
205.49999999996649
 21
176.0000000000295
 31
0.0
  0
LINE
  5
37C
  8
DATA
  6
CONTINUOUS
 62
     7
 10
205.49999999996649
 20
176.0000000000295
 30
0.0
 11
214.99999999996649
 21
176.0000000000295
 31
0.0
  0
LINE
  5
37D
  8
DATA
  6
CONTINUOUS
 62
     7
 10
216.49999999996649
 20
177.5000000000295
 30
0.0
 11
216.49999999996649
 21
216.93806792436521
 31
0.0
  0
ARC
  5
37E
  8
DATA
  6
CONTINUOUS
 62
     7
 10
214.99999999996649
 20
177.5000000000295
 30
0.0
 40
1.5
 50
270.0
 51
0.0
  0
ARC
  5
37F
  8
DATA
  6
CONTINUOUS
 62
     7
 10
215.99999999996649
 20
176.5000000000295
 30
0.0
 40
1.5
 50
270.0
 51
0.0
  0
LINE
  5
380
  8
DATA
  6
CONTINUOUS
 62
     7
 10
98.402115198278125
 20
171.0000000000295
 30
0.0
 11
114.34051991084419
 21
171.0000000000295
 31
0.0
  0
LINE
  5
381
  8
DATA
  6
CONTINUOUS
 62
     7
 10
115.3713175545611
 20
175.0000000000295
 30
0.0
 11
114.34051991084419
 21
171.0000000000295
 31
0.0
  0
LINE
  5
382
  8
DATA
  6
CONTINUOUS
 62
     7
 10
97.371317554561159
 20
175.0000000000295
 30
0.0
 11
98.402115198278125
 21
171.0000000000295
 31
0.0
  0
LINE
  5
383
  8
DATA
  6
CONTINUOUS
 62
     7
 10
184.50072148445199
 20
171.0000000000295
 30
0.0
 11
200.43912619701811
 21
171.0000000000295
 31
0.0
  0
LINE
  5
384
  8
DATA
  6
CONTINUOUS
 62
     7
 10
201.46992384073499
 20
175.0000000000295
 30
0.0
 11
200.43912619701811
 21
171.0000000000295
 31
0.0
  0
LINE
  5
385
  8
DATA
  6
CONTINUOUS
 62
     7
 10
183.46992384073491
 20
175.0000000000295
 30
0.0
 11
184.50072148445199
 21
171.0000000000295
 31
0.0
  0
CIRCLE
  5
386
  8
DATA
  6
CONTINUOUS
 62
     7
 10
105.99999999996651
 20
181.0000000000295
 30
0.0
 40
3.0
  0
LINE
  5
387
  8
DATA
  6
CONTINUOUS
 62
     7
 10
104.59109971960601
 20
181.0000000000295
 30
0.0
 11
107.408900280327
 21
181.0000000000295
 31
0.0
  0
LINE
  5
388
  8
DATA
  6
CONTINUOUS
 62
     7
 10
105.99999999996651
 20
179.59109971966899
 30
0.0
 11
105.99999999996651
 21
182.40890028038999
 31
0.0
  0
CIRCLE
  5
389
  8
DATA
  6
CONTINUOUS
 62
     7
 10
105.99999999996651
 20
211.0000000000295
 30
0.0
 40
3.0
  0
LINE
  5
38A
  8
DATA
  6
CONTINUOUS
 62
     7
 10
104.59109971960601
 20
211.0000000000295
 30
0.0
 11
107.408900280327
 21
211.0000000000295
 31
0.0
  0
LINE
  5
38B
  8
DATA
  6
CONTINUOUS
 62
     7
 10
105.99999999996651
 20
209.59109971966899
 30
0.0
 11
105.99999999996651
 21
212.40890028038999
 31
0.0
  0
CIRCLE
  5
38C
  8
DATA
  6
CONTINUOUS
 62
     7
 10
153.99999999996649
 20
181.0000000000295
 30
0.0
 40
3.0
  0
LINE
  5
38D
  8
DATA
  6
CONTINUOUS
 62
     7
 10
152.59109971960601
 20
181.0000000000295
 30
0.0
 11
155.408900280327
 21
181.0000000000295
 31
0.0
  0
LINE
  5
38E
  8
DATA
  6
CONTINUOUS
 62
     7
 10
153.99999999996649
 20
179.59109971966899
 30
0.0
 11
153.99999999996649
 21
182.40890028038999
 31
0.0
  0
CIRCLE
  5
38F
  8
DATA
  6
CONTINUOUS
 62
     7
 10
201.99999999996649
 20
181.0000000000295
 30
0.0
 40
3.0
  0
LINE
  5
390
  8
DATA
  6
CONTINUOUS
 62
     7
 10
200.59109971960609
 20
181.0000000000295
 30
0.0
 11
203.40890028032689
 21
181.0000000000295
 31
0.0
  0
LINE
  5
391
  8
DATA
  6
CONTINUOUS
 62
     7
 10
201.99999999996649
 20
179.59109971966899
 30
0.0
 11
201.99999999996649
 21
182.40890028038999
 31
0.0
  0
LINE
  5
392
  8
DATA
  6
CONTINUOUS
 62
     7
 10
217.9999999999666
 20
206.61703876578079
 30
0.0
 11
217.49999999996641
 21
206.61703876578079
 31
0.0
  0
LINE
  5
393
  8
DATA
  6
CONTINUOUS
 62
     7
 10
217.9999999999666
 20
199.61703876578079
 30
0.0
 11
217.49999999996641
 21
199.61703876578079
 31
0.0
  0
ARC
  5
394
  8
DATA
  6
CONTINUOUS
 62
     7
 10
214.6666666666332
 20
203.11703876578079
 30
0.0
 40
4.8333333333333188
 50
313.60281897270352
 51
46.397181027296547
  0
ARC
  5
395
  8
DATA
  6
CONTINUOUS
 62
     7
 10
87.567522278437949
 20
191.00000000002959
 30
0.0
 40
1.3999999999999391
 50
92.764459308528785
 51
267.23554069147127
  0
LINE
  5
396
  8
DATA
  6
CONTINUOUS
 62
     7
 10
219.00499999990839
 20
197.4440451099276
 30
0.0
 11
217.50499999990839
 21
197.4440451099276
 31
0.0
  0
LINE
  5
397
  8
DATA
  6
CONTINUOUS
 62
     7
 10
223.50499999990831
 20
196.8407902540857
 30
0.0
 11
219.00499999990839
 21
196.8407902540857
 31
0.0
  0
LINE
  5
398
  8
DATA
  6
CONTINUOUS
 62
     7
 10
223.50499999990831
 20
189.04079025408581
 30
0.0
 11
222.4999999999666
 21
189.04079025408581
 31
0.0
  0
LINE
  5
399
  8
DATA
  6
CONTINUOUS
 62
     7
 10
223.50499999990839
 20
196.8407902540857
 30
0.0
 11
223.50499999990839
 21
189.04079025408581
 31
0.0
  0
LINE
  5
39A
  8
DATA
  6
CONTINUOUS
 62
     7
 10
219.00499999990839
 20
197.4440451099276
 30
0.0
 11
219.00499999990839
 21
192.0281530234501
 31
0.0
  0
LINE
  5
39B
  8
DATA
  6
CONTINUOUS
 62
     7
 10
222.49999999996649
 20
185.4031530234501
 30
0.0
 11
222.49999999996649
 21
190.80315302345011
 31
0.0
  0
LINE
  5
39C
  8
DATA
  6
CONTINUOUS
 62
     7
 10
222.4999999999666
 20
190.80315302345011
 30
0.0
 11
217.49999999996641
 21
190.80315302345011
 31
0.0
  0
LINE
  5
39D
  8
DATA
  6
CONTINUOUS
 62
     7
 10
222.49999999996649
 20
185.4031530234501
 30
0.0
 11
217.49999999996641
 21
185.4031530234501
 31
0.0
  0
LINE
  5
39E
  8
DATA
  6
CONTINUOUS
 62
     7
 10
222.49999999996669
 20
192.0281530234501
 30
0.0
 11
217.49999999996641
 21
192.0281530234501
 31
0.0
  0
LINE
  5
39F
  8
DATA
  6
CONTINUOUS
 62
     7
 10
222.49999999996649
 20
184.17815302345011
 30
0.0
 11
217.49999999996641
 21
184.17815302345011
 31
0.0
  0
LINE
  5
3A0
  8
DATA
  6
CONTINUOUS
 62
     7
 10
222.4999999999666
 20
190.80315302345011
 30
0.0
 11
222.4999999999666
 21
192.0281530234501
 31
0.0
  0
LINE
  5
3A1
  8
DATA
  6
CONTINUOUS
 62
     7
 10
222.49999999996649
 20
185.4031530234501
 30
0.0
 11
222.49999999996649
 21
184.17815302345011
 31
0.0
  0
LINE
  5
3A2
  8
DATA
  6
CONTINUOUS
 62
     7
 10
-400.0000000000332
 20
-449.99999999997061
 30
0.0
 11
-400.0000000000332
 21
-405.99999999997038
 31
0.0
  0
LINE
  5
3A3
  8
DATA
  6
CONTINUOUS
 62
     7
 10
34.999999999966533
 20
-449.99999999997061
 30
0.0
 11
-400.0000000000332
 21
-449.99999999997061
 31
0.0
  0
LINE
  5
3A4
  8
DATA
  6
CONTINUOUS
 62
     7
 10
34.999999999966533
 20
-405.99999999997038
 30
0.0
 11
34.999999999966533
 21
-449.99999999997061
 31
0.0
  0
LINE
  5
3A5
  8
DATA
  6
CONTINUOUS
 62
     7
 10
-400.0000000000332
 20
-405.99999999997038
 30
0.0
 11
34.999999999966533
 21
-405.99999999997038
 31
0.0
  0
LINE
  5
3A6
  8
DATA
  6
CONTINUOUS
 62
     7
 10
-400.0000000000332
 20
-349.9999999999705
 30
0.0
 11
-400.0000000000332
 21
-219.9999999999705
 31
0.0
  0
LINE
  5
3A7
  8
DATA
  6
CONTINUOUS
 62
     7
 10
34.999999999966533
 20
-349.9999999999705
 30
0.0
 11
-400.0000000000332
 21
-349.9999999999705
 31
0.0
  0
LINE
  5
3A8
  8
DATA
  6
CONTINUOUS
 62
     7
 10
34.999999999966533
 20
-219.9999999999705
 30
0.0
 11
34.999999999966533
 21
-349.9999999999705
 31
0.0
  0
LINE
  5
3A9
  8
DATA
  6
CONTINUOUS
 62
     7
 10
-400.0000000000332
 20
-219.9999999999705
 30
0.0
 11
34.999999999966533
 21
-219.9999999999705
 31
0.0
  0
LINE
  5
3AA
  8
DATA
  6
CONTINUOUS
 62
     7
 10
-381.03079764375042
 20
-453.99999999997061
 30
0.0
 11
-396.96920235631649
 21
-453.99999999997061
 31
0.0
  0
LINE
  5
3AB
  8
DATA
  6
CONTINUOUS
 62
     7
 10
-398.00000000003342
 20
-449.99999999997061
 30
0.0
 11
-396.96920235631649
 21
-453.99999999997061
 31
0.0
  0
LINE
  5
3AC
  8
DATA
  6
CONTINUOUS
 62
     7
 10
-380.00000000003342
 20
-449.99999999997061
 30
0.0
 11
-381.03079764375042
 21
-453.99999999997061
 31
0.0
  0
LINE
  5
3AD
  8
DATA
  6
CONTINUOUS
 62
     7
 10
16.030797643683471
 20
-453.99999999997061
 30
0.0
 11
31.9692023562496
 21
-453.99999999997061
 31
0.0
  0
LINE
  5
3AE
  8
DATA
  6
CONTINUOUS
 62
     7
 10
32.999999999966541
 20
-449.99999999997061
 30
0.0
 11
31.9692023562496
 21
-453.99999999997061
 31
0.0
  0
LINE
  5
3AF
  8
DATA
  6
CONTINUOUS
 62
     7
 10
14.99999999996653
 20
-449.99999999997061
 30
0.0
 11
16.030797643683471
 21
-453.99999999997061
 31
0.0
  0
CIRCLE
  5
3B0
  8
DATA
  6
CONTINUOUS
 62
     7
 10
-208.02442098091359
 20
-433.99999999997038
 30
0.0
 40
1.399999999999977
  0
TEXT
  5
3B1
  8
DATA
 62
     7
 10
-213.48779846971581
 20
-446.22591371469719
 30
0.0
 40
3.031684072953392
  1
Link 1
 41
0.7
 11
-213.48779846971581
 21
-443.19422964174379
 31
0.0
 73
     3
  0
TEXT
  5
3B2
  8
DATA
 62
     7
 10
-74.397992387184516
 20
-422.97553024362952
 30
0.0
 40
10.105613576511301
  1
CAT5-5600HDR
 41
0.7
 11
-74.397992387184516
 21
-412.8699166671181
 31
0.0
 73
     3
  0
TEXT
  5
3B3
  8
DATA
 62
     7
 10
-22.02085997943604
 20
-434.75166670764042
 30
0.0
 40
6.0633681459067841
  1
DVIｷUSB 2.0
 41
0.7
 11
-22.02085997943604
 21
-428.68829856173357
 31
0.0
 73
     3
  0
CIRCLE
  5
3B4
  8
DATA
  6
CONTINUOUS
 62
     7
 10
-379.99018052796652
 20
-436.9999999999705
 30
0.0
 40
1.399999999999977
  0
TEXT
  5
3B5
  8
DATA
 62
     7
 10
-385.3712045880992
 20
-447.12375896616618
 30
0.0
 40
3.031684072953392
  1
Link 2
 41
0.7
 11
-385.3712045880992
 21
-444.09207489321278
 31
0.0
 73
     3
  0
TEXT
  5
3B6
  8
DATA
 62
     7
 10
-385.94818267046548
 20
-431.03965556140912
 30
0.0
 40
3.031684072953392
  1
Power
 41
0.7
 11
-385.94818267046548
 21
-428.00797148845572
 31
0.0
 73
     3
  0
LINE
  5
3B7
  8
DATA
  6
CONTINUOUS
 62
     7
 10
34.999999999966533
 20
-342.9999999999705
 30
0.0
 11
-400.0000000000332
 21
-342.9999999999705
 31
0.0
  0
LINE
  5
3B8
  8
DATA
  6
CONTINUOUS
 62
     7
 10
34.999999999966533
 20
-105.9999999999999
 30
0.0
 11
34.999999999966533
 21
-150.0
 31
0.0
  0
LINE
  5
3B9
  8
DATA
  6
CONTINUOUS
 62
     7
 10
-400.0000000000332
 20
-105.9999999999999
 30
0.0
 11
34.999999999966533
 21
-105.9999999999999
 31
0.0
  0
LINE
  5
3BA
  8
DATA
  6
CONTINUOUS
 62
     7
 10
-400.0000000000332
 20
-150.0
 30
0.0
 11
-400.0000000000332
 21
-105.9999999999999
 31
0.0
  0
LINE
  5
3BB
  8
DATA
  6
CONTINUOUS
 62
     7
 10
34.999999999966533
 20
-150.0
 30
0.0
 11
-400.0000000000332
 21
-150.0
 31
0.0
  0
LINE
  5
3BC
  8
DATA
  6
CONTINUOUS
 62
     7
 10
16.030797643683471
 20
-101.9999999999999
 30
0.0
 11
31.9692023562496
 21
-101.9999999999999
 31
0.0
  0
LINE
  5
3BD
  8
DATA
  6
CONTINUOUS
 62
     7
 10
32.999999999966541
 20
-105.9999999999999
 30
0.0
 11
31.9692023562496
 21
-101.9999999999999
 31
0.0
  0
LINE
  5
3BE
  8
DATA
  6
CONTINUOUS
 62
     7
 10
14.99999999996653
 20
-105.9999999999999
 30
0.0
 11
16.030797643683471
 21
-101.9999999999999
 31
0.0
  0
LINE
  5
3BF
  8
DATA
  6
CONTINUOUS
 62
     7
 10
-381.03079764375042
 20
-101.9999999999999
 30
0.0
 11
-396.96920235631649
 21
-101.9999999999999
 31
0.0
  0
LINE
  5
3C0
  8
DATA
  6
CONTINUOUS
 62
     7
 10
-398.00000000003342
 20
-105.9999999999999
 30
0.0
 11
-396.96920235631649
 21
-101.9999999999999
 31
0.0
  0
LINE
  5
3C1
  8
DATA
  6
CONTINUOUS
 62
     7
 10
-380.00000000003342
 20
-105.9999999999999
 30
0.0
 11
-381.03079764375042
 21
-101.9999999999999
 31
0.0
  0
CIRCLE
  5
3C2
  8
DATA
  6
CONTINUOUS
 62
     7
 10
-321.94286032084739
 20
-118.9229800972807
 30
0.0
 40
1.1750000000000671
  0
POLYLINE
  5
3C3
  8
DATA
  6
CONTINUOUS
 62
     7
 66
     1
 10
0.0
 20
0.0
 30
0.0
 70
     1
  0
VERTEX
  5
E0C
  8
DATA
  6
CONTINUOUS
 62
     7
 10
-321.94286032084739
 20
-121.6229800972807
 30
0.0
  0
VERTEX
  5
E0D
  8
DATA
  6
CONTINUOUS
 62
     7
 10
-319.60459173062941
 20
-120.27298009728069
 30
0.0
  0
VERTEX
  5
E0E
  8
DATA
  6
CONTINUOUS
 62
     7
 10
-319.60459173062941
 20
-117.57298009728071
 30
0.0
  0
VERTEX
  5
E0F
  8
DATA
  6
CONTINUOUS
 62
     7
 10
-321.94286032084739
 20
-116.2229800972808
 30
0.0
  0
VERTEX
  5
E10
  8
DATA
  6
CONTINUOUS
 62
     7
 10
-324.28112891106548
 20
-117.57298009728071
 30
0.0
  0
VERTEX
  5
E11
  8
DATA
  6
CONTINUOUS
 62
     7
 10
-324.28112891106548
 20
-120.27298009728069
 30
0.0
  0
SEQEND
  5
E12
  8
DATA
  6
CONTINUOUS
 62
     7
  0
CIRCLE
  5
3CC
  8
DATA
  6
CONTINUOUS
 62
     7
 10
-354.44286032084761
 20
-118.9229800972807
 30
0.0
 40
1.1750000000000671
  0
POLYLINE
  5
3CD
  8
DATA
  6
CONTINUOUS
 62
     7
 66
     1
 10
0.0
 20
0.0
 30
0.0
 70
     1
  0
VERTEX
  5
E13
  8
DATA
  6
CONTINUOUS
 62
     7
 10
-354.44286032084761
 20
-121.6229800972807
 30
0.0
  0
VERTEX
  5
E14
  8
DATA
  6
CONTINUOUS
 62
     7
 10
-352.10459173062958
 20
-120.27298009728069
 30
0.0
  0
VERTEX
  5
E15
  8
DATA
  6
CONTINUOUS
 62
     7
 10
-352.10459173062958
 20
-117.57298009728071
 30
0.0
  0
VERTEX
  5
E16
  8
DATA
  6
CONTINUOUS
 62
     7
 10
-354.44286032084761
 20
-116.2229800972808
 30
0.0
  0
VERTEX
  5
E17
  8
DATA
  6
CONTINUOUS
 62
     7
 10
-356.78112891106559
 20
-117.57298009728071
 30
0.0
  0
VERTEX
  5
E18
  8
DATA
  6
CONTINUOUS
 62
     7
 10
-356.78112891106559
 20
-120.27298009728069
 30
0.0
  0
SEQEND
  5
E19
  8
DATA
  6
CONTINUOUS
 62
     7
  0
LINE
  5
3D6
  8
DATA
  6
CONTINUOUS
 62
     7
 10
-327.24295543365599
 20
-122.8479800972807
 30
0.0
 11
-349.14276520803929
 21
-122.8479800972807
 31
0.0
  0
LINE
  5
3D7
  8
DATA
  6
CONTINUOUS
 62
     7
 10
-348.58384801058708
 20
-114.9979800972808
 30
0.0
 11
-327.80187263110832
 21
-114.9979800972808
 31
0.0
  0
POLYLINE
  5
3D8
  8
DATA
  6
CONTINUOUS
 62
     7
 66
     1
 10
0.0
 20
0.0
 30
0.0
 70
     1
  0
VERTEX
  5
E1A
  8
DATA
  6
CONTINUOUS
 62
     7
 10
-328.72279414966852
 20
-118.1579800972808
 30
0.0
  0
VERTEX
  5
E1B
  8
DATA
  6
CONTINUOUS
 62
     7
 10
-327.19279414966849
 20
-118.1579800972808
 30
0.0
  0
VERTEX
  5
E1C
  8
DATA
  6
CONTINUOUS
 62
     7
 10
-327.19279414966849
 20
-119.6879800972807
 30
0.0
  0
VERTEX
  5
E1D
  8
DATA
  6
CONTINUOUS
 62
     7
 10
-328.72279414966852
 20
-119.6879800972807
 30
0.0
  0
SEQEND
  5
E1E
  8
DATA
  6
CONTINUOUS
 62
     7
  0
POLYLINE
  5
3DF
  8
DATA
  6
CONTINUOUS
 62
     7
 66
     1
 10
0.0
 20
0.0
 30
0.0
 70
     1
  0
VERTEX
  5
E1F
  8
DATA
  6
CONTINUOUS
 62
     7
 10
-330.72279414966857
 20
-118.1579800972808
 30
0.0
  0
VERTEX
  5
E20
  8
DATA
  6
CONTINUOUS
 62
     7
 10
-329.19279414966837
 20
-118.1579800972808
 30
0.0
  0
VERTEX
  5
E21
  8
DATA
  6
CONTINUOUS
 62
     7
 10
-329.19279414966837
 20
-119.6879800972807
 30
0.0
  0
VERTEX
  5
E22
  8
DATA
  6
CONTINUOUS
 62
     7
 10
-330.72279414966857
 20
-119.6879800972807
 30
0.0
  0
SEQEND
  5
E23
  8
DATA
  6
CONTINUOUS
 62
     7
  0
POLYLINE
  5
3E6
  8
DATA
  6
CONTINUOUS
 62
     7
 66
     1
 10
0.0
 20
0.0
 30
0.0
 70
     1
  0
VERTEX
  5
E24
  8
DATA
  6
CONTINUOUS
 62
     7
 10
-332.72279414966818
 20
-118.1579800972808
 30
0.0
  0
VERTEX
  5
E25
  8
DATA
  6
CONTINUOUS
 62
     7
 10
-331.19279414966832
 20
-118.1579800972808
 30
0.0
  0
VERTEX
  5
E26
  8
DATA
  6
CONTINUOUS
 62
     7
 10
-331.19279414966832
 20
-119.6879800972807
 30
0.0
  0
VERTEX
  5
E27
  8
DATA
  6
CONTINUOUS
 62
     7
 10
-332.72279414966818
 20
-119.6879800972807
 30
0.0
  0
SEQEND
  5
E28
  8
DATA
  6
CONTINUOUS
 62
     7
  0
POLYLINE
  5
3ED
  8
DATA
  6
CONTINUOUS
 62
     7
 66
     1
 10
0.0
 20
0.0
 30
0.0
 70
     1
  0
VERTEX
  5
E29
  8
DATA
  6
CONTINUOUS
 62
     7
 10
-334.72279414966829
 20
-118.1579800972808
 30
0.0
  0
VERTEX
  5
E2A
  8
DATA
  6
CONTINUOUS
 62
     7
 10
-333.19279414966832
 20
-118.1579800972808
 30
0.0
  0
VERTEX
  5
E2B
  8
DATA
  6
CONTINUOUS
 62
     7
 10
-333.19279414966832
 20
-119.6879800972807
 30
0.0
  0
VERTEX
  5
E2C
  8
DATA
  6
CONTINUOUS
 62
     7
 10
-334.72279414966829
 20
-119.6879800972807
 30
0.0
  0
SEQEND
  5
E2D
  8
DATA
  6
CONTINUOUS
 62
     7
  0
POLYLINE
  5
3F4
  8
DATA
  6
CONTINUOUS
 62
     7
 66
     1
 10
0.0
 20
0.0
 30
0.0
 70
     1
  0
VERTEX
  5
E2E
  8
DATA
  6
CONTINUOUS
 62
     7
 10
-336.72279414966829
 20
-118.1579800972808
 30
0.0
  0
VERTEX
  5
E2F
  8
DATA
  6
CONTINUOUS
 62
     7
 10
-335.19279414966832
 20
-118.1579800972808
 30
0.0
  0
VERTEX
  5
E30
  8
DATA
  6
CONTINUOUS
 62
     7
 10
-335.19279414966832
 20
-119.6879800972807
 30
0.0
  0
VERTEX
  5
E31
  8
DATA
  6
CONTINUOUS
 62
     7
 10
-336.72279414966829
 20
-119.6879800972807
 30
0.0
  0
SEQEND
  5
E32
  8
DATA
  6
CONTINUOUS
 62
     7
  0
POLYLINE
  5
3FB
  8
DATA
  6
CONTINUOUS
 62
     7
 66
     1
 10
0.0
 20
0.0
 30
0.0
 70
     1
  0
VERTEX
  5
E33
  8
DATA
  6
CONTINUOUS
 62
     7
 10
-338.72279414966829
 20
-118.1579800972808
 30
0.0
  0
VERTEX
  5
E34
  8
DATA
  6
CONTINUOUS
 62
     7
 10
-337.19279414966832
 20
-118.1579800972808
 30
0.0
  0
VERTEX
  5
E35
  8
DATA
  6
CONTINUOUS
 62
     7
 10
-337.19279414966832
 20
-119.6879800972807
 30
0.0
  0
VERTEX
  5
E36
  8
DATA
  6
CONTINUOUS
 62
     7
 10
-338.72279414966829
 20
-119.6879800972807
 30
0.0
  0
SEQEND
  5
E37
  8
DATA
  6
CONTINUOUS
 62
     7
  0
POLYLINE
  5
402
  8
DATA
  6
CONTINUOUS
 62
     7
 66
     1
 10
0.0
 20
0.0
 30
0.0
 70
     1
  0
VERTEX
  5
E38
  8
DATA
  6
CONTINUOUS
 62
     7
 10
-340.72279414966818
 20
-118.1579800972808
 30
0.0
  0
VERTEX
  5
E39
  8
DATA
  6
CONTINUOUS
 62
     7
 10
-339.19279414966832
 20
-118.1579800972808
 30
0.0
  0
VERTEX
  5
E3A
  8
DATA
  6
CONTINUOUS
 62
     7
 10
-339.19279414966832
 20
-119.6879800972807
 30
0.0
  0
VERTEX
  5
E3B
  8
DATA
  6
CONTINUOUS
 62
     7
 10
-340.72279414966818
 20
-119.6879800972807
 30
0.0
  0
SEQEND
  5
E3C
  8
DATA
  6
CONTINUOUS
 62
     7
  0
POLYLINE
  5
409
  8
DATA
  6
CONTINUOUS
 62
     7
 66
     1
 10
0.0
 20
0.0
 30
0.0
 70
     1
  0
VERTEX
  5
E3D
  8
DATA
  6
CONTINUOUS
 62
     7
 10
-342.72279414966818
 20
-118.1579800972808
 30
0.0
  0
VERTEX
  5
E3E
  8
DATA
  6
CONTINUOUS
 62
     7
 10
-341.19279414966832
 20
-118.1579800972808
 30
0.0
  0
VERTEX
  5
E3F
  8
DATA
  6
CONTINUOUS
 62
     7
 10
-341.19279414966832
 20
-119.6879800972807
 30
0.0
  0
VERTEX
  5
E40
  8
DATA
  6
CONTINUOUS
 62
     7
 10
-342.72279414966818
 20
-119.6879800972807
 30
0.0
  0
SEQEND
  5
E41
  8
DATA
  6
CONTINUOUS
 62
     7
  0
POLYLINE
  5
410
  8
DATA
  6
CONTINUOUS
 62
     7
 66
     1
 10
0.0
 20
0.0
 30
0.0
 70
     1
  0
VERTEX
  5
E42
  8
DATA
  6
CONTINUOUS
 62
     7
 10
-328.72279414966852
 20
-120.1579800972808
 30
0.0
  0
VERTEX
  5
E43
  8
DATA
  6
CONTINUOUS
 62
     7
 10
-327.19279414966849
 20
-120.1579800972808
 30
0.0
  0
VERTEX
  5
E44
  8
DATA
  6
CONTINUOUS
 62
     7
 10
-327.19279414966849
 20
-121.6879800972807
 30
0.0
  0
VERTEX
  5
E45
  8
DATA
  6
CONTINUOUS
 62
     7
 10
-328.72279414966852
 20
-121.6879800972807
 30
0.0
  0
SEQEND
  5
E46
  8
DATA
  6
CONTINUOUS
 62
     7
  0
POLYLINE
  5
417
  8
DATA
  6
CONTINUOUS
 62
     7
 66
     1
 10
0.0
 20
0.0
 30
0.0
 70
     1
  0
VERTEX
  5
E47
  8
DATA
  6
CONTINUOUS
 62
     7
 10
-330.72279414966857
 20
-120.1579800972808
 30
0.0
  0
VERTEX
  5
E48
  8
DATA
  6
CONTINUOUS
 62
     7
 10
-329.19279414966837
 20
-120.1579800972808
 30
0.0
  0
VERTEX
  5
E49
  8
DATA
  6
CONTINUOUS
 62
     7
 10
-329.19279414966837
 20
-121.6879800972807
 30
0.0
  0
VERTEX
  5
E4A
  8
DATA
  6
CONTINUOUS
 62
     7
 10
-330.72279414966857
 20
-121.6879800972807
 30
0.0
  0
SEQEND
  5
E4B
  8
DATA
  6
CONTINUOUS
 62
     7
  0
POLYLINE
  5
41E
  8
DATA
  6
CONTINUOUS
 62
     7
 66
     1
 10
0.0
 20
0.0
 30
0.0
 70
     1
  0
VERTEX
  5
E4C
  8
DATA
  6
CONTINUOUS
 62
     7
 10
-332.72279414966818
 20
-120.1579800972808
 30
0.0
  0
VERTEX
  5
E4D
  8
DATA
  6
CONTINUOUS
 62
     7
 10
-331.19279414966832
 20
-120.1579800972808
 30
0.0
  0
VERTEX
  5
E4E
  8
DATA
  6
CONTINUOUS
 62
     7
 10
-331.19279414966832
 20
-121.6879800972807
 30
0.0
  0
VERTEX
  5
E4F
  8
DATA
  6
CONTINUOUS
 62
     7
 10
-332.72279414966818
 20
-121.6879800972807
 30
0.0
  0
SEQEND
  5
E50
  8
DATA
  6
CONTINUOUS
 62
     7
  0
POLYLINE
  5
425
  8
DATA
  6
CONTINUOUS
 62
     7
 66
     1
 10
0.0
 20
0.0
 30
0.0
 70
     1
  0
VERTEX
  5
E51
  8
DATA
  6
CONTINUOUS
 62
     7
 10
-334.72279414966829
 20
-120.1579800972808
 30
0.0
  0
VERTEX
  5
E52
  8
DATA
  6
CONTINUOUS
 62
     7
 10
-333.19279414966832
 20
-120.1579800972808
 30
0.0
  0
VERTEX
  5
E53
  8
DATA
  6
CONTINUOUS
 62
     7
 10
-333.19279414966832
 20
-121.6879800972807
 30
0.0
  0
VERTEX
  5
E54
  8
DATA
  6
CONTINUOUS
 62
     7
 10
-334.72279414966829
 20
-121.6879800972807
 30
0.0
  0
SEQEND
  5
E55
  8
DATA
  6
CONTINUOUS
 62
     7
  0
POLYLINE
  5
42C
  8
DATA
  6
CONTINUOUS
 62
     7
 66
     1
 10
0.0
 20
0.0
 30
0.0
 70
     1
  0
VERTEX
  5
E56
  8
DATA
  6
CONTINUOUS
 62
     7
 10
-336.72279414966829
 20
-120.1579800972808
 30
0.0
  0
VERTEX
  5
E57
  8
DATA
  6
CONTINUOUS
 62
     7
 10
-335.19279414966832
 20
-120.1579800972808
 30
0.0
  0
VERTEX
  5
E58
  8
DATA
  6
CONTINUOUS
 62
     7
 10
-335.19279414966832
 20
-121.6879800972807
 30
0.0
  0
VERTEX
  5
E59
  8
DATA
  6
CONTINUOUS
 62
     7
 10
-336.72279414966829
 20
-121.6879800972807
 30
0.0
  0
SEQEND
  5
E5A
  8
DATA
  6
CONTINUOUS
 62
     7
  0
POLYLINE
  5
433
  8
DATA
  6
CONTINUOUS
 62
     7
 66
     1
 10
0.0
 20
0.0
 30
0.0
 70
     1
  0
VERTEX
  5
E5B
  8
DATA
  6
CONTINUOUS
 62
     7
 10
-338.72279414966829
 20
-120.1579800972808
 30
0.0
  0
VERTEX
  5
E5C
  8
DATA
  6
CONTINUOUS
 62
     7
 10
-337.19279414966832
 20
-120.1579800972808
 30
0.0
  0
VERTEX
  5
E5D
  8
DATA
  6
CONTINUOUS
 62
     7
 10
-337.19279414966832
 20
-121.6879800972807
 30
0.0
  0
VERTEX
  5
E5E
  8
DATA
  6
CONTINUOUS
 62
     7
 10
-338.72279414966829
 20
-121.6879800972807
 30
0.0
  0
SEQEND
  5
E5F
  8
DATA
  6
CONTINUOUS
 62
     7
  0
POLYLINE
  5
43A
  8
DATA
  6
CONTINUOUS
 62
     7
 66
     1
 10
0.0
 20
0.0
 30
0.0
 70
     1
  0
VERTEX
  5
E60
  8
DATA
  6
CONTINUOUS
 62
     7
 10
-340.72279414966818
 20
-120.1579800972808
 30
0.0
  0
VERTEX
  5
E61
  8
DATA
  6
CONTINUOUS
 62
     7
 10
-339.19279414966832
 20
-120.1579800972808
 30
0.0
  0
VERTEX
  5
E62
  8
DATA
  6
CONTINUOUS
 62
     7
 10
-339.19279414966832
 20
-121.6879800972807
 30
0.0
  0
VERTEX
  5
E63
  8
DATA
  6
CONTINUOUS
 62
     7
 10
-340.72279414966818
 20
-121.6879800972807
 30
0.0
  0
SEQEND
  5
E64
  8
DATA
  6
CONTINUOUS
 62
     7
  0
POLYLINE
  5
441
  8
DATA
  6
CONTINUOUS
 62
     7
 66
     1
 10
0.0
 20
0.0
 30
0.0
 70
     1
  0
VERTEX
  5
E65
  8
DATA
  6
CONTINUOUS
 62
     7
 10
-342.72279414966818
 20
-120.1579800972808
 30
0.0
  0
VERTEX
  5
E66
  8
DATA
  6
CONTINUOUS
 62
     7
 10
-341.19279414966832
 20
-120.1579800972808
 30
0.0
  0
VERTEX
  5
E67
  8
DATA
  6
CONTINUOUS
 62
     7
 10
-341.19279414966832
 20
-121.6879800972807
 30
0.0
  0
VERTEX
  5
E68
  8
DATA
  6
CONTINUOUS
 62
     7
 10
-342.72279414966818
 20
-121.6879800972807
 30
0.0
  0
SEQEND
  5
E69
  8
DATA
  6
CONTINUOUS
 62
     7
  0
POLYLINE
  5
448
  8
DATA
  6
CONTINUOUS
 62
     7
 66
     1
 10
0.0
 20
0.0
 30
0.0
 70
     1
  0
VERTEX
  5
E6A
  8
DATA
  6
CONTINUOUS
 62
     7
 10
-328.72279414966852
 20
-116.1579800972807
 30
0.0
  0
VERTEX
  5
E6B
  8
DATA
  6
CONTINUOUS
 62
     7
 10
-327.19279414966849
 20
-116.1579800972807
 30
0.0
  0
VERTEX
  5
E6C
  8
DATA
  6
CONTINUOUS
 62
     7
 10
-327.19279414966849
 20
-117.6879800972807
 30
0.0
  0
VERTEX
  5
E6D
  8
DATA
  6
CONTINUOUS
 62
     7
 10
-328.72279414966852
 20
-117.6879800972807
 30
0.0
  0
SEQEND
  5
E6E
  8
DATA
  6
CONTINUOUS
 62
     7
  0
POLYLINE
  5
44F
  8
DATA
  6
CONTINUOUS
 62
     7
 66
     1
 10
0.0
 20
0.0
 30
0.0
 70
     1
  0
VERTEX
  5
E6F
  8
DATA
  6
CONTINUOUS
 62
     7
 10
-330.72279414966857
 20
-116.1579800972807
 30
0.0
  0
VERTEX
  5
E70
  8
DATA
  6
CONTINUOUS
 62
     7
 10
-329.19279414966837
 20
-116.1579800972807
 30
0.0
  0
VERTEX
  5
E71
  8
DATA
  6
CONTINUOUS
 62
     7
 10
-329.19279414966837
 20
-117.6879800972807
 30
0.0
  0
VERTEX
  5
E72
  8
DATA
  6
CONTINUOUS
 62
     7
 10
-330.72279414966857
 20
-117.6879800972807
 30
0.0
  0
SEQEND
  5
E73
  8
DATA
  6
CONTINUOUS
 62
     7
  0
POLYLINE
  5
456
  8
DATA
  6
CONTINUOUS
 62
     7
 66
     1
 10
0.0
 20
0.0
 30
0.0
 70
     1
  0
VERTEX
  5
E74
  8
DATA
  6
CONTINUOUS
 62
     7
 10
-332.72279414966818
 20
-116.1579800972807
 30
0.0
  0
VERTEX
  5
E75
  8
DATA
  6
CONTINUOUS
 62
     7
 10
-331.19279414966832
 20
-116.1579800972807
 30
0.0
  0
VERTEX
  5
E76
  8
DATA
  6
CONTINUOUS
 62
     7
 10
-331.19279414966832
 20
-117.6879800972807
 30
0.0
  0
VERTEX
  5
E77
  8
DATA
  6
CONTINUOUS
 62
     7
 10
-332.72279414966818
 20
-117.6879800972807
 30
0.0
  0
SEQEND
  5
E78
  8
DATA
  6
CONTINUOUS
 62
     7
  0
POLYLINE
  5
45D
  8
DATA
  6
CONTINUOUS
 62
     7
 66
     1
 10
0.0
 20
0.0
 30
0.0
 70
     1
  0
VERTEX
  5
E79
  8
DATA
  6
CONTINUOUS
 62
     7
 10
-334.72279414966829
 20
-116.1579800972807
 30
0.0
  0
VERTEX
  5
E7A
  8
DATA
  6
CONTINUOUS
 62
     7
 10
-333.19279414966832
 20
-116.1579800972807
 30
0.0
  0
VERTEX
  5
E7B
  8
DATA
  6
CONTINUOUS
 62
     7
 10
-333.19279414966832
 20
-117.6879800972807
 30
0.0
  0
VERTEX
  5
E7C
  8
DATA
  6
CONTINUOUS
 62
     7
 10
-334.72279414966829
 20
-117.6879800972807
 30
0.0
  0
SEQEND
  5
E7D
  8
DATA
  6
CONTINUOUS
 62
     7
  0
POLYLINE
  5
464
  8
DATA
  6
CONTINUOUS
 62
     7
 66
     1
 10
0.0
 20
0.0
 30
0.0
 70
     1
  0
VERTEX
  5
E7E
  8
DATA
  6
CONTINUOUS
 62
     7
 10
-336.72279414966829
 20
-116.1579800972807
 30
0.0
  0
VERTEX
  5
E7F
  8
DATA
  6
CONTINUOUS
 62
     7
 10
-335.19279414966832
 20
-116.1579800972807
 30
0.0
  0
VERTEX
  5
E80
  8
DATA
  6
CONTINUOUS
 62
     7
 10
-335.19279414966832
 20
-117.6879800972807
 30
0.0
  0
VERTEX
  5
E81
  8
DATA
  6
CONTINUOUS
 62
     7
 10
-336.72279414966829
 20
-117.6879800972807
 30
0.0
  0
SEQEND
  5
E82
  8
DATA
  6
CONTINUOUS
 62
     7
  0
POLYLINE
  5
46B
  8
DATA
  6
CONTINUOUS
 62
     7
 66
     1
 10
0.0
 20
0.0
 30
0.0
 70
     1
  0
VERTEX
  5
E83
  8
DATA
  6
CONTINUOUS
 62
     7
 10
-338.72279414966829
 20
-116.1579800972807
 30
0.0
  0
VERTEX
  5
E84
  8
DATA
  6
CONTINUOUS
 62
     7
 10
-337.19279414966832
 20
-116.1579800972807
 30
0.0
  0
VERTEX
  5
E85
  8
DATA
  6
CONTINUOUS
 62
     7
 10
-337.19279414966832
 20
-117.6879800972807
 30
0.0
  0
VERTEX
  5
E86
  8
DATA
  6
CONTINUOUS
 62
     7
 10
-338.72279414966829
 20
-117.6879800972807
 30
0.0
  0
SEQEND
  5
E87
  8
DATA
  6
CONTINUOUS
 62
     7
  0
POLYLINE
  5
472
  8
DATA
  6
CONTINUOUS
 62
     7
 66
     1
 10
0.0
 20
0.0
 30
0.0
 70
     1
  0
VERTEX
  5
E88
  8
DATA
  6
CONTINUOUS
 62
     7
 10
-340.72279414966818
 20
-116.1579800972807
 30
0.0
  0
VERTEX
  5
E89
  8
DATA
  6
CONTINUOUS
 62
     7
 10
-339.19279414966832
 20
-116.1579800972807
 30
0.0
  0
VERTEX
  5
E8A
  8
DATA
  6
CONTINUOUS
 62
     7
 10
-339.19279414966832
 20
-117.6879800972807
 30
0.0
  0
VERTEX
  5
E8B
  8
DATA
  6
CONTINUOUS
 62
     7
 10
-340.72279414966818
 20
-117.6879800972807
 30
0.0
  0
SEQEND
  5
E8C
  8
DATA
  6
CONTINUOUS
 62
     7
  0
POLYLINE
  5
479
  8
DATA
  6
CONTINUOUS
 62
     7
 66
     1
 10
0.0
 20
0.0
 30
0.0
 70
     1
  0
VERTEX
  5
E8D
  8
DATA
  6
CONTINUOUS
 62
     7
 10
-342.72279414966818
 20
-116.1579800972807
 30
0.0
  0
VERTEX
  5
E8E
  8
DATA
  6
CONTINUOUS
 62
     7
 10
-341.19279414966832
 20
-116.1579800972807
 30
0.0
  0
VERTEX
  5
E8F
  8
DATA
  6
CONTINUOUS
 62
     7
 10
-341.19279414966832
 20
-117.6879800972807
 30
0.0
  0
VERTEX
  5
E90
  8
DATA
  6
CONTINUOUS
 62
     7
 10
-342.72279414966818
 20
-117.6879800972807
 30
0.0
  0
SEQEND
  5
E91
  8
DATA
  6
CONTINUOUS
 62
     7
  0
POLYLINE
  5
480
  8
DATA
  6
CONTINUOUS
 62
     7
 66
     1
 10
0.0
 20
0.0
 30
0.0
  0
VERTEX
  5
E92
  8
DATA
  6
CONTINUOUS
 62
     7
 10
-346.74286032084763
 20
-119.32298009728071
 30
0.0
  0
VERTEX
  5
E93
  8
DATA
  6
CONTINUOUS
 62
     7
 10
-348.84286032084759
 20
-119.32298009728071
 30
0.0
  0
VERTEX
  5
E94
  8
DATA
  6
CONTINUOUS
 62
     7
 10
-348.84286032084759
 20
-118.52298009728069
 30
0.0
  0
VERTEX
  5
E95
  8
DATA
  6
CONTINUOUS
 62
     7
 10
-346.74286032084763
 20
-118.52298009728069
 30
0.0
  0
SEQEND
  5
E96
  8
DATA
  6
CONTINUOUS
 62
     7
  0
POLYLINE
  5
487
  8
DATA
  6
CONTINUOUS
 62
     7
 66
     1
 10
0.0
 20
0.0
 30
0.0
  0
VERTEX
  5
E97
  8
DATA
  6
CONTINUOUS
 62
     7
 10
-345.94286032084779
 20
-118.52298009728069
 30
0.0
  0
VERTEX
  5
E98
  8
DATA
  6
CONTINUOUS
 62
     7
 10
-343.84286032084759
 20
-118.52298009728069
 30
0.0
  0
VERTEX
  5
E99
  8
DATA
  6
CONTINUOUS
 62
     7
 10
-343.84286032084759
 20
-119.32298009728071
 30
0.0
  0
VERTEX
  5
E9A
  8
DATA
  6
CONTINUOUS
 62
     7
 10
-345.94286032084779
 20
-119.32298009728071
 30
0.0
  0
SEQEND
  5
E9B
  8
DATA
  6
CONTINUOUS
 62
     7
  0
POLYLINE
  5
48E
  8
DATA
  6
CONTINUOUS
 62
     7
 66
     1
 10
0.0
 20
0.0
 30
0.0
  0
VERTEX
  5
E9C
  8
DATA
  6
CONTINUOUS
 62
     7
 10
-346.74286032084763
 20
-118.52298009728069
 30
0.0
  0
VERTEX
  5
E9D
  8
DATA
  6
CONTINUOUS
 62
     7
 10
-346.74286032084763
 20
-116.4229800972807
 30
0.0
  0
VERTEX
  5
E9E
  8
DATA
  6
CONTINUOUS
 62
     7
 10
-345.94286032084779
 20
-116.4229800972807
 30
0.0
  0
VERTEX
  5
E9F
  8
DATA
  6
CONTINUOUS
 62
     7
 10
-345.94286032084779
 20
-118.52298009728069
 30
0.0
  0
SEQEND
  5
EA0
  8
DATA
  6
CONTINUOUS
 62
     7
  0
POLYLINE
  5
495
  8
DATA
  6
CONTINUOUS
 62
     7
 66
     1
 10
0.0
 20
0.0
 30
0.0
  0
VERTEX
  5
EA1
  8
DATA
  6
CONTINUOUS
 62
     7
 10
-345.94286032084779
 20
-119.32298009728071
 30
0.0
  0
VERTEX
  5
EA2
  8
DATA
  6
CONTINUOUS
 62
     7
 10
-345.94286032084779
 20
-121.4229800972807
 30
0.0
  0
VERTEX
  5
EA3
  8
DATA
  6
CONTINUOUS
 62
     7
 10
-346.74286032084763
 20
-121.4229800972807
 30
0.0
  0
VERTEX
  5
EA4
  8
DATA
  6
CONTINUOUS
 62
     7
 10
-346.74286032084763
 20
-119.32298009728071
 30
0.0
  0
SEQEND
  5
EA5
  8
DATA
  6
CONTINUOUS
 62
     7
  0
POLYLINE
  5
49C
  8
DATA
  6
CONTINUOUS
 62
     7
 66
     1
 10
0.0
 20
0.0
 30
0.0
 70
     1
  0
VERTEX
  5
EA6
  8
DATA
  6
CONTINUOUS
 62
     7
 10
-345.48257589037593
 20
-119.6824079079306
 30
0.0
  0
VERTEX
  5
EA7
  8
DATA
  6
CONTINUOUS
 62
     7
 10
-344.48257589037593
 20
-119.6824079079306
 30
0.0
  0
VERTEX
  5
EA8
  8
DATA
  6
CONTINUOUS
 62
     7
 10
-344.48257589037593
 20
-120.6824079079306
 30
0.0
  0
VERTEX
  5
EA9
  8
DATA
  6
CONTINUOUS
 62
     7
 10
-345.48257589037593
 20
-120.6824079079306
 30
0.0
  0
SEQEND
  5
EAA
  8
DATA
  6
CONTINUOUS
 62
     7
  0
POLYLINE
  5
4A3
  8
DATA
  6
CONTINUOUS
 62
     7
 66
     1
 10
0.0
 20
0.0
 30
0.0
 70
     1
  0
VERTEX
  5
EAB
  8
DATA
  6
CONTINUOUS
 62
     7
 10
-348.20314475131943
 20
-119.6824079079306
 30
0.0
  0
VERTEX
  5
EAC
  8
DATA
  6
CONTINUOUS
 62
     7
 10
-347.20314475131943
 20
-119.6824079079306
 30
0.0
  0
VERTEX
  5
EAD
  8
DATA
  6
CONTINUOUS
 62
     7
 10
-347.20314475131943
 20
-120.6824079079306
 30
0.0
  0
VERTEX
  5
EAE
  8
DATA
  6
CONTINUOUS
 62
     7
 10
-348.20314475131943
 20
-120.6824079079306
 30
0.0
  0
SEQEND
  5
EAF
  8
DATA
  6
CONTINUOUS
 62
     7
  0
POLYLINE
  5
4AA
  8
DATA
  6
CONTINUOUS
 62
     7
 66
     1
 10
0.0
 20
0.0
 30
0.0
 70
     1
  0
VERTEX
  5
EB0
  8
DATA
  6
CONTINUOUS
 62
     7
 10
-345.48257589037593
 20
-117.1635522866307
 30
0.0
  0
VERTEX
  5
EB1
  8
DATA
  6
CONTINUOUS
 62
     7
 10
-344.48257589037593
 20
-117.1635522866307
 30
0.0
  0
VERTEX
  5
EB2
  8
DATA
  6
CONTINUOUS
 62
     7
 10
-344.48257589037593
 20
-118.1635522866307
 30
0.0
  0
VERTEX
  5
EB3
  8
DATA
  6
CONTINUOUS
 62
     7
 10
-345.48257589037593
 20
-118.1635522866307
 30
0.0
  0
SEQEND
  5
EB4
  8
DATA
  6
CONTINUOUS
 62
     7
  0
POLYLINE
  5
4B1
  8
DATA
  6
CONTINUOUS
 62
     7
 66
     1
 10
0.0
 20
0.0
 30
0.0
 70
     1
  0
VERTEX
  5
EB5
  8
DATA
  6
CONTINUOUS
 62
     7
 10
-348.20314475131943
 20
-117.1635522866307
 30
0.0
  0
VERTEX
  5
EB6
  8
DATA
  6
CONTINUOUS
 62
     7
 10
-347.20314475131943
 20
-117.1635522866307
 30
0.0
  0
VERTEX
  5
EB7
  8
DATA
  6
CONTINUOUS
 62
     7
 10
-347.20314475131943
 20
-118.1635522866307
 30
0.0
  0
VERTEX
  5
EB8
  8
DATA
  6
CONTINUOUS
 62
     7
 10
-348.20314475131943
 20
-118.1635522866307
 30
0.0
  0
SEQEND
  5
EB9
  8
DATA
  6
CONTINUOUS
 62
     7
  0
LINE
  5
4B8
  8
DATA
  6
CONTINUOUS
 62
     7
 10
-326.24748850290052
 20
-121.7528717917945
 30
0.0
 11
-326.8064057003528
 21
-115.9028717917945
 31
0.0
  0
LINE
  5
4B9
  8
DATA
  6
CONTINUOUS
 62
     7
 10
-350.13823213879482
 20
-121.7528717917945
 30
0.0
 11
-349.57931494134249
 21
-115.9028717917946
 31
0.0
  0
ARC
  5
4BA
  8
DATA
  6
CONTINUOUS
 62
     7
 10
-327.24295543365599
 20
-121.8479800972808
 30
0.0
 40
0.9999999999998864
 50
270.0
 51
5.4575534851103358
  0
ARC
  5
4BB
  8
DATA
  6
CONTINUOUS
 62
     7
 10
-349.14276520803929
 20
-121.8479800972807
 30
0.0
 40
0.9999999999999703
 50
174.54244651489549
 51
270.0
  0
ARC
  5
4BC
  8
DATA
  6
CONTINUOUS
 62
     7
 10
-327.80187263110838
 20
-115.9979800972808
 30
0.0
 40
1.000000000000093
 50
5.4575534851103331
 51
89.999999999993477
  0
ARC
  5
4BD
  8
DATA
  6
CONTINUOUS
 62
     7
 10
-348.58384801058708
 20
-115.9979800972808
 30
0.0
 40
1.0
 50
90.0
 51
174.54244651489549
  0
TEXT
  5
4BE
  8
DATA
 62
     7
 10
-327.44866163005838
 20
-108.01219555708541
 30
0.0
 40
3.121945529513888
  1
DVI Out 2 
 50
180.0
 41
0.7
 11
-327.44866163005838
 21
-111.1341410865993
 31
0.0
 73
     3
  0
LINE
  5
4BF
  8
DATA
  6
CONTINUOUS
 62
     7
 10
-285.92641014004619
 20
-114.98068742008699
 30
0.0
 11
-285.92641014004619
 21
-128.28068742008711
 31
0.0
  0
LINE
  5
4C0
  8
DATA
  6
CONTINUOUS
 62
     7
 10
-301.626410140046
 20
-114.98068742008699
 30
0.0
 11
-301.626410140046
 21
-128.28068742008711
 31
0.0
  0
LINE
  5
4C1
  8
DATA
  6
CONTINUOUS
 62
     7
 10
-301.626410140046
 20
-128.28068742008711
 30
0.0
 11
-285.92641014004619
 21
-128.28068742008711
 31
0.0
  0
LINE
  5
4C2
  8
DATA
  6
CONTINUOUS
 62
     7
 10
-301.626410140046
 20
-114.98068742008699
 30
0.0
 11
-285.92641014004619
 21
-114.98068742008699
 31
0.0
  0
LINE
  5
4C3
  8
DATA
  6
CONTINUOUS
 62
     7
 10
-299.92641014004619
 20
-117.98068742008719
 30
0.0
 11
-287.62641014004612
 21
-117.98068742008719
 31
0.0
  0
LINE
  5
4C4
  8
DATA
  6
CONTINUOUS
 62
     7
 10
-299.92641014004619
 20
-117.98068742008719
 30
0.0
 11
-299.92641014004619
 21
-125.28068742008711
 31
0.0
  0
LINE
  5
4C5
  8
DATA
  6
CONTINUOUS
 62
     7
 10
-287.62641014004612
 20
-117.98068742008719
 30
0.0
 11
-287.62641014004612
 21
-125.28068742008711
 31
0.0
  0
LINE
  5
4C6
  8
DATA
  6
CONTINUOUS
 62
     7
 10
-296.001410140046
 20
-128.28068742008711
 30
0.0
 11
-296.001410140046
 21
-126.78068742008711
 31
0.0
  0
LINE
  5
4C7
  8
DATA
  6
CONTINUOUS
 62
     7
 10
-291.55141014004619
 20
-126.78068742008711
 30
0.0
 11
-291.55141014004619
 21
-128.28068742008711
 31
0.0
  0
LINE
  5
4C8
  8
DATA
  6
CONTINUOUS
 62
     7
 10
-297.12641014004612
 20
-126.78068742008711
 30
0.0
 11
-296.001410140046
 21
-126.78068742008711
 31
0.0
  0
LINE
  5
4C9
  8
DATA
  6
CONTINUOUS
 62
     7
 10
-291.55141014004619
 20
-126.78068742008711
 30
0.0
 11
-290.42641014004619
 21
-126.78068742008711
 31
0.0
  0
LINE
  5
4CA
  8
DATA
  6
CONTINUOUS
 62
     7
 10
-299.92641014004619
 20
-125.28068742008711
 30
0.0
 11
-297.12641014004612
 21
-125.28068742008711
 31
0.0
  0
LINE
  5
4CB
  8
DATA
  6
CONTINUOUS
 62
     7
 10
-290.42641014004619
 20
-125.28068742008711
 30
0.0
 11
-287.62641014004612
 21
-125.28068742008711
 31
0.0
  0
LINE
  5
4CC
  8
DATA
  6
CONTINUOUS
 62
     7
 10
-297.12641014004612
 20
-126.78068742008711
 30
0.0
 11
-297.12641014004612
 21
-125.28068742008711
 31
0.0
  0
LINE
  5
4CD
  8
DATA
  6
CONTINUOUS
 62
     7
 10
-290.42641014004619
 20
-125.28068742008711
 30
0.0
 11
-290.42641014004619
 21
-126.78068742008711
 31
0.0
  0
TEXT
  5
4CE
  8
DATA
 62
     7
 10
-286.72843468445109
 20
-109.3496115765433
 30
0.0
 40
3.121945529513888
  1
Video 2
 50
180.0
 41
0.7
 11
-286.72843468445109
 21
-112.4715571060572
 31
0.0
 73
     3
  0
TEXT
  5
4CF
  8
DATA
 62
     7
 10
-288.43804133031648
 20
-129.53285937451449
 30
0.0
 40
3.121945529513888
  1
CAT-6 
 50
180.0
 41
0.7
 11
-288.43804133031648
 21
-132.6548049040284
 31
0.0
 73
     3
  0
CIRCLE
  5
4D0
  8
DATA
  6
CONTINUOUS
 62
     7
 10
-381.00000000003342
 20
-124.0
 30
0.0
 40
3.899999999999975
  0
POLYLINE
  5
4D1
  8
DATA
  6
CONTINUOUS
 62
     7
 66
     1
 10
0.0
 20
0.0
 30
0.0
 70
     1
  0
VERTEX
  5
EBA
  8
DATA
  6
CONTINUOUS
 62
     7
 10
-380.63000000003342
 20
-119.01370879310061
 30
0.0
  0
VERTEX
  5
EBB
  8
DATA
  6
CONTINUOUS
 62
     7
 10
-385.13325485587518
 20
-121.1864249971499
 30
0.0
  0
VERTEX
  5
EBC
  8
DATA
  6
CONTINUOUS
 62
     7
 10
-385.5032548558753
 20
-126.17271620404929
 30
0.0
  0
VERTEX
  5
EBD
  8
DATA
  6
CONTINUOUS
 62
     7
 10
-381.37000000003331
 20
-128.98629120689941
 30
0.0
  0
VERTEX
  5
EBE
  8
DATA
  6
CONTINUOUS
 62
     7
 10
-376.86674514419161
 20
-126.8135750028499
 30
0.0
  0
VERTEX
  5
EBF
  8
DATA
  6
CONTINUOUS
 62
     7
 10
-376.49674514419161
 20
-121.82728379595051
 30
0.0
  0
SEQEND
  5
EC0
  8
DATA
  6
CONTINUOUS
 62
     7
  0
CIRCLE
  5
4DA
  8
DATA
  6
CONTINUOUS
 62
     7
 10
-381.00000000003342
 20
-124.0
 30
0.0
 40
1.0
  0
TEXT
  5
4DB
  8
DATA
 62
     7
 10
-376.01795850865477
 20
-108.05734001831721
 30
0.0
 40
3.121945529513888
  1
5V DC
 50
180.0
 41
0.7
 11
-376.01795850865477
 21
-111.1792855478311
 31
0.0
 73
     3
  0
CIRCLE
  5
4DC
  8
DATA
  6
CONTINUOUS
 62
     7
 10
-149.9428603208473
 20
-118.9229800972807
 30
0.0
 40
1.1750000000000951
  0
POLYLINE
  5
4DD
  8
DATA
  6
CONTINUOUS
 62
     7
 66
     1
 10
0.0
 20
0.0
 30
0.0
 70
     1
  0
VERTEX
  5
EC1
  8
DATA
  6
CONTINUOUS
 62
     7
 10
-149.9428603208473
 20
-121.6229800972807
 30
0.0
  0
VERTEX
  5
EC2
  8
DATA
  6
CONTINUOUS
 62
     7
 10
-147.60459173062941
 20
-120.27298009728069
 30
0.0
  0
VERTEX
  5
EC3
  8
DATA
  6
CONTINUOUS
 62
     7
 10
-147.60459173062941
 20
-117.57298009728071
 30
0.0
  0
VERTEX
  5
EC4
  8
DATA
  6
CONTINUOUS
 62
     7
 10
-149.9428603208473
 20
-116.2229800972808
 30
0.0
  0
VERTEX
  5
EC5
  8
DATA
  6
CONTINUOUS
 62
     7
 10
-152.28112891106551
 20
-117.57298009728071
 30
0.0
  0
VERTEX
  5
EC6
  8
DATA
  6
CONTINUOUS
 62
     7
 10
-152.28112891106551
 20
-120.27298009728069
 30
0.0
  0
SEQEND
  5
EC7
  8
DATA
  6
CONTINUOUS
 62
     7
  0
CIRCLE
  5
4E6
  8
DATA
  6
CONTINUOUS
 62
     7
 10
-182.44286032084759
 20
-118.9229800972807
 30
0.0
 40
1.1750000000000671
  0
POLYLINE
  5
4E7
  8
DATA
  6
CONTINUOUS
 62
     7
 66
     1
 10
0.0
 20
0.0
 30
0.0
 70
     1
  0
VERTEX
  5
EC8
  8
DATA
  6
CONTINUOUS
 62
     7
 10
-182.44286032084759
 20
-121.6229800972807
 30
0.0
  0
VERTEX
  5
EC9
  8
DATA
  6
CONTINUOUS
 62
     7
 10
-180.10459173062961
 20
-120.27298009728069
 30
0.0
  0
VERTEX
  5
ECA
  8
DATA
  6
CONTINUOUS
 62
     7
 10
-180.10459173062961
 20
-117.57298009728071
 30
0.0
  0
VERTEX
  5
ECB
  8
DATA
  6
CONTINUOUS
 62
     7
 10
-182.44286032084759
 20
-116.2229800972808
 30
0.0
  0
VERTEX
  5
ECC
  8
DATA
  6
CONTINUOUS
 62
     7
 10
-184.78112891106559
 20
-117.57298009728071
 30
0.0
  0
VERTEX
  5
ECD
  8
DATA
  6
CONTINUOUS
 62
     7
 10
-184.78112891106559
 20
-120.27298009728069
 30
0.0
  0
SEQEND
  5
ECE
  8
DATA
  6
CONTINUOUS
 62
     7
  0
LINE
  5
4F0
  8
DATA
  6
CONTINUOUS
 62
     7
 10
-155.24295543365599
 20
-122.8479800972807
 30
0.0
 11
-177.14276520803929
 21
-122.8479800972807
 31
0.0
  0
LINE
  5
4F1
  8
DATA
  6
CONTINUOUS
 62
     7
 10
-176.5838480105871
 20
-114.9979800972808
 30
0.0
 11
-155.8018726311083
 21
-114.9979800972808
 31
0.0
  0
POLYLINE
  5
4F2
  8
DATA
  6
CONTINUOUS
 62
     7
 66
     1
 10
0.0
 20
0.0
 30
0.0
 70
     1
  0
VERTEX
  5
ECF
  8
DATA
  6
CONTINUOUS
 62
     7
 10
-156.7227941496684
 20
-118.1579800972808
 30
0.0
  0
VERTEX
  5
ED0
  8
DATA
  6
CONTINUOUS
 62
     7
 10
-155.1927941496684
 20
-118.1579800972808
 30
0.0
  0
VERTEX
  5
ED1
  8
DATA
  6
CONTINUOUS
 62
     7
 10
-155.1927941496684
 20
-119.6879800972807
 30
0.0
  0
VERTEX
  5
ED2
  8
DATA
  6
CONTINUOUS
 62
     7
 10
-156.7227941496684
 20
-119.6879800972807
 30
0.0
  0
SEQEND
  5
ED3
  8
DATA
  6
CONTINUOUS
 62
     7
  0
POLYLINE
  5
4F9
  8
DATA
  6
CONTINUOUS
 62
     7
 66
     1
 10
0.0
 20
0.0
 30
0.0
 70
     1
  0
VERTEX
  5
ED4
  8
DATA
  6
CONTINUOUS
 62
     7
 10
-158.7227941496686
 20
-118.1579800972808
 30
0.0
  0
VERTEX
  5
ED5
  8
DATA
  6
CONTINUOUS
 62
     7
 10
-157.1927941496684
 20
-118.1579800972808
 30
0.0
  0
VERTEX
  5
ED6
  8
DATA
  6
CONTINUOUS
 62
     7
 10
-157.1927941496684
 20
-119.6879800972807
 30
0.0
  0
VERTEX
  5
ED7
  8
DATA
  6
CONTINUOUS
 62
     7
 10
-158.7227941496686
 20
-119.6879800972807
 30
0.0
  0
SEQEND
  5
ED8
  8
DATA
  6
CONTINUOUS
 62
     7
  0
POLYLINE
  5
500
  8
DATA
  6
CONTINUOUS
 62
     7
 66
     1
 10
0.0
 20
0.0
 30
0.0
 70
     1
  0
VERTEX
  5
ED9
  8
DATA
  6
CONTINUOUS
 62
     7
 10
-160.72279414966809
 20
-118.1579800972808
 30
0.0
  0
VERTEX
  5
EDA
  8
DATA
  6
CONTINUOUS
 62
     7
 10
-159.19279414966829
 20
-118.1579800972808
 30
0.0
  0
VERTEX
  5
EDB
  8
DATA
  6
CONTINUOUS
 62
     7
 10
-159.19279414966829
 20
-119.6879800972807
 30
0.0
  0
VERTEX
  5
EDC
  8
DATA
  6
CONTINUOUS
 62
     7
 10
-160.72279414966809
 20
-119.6879800972807
 30
0.0
  0
SEQEND
  5
EDD
  8
DATA
  6
CONTINUOUS
 62
     7
  0
POLYLINE
  5
507
  8
DATA
  6
CONTINUOUS
 62
     7
 66
     1
 10
0.0
 20
0.0
 30
0.0
 70
     1
  0
VERTEX
  5
EDE
  8
DATA
  6
CONTINUOUS
 62
     7
 10
-162.72279414966809
 20
-118.1579800972808
 30
0.0
  0
VERTEX
  5
EDF
  8
DATA
  6
CONTINUOUS
 62
     7
 10
-161.19279414966829
 20
-118.1579800972808
 30
0.0
  0
VERTEX
  5
EE0
  8
DATA
  6
CONTINUOUS
 62
     7
 10
-161.19279414966829
 20
-119.6879800972807
 30
0.0
  0
VERTEX
  5
EE1
  8
DATA
  6
CONTINUOUS
 62
     7
 10
-162.72279414966809
 20
-119.6879800972807
 30
0.0
  0
SEQEND
  5
EE2
  8
DATA
  6
CONTINUOUS
 62
     7
  0
POLYLINE
  5
50E
  8
DATA
  6
CONTINUOUS
 62
     7
 66
     1
 10
0.0
 20
0.0
 30
0.0
 70
     1
  0
VERTEX
  5
EE3
  8
DATA
  6
CONTINUOUS
 62
     7
 10
-164.72279414966809
 20
-118.1579800972808
 30
0.0
  0
VERTEX
  5
EE4
  8
DATA
  6
CONTINUOUS
 62
     7
 10
-163.19279414966829
 20
-118.1579800972808
 30
0.0
  0
VERTEX
  5
EE5
  8
DATA
  6
CONTINUOUS
 62
     7
 10
-163.19279414966829
 20
-119.6879800972807
 30
0.0
  0
VERTEX
  5
EE6
  8
DATA
  6
CONTINUOUS
 62
     7
 10
-164.72279414966809
 20
-119.6879800972807
 30
0.0
  0
SEQEND
  5
EE7
  8
DATA
  6
CONTINUOUS
 62
     7
  0
POLYLINE
  5
515
  8
DATA
  6
CONTINUOUS
 62
     7
 66
     1
 10
0.0
 20
0.0
 30
0.0
 70
     1
  0
VERTEX
  5
EE8
  8
DATA
  6
CONTINUOUS
 62
     7
 10
-166.72279414966809
 20
-118.1579800972808
 30
0.0
  0
VERTEX
  5
EE9
  8
DATA
  6
CONTINUOUS
 62
     7
 10
-165.19279414966829
 20
-118.1579800972808
 30
0.0
  0
VERTEX
  5
EEA
  8
DATA
  6
CONTINUOUS
 62
     7
 10
-165.19279414966829
 20
-119.6879800972807
 30
0.0
  0
VERTEX
  5
EEB
  8
DATA
  6
CONTINUOUS
 62
     7
 10
-166.72279414966809
 20
-119.6879800972807
 30
0.0
  0
SEQEND
  5
EEC
  8
DATA
  6
CONTINUOUS
 62
     7
  0
POLYLINE
  5
51C
  8
DATA
  6
CONTINUOUS
 62
     7
 66
     1
 10
0.0
 20
0.0
 30
0.0
 70
     1
  0
VERTEX
  5
EED
  8
DATA
  6
CONTINUOUS
 62
     7
 10
-168.72279414966809
 20
-118.1579800972808
 30
0.0
  0
VERTEX
  5
EEE
  8
DATA
  6
CONTINUOUS
 62
     7
 10
-167.19279414966829
 20
-118.1579800972808
 30
0.0
  0
VERTEX
  5
EEF
  8
DATA
  6
CONTINUOUS
 62
     7
 10
-167.19279414966829
 20
-119.6879800972807
 30
0.0
  0
VERTEX
  5
EF0
  8
DATA
  6
CONTINUOUS
 62
     7
 10
-168.72279414966809
 20
-119.6879800972807
 30
0.0
  0
SEQEND
  5
EF1
  8
DATA
  6
CONTINUOUS
 62
     7
  0
POLYLINE
  5
523
  8
DATA
  6
CONTINUOUS
 62
     7
 66
     1
 10
0.0
 20
0.0
 30
0.0
 70
     1
  0
VERTEX
  5
EF2
  8
DATA
  6
CONTINUOUS
 62
     7
 10
-170.72279414966809
 20
-118.1579800972808
 30
0.0
  0
VERTEX
  5
EF3
  8
DATA
  6
CONTINUOUS
 62
     7
 10
-169.19279414966829
 20
-118.1579800972808
 30
0.0
  0
VERTEX
  5
EF4
  8
DATA
  6
CONTINUOUS
 62
     7
 10
-169.19279414966829
 20
-119.6879800972807
 30
0.0
  0
VERTEX
  5
EF5
  8
DATA
  6
CONTINUOUS
 62
     7
 10
-170.72279414966809
 20
-119.6879800972807
 30
0.0
  0
SEQEND
  5
EF6
  8
DATA
  6
CONTINUOUS
 62
     7
  0
POLYLINE
  5
52A
  8
DATA
  6
CONTINUOUS
 62
     7
 66
     1
 10
0.0
 20
0.0
 30
0.0
 70
     1
  0
VERTEX
  5
EF7
  8
DATA
  6
CONTINUOUS
 62
     7
 10
-156.7227941496684
 20
-120.1579800972808
 30
0.0
  0
VERTEX
  5
EF8
  8
DATA
  6
CONTINUOUS
 62
     7
 10
-155.1927941496684
 20
-120.1579800972808
 30
0.0
  0
VERTEX
  5
EF9
  8
DATA
  6
CONTINUOUS
 62
     7
 10
-155.1927941496684
 20
-121.6879800972807
 30
0.0
  0
VERTEX
  5
EFA
  8
DATA
  6
CONTINUOUS
 62
     7
 10
-156.7227941496684
 20
-121.6879800972807
 30
0.0
  0
SEQEND
  5
EFB
  8
DATA
  6
CONTINUOUS
 62
     7
  0
POLYLINE
  5
531
  8
DATA
  6
CONTINUOUS
 62
     7
 66
     1
 10
0.0
 20
0.0
 30
0.0
 70
     1
  0
VERTEX
  5
EFC
  8
DATA
  6
CONTINUOUS
 62
     7
 10
-158.7227941496686
 20
-120.1579800972808
 30
0.0
  0
VERTEX
  5
EFD
  8
DATA
  6
CONTINUOUS
 62
     7
 10
-157.1927941496684
 20
-120.1579800972808
 30
0.0
  0
VERTEX
  5
EFE
  8
DATA
  6
CONTINUOUS
 62
     7
 10
-157.1927941496684
 20
-121.6879800972807
 30
0.0
  0
VERTEX
  5
EFF
  8
DATA
  6
CONTINUOUS
 62
     7
 10
-158.7227941496686
 20
-121.6879800972807
 30
0.0
  0
SEQEND
  5
F00
  8
DATA
  6
CONTINUOUS
 62
     7
  0
POLYLINE
  5
538
  8
DATA
  6
CONTINUOUS
 62
     7
 66
     1
 10
0.0
 20
0.0
 30
0.0
 70
     1
  0
VERTEX
  5
F01
  8
DATA
  6
CONTINUOUS
 62
     7
 10
-160.72279414966809
 20
-120.1579800972808
 30
0.0
  0
VERTEX
  5
F02
  8
DATA
  6
CONTINUOUS
 62
     7
 10
-159.19279414966829
 20
-120.1579800972808
 30
0.0
  0
VERTEX
  5
F03
  8
DATA
  6
CONTINUOUS
 62
     7
 10
-159.19279414966829
 20
-121.6879800972807
 30
0.0
  0
VERTEX
  5
F04
  8
DATA
  6
CONTINUOUS
 62
     7
 10
-160.72279414966809
 20
-121.6879800972807
 30
0.0
  0
SEQEND
  5
F05
  8
DATA
  6
CONTINUOUS
 62
     7
  0
POLYLINE
  5
53F
  8
DATA
  6
CONTINUOUS
 62
     7
 66
     1
 10
0.0
 20
0.0
 30
0.0
 70
     1
  0
VERTEX
  5
F06
  8
DATA
  6
CONTINUOUS
 62
     7
 10
-162.72279414966809
 20
-120.1579800972808
 30
0.0
  0
VERTEX
  5
F07
  8
DATA
  6
CONTINUOUS
 62
     7
 10
-161.19279414966829
 20
-120.1579800972808
 30
0.0
  0
VERTEX
  5
F08
  8
DATA
  6
CONTINUOUS
 62
     7
 10
-161.19279414966829
 20
-121.6879800972807
 30
0.0
  0
VERTEX
  5
F09
  8
DATA
  6
CONTINUOUS
 62
     7
 10
-162.72279414966809
 20
-121.6879800972807
 30
0.0
  0
SEQEND
  5
F0A
  8
DATA
  6
CONTINUOUS
 62
     7
  0
POLYLINE
  5
546
  8
DATA
  6
CONTINUOUS
 62
     7
 66
     1
 10
0.0
 20
0.0
 30
0.0
 70
     1
  0
VERTEX
  5
F0B
  8
DATA
  6
CONTINUOUS
 62
     7
 10
-164.72279414966809
 20
-120.1579800972808
 30
0.0
  0
VERTEX
  5
F0C
  8
DATA
  6
CONTINUOUS
 62
     7
 10
-163.19279414966829
 20
-120.1579800972808
 30
0.0
  0
VERTEX
  5
F0D
  8
DATA
  6
CONTINUOUS
 62
     7
 10
-163.19279414966829
 20
-121.6879800972807
 30
0.0
  0
VERTEX
  5
F0E
  8
DATA
  6
CONTINUOUS
 62
     7
 10
-164.72279414966809
 20
-121.6879800972807
 30
0.0
  0
SEQEND
  5
F0F
  8
DATA
  6
CONTINUOUS
 62
     7
  0
POLYLINE
  5
54D
  8
DATA
  6
CONTINUOUS
 62
     7
 66
     1
 10
0.0
 20
0.0
 30
0.0
 70
     1
  0
VERTEX
  5
F10
  8
DATA
  6
CONTINUOUS
 62
     7
 10
-166.72279414966809
 20
-120.1579800972808
 30
0.0
  0
VERTEX
  5
F11
  8
DATA
  6
CONTINUOUS
 62
     7
 10
-165.19279414966829
 20
-120.1579800972808
 30
0.0
  0
VERTEX
  5
F12
  8
DATA
  6
CONTINUOUS
 62
     7
 10
-165.19279414966829
 20
-121.6879800972807
 30
0.0
  0
VERTEX
  5
F13
  8
DATA
  6
CONTINUOUS
 62
     7
 10
-166.72279414966809
 20
-121.6879800972807
 30
0.0
  0
SEQEND
  5
F14
  8
DATA
  6
CONTINUOUS
 62
     7
  0
POLYLINE
  5
554
  8
DATA
  6
CONTINUOUS
 62
     7
 66
     1
 10
0.0
 20
0.0
 30
0.0
 70
     1
  0
VERTEX
  5
F15
  8
DATA
  6
CONTINUOUS
 62
     7
 10
-168.72279414966809
 20
-120.1579800972808
 30
0.0
  0
VERTEX
  5
F16
  8
DATA
  6
CONTINUOUS
 62
     7
 10
-167.19279414966829
 20
-120.1579800972808
 30
0.0
  0
VERTEX
  5
F17
  8
DATA
  6
CONTINUOUS
 62
     7
 10
-167.19279414966829
 20
-121.6879800972807
 30
0.0
  0
VERTEX
  5
F18
  8
DATA
  6
CONTINUOUS
 62
     7
 10
-168.72279414966809
 20
-121.6879800972807
 30
0.0
  0
SEQEND
  5
F19
  8
DATA
  6
CONTINUOUS
 62
     7
  0
POLYLINE
  5
55B
  8
DATA
  6
CONTINUOUS
 62
     7
 66
     1
 10
0.0
 20
0.0
 30
0.0
 70
     1
  0
VERTEX
  5
F1A
  8
DATA
  6
CONTINUOUS
 62
     7
 10
-170.72279414966809
 20
-120.1579800972808
 30
0.0
  0
VERTEX
  5
F1B
  8
DATA
  6
CONTINUOUS
 62
     7
 10
-169.19279414966829
 20
-120.1579800972808
 30
0.0
  0
VERTEX
  5
F1C
  8
DATA
  6
CONTINUOUS
 62
     7
 10
-169.19279414966829
 20
-121.6879800972807
 30
0.0
  0
VERTEX
  5
F1D
  8
DATA
  6
CONTINUOUS
 62
     7
 10
-170.72279414966809
 20
-121.6879800972807
 30
0.0
  0
SEQEND
  5
F1E
  8
DATA
  6
CONTINUOUS
 62
     7
  0
POLYLINE
  5
562
  8
DATA
  6
CONTINUOUS
 62
     7
 66
     1
 10
0.0
 20
0.0
 30
0.0
 70
     1
  0
VERTEX
  5
F1F
  8
DATA
  6
CONTINUOUS
 62
     7
 10
-156.7227941496684
 20
-116.1579800972807
 30
0.0
  0
VERTEX
  5
F20
  8
DATA
  6
CONTINUOUS
 62
     7
 10
-155.1927941496684
 20
-116.1579800972807
 30
0.0
  0
VERTEX
  5
F21
  8
DATA
  6
CONTINUOUS
 62
     7
 10
-155.1927941496684
 20
-117.6879800972807
 30
0.0
  0
VERTEX
  5
F22
  8
DATA
  6
CONTINUOUS
 62
     7
 10
-156.7227941496684
 20
-117.6879800972807
 30
0.0
  0
SEQEND
  5
F23
  8
DATA
  6
CONTINUOUS
 62
     7
  0
POLYLINE
  5
569
  8
DATA
  6
CONTINUOUS
 62
     7
 66
     1
 10
0.0
 20
0.0
 30
0.0
 70
     1
  0
VERTEX
  5
F24
  8
DATA
  6
CONTINUOUS
 62
     7
 10
-158.7227941496686
 20
-116.1579800972807
 30
0.0
  0
VERTEX
  5
F25
  8
DATA
  6
CONTINUOUS
 62
     7
 10
-157.1927941496684
 20
-116.1579800972807
 30
0.0
  0
VERTEX
  5
F26
  8
DATA
  6
CONTINUOUS
 62
     7
 10
-157.1927941496684
 20
-117.6879800972807
 30
0.0
  0
VERTEX
  5
F27
  8
DATA
  6
CONTINUOUS
 62
     7
 10
-158.7227941496686
 20
-117.6879800972807
 30
0.0
  0
SEQEND
  5
F28
  8
DATA
  6
CONTINUOUS
 62
     7
  0
POLYLINE
  5
570
  8
DATA
  6
CONTINUOUS
 62
     7
 66
     1
 10
0.0
 20
0.0
 30
0.0
 70
     1
  0
VERTEX
  5
F29
  8
DATA
  6
CONTINUOUS
 62
     7
 10
-160.72279414966809
 20
-116.1579800972807
 30
0.0
  0
VERTEX
  5
F2A
  8
DATA
  6
CONTINUOUS
 62
     7
 10
-159.19279414966829
 20
-116.1579800972807
 30
0.0
  0
VERTEX
  5
F2B
  8
DATA
  6
CONTINUOUS
 62
     7
 10
-159.19279414966829
 20
-117.6879800972807
 30
0.0
  0
VERTEX
  5
F2C
  8
DATA
  6
CONTINUOUS
 62
     7
 10
-160.72279414966809
 20
-117.6879800972807
 30
0.0
  0
SEQEND
  5
F2D
  8
DATA
  6
CONTINUOUS
 62
     7
  0
POLYLINE
  5
577
  8
DATA
  6
CONTINUOUS
 62
     7
 66
     1
 10
0.0
 20
0.0
 30
0.0
 70
     1
  0
VERTEX
  5
F2E
  8
DATA
  6
CONTINUOUS
 62
     7
 10
-162.72279414966809
 20
-116.1579800972807
 30
0.0
  0
VERTEX
  5
F2F
  8
DATA
  6
CONTINUOUS
 62
     7
 10
-161.19279414966829
 20
-116.1579800972807
 30
0.0
  0
VERTEX
  5
F30
  8
DATA
  6
CONTINUOUS
 62
     7
 10
-161.19279414966829
 20
-117.6879800972807
 30
0.0
  0
VERTEX
  5
F31
  8
DATA
  6
CONTINUOUS
 62
     7
 10
-162.72279414966809
 20
-117.6879800972807
 30
0.0
  0
SEQEND
  5
F32
  8
DATA
  6
CONTINUOUS
 62
     7
  0
POLYLINE
  5
57E
  8
DATA
  6
CONTINUOUS
 62
     7
 66
     1
 10
0.0
 20
0.0
 30
0.0
 70
     1
  0
VERTEX
  5
F33
  8
DATA
  6
CONTINUOUS
 62
     7
 10
-164.72279414966809
 20
-116.1579800972807
 30
0.0
  0
VERTEX
  5
F34
  8
DATA
  6
CONTINUOUS
 62
     7
 10
-163.19279414966829
 20
-116.1579800972807
 30
0.0
  0
VERTEX
  5
F35
  8
DATA
  6
CONTINUOUS
 62
     7
 10
-163.19279414966829
 20
-117.6879800972807
 30
0.0
  0
VERTEX
  5
F36
  8
DATA
  6
CONTINUOUS
 62
     7
 10
-164.72279414966809
 20
-117.6879800972807
 30
0.0
  0
SEQEND
  5
F37
  8
DATA
  6
CONTINUOUS
 62
     7
  0
POLYLINE
  5
585
  8
DATA
  6
CONTINUOUS
 62
     7
 66
     1
 10
0.0
 20
0.0
 30
0.0
 70
     1
  0
VERTEX
  5
F38
  8
DATA
  6
CONTINUOUS
 62
     7
 10
-166.72279414966809
 20
-116.1579800972807
 30
0.0
  0
VERTEX
  5
F39
  8
DATA
  6
CONTINUOUS
 62
     7
 10
-165.19279414966829
 20
-116.1579800972807
 30
0.0
  0
VERTEX
  5
F3A
  8
DATA
  6
CONTINUOUS
 62
     7
 10
-165.19279414966829
 20
-117.6879800972807
 30
0.0
  0
VERTEX
  5
F3B
  8
DATA
  6
CONTINUOUS
 62
     7
 10
-166.72279414966809
 20
-117.6879800972807
 30
0.0
  0
SEQEND
  5
F3C
  8
DATA
  6
CONTINUOUS
 62
     7
  0
POLYLINE
  5
58C
  8
DATA
  6
CONTINUOUS
 62
     7
 66
     1
 10
0.0
 20
0.0
 30
0.0
 70
     1
  0
VERTEX
  5
F3D
  8
DATA
  6
CONTINUOUS
 62
     7
 10
-168.72279414966809
 20
-116.1579800972807
 30
0.0
  0
VERTEX
  5
F3E
  8
DATA
  6
CONTINUOUS
 62
     7
 10
-167.19279414966829
 20
-116.1579800972807
 30
0.0
  0
VERTEX
  5
F3F
  8
DATA
  6
CONTINUOUS
 62
     7
 10
-167.19279414966829
 20
-117.6879800972807
 30
0.0
  0
VERTEX
  5
F40
  8
DATA
  6
CONTINUOUS
 62
     7
 10
-168.72279414966809
 20
-117.6879800972807
 30
0.0
  0
SEQEND
  5
F41
  8
DATA
  6
CONTINUOUS
 62
     7
  0
POLYLINE
  5
593
  8
DATA
  6
CONTINUOUS
 62
     7
 66
     1
 10
0.0
 20
0.0
 30
0.0
 70
     1
  0
VERTEX
  5
F42
  8
DATA
  6
CONTINUOUS
 62
     7
 10
-170.72279414966809
 20
-116.1579800972807
 30
0.0
  0
VERTEX
  5
F43
  8
DATA
  6
CONTINUOUS
 62
     7
 10
-169.19279414966829
 20
-116.1579800972807
 30
0.0
  0
VERTEX
  5
F44
  8
DATA
  6
CONTINUOUS
 62
     7
 10
-169.19279414966829
 20
-117.6879800972807
 30
0.0
  0
VERTEX
  5
F45
  8
DATA
  6
CONTINUOUS
 62
     7
 10
-170.72279414966809
 20
-117.6879800972807
 30
0.0
  0
SEQEND
  5
F46
  8
DATA
  6
CONTINUOUS
 62
     7
  0
POLYLINE
  5
59A
  8
DATA
  6
CONTINUOUS
 62
     7
 66
     1
 10
0.0
 20
0.0
 30
0.0
  0
VERTEX
  5
F47
  8
DATA
  6
CONTINUOUS
 62
     7
 10
-174.7428603208476
 20
-119.32298009728071
 30
0.0
  0
VERTEX
  5
F48
  8
DATA
  6
CONTINUOUS
 62
     7
 10
-176.84286032084759
 20
-119.32298009728071
 30
0.0
  0
VERTEX
  5
F49
  8
DATA
  6
CONTINUOUS
 62
     7
 10
-176.84286032084759
 20
-118.52298009728069
 30
0.0
  0
VERTEX
  5
F4A
  8
DATA
  6
CONTINUOUS
 62
     7
 10
-174.7428603208476
 20
-118.52298009728069
 30
0.0
  0
SEQEND
  5
F4B
  8
DATA
  6
CONTINUOUS
 62
     7
  0
POLYLINE
  5
5A1
  8
DATA
  6
CONTINUOUS
 62
     7
 66
     1
 10
0.0
 20
0.0
 30
0.0
  0
VERTEX
  5
F4C
  8
DATA
  6
CONTINUOUS
 62
     7
 10
-173.9428603208477
 20
-118.52298009728069
 30
0.0
  0
VERTEX
  5
F4D
  8
DATA
  6
CONTINUOUS
 62
     7
 10
-171.84286032084759
 20
-118.52298009728069
 30
0.0
  0
VERTEX
  5
F4E
  8
DATA
  6
CONTINUOUS
 62
     7
 10
-171.84286032084759
 20
-119.32298009728071
 30
0.0
  0
VERTEX
  5
F4F
  8
DATA
  6
CONTINUOUS
 62
     7
 10
-173.9428603208477
 20
-119.32298009728071
 30
0.0
  0
SEQEND
  5
F50
  8
DATA
  6
CONTINUOUS
 62
     7
  0
POLYLINE
  5
5A8
  8
DATA
  6
CONTINUOUS
 62
     7
 66
     1
 10
0.0
 20
0.0
 30
0.0
  0
VERTEX
  5
F51
  8
DATA
  6
CONTINUOUS
 62
     7
 10
-174.7428603208476
 20
-118.52298009728069
 30
0.0
  0
VERTEX
  5
F52
  8
DATA
  6
CONTINUOUS
 62
     7
 10
-174.7428603208476
 20
-116.4229800972807
 30
0.0
  0
VERTEX
  5
F53
  8
DATA
  6
CONTINUOUS
 62
     7
 10
-173.9428603208477
 20
-116.4229800972807
 30
0.0
  0
VERTEX
  5
F54
  8
DATA
  6
CONTINUOUS
 62
     7
 10
-173.9428603208477
 20
-118.52298009728069
 30
0.0
  0
SEQEND
  5
F55
  8
DATA
  6
CONTINUOUS
 62
     7
  0
POLYLINE
  5
5AF
  8
DATA
  6
CONTINUOUS
 62
     7
 66
     1
 10
0.0
 20
0.0
 30
0.0
  0
VERTEX
  5
F56
  8
DATA
  6
CONTINUOUS
 62
     7
 10
-173.9428603208477
 20
-119.32298009728071
 30
0.0
  0
VERTEX
  5
F57
  8
DATA
  6
CONTINUOUS
 62
     7
 10
-173.9428603208477
 20
-121.4229800972807
 30
0.0
  0
VERTEX
  5
F58
  8
DATA
  6
CONTINUOUS
 62
     7
 10
-174.7428603208476
 20
-121.4229800972807
 30
0.0
  0
VERTEX
  5
F59
  8
DATA
  6
CONTINUOUS
 62
     7
 10
-174.7428603208476
 20
-119.32298009728071
 30
0.0
  0
SEQEND
  5
F5A
  8
DATA
  6
CONTINUOUS
 62
     7
  0
POLYLINE
  5
5B6
  8
DATA
  6
CONTINUOUS
 62
     7
 66
     1
 10
0.0
 20
0.0
 30
0.0
 70
     1
  0
VERTEX
  5
F5B
  8
DATA
  6
CONTINUOUS
 62
     7
 10
-173.4825758903759
 20
-119.6824079079306
 30
0.0
  0
VERTEX
  5
F5C
  8
DATA
  6
CONTINUOUS
 62
     7
 10
-172.48257589037581
 20
-119.6824079079306
 30
0.0
  0
VERTEX
  5
F5D
  8
DATA
  6
CONTINUOUS
 62
     7
 10
-172.48257589037581
 20
-120.6824079079306
 30
0.0
  0
VERTEX
  5
F5E
  8
DATA
  6
CONTINUOUS
 62
     7
 10
-173.4825758903759
 20
-120.6824079079306
 30
0.0
  0
SEQEND
  5
F5F
  8
DATA
  6
CONTINUOUS
 62
     7
  0
POLYLINE
  5
5BD
  8
DATA
  6
CONTINUOUS
 62
     7
 66
     1
 10
0.0
 20
0.0
 30
0.0
 70
     1
  0
VERTEX
  5
F60
  8
DATA
  6
CONTINUOUS
 62
     7
 10
-176.2031447513194
 20
-119.6824079079306
 30
0.0
  0
VERTEX
  5
F61
  8
DATA
  6
CONTINUOUS
 62
     7
 10
-175.2031447513194
 20
-119.6824079079306
 30
0.0
  0
VERTEX
  5
F62
  8
DATA
  6
CONTINUOUS
 62
     7
 10
-175.2031447513194
 20
-120.6824079079306
 30
0.0
  0
VERTEX
  5
F63
  8
DATA
  6
CONTINUOUS
 62
     7
 10
-176.2031447513194
 20
-120.6824079079306
 30
0.0
  0
SEQEND
  5
F64
  8
DATA
  6
CONTINUOUS
 62
     7
  0
POLYLINE
  5
5C4
  8
DATA
  6
CONTINUOUS
 62
     7
 66
     1
 10
0.0
 20
0.0
 30
0.0
 70
     1
  0
VERTEX
  5
F65
  8
DATA
  6
CONTINUOUS
 62
     7
 10
-173.4825758903759
 20
-117.1635522866307
 30
0.0
  0
VERTEX
  5
F66
  8
DATA
  6
CONTINUOUS
 62
     7
 10
-172.48257589037581
 20
-117.1635522866307
 30
0.0
  0
VERTEX
  5
F67
  8
DATA
  6
CONTINUOUS
 62
     7
 10
-172.48257589037581
 20
-118.1635522866307
 30
0.0
  0
VERTEX
  5
F68
  8
DATA
  6
CONTINUOUS
 62
     7
 10
-173.4825758903759
 20
-118.1635522866307
 30
0.0
  0
SEQEND
  5
F69
  8
DATA
  6
CONTINUOUS
 62
     7
  0
POLYLINE
  5
5CB
  8
DATA
  6
CONTINUOUS
 62
     7
 66
     1
 10
0.0
 20
0.0
 30
0.0
 70
     1
  0
VERTEX
  5
F6A
  8
DATA
  6
CONTINUOUS
 62
     7
 10
-176.2031447513194
 20
-117.1635522866307
 30
0.0
  0
VERTEX
  5
F6B
  8
DATA
  6
CONTINUOUS
 62
     7
 10
-175.2031447513194
 20
-117.1635522866307
 30
0.0
  0
VERTEX
  5
F6C
  8
DATA
  6
CONTINUOUS
 62
     7
 10
-175.2031447513194
 20
-118.1635522866307
 30
0.0
  0
VERTEX
  5
F6D
  8
DATA
  6
CONTINUOUS
 62
     7
 10
-176.2031447513194
 20
-118.1635522866307
 30
0.0
  0
SEQEND
  5
F6E
  8
DATA
  6
CONTINUOUS
 62
     7
  0
LINE
  5
5D2
  8
DATA
  6
CONTINUOUS
 62
     7
 10
-154.24748850290061
 20
-121.7528717917945
 30
0.0
 11
-154.80640570035291
 21
-115.9028717917945
 31
0.0
  0
LINE
  5
5D3
  8
DATA
  6
CONTINUOUS
 62
     7
 10
-178.13823213879471
 20
-121.7528717917945
 30
0.0
 11
-177.5793149413424
 21
-115.9028717917946
 31
0.0
  0
ARC
  5
5D4
  8
DATA
  6
CONTINUOUS
 62
     7
 10
-155.24295543365599
 20
-121.8479800972808
 30
0.0
 40
0.9999999999998864
 50
270.0
 51
5.4575534851103358
  0
ARC
  5
5D5
  8
DATA
  6
CONTINUOUS
 62
     7
 10
-177.14276520803929
 20
-121.8479800972807
 30
0.0
 40
0.9999999999999703
 50
174.54244651489549
 51
270.0
  0
ARC
  5
5D6
  8
DATA
  6
CONTINUOUS
 62
     7
 10
-155.80187263110841
 20
-115.9979800972808
 30
0.0
 40
1.000000000000093
 50
5.4575534851103331
 51
89.99999999999838
  0
ARC
  5
5D7
  8
DATA
  6
CONTINUOUS
 62
     7
 10
-176.5838480105871
 20
-115.9979800972808
 30
0.0
 40
1.0
 50
90.0
 51
174.54244651489549
  0
TEXT
  5
5D8
  8
DATA
 62
     7
 10
-155.4486616300583
 20
-108.01219555708541
 30
0.0
 40
3.121945529513888
  1
DVI Out 1 
 50
180.0
 41
0.7
 11
-155.4486616300583
 21
-111.1341410865993
 31
0.0
 73
     3
  0
LINE
  5
5D9
  8
DATA
  6
CONTINUOUS
 62
     7
 10
-113.9264101400462
 20
-114.98068742008699
 30
0.0
 11
-113.9264101400462
 21
-128.28068742008711
 31
0.0
  0
LINE
  5
5DA
  8
DATA
  6
CONTINUOUS
 62
     7
 10
-129.62641014004609
 20
-114.98068742008699
 30
0.0
 11
-129.62641014004609
 21
-128.28068742008711
 31
0.0
  0
LINE
  5
5DB
  8
DATA
  6
CONTINUOUS
 62
     7
 10
-129.62641014004609
 20
-128.28068742008711
 30
0.0
 11
-113.9264101400462
 21
-128.28068742008711
 31
0.0
  0
LINE
  5
5DC
  8
DATA
  6
CONTINUOUS
 62
     7
 10
-129.62641014004609
 20
-114.98068742008699
 30
0.0
 11
-113.9264101400462
 21
-114.98068742008699
 31
0.0
  0
LINE
  5
5DD
  8
DATA
  6
CONTINUOUS
 62
     7
 10
-127.9264101400461
 20
-117.98068742008719
 30
0.0
 11
-115.6264101400461
 21
-117.98068742008719
 31
0.0
  0
LINE
  5
5DE
  8
DATA
  6
CONTINUOUS
 62
     7
 10
-127.9264101400461
 20
-117.98068742008719
 30
0.0
 11
-127.9264101400461
 21
-125.28068742008711
 31
0.0
  0
LINE
  5
5DF
  8
DATA
  6
CONTINUOUS
 62
     7
 10
-115.6264101400461
 20
-117.98068742008719
 30
0.0
 11
-115.6264101400461
 21
-125.28068742008711
 31
0.0
  0
LINE
  5
5E0
  8
DATA
  6
CONTINUOUS
 62
     7
 10
-124.0014101400461
 20
-128.28068742008711
 30
0.0
 11
-124.0014101400461
 21
-126.78068742008711
 31
0.0
  0
LINE
  5
5E1
  8
DATA
  6
CONTINUOUS
 62
     7
 10
-119.5514101400462
 20
-126.78068742008711
 30
0.0
 11
-119.5514101400462
 21
-128.28068742008711
 31
0.0
  0
LINE
  5
5E2
  8
DATA
  6
CONTINUOUS
 62
     7
 10
-125.1264101400461
 20
-126.78068742008711
 30
0.0
 11
-124.0014101400461
 21
-126.78068742008711
 31
0.0
  0
LINE
  5
5E3
  8
DATA
  6
CONTINUOUS
 62
     7
 10
-119.5514101400462
 20
-126.78068742008711
 30
0.0
 11
-118.4264101400462
 21
-126.78068742008711
 31
0.0
  0
LINE
  5
5E4
  8
DATA
  6
CONTINUOUS
 62
     7
 10
-127.9264101400461
 20
-125.28068742008711
 30
0.0
 11
-125.1264101400461
 21
-125.28068742008711
 31
0.0
  0
LINE
  5
5E5
  8
DATA
  6
CONTINUOUS
 62
     7
 10
-118.4264101400462
 20
-125.28068742008711
 30
0.0
 11
-115.6264101400461
 21
-125.28068742008711
 31
0.0
  0
LINE
  5
5E6
  8
DATA
  6
CONTINUOUS
 62
     7
 10
-125.1264101400461
 20
-126.78068742008711
 30
0.0
 11
-125.1264101400461
 21
-125.28068742008711
 31
0.0
  0
LINE
  5
5E7
  8
DATA
  6
CONTINUOUS
 62
     7
 10
-118.4264101400462
 20
-125.28068742008711
 30
0.0
 11
-118.4264101400462
 21
-126.78068742008711
 31
0.0
  0
TEXT
  5
5E8
  8
DATA
 62
     7
 10
-114.7284346844511
 20
-109.3496115765433
 30
0.0
 40
3.121945529513888
  1
Video 1
 50
180.0
 41
0.7
 11
-114.7284346844511
 21
-112.4715571060572
 31
0.0
 73
     3
  0
TEXT
  5
5E9
  8
DATA
 62
     7
 10
-116.43804133031659
 20
-129.53285937451449
 30
0.0
 40
3.121945529513888
  1
CAT-6 
 50
180.0
 41
0.7
 11
-116.43804133031659
 21
-132.6548049040284
 31
0.0
 73
     3
  0
LINE
  5
5EA
  8
DATA
  6
CONTINUOUS
 62
     7
 10
-61.622064924780673
 20
-142.51458789018241
 30
0.0
 11
-61.622064924780673
 21
-129.2145878901824
 31
0.0
  0
LINE
  5
5EB
  8
DATA
  6
CONTINUOUS
 62
     7
 10
-45.922064924780763
 20
-142.51458789018241
 30
0.0
 11
-45.922064924780763
 21
-129.2145878901824
 31
0.0
  0
LINE
  5
5EC
  8
DATA
  6
CONTINUOUS
 62
     7
 10
-45.922064924780763
 20
-129.2145878901824
 30
0.0
 11
-61.622064924780673
 21
-129.2145878901824
 31
0.0
  0
LINE
  5
5ED
  8
DATA
  6
CONTINUOUS
 62
     7
 10
-45.922064924780763
 20
-142.51458789018241
 30
0.0
 11
-61.622064924780673
 21
-142.51458789018241
 31
0.0
  0
LINE
  5
5EE
  8
DATA
  6
CONTINUOUS
 62
     7
 10
-47.622064924780702
 20
-139.51458789018241
 30
0.0
 11
-59.922064924780742
 21
-139.51458789018241
 31
0.0
  0
LINE
  5
5EF
  8
DATA
  6
CONTINUOUS
 62
     7
 10
-47.622064924780702
 20
-139.51458789018241
 30
0.0
 11
-47.622064924780702
 21
-132.2145878901824
 31
0.0
  0
LINE
  5
5F0
  8
DATA
  6
CONTINUOUS
 62
     7
 10
-59.922064924780742
 20
-139.51458789018241
 30
0.0
 11
-59.922064924780742
 21
-132.2145878901824
 31
0.0
  0
LINE
  5
5F1
  8
DATA
  6
CONTINUOUS
 62
     7
 10
-51.547064924780742
 20
-129.2145878901824
 30
0.0
 11
-51.547064924780742
 21
-130.7145878901824
 31
0.0
  0
LINE
  5
5F2
  8
DATA
  6
CONTINUOUS
 62
     7
 10
-55.997064924780673
 20
-130.7145878901824
 30
0.0
 11
-55.997064924780673
 21
-129.2145878901824
 31
0.0
  0
LINE
  5
5F3
  8
DATA
  6
CONTINUOUS
 62
     7
 10
-50.42206492478077
 20
-130.7145878901824
 30
0.0
 11
-51.547064924780742
 21
-130.7145878901824
 31
0.0
  0
LINE
  5
5F4
  8
DATA
  6
CONTINUOUS
 62
     7
 10
-55.997064924780673
 20
-130.7145878901824
 30
0.0
 11
-57.122064924780673
 21
-130.7145878901824
 31
0.0
  0
LINE
  5
5F5
  8
DATA
  6
CONTINUOUS
 62
     7
 10
-47.622064924780702
 20
-132.2145878901824
 30
0.0
 11
-50.42206492478077
 21
-132.2145878901824
 31
0.0
  0
LINE
  5
5F6
  8
DATA
  6
CONTINUOUS
 62
     7
 10
-57.122064924780673
 20
-132.2145878901824
 30
0.0
 11
-59.922064924780742
 21
-132.2145878901824
 31
0.0
  0
LINE
  5
5F7
  8
DATA
  6
CONTINUOUS
 62
     7
 10
-50.42206492478077
 20
-130.7145878901824
 30
0.0
 11
-50.42206492478077
 21
-132.2145878901824
 31
0.0
  0
LINE
  5
5F8
  8
DATA
  6
CONTINUOUS
 62
     7
 10
-57.122064924780673
 20
-132.2145878901824
 30
0.0
 11
-57.122064924780673
 21
-130.7145878901824
 31
0.0
  0
TEXT
  5
5F9
  8
DATA
 62
     7
 10
-48.626433333780128
 20
-143.95676857172251
 30
0.0
 40
3.121945529513888
  1
CAT-5 
 50
180.0
 41
0.7
 11
-48.626433333780128
 21
-147.07871410123639
 31
0.0
 73
     3
  0
TEXT
  5
5FA
  8
DATA
 62
     7
 10
-50.070528504564457
 20
-122.6973378898663
 30
0.0
 40
3.121945529513888
  1
USB 
 50
180.0
 41
0.7
 11
-50.070528504564457
 21
-125.8192834193802
 31
0.0
 73
     3
  0
CIRCLE
  5
5FB
  8
DATA
  6
CONTINUOUS
 62
     7
 10
-76.77641014004611
 20
-134.1919777585783
 30
0.0
 40
3.5
  0
LINE
  5
5FC
  8
DATA
  6
CONTINUOUS
 62
     7
 10
-76.77641014004611
 20
-132.1919777585783
 30
0.0
 11
-76.77641014004611
 21
-136.1919777585783
 31
0.0
  0
LINE
  5
5FD
  8
DATA
  6
CONTINUOUS
 62
     7
 10
-74.776410140046139
 20
-134.1919777585783
 30
0.0
 11
-78.776410140046139
 21
-134.1919777585783
 31
0.0
  0
CIRCLE
  5
5FE
  8
DATA
  6
CONTINUOUS
 62
     7
 10
21.223589859953861
 20
-134.1919777585783
 30
0.0
 40
3.5
  0
LINE
  5
5FF
  8
DATA
  6
CONTINUOUS
 62
     7
 10
21.223589859953861
 20
-132.1919777585783
 30
0.0
 11
21.223589859953861
 21
-136.1919777585783
 31
0.0
  0
LINE
  5
600
  8
DATA
  6
CONTINUOUS
 62
     7
 10
23.223589859953861
 20
-134.1919777585783
 30
0.0
 11
19.223589859953851
 21
-134.1919777585783
 31
0.0
  0
CIRCLE
  5
601
  8
DATA
  6
CONTINUOUS
 62
     7
 10
6.5745833332998957
 20
-132.26660454910851
 30
0.0
 40
1.5
  0
LINE
  5
602
  8
DATA
  6
CONTINUOUS
 62
     7
 10
-356.78112891106559
 20
-214.9999999999705
 30
0.0
 11
-356.78112891106559
 21
-219.9999999999705
 31
0.0
  0
LINE
  5
603
  8
DATA
  6
CONTINUOUS
 62
     7
 10
-352.10459173062958
 20
-214.9999999999705
 30
0.0
 11
-352.10459173062958
 21
-219.9999999999705
 31
0.0
  0
LINE
  5
604
  8
DATA
  6
CONTINUOUS
 62
     7
 10
-350.14086212367988
 20
-214.9999999999705
 30
0.0
 11
-350.14086212367988
 21
-219.9999999999705
 31
0.0
  0
LINE
  5
605
  8
DATA
  6
CONTINUOUS
 62
     7
 10
-324.28112891106548
 20
-214.9999999999705
 30
0.0
 11
-324.28112891106548
 21
-219.9999999999705
 31
0.0
  0
LINE
  5
606
  8
DATA
  6
CONTINUOUS
 62
     7
 10
-319.60459173062941
 20
-214.9999999999705
 30
0.0
 11
-319.60459173062941
 21
-219.9999999999705
 31
0.0
  0
LINE
  5
607
  8
DATA
  6
CONTINUOUS
 62
     7
 10
-326.29411708293662
 20
-214.9999999999705
 30
0.0
 11
-326.29411708293662
 21
-219.9999999999705
 31
0.0
  0
LINE
  5
608
  8
DATA
  6
CONTINUOUS
 62
     7
 10
-385.5032548558753
 20
-218.4999999999705
 30
0.0
 11
-385.5032548558753
 21
-219.9999999999705
 31
0.0
  0
LINE
  5
609
  8
DATA
  6
CONTINUOUS
 62
     7
 10
-376.86674514419161
 20
-218.4999999999705
 30
0.0
 11
-376.86674514419161
 21
-219.99999999997061
 31
0.0
  0
LINE
  5
60A
  8
DATA
  6
CONTINUOUS
 62
     7
 10
-384.9000000000334
 20
-213.99999999997061
 30
0.0
 11
-384.9000000000334
 21
-218.4999999999705
 31
0.0
  0
LINE
  5
60B
  8
DATA
  6
CONTINUOUS
 62
     7
 10
-377.1000000000335
 20
-213.99999999997061
 30
0.0
 11
-377.1000000000335
 21
-218.4999999999705
 31
0.0
  0
LINE
  5
60C
  8
DATA
  6
CONTINUOUS
 62
     7
 10
-384.9000000000334
 20
-213.9999999999705
 30
0.0
 11
-377.1000000000335
 21
-213.9999999999705
 31
0.0
  0
LINE
  5
60D
  8
DATA
  6
CONTINUOUS
 62
     7
 10
-385.5032548558753
 20
-218.4999999999705
 30
0.0
 11
-376.86674514419161
 21
-218.4999999999705
 31
0.0
  0
LINE
  5
60E
  8
DATA
  6
CONTINUOUS
 62
     7
 10
-356.78112891106559
 20
-214.9999999999705
 30
0.0
 11
-352.10459173062958
 21
-214.9999999999705
 31
0.0
  0
LINE
  5
60F
  8
DATA
  6
CONTINUOUS
 62
     7
 10
-350.14086212367988
 20
-214.9999999999705
 30
0.0
 11
-326.29411708293679
 21
-214.9999999999705
 31
0.0
  0
LINE
  5
610
  8
DATA
  6
CONTINUOUS
 62
     7
 10
-324.28112891106548
 20
-214.9999999999705
 30
0.0
 11
-319.60459173062941
 21
-214.9999999999705
 31
0.0
  0
LINE
  5
611
  8
DATA
  6
CONTINUOUS
 62
     7
 10
-184.78112891106559
 20
-214.9999999999705
 30
0.0
 11
-184.78112891106559
 21
-219.9999999999705
 31
0.0
  0
LINE
  5
612
  8
DATA
  6
CONTINUOUS
 62
     7
 10
-180.10459173062961
 20
-214.9999999999705
 30
0.0
 11
-180.10459173062961
 21
-219.9999999999705
 31
0.0
  0
LINE
  5
613
  8
DATA
  6
CONTINUOUS
 62
     7
 10
-178.1408621236798
 20
-214.9999999999705
 30
0.0
 11
-178.1408621236798
 21
-219.9999999999705
 31
0.0
  0
LINE
  5
614
  8
DATA
  6
CONTINUOUS
 62
     7
 10
-152.28112891106551
 20
-214.9999999999705
 30
0.0
 11
-152.28112891106551
 21
-219.9999999999705
 31
0.0
  0
LINE
  5
615
  8
DATA
  6
CONTINUOUS
 62
     7
 10
-147.60459173062941
 20
-214.9999999999705
 30
0.0
 11
-147.60459173062941
 21
-219.9999999999705
 31
0.0
  0
LINE
  5
616
  8
DATA
  6
CONTINUOUS
 62
     7
 10
-154.29411708293659
 20
-214.9999999999705
 30
0.0
 11
-154.29411708293659
 21
-219.9999999999705
 31
0.0
  0
LINE
  5
617
  8
DATA
  6
CONTINUOUS
 62
     7
 10
-184.78112891106559
 20
-214.9999999999705
 30
0.0
 11
-180.10459173062961
 21
-214.9999999999705
 31
0.0
  0
LINE
  5
618
  8
DATA
  6
CONTINUOUS
 62
     7
 10
-178.1408621236798
 20
-214.9999999999705
 30
0.0
 11
-154.29411708293671
 21
-214.9999999999705
 31
0.0
  0
LINE
  5
619
  8
DATA
  6
CONTINUOUS
 62
     7
 10
-152.28112891106551
 20
-214.9999999999705
 30
0.0
 11
-147.60459173062941
 21
-214.9999999999705
 31
0.0
  0
LINE
  5
61A
  8
DATA
  6
CONTINUOUS
 62
     7
 10
-80.27641014004611
 20
-219.4999999999705
 30
0.0
 11
-80.27641014004611
 21
-219.9999999999705
 31
0.0
  0
LINE
  5
61B
  8
DATA
  6
CONTINUOUS
 62
     7
 10
-73.276410140046139
 20
-219.4999999999705
 30
0.0
 11
-73.276410140046139
 21
-219.9999999999705
 31
0.0
  0
LINE
  5
61C
  8
DATA
  6
CONTINUOUS
 62
     7
 10
17.723589859953861
 20
-219.4999999999705
 30
0.0
 11
17.723589859953861
 21
-219.9999999999705
 31
0.0
  0
LINE
  5
61D
  8
DATA
  6
CONTINUOUS
 62
     7
 10
24.723589859953861
 20
-219.4999999999705
 30
0.0
 11
24.723589859953861
 21
-219.9999999999705
 31
0.0
  0
ARC
  5
61E
  8
DATA
  6
CONTINUOUS
 62
     7
 10
-76.77641014004611
 20
-222.8333333333039
 30
0.0
 40
4.8333333333333579
 50
43.60281897270395
 51
136.397181027296
  0
ARC
  5
61F
  8
DATA
  6
CONTINUOUS
 62
     7
 10
21.223589859953861
 20
-222.8333333333039
 30
0.0
 40
4.8333333333333579
 50
43.60281897270395
 51
136.397181027296
  0
ARC
  5
620
  8
DATA
  6
CONTINUOUS
 62
     7
 10
-201.00000000003351
 20
-350.08899422820298
 30
0.0
 40
1.3999999999999571
 50
176.3554043268847
 51
3.6445956731153042
  0
ARC
  5
621
  8
DATA
  6
CONTINUOUS
 62
     7
 10
-372.00000000003342
 20
-349.74034296718611
 30
0.0
 40
1.399999999999977
 50
190.6884953653325
 51
349.31150463466741
  0
LINE
  5
622
  8
DATA
  6
CONTINUOUS
 62
     7
 10
88.999999999966505
 20
-405.99999999997038
 30
0.0
 11
217.49999999996641
 21
-405.99999999997038
 31
0.0
  0
LINE
  5
623
  8
DATA
  6
CONTINUOUS
 62
     7
 10
88.999999999966505
 20
-449.99999999997061
 30
0.0
 11
215.99999999996649
 21
-449.99999999997061
 31
0.0
  0
LINE
  5
624
  8
DATA
  6
CONTINUOUS
 62
     7
 10
87.499999999966505
 20
-448.4999999999705
 30
0.0
 11
87.499999999966505
 21
-407.4999999999705
 31
0.0
  0
LINE
  5
625
  8
DATA
  6
CONTINUOUS
 62
     7
 10
217.49999999996641
 20
-448.4999999999705
 30
0.0
 11
217.49999999996641
 21
-405.99999999997038
 31
0.0
  0
LINE
  5
626
  8
DATA
  6
CONTINUOUS
 62
     7
 10
95.499999999966505
 20
-406.9999999999705
 30
0.0
 11
95.499999999966505
 21
-405.99999999997038
 31
0.0
  0
LINE
  5
627
  8
DATA
  6
CONTINUOUS
 62
     7
 10
88.499999999966519
 20
-447.49999999997038
 30
0.0
 11
88.499999999966519
 21
-408.4999999999705
 31
0.0
  0
LINE
  5
628
  8
DATA
  6
CONTINUOUS
 62
     7
 10
89.999999999966505
 20
-406.9999999999705
 30
0.0
 11
95.499999999966505
 21
-406.9999999999705
 31
0.0
  0
LINE
  5
629
  8
DATA
  6
CONTINUOUS
 62
     7
 10
94.499999999966505
 20
-449.99999999997061
 30
0.0
 11
94.499999999966505
 21
-448.9999999999705
 31
0.0
  0
LINE
  5
62A
  8
DATA
  6
CONTINUOUS
 62
     7
 10
94.499999999966505
 20
-448.9999999999705
 30
0.0
 11
89.999999999966505
 21
-448.9999999999705
 31
0.0
  0
ARC
  5
62B
  8
DATA
  6
CONTINUOUS
 62
     7
 10
88.999999999966505
 20
-407.4999999999705
 30
0.0
 40
1.5
 50
90.0
 51
180.0
  0
ARC
  5
62C
  8
DATA
  6
CONTINUOUS
 62
     7
 10
89.999999999966505
 20
-408.4999999999705
 30
0.0
 40
1.5
 50
90.0
 51
180.0
  0
ARC
  5
62D
  8
DATA
  6
CONTINUOUS
 62
     7
 10
89.999999999966505
 20
-447.49999999997038
 30
0.0
 40
1.5
 50
180.0
 51
270.0
  0
ARC
  5
62E
  8
DATA
  6
CONTINUOUS
 62
     7
 10
88.999999999966505
 20
-448.4999999999705
 30
0.0
 40
1.5
 50
180.0
 51
270.0
  0
LINE
  5
62F
  8
DATA
  6
CONTINUOUS
 62
     7
 10
205.49999999996649
 20
-449.99999999997061
 30
0.0
 11
205.49999999996649
 21
-448.9999999999705
 31
0.0
  0
LINE
  5
630
  8
DATA
  6
CONTINUOUS
 62
     7
 10
205.49999999996649
 20
-448.9999999999705
 30
0.0
 11
214.99999999996649
 21
-448.9999999999705
 31
0.0
  0
LINE
  5
631
  8
DATA
  6
CONTINUOUS
 62
     7
 10
216.49999999996649
 20
-447.49999999997038
 30
0.0
 11
216.49999999996649
 21
-408.06193207563479
 31
0.0
  0
ARC
  5
632
  8
DATA
  6
CONTINUOUS
 62
     7
 10
214.99999999996649
 20
-447.49999999997038
 30
0.0
 40
1.5
 50
270.0
 51
0.0
  0
ARC
  5
633
  8
DATA
  6
CONTINUOUS
 62
     7
 10
215.99999999996649
 20
-448.4999999999705
 30
0.0
 40
1.5
 50
270.0
 51
0.0
  0
LINE
  5
634
  8
DATA
  6
CONTINUOUS
 62
     7
 10
98.402115198278125
 20
-453.99999999997061
 30
0.0
 11
114.34051991084419
 21
-453.99999999997061
 31
0.0
  0
LINE
  5
635
  8
DATA
  6
CONTINUOUS
 62
     7
 10
115.3713175545611
 20
-449.99999999997061
 30
0.0
 11
114.34051991084419
 21
-453.99999999997061
 31
0.0
  0
LINE
  5
636
  8
DATA
  6
CONTINUOUS
 62
     7
 10
97.371317554561159
 20
-449.99999999997061
 30
0.0
 11
98.402115198278125
 21
-453.99999999997061
 31
0.0
  0
LINE
  5
637
  8
DATA
  6
CONTINUOUS
 62
     7
 10
184.50072148445199
 20
-453.99999999997061
 30
0.0
 11
200.43912619701811
 21
-453.99999999997061
 31
0.0
  0
LINE
  5
638
  8
DATA
  6
CONTINUOUS
 62
     7
 10
201.46992384073499
 20
-449.99999999997061
 30
0.0
 11
200.43912619701811
 21
-453.99999999997061
 31
0.0
  0
LINE
  5
639
  8
DATA
  6
CONTINUOUS
 62
     7
 10
183.46992384073491
 20
-449.99999999997061
 30
0.0
 11
184.50072148445199
 21
-453.99999999997061
 31
0.0
  0
CIRCLE
  5
63A
  8
DATA
  6
CONTINUOUS
 62
     7
 10
105.99999999996651
 20
-443.9999999999705
 30
0.0
 40
3.0
  0
LINE
  5
63B
  8
DATA
  6
CONTINUOUS
 62
     7
 10
104.59109971960601
 20
-443.9999999999705
 30
0.0
 11
107.408900280327
 21
-443.9999999999705
 31
0.0
  0
LINE
  5
63C
  8
DATA
  6
CONTINUOUS
 62
     7
 10
105.99999999996651
 20
-445.40890028033112
 30
0.0
 11
105.99999999996651
 21
-442.59109971960987
 31
0.0
  0
CIRCLE
  5
63D
  8
DATA
  6
CONTINUOUS
 62
     7
 10
105.99999999996651
 20
-413.99999999997038
 30
0.0
 40
3.0
  0
LINE
  5
63E
  8
DATA
  6
CONTINUOUS
 62
     7
 10
104.59109971960601
 20
-413.99999999997038
 30
0.0
 11
107.408900280327
 21
-413.99999999997038
 31
0.0
  0
LINE
  5
63F
  8
DATA
  6
CONTINUOUS
 62
     7
 10
105.99999999996651
 20
-415.40890028033112
 30
0.0
 11
105.99999999996651
 21
-412.59109971960999
 31
0.0
  0
CIRCLE
  5
640
  8
DATA
  6
CONTINUOUS
 62
     7
 10
153.99999999996649
 20
-443.9999999999705
 30
0.0
 40
3.0
  0
LINE
  5
641
  8
DATA
  6
CONTINUOUS
 62
     7
 10
152.59109971960601
 20
-443.9999999999705
 30
0.0
 11
155.408900280327
 21
-443.9999999999705
 31
0.0
  0
LINE
  5
642
  8
DATA
  6
CONTINUOUS
 62
     7
 10
153.99999999996649
 20
-445.40890028033112
 30
0.0
 11
153.99999999996649
 21
-442.59109971960987
 31
0.0
  0
CIRCLE
  5
643
  8
DATA
  6
CONTINUOUS
 62
     7
 10
201.99999999996649
 20
-443.9999999999705
 30
0.0
 40
3.0
  0
LINE
  5
644
  8
DATA
  6
CONTINUOUS
 62
     7
 10
200.59109971960609
 20
-443.9999999999705
 30
0.0
 11
203.40890028032689
 21
-443.9999999999705
 31
0.0
  0
LINE
  5
645
  8
DATA
  6
CONTINUOUS
 62
     7
 10
201.99999999996649
 20
-445.40890028033112
 30
0.0
 11
201.99999999996649
 21
-442.59109971960987
 31
0.0
  0
LINE
  5
646
  8
DATA
  6
CONTINUOUS
 62
     7
 10
217.9999999999666
 20
-418.38296123421918
 30
0.0
 11
217.49999999996641
 21
-418.38296123421918
 31
0.0
  0
LINE
  5
647
  8
DATA
  6
CONTINUOUS
 62
     7
 10
217.9999999999666
 20
-425.38296123421912
 30
0.0
 11
217.49999999996641
 21
-425.38296123421912
 31
0.0
  0
ARC
  5
648
  8
DATA
  6
CONTINUOUS
 62
     7
 10
214.6666666666332
 20
-421.88296123421912
 30
0.0
 40
4.8333333333333188
 50
313.60281897270352
 51
46.397181027296547
  0
ARC
  5
649
  8
DATA
  6
CONTINUOUS
 62
     7
 10
87.567522278437949
 20
-433.99999999997038
 30
0.0
 40
1.4000000000000521
 50
92.764459308528515
 51
267.23554069147099
  0
LINE
  5
64A
  8
DATA
  6
CONTINUOUS
 62
     7
 10
219.00499999990839
 20
-427.55595489007243
 30
0.0
 11
217.50499999990839
 21
-427.55595489007243
 31
0.0
  0
LINE
  5
64B
  8
DATA
  6
CONTINUOUS
 62
     7
 10
223.50499999990831
 20
-428.15920974591432
 30
0.0
 11
219.00499999990839
 21
-428.15920974591432
 31
0.0
  0
LINE
  5
64C
  8
DATA
  6
CONTINUOUS
 62
     7
 10
223.50499999990831
 20
-435.95920974591422
 30
0.0
 11
222.4999999999666
 21
-435.95920974591422
 31
0.0
  0
LINE
  5
64D
  8
DATA
  6
CONTINUOUS
 62
     7
 10
223.50499999990839
 20
-428.15920974591432
 30
0.0
 11
223.50499999990839
 21
-435.95920974591422
 31
0.0
  0
LINE
  5
64E
  8
DATA
  6
CONTINUOUS
 62
     7
 10
219.00499999990839
 20
-427.55595489007243
 30
0.0
 11
219.00499999990839
 21
-432.97184697654978
 31
0.0
  0
LINE
  5
64F
  8
DATA
  6
CONTINUOUS
 62
     7
 10
222.49999999996649
 20
-439.59684697654961
 30
0.0
 11
222.49999999996649
 21
-434.19684697654969
 31
0.0
  0
LINE
  5
650
  8
DATA
  6
CONTINUOUS
 62
     7
 10
222.4999999999666
 20
-434.19684697654969
 30
0.0
 11
217.49999999996641
 21
-434.19684697654969
 31
0.0
  0
LINE
  5
651
  8
DATA
  6
CONTINUOUS
 62
     7
 10
222.49999999996649
 20
-439.59684697654961
 30
0.0
 11
217.49999999996641
 21
-439.59684697654961
 31
0.0
  0
LINE
  5
652
  8
DATA
  6
CONTINUOUS
 62
     7
 10
222.49999999996669
 20
-432.97184697654978
 30
0.0
 11
217.49999999996641
 21
-432.97184697654978
 31
0.0
  0
LINE
  5
653
  8
DATA
  6
CONTINUOUS
 62
     7
 10
222.49999999996649
 20
-440.82184697654969
 30
0.0
 11
217.49999999996641
 21
-440.82184697654969
 31
0.0
  0
LINE
  5
654
  8
DATA
  6
CONTINUOUS
 62
     7
 10
222.4999999999666
 20
-434.19684697654969
 30
0.0
 11
222.4999999999666
 21
-432.97184697654978
 31
0.0
  0
LINE
  5
655
  8
DATA
  6
CONTINUOUS
 62
     7
 10
222.49999999996649
 20
-439.59684697654961
 30
0.0
 11
222.49999999996649
 21
-440.82184697654969
 31
0.0
  0
POLYLINE
  5
656
  8
DATA
  6
CONTINUOUS
 62
     7
 66
     1
 10
0.0
 20
0.0
 30
0.0
 70
     1
  0
VERTEX
  5
F6F
  8
DATA
  6
CONTINUOUS
 62
     7
 10
-368.00000000003342
 20
-430.99999999997038
 30
0.0
  0
VERTEX
  5
F70
  8
DATA
  6
CONTINUOUS
 62
     7
 10
-358.00000000003342
 20
-430.99999999997038
 30
0.0
  0
VERTEX
  5
F71
  8
DATA
  6
CONTINUOUS
 62
     7
 10
-358.00000000003342
 20
-440.9999999999705
 30
0.0
  0
VERTEX
  5
F72
  8
DATA
  6
CONTINUOUS
 62
     7
 10
-368.00000000003342
 20
-440.9999999999705
 30
0.0
  0
SEQEND
  5
F73
  8
DATA
  6
CONTINUOUS
 62
     7
  0
TEXT
  5
65D
  8
DATA
 62
     7
 10
-368.06438366663917
 20
-447.12375896616618
 30
0.0
 40
3.031684072953392
  1
EQ 2 
 41
0.7
 11
-368.06438366663917
 21
-444.09207489321278
 31
0.0
 73
     3
  0
CIRCLE
  5
65E
  8
DATA
  6
CONTINUOUS
 62
     7
 10
-363.00000000003342
 20
-435.9999999999705
 30
0.0
 40
1.697056274847778
  0
POLYLINE
  5
65F
  8
DATA
  6
CONTINUOUS
 62
     7
 66
     1
 10
0.0
 20
0.0
 30
0.0
 70
     1
  0
VERTEX
  5
F74
  8
DATA
  6
CONTINUOUS
 62
     7
 10
-195.0000000000334
 20
-430.99999999997038
 30
0.0
  0
VERTEX
  5
F75
  8
DATA
  6
CONTINUOUS
 62
     7
 10
-185.0000000000334
 20
-430.99999999997038
 30
0.0
  0
VERTEX
  5
F76
  8
DATA
  6
CONTINUOUS
 62
     7
 10
-185.0000000000334
 20
-440.9999999999705
 30
0.0
  0
VERTEX
  5
F77
  8
DATA
  6
CONTINUOUS
 62
     7
 10
-195.0000000000334
 20
-440.9999999999705
 30
0.0
  0
SEQEND
  5
F78
  8
DATA
  6
CONTINUOUS
 62
     7
  0
TEXT
  5
666
  8
DATA
 62
     7
 10
-195.0643836666392
 20
-447.12375896616618
 30
0.0
 40
3.031684072953392
  1
EQ 2 
 41
0.7
 11
-195.0643836666392
 21
-444.09207489321278
 31
0.0
 73
     3
  0
CIRCLE
  5
667
  8
DATA
  6
CONTINUOUS
 62
     7
 10
-190.0000000000334
 20
-435.9999999999705
 30
0.0
 40
1.697056274847778
  0
LINE
  5
668
  8
DATA
  6
CONTINUOUS
 62
     7
 10
9.8589007121532983
 20
-129.46060284874719
 30
0.0
 11
14.958900712153319
 21
-129.46060284874719
 31
0.0
  0
LINE
  5
669
  8
DATA
  6
CONTINUOUS
 62
     7
 10
14.958900712153319
 20
-141.96060284874699
 30
0.0
 11
9.8589007121532983
 21
-141.96060284874699
 31
0.0
  0
LINE
  5
66A
  8
DATA
  6
CONTINUOUS
 62
     7
 10
14.958900712153319
 20
-129.46060284874719
 30
0.0
 11
14.958900712153319
 21
-141.96060284874699
 31
0.0
  0
LINE
  5
66B
  8
DATA
  6
CONTINUOUS
 62
     7
 10
9.8589007121532983
 20
-129.46060284874719
 30
0.0
 11
9.8589007121532983
 21
-141.96060284874699
 31
0.0
  0
LINE
  5
66C
  8
DATA
  6
CONTINUOUS
 62
     7
 10
12.25890071215327
 20
-129.96060284874719
 30
0.0
 11
12.25890071215327
 21
-141.4606028487471
 31
0.0
  0
LINE
  5
66D
  8
DATA
  6
CONTINUOUS
 62
     7
 10
13.558900712153291
 20
-129.96060284874719
 30
0.0
 11
13.558900712153291
 21
-141.4606028487471
 31
0.0
  0
LINE
  5
66E
  8
DATA
  6
CONTINUOUS
 62
     7
 10
12.25890071225332
 20
-135.1227471581029
 30
0.0
 11
12.183900712253269
 21
-135.1227471581029
 31
0.0
  0
LINE
  5
66F
  8
DATA
  6
CONTINUOUS
 62
     7
 10
12.25890071225332
 20
-133.8727471581029
 30
0.0
 11
12.183900712253269
 21
-133.8727471581029
 31
0.0
  0
LINE
  5
670
  8
DATA
  6
CONTINUOUS
 62
     7
 10
12.183900712253269
 20
-133.8727471581029
 30
0.0
 11
12.183900712253269
 21
-135.1227471581029
 31
0.0
  0
LINE
  5
671
  8
DATA
  6
CONTINUOUS
 62
     7
 10
12.25890071225332
 20
-136.2984585393915
 30
0.0
 11
12.183900712253269
 21
-136.2984585393915
 31
0.0
  0
LINE
  5
672
  8
DATA
  6
CONTINUOUS
 62
     7
 10
12.25890071225332
 20
-137.5484585393915
 30
0.0
 11
12.183900712253269
 21
-137.5484585393915
 31
0.0
  0
LINE
  5
673
  8
DATA
  6
CONTINUOUS
 62
     7
 10
12.183900712253269
 20
-137.5484585393915
 30
0.0
 11
12.183900712253269
 21
-136.2984585393915
 31
0.0
  0
LINE
  5
674
  8
DATA
  6
CONTINUOUS
 62
     7
 10
12.25890071225332
 20
-132.70274715810291
 30
0.0
 11
12.183900712253269
 21
-132.70274715810291
 31
0.0
  0
LINE
  5
675
  8
DATA
  6
CONTINUOUS
 62
     7
 10
12.25890071225332
 20
-131.45274715810291
 30
0.0
 11
12.183900712253269
 21
-131.45274715810291
 31
0.0
  0
LINE
  5
676
  8
DATA
  6
CONTINUOUS
 62
     7
 10
12.183900712253269
 20
-131.45274715810291
 30
0.0
 11
12.183900712253269
 21
-132.70274715810291
 31
0.0
  0
LINE
  5
677
  8
DATA
  6
CONTINUOUS
 62
     7
 10
12.25890071225332
 20
-138.71845853939141
 30
0.0
 11
12.183900712253269
 21
-138.71845853939141
 31
0.0
  0
LINE
  5
678
  8
DATA
  6
CONTINUOUS
 62
     7
 10
12.25890071225332
 20
-139.96845853939141
 30
0.0
 11
12.183900712253269
 21
-139.96845853939141
 31
0.0
  0
LINE
  5
679
  8
DATA
  6
CONTINUOUS
 62
     7
 10
12.183900712253269
 20
-139.96845853939141
 30
0.0
 11
12.183900712253269
 21
-138.71845853939141
 31
0.0
  0
LINE
  5
67A
  8
DATA
  6
CONTINUOUS
 62
     7
 10
12.25890071215327
 20
-129.96060284874719
 30
0.0
 11
13.558900712153291
 21
-129.96060284874719
 31
0.0
  0
LINE
  5
67B
  8
DATA
  6
CONTINUOUS
 62
     7
 10
12.25890071215327
 20
-141.4606028487471
 30
0.0
 11
13.558900712153291
 21
-141.4606028487471
 31
0.0
  0
CIRCLE
  5
67C
  8
DATA
  6
CONTINUOUS
 62
     7
 10
-8.4254166667001016
 20
-132.26660454910851
 30
0.0
 40
1.5
  0
LINE
  5
67D
  8
DATA
  6
CONTINUOUS
 62
     7
 10
-5.141099287846699
 20
-129.46060284874719
 30
0.0
 11
-0.0410992878466772
 21
-129.46060284874719
 31
0.0
  0
LINE
  5
67E
  8
DATA
  6
CONTINUOUS
 62
     7
 10
-0.0410992878466772
 20
-141.96060284874699
 30
0.0
 11
-5.141099287846699
 21
-141.96060284874699
 31
0.0
  0
LINE
  5
67F
  8
DATA
  6
CONTINUOUS
 62
     7
 10
-0.0410992878466772
 20
-129.46060284874719
 30
0.0
 11
-0.0410992878466772
 21
-141.96060284874699
 31
0.0
  0
LINE
  5
680
  8
DATA
  6
CONTINUOUS
 62
     7
 10
-5.141099287846699
 20
-129.46060284874719
 30
0.0
 11
-5.141099287846699
 21
-141.96060284874699
 31
0.0
  0
LINE
  5
681
  8
DATA
  6
CONTINUOUS
 62
     7
 10
-2.7410992878467222
 20
-129.96060284874719
 30
0.0
 11
-2.7410992878467222
 21
-141.4606028487471
 31
0.0
  0
LINE
  5
682
  8
DATA
  6
CONTINUOUS
 62
     7
 10
-1.441099287846711
 20
-129.96060284874719
 30
0.0
 11
-1.441099287846711
 21
-141.4606028487471
 31
0.0
  0
LINE
  5
683
  8
DATA
  6
CONTINUOUS
 62
     7
 10
-2.7410992877466782
 20
-135.1227471581029
 30
0.0
 11
-2.8160992877467241
 21
-135.1227471581029
 31
0.0
  0
LINE
  5
684
  8
DATA
  6
CONTINUOUS
 62
     7
 10
-2.7410992877466782
 20
-133.8727471581029
 30
0.0
 11
-2.8160992877467241
 21
-133.8727471581029
 31
0.0
  0
LINE
  5
685
  8
DATA
  6
CONTINUOUS
 62
     7
 10
-2.8160992877467241
 20
-133.8727471581029
 30
0.0
 11
-2.8160992877467241
 21
-135.1227471581029
 31
0.0
  0
LINE
  5
686
  8
DATA
  6
CONTINUOUS
 62
     7
 10
-2.7410992877466782
 20
-136.2984585393915
 30
0.0
 11
-2.8160992877467241
 21
-136.2984585393915
 31
0.0
  0
LINE
  5
687
  8
DATA
  6
CONTINUOUS
 62
     7
 10
-2.7410992877466782
 20
-137.5484585393915
 30
0.0
 11
-2.8160992877467241
 21
-137.5484585393915
 31
0.0
  0
LINE
  5
688
  8
DATA
  6
CONTINUOUS
 62
     7
 10
-2.8160992877467241
 20
-137.5484585393915
 30
0.0
 11
-2.8160992877467241
 21
-136.2984585393915
 31
0.0
  0
LINE
  5
689
  8
DATA
  6
CONTINUOUS
 62
     7
 10
-2.7410992877466782
 20
-132.70274715810291
 30
0.0
 11
-2.8160992877467241
 21
-132.70274715810291
 31
0.0
  0
LINE
  5
68A
  8
DATA
  6
CONTINUOUS
 62
     7
 10
-2.7410992877466782
 20
-131.45274715810291
 30
0.0
 11
-2.8160992877467241
 21
-131.45274715810291
 31
0.0
  0
LINE
  5
68B
  8
DATA
  6
CONTINUOUS
 62
     7
 10
-2.8160992877467241
 20
-131.45274715810291
 30
0.0
 11
-2.8160992877467241
 21
-132.70274715810291
 31
0.0
  0
LINE
  5
68C
  8
DATA
  6
CONTINUOUS
 62
     7
 10
-2.7410992877466782
 20
-138.71845853939141
 30
0.0
 11
-2.8160992877467241
 21
-138.71845853939141
 31
0.0
  0
LINE
  5
68D
  8
DATA
  6
CONTINUOUS
 62
     7
 10
-2.7410992877466782
 20
-139.96845853939141
 30
0.0
 11
-2.8160992877467241
 21
-139.96845853939141
 31
0.0
  0
LINE
  5
68E
  8
DATA
  6
CONTINUOUS
 62
     7
 10
-2.8160992877467241
 20
-139.96845853939141
 30
0.0
 11
-2.8160992877467241
 21
-138.71845853939141
 31
0.0
  0
LINE
  5
68F
  8
DATA
  6
CONTINUOUS
 62
     7
 10
-2.7410992878467222
 20
-129.96060284874719
 30
0.0
 11
-1.441099287846711
 21
-129.96060284874719
 31
0.0
  0
LINE
  5
690
  8
DATA
  6
CONTINUOUS
 62
     7
 10
-2.7410992878467222
 20
-141.4606028487471
 30
0.0
 11
-1.441099287846711
 21
-141.4606028487471
 31
0.0
  0
CIRCLE
  5
691
  8
DATA
  6
CONTINUOUS
 62
     7
 10
-23.425416666700102
 20
-132.26660454910851
 30
0.0
 40
1.5
  0
LINE
  5
692
  8
DATA
  6
CONTINUOUS
 62
     7
 10
-20.1410992878467
 20
-129.46060284874719
 30
0.0
 11
-15.04109928784667
 21
-129.46060284874719
 31
0.0
  0
LINE
  5
693
  8
DATA
  6
CONTINUOUS
 62
     7
 10
-15.04109928784667
 20
-141.96060284874699
 30
0.0
 11
-20.1410992878467
 21
-141.96060284874699
 31
0.0
  0
LINE
  5
694
  8
DATA
  6
CONTINUOUS
 62
     7
 10
-15.04109928784667
 20
-129.46060284874719
 30
0.0
 11
-15.04109928784667
 21
-141.96060284874699
 31
0.0
  0
LINE
  5
695
  8
DATA
  6
CONTINUOUS
 62
     7
 10
-20.1410992878467
 20
-129.46060284874719
 30
0.0
 11
-20.1410992878467
 21
-141.96060284874699
 31
0.0
  0
LINE
  5
696
  8
DATA
  6
CONTINUOUS
 62
     7
 10
-17.741099287846719
 20
-129.96060284874719
 30
0.0
 11
-17.741099287846719
 21
-141.4606028487471
 31
0.0
  0
LINE
  5
697
  8
DATA
  6
CONTINUOUS
 62
     7
 10
-16.441099287846711
 20
-129.96060284874719
 30
0.0
 11
-16.441099287846711
 21
-141.4606028487471
 31
0.0
  0
LINE
  5
698
  8
DATA
  6
CONTINUOUS
 62
     7
 10
-17.741099287746671
 20
-135.1227471581029
 30
0.0
 11
-17.81609928774672
 21
-135.1227471581029
 31
0.0
  0
LINE
  5
699
  8
DATA
  6
CONTINUOUS
 62
     7
 10
-17.741099287746671
 20
-133.8727471581029
 30
0.0
 11
-17.81609928774672
 21
-133.8727471581029
 31
0.0
  0
LINE
  5
69A
  8
DATA
  6
CONTINUOUS
 62
     7
 10
-17.81609928774672
 20
-133.8727471581029
 30
0.0
 11
-17.81609928774672
 21
-135.1227471581029
 31
0.0
  0
LINE
  5
69B
  8
DATA
  6
CONTINUOUS
 62
     7
 10
-17.741099287746671
 20
-136.2984585393915
 30
0.0
 11
-17.81609928774672
 21
-136.2984585393915
 31
0.0
  0
LINE
  5
69C
  8
DATA
  6
CONTINUOUS
 62
     7
 10
-17.741099287746671
 20
-137.5484585393915
 30
0.0
 11
-17.81609928774672
 21
-137.5484585393915
 31
0.0
  0
LINE
  5
69D
  8
DATA
  6
CONTINUOUS
 62
     7
 10
-17.81609928774672
 20
-137.5484585393915
 30
0.0
 11
-17.81609928774672
 21
-136.2984585393915
 31
0.0
  0
LINE
  5
69E
  8
DATA
  6
CONTINUOUS
 62
     7
 10
-17.741099287746671
 20
-132.70274715810291
 30
0.0
 11
-17.81609928774672
 21
-132.70274715810291
 31
0.0
  0
LINE
  5
69F
  8
DATA
  6
CONTINUOUS
 62
     7
 10
-17.741099287746671
 20
-131.45274715810291
 30
0.0
 11
-17.81609928774672
 21
-131.45274715810291
 31
0.0
  0
LINE
  5
6A0
  8
DATA
  6
CONTINUOUS
 62
     7
 10
-17.81609928774672
 20
-131.45274715810291
 30
0.0
 11
-17.81609928774672
 21
-132.70274715810291
 31
0.0
  0
LINE
  5
6A1
  8
DATA
  6
CONTINUOUS
 62
     7
 10
-17.741099287746671
 20
-138.71845853939141
 30
0.0
 11
-17.81609928774672
 21
-138.71845853939141
 31
0.0
  0
LINE
  5
6A2
  8
DATA
  6
CONTINUOUS
 62
     7
 10
-17.741099287746671
 20
-139.96845853939141
 30
0.0
 11
-17.81609928774672
 21
-139.96845853939141
 31
0.0
  0
LINE
  5
6A3
  8
DATA
  6
CONTINUOUS
 62
     7
 10
-17.81609928774672
 20
-139.96845853939141
 30
0.0
 11
-17.81609928774672
 21
-138.71845853939141
 31
0.0
  0
LINE
  5
6A4
  8
DATA
  6
CONTINUOUS
 62
     7
 10
-17.741099287846719
 20
-129.96060284874719
 30
0.0
 11
-16.441099287846711
 21
-129.96060284874719
 31
0.0
  0
LINE
  5
6A5
  8
DATA
  6
CONTINUOUS
 62
     7
 10
-17.741099287846719
 20
-141.4606028487471
 30
0.0
 11
-16.441099287846711
 21
-141.4606028487471
 31
0.0
  0
CIRCLE
  5
6A6
  8
DATA
  6
CONTINUOUS
 62
     7
 10
-38.425416666700102
 20
-132.26660454910851
 30
0.0
 40
1.5
  0
LINE
  5
6A7
  8
DATA
  6
CONTINUOUS
 62
     7
 10
-35.1410992878467
 20
-129.46060284874719
 30
0.0
 11
-30.041099287846681
 21
-129.46060284874719
 31
0.0
  0
LINE
  5
6A8
  8
DATA
  6
CONTINUOUS
 62
     7
 10
-30.041099287846681
 20
-141.96060284874699
 30
0.0
 11
-35.1410992878467
 21
-141.96060284874699
 31
0.0
  0
LINE
  5
6A9
  8
DATA
  6
CONTINUOUS
 62
     7
 10
-30.041099287846681
 20
-129.46060284874719
 30
0.0
 11
-30.041099287846681
 21
-141.96060284874699
 31
0.0
  0
LINE
  5
6AA
  8
DATA
  6
CONTINUOUS
 62
     7
 10
-35.1410992878467
 20
-129.46060284874719
 30
0.0
 11
-35.1410992878467
 21
-141.96060284874699
 31
0.0
  0
LINE
  5
6AB
  8
DATA
  6
CONTINUOUS
 62
     7
 10
-32.74109928784673
 20
-129.96060284874719
 30
0.0
 11
-32.74109928784673
 21
-141.4606028487471
 31
0.0
  0
LINE
  5
6AC
  8
DATA
  6
CONTINUOUS
 62
     7
 10
-31.441099287846718
 20
-129.96060284874719
 30
0.0
 11
-31.441099287846718
 21
-141.4606028487471
 31
0.0
  0
LINE
  5
6AD
  8
DATA
  6
CONTINUOUS
 62
     7
 10
-32.741099287746678
 20
-135.1227471581029
 30
0.0
 11
-32.816099287746731
 21
-135.1227471581029
 31
0.0
  0
LINE
  5
6AE
  8
DATA
  6
CONTINUOUS
 62
     7
 10
-32.741099287746678
 20
-133.8727471581029
 30
0.0
 11
-32.816099287746731
 21
-133.8727471581029
 31
0.0
  0
LINE
  5
6AF
  8
DATA
  6
CONTINUOUS
 62
     7
 10
-32.816099287746731
 20
-133.8727471581029
 30
0.0
 11
-32.816099287746731
 21
-135.1227471581029
 31
0.0
  0
LINE
  5
6B0
  8
DATA
  6
CONTINUOUS
 62
     7
 10
-32.741099287746678
 20
-136.2984585393915
 30
0.0
 11
-32.816099287746731
 21
-136.2984585393915
 31
0.0
  0
LINE
  5
6B1
  8
DATA
  6
CONTINUOUS
 62
     7
 10
-32.741099287746678
 20
-137.5484585393915
 30
0.0
 11
-32.816099287746731
 21
-137.5484585393915
 31
0.0
  0
LINE
  5
6B2
  8
DATA
  6
CONTINUOUS
 62
     7
 10
-32.816099287746731
 20
-137.5484585393915
 30
0.0
 11
-32.816099287746731
 21
-136.2984585393915
 31
0.0
  0
LINE
  5
6B3
  8
DATA
  6
CONTINUOUS
 62
     7
 10
-32.741099287746678
 20
-132.70274715810291
 30
0.0
 11
-32.816099287746731
 21
-132.70274715810291
 31
0.0
  0
LINE
  5
6B4
  8
DATA
  6
CONTINUOUS
 62
     7
 10
-32.741099287746678
 20
-131.45274715810291
 30
0.0
 11
-32.816099287746731
 21
-131.45274715810291
 31
0.0
  0
LINE
  5
6B5
  8
DATA
  6
CONTINUOUS
 62
     7
 10
-32.816099287746731
 20
-131.45274715810291
 30
0.0
 11
-32.816099287746731
 21
-132.70274715810291
 31
0.0
  0
LINE
  5
6B6
  8
DATA
  6
CONTINUOUS
 62
     7
 10
-32.741099287746678
 20
-138.71845853939141
 30
0.0
 11
-32.816099287746731
 21
-138.71845853939141
 31
0.0
  0
LINE
  5
6B7
  8
DATA
  6
CONTINUOUS
 62
     7
 10
-32.741099287746678
 20
-139.96845853939141
 30
0.0
 11
-32.816099287746731
 21
-139.96845853939141
 31
0.0
  0
LINE
  5
6B8
  8
DATA
  6
CONTINUOUS
 62
     7
 10
-32.816099287746731
 20
-139.96845853939141
 30
0.0
 11
-32.816099287746731
 21
-138.71845853939141
 31
0.0
  0
LINE
  5
6B9
  8
DATA
  6
CONTINUOUS
 62
     7
 10
-32.74109928784673
 20
-129.96060284874719
 30
0.0
 11
-31.441099287846718
 21
-129.96060284874719
 31
0.0
  0
LINE
  5
6BA
  8
DATA
  6
CONTINUOUS
 62
     7
 10
-32.74109928784673
 20
-141.4606028487471
 30
0.0
 11
-31.441099287846718
 21
-141.4606028487471
 31
0.0
  0
TEXT
  5
6BB
  8
DATA
 62
     7
 10
13.63881942338381
 20
-144.31668045712601
 30
0.0
 40
3.121945529513888
  1
1
 50
180.0
 41
0.7
 11
13.63881942338381
 21
-147.43862598663989
 31
0.0
 73
     3
  0
TEXT
  5
6BC
  8
DATA
 62
     7
 10
-1.3611805766161911
 20
-144.31668045712601
 30
0.0
 40
3.121945529513888
  1
2
 50
180.0
 41
0.7
 11
-1.361180576616192
 21
-147.43862598663989
 31
0.0
 73
     3
  0
TEXT
  5
6BD
  8
DATA
 62
     7
 10
-16.361180576616189
 20
-144.31668045712601
 30
0.0
 40
3.121945529513888
  1
3
 50
180.0
 41
0.7
 11
-16.361180576616189
 21
-147.43862598663989
 31
0.0
 73
     3
  0
TEXT
  5
6BE
  8
DATA
 62
     7
 10
-31.361180576616182
 20
-144.31668045712601
 30
0.0
 40
3.121945529513888
  1
4
 50
180.0
 41
0.7
 11
-31.361180576616182
 21
-147.43862598663989
 31
0.0
 73
     3
  0
TEXT
  5
6BF
  8
DATA
 62
     7
 10
-3.8205877412119218
 20
-122.9330789798608
 30
0.0
 40
3.121945529513888
  1
USB Out
 50
180.0
 41
0.7
 11
-3.8205877412119231
 21
-126.0550245093747
 31
0.0
 73
     3
  0
LINE
  5
6C0
  8
DATA
  6
CONTINUOUS
 62
     7
 10
-20.59604270164629
 20
-124.39357897986081
 30
0.0
 11
-40.737429493279294
 21
-124.39357897986081
 31
0.0
  0
LINE
  5
6C1
  8
DATA
  6
CONTINUOUS
 62
     7
 10
-3.2589087204735421
 20
-124.39357897986081
 30
0.0
 11
16.882478071159468
 21
-124.39357897986081
 31
0.0
  0
CIRCLE
  5
6C2
  8
DATA
  6
CONTINUOUS
 62
     7
 10
-66.021940494487794
 20
-131.96617002758191
 30
0.0
 40
1.5
  0
TEXT
  5
6C3
  8
DATA
 62
     7
 10
-62.280957021201417
 20
-122.6973378898663
 30
0.0
 40
3.121945529513888
  1
HOST
 50
180.0
 41
0.7
 11
-62.280957021201417
 21
-125.8192834193802
 31
0.0
 73
     3
  0
LINE
  5
6C4
  8
DATA
  6
CONTINUOUS
 62
     7
 10
-529.99999999999977
 20
-0.2767175791335603
 30
0.0
 11
730.0
 21
-0.2767175791335603
 31
0.0
  0
LINE
  5
6C5
  8
DATA
  6
CONTINUOUS
 62
     7
 10
-344.05941666666672
 20
50.536749999999977
 30
0.0
 11
-25.309416666666731
 21
50.536749999999977
 31
0.0
  0
LINE
  5
6C6
  8
DATA
  6
CONTINUOUS
 62
     7
 10
-344.05941666666672
 20
-574.46325000000002
 30
0.0
 11
-25.309416666666731
 21
-574.46325000000002
 31
0.0
  0
LINE
  5
6C7
  8
DATA
  6
CONTINUOUS
 62
     7
 10
570.57915174982304
 20
275.0000000000295
 30
0.0
 11
570.57915174982304
 21
405.00000000002927
 31
0.0
  0
LINE
  5
6C8
  8
DATA
  6
CONTINUOUS
 62
     7
 10
135.57915174982341
 20
275.0000000000295
 30
0.0
 11
570.57915174982304
 21
275.0000000000295
 31
0.0
  0
LINE
  5
6C9
  8
DATA
  6
CONTINUOUS
 62
     7
 10
135.57915174982341
 20
405.00000000002927
 30
0.0
 11
135.57915174982341
 21
275.0000000000295
 31
0.0
  0
LINE
  5
6CA
  8
DATA
  6
CONTINUOUS
 62
     7
 10
570.57915174982304
 20
405.00000000002927
 30
0.0
 11
135.57915174982341
 21
405.00000000002927
 31
0.0
  0
LINE
  5
6CB
  8
DATA
  6
CONTINUOUS
 62
     7
 10
527.36028066085498
 20
410.0000000000295
 30
0.0
 11
527.36028066085498
 21
405.00000000002927
 31
0.0
  0
LINE
  5
6CC
  8
DATA
  6
CONTINUOUS
 62
     7
 10
522.68374348041925
 20
410.0000000000295
 30
0.0
 11
522.68374348041925
 21
405.00000000002927
 31
0.0
  0
LINE
  5
6CD
  8
DATA
  6
CONTINUOUS
 62
     7
 10
520.7200138734695
 20
410.0000000000295
 30
0.0
 11
520.7200138734695
 21
405.00000000002927
 31
0.0
  0
LINE
  5
6CE
  8
DATA
  6
CONTINUOUS
 62
     7
 10
494.86028066085493
 20
410.0000000000295
 30
0.0
 11
494.86028066085493
 21
405.00000000002927
 31
0.0
  0
LINE
  5
6CF
  8
DATA
  6
CONTINUOUS
 62
     7
 10
490.18374348041908
 20
410.0000000000295
 30
0.0
 11
490.18374348041908
 21
405.00000000002927
 31
0.0
  0
LINE
  5
6D0
  8
DATA
  6
CONTINUOUS
 62
     7
 10
496.87326883272618
 20
410.0000000000295
 30
0.0
 11
496.87326883272618
 21
405.00000000002927
 31
0.0
  0
LINE
  5
6D1
  8
DATA
  6
CONTINUOUS
 62
     7
 10
556.08240660566491
 20
406.5000000000295
 30
0.0
 11
556.08240660566491
 21
405.00000000002927
 31
0.0
  0
LINE
  5
6D2
  8
DATA
  6
CONTINUOUS
 62
     7
 10
547.44589689398117
 20
406.5000000000295
 30
0.0
 11
547.44589689398117
 21
405.00000000002927
 31
0.0
  0
LINE
  5
6D3
  8
DATA
  6
CONTINUOUS
 62
     7
 10
555.47915174982279
 20
411.00000000002939
 30
0.0
 11
555.47915174982279
 21
406.5000000000295
 31
0.0
  0
LINE
  5
6D4
  8
DATA
  6
CONTINUOUS
 62
     7
 10
547.67915174982318
 20
411.00000000002939
 30
0.0
 11
547.67915174982318
 21
406.5000000000295
 31
0.0
  0
LINE
  5
6D5
  8
DATA
  6
CONTINUOUS
 62
     7
 10
555.47915174982279
 20
411.0000000000295
 30
0.0
 11
547.67915174982318
 21
411.0000000000295
 31
0.0
  0
LINE
  5
6D6
  8
DATA
  6
CONTINUOUS
 62
     7
 10
556.08240660566491
 20
406.5000000000295
 30
0.0
 11
547.44589689398117
 21
406.5000000000295
 31
0.0
  0
LINE
  5
6D7
  8
DATA
  6
CONTINUOUS
 62
     7
 10
527.36028066085498
 20
410.0000000000295
 30
0.0
 11
522.68374348041925
 21
410.0000000000295
 31
0.0
  0
LINE
  5
6D8
  8
DATA
  6
CONTINUOUS
 62
     7
 10
520.7200138734695
 20
410.0000000000295
 30
0.0
 11
496.87326883272618
 21
410.0000000000295
 31
0.0
  0
LINE
  5
6D9
  8
DATA
  6
CONTINUOUS
 62
     7
 10
494.86028066085493
 20
410.0000000000295
 30
0.0
 11
490.18374348041908
 21
410.0000000000295
 31
0.0
  0
LINE
  5
6DA
  8
DATA
  6
CONTINUOUS
 62
     7
 10
355.36028066085521
 20
410.0000000000295
 30
0.0
 11
355.36028066085521
 21
405.00000000002927
 31
0.0
  0
LINE
  5
6DB
  8
DATA
  6
CONTINUOUS
 62
     7
 10
350.68374348041931
 20
410.0000000000295
 30
0.0
 11
350.68374348041931
 21
405.00000000002927
 31
0.0
  0
LINE
  5
6DC
  8
DATA
  6
CONTINUOUS
 62
     7
 10
348.72001387346938
 20
410.0000000000295
 30
0.0
 11
348.72001387346938
 21
405.00000000002927
 31
0.0
  0
LINE
  5
6DD
  8
DATA
  6
CONTINUOUS
 62
     7
 10
322.8602806608551
 20
410.0000000000295
 30
0.0
 11
322.8602806608551
 21
405.00000000002927
 31
0.0
  0
LINE
  5
6DE
  8
DATA
  6
CONTINUOUS
 62
     7
 10
318.18374348041903
 20
410.0000000000295
 30
0.0
 11
318.18374348041903
 21
405.00000000002927
 31
0.0
  0
LINE
  5
6DF
  8
DATA
  6
CONTINUOUS
 62
     7
 10
324.87326883272641
 20
410.0000000000295
 30
0.0
 11
324.87326883272641
 21
405.00000000002927
 31
0.0
  0
LINE
  5
6E0
  8
DATA
  6
CONTINUOUS
 62
     7
 10
355.36028066085521
 20
410.0000000000295
 30
0.0
 11
350.68374348041931
 21
410.0000000000295
 31
0.0
  0
LINE
  5
6E1
  8
DATA
  6
CONTINUOUS
 62
     7
 10
348.72001387346938
 20
410.0000000000295
 30
0.0
 11
324.87326883272641
 21
410.0000000000295
 31
0.0
  0
LINE
  5
6E2
  8
DATA
  6
CONTINUOUS
 62
     7
 10
322.8602806608551
 20
410.0000000000295
 30
0.0
 11
318.18374348041903
 21
410.0000000000295
 31
0.0
  0
LINE
  5
6E3
  8
DATA
  6
CONTINUOUS
 62
     7
 10
250.85556188983571
 20
405.5000000000295
 30
0.0
 11
250.85556188983571
 21
405.00000000002927
 31
0.0
  0
LINE
  5
6E4
  8
DATA
  6
CONTINUOUS
 62
     7
 10
243.85556188983571
 20
405.5000000000295
 30
0.0
 11
243.85556188983571
 21
405.00000000002927
 31
0.0
  0
LINE
  5
6E5
  8
DATA
  6
CONTINUOUS
 62
     7
 10
152.85556188983611
 20
405.5000000000295
 30
0.0
 11
152.85556188983611
 21
405.00000000002927
 31
0.0
  0
LINE
  5
6E6
  8
DATA
  6
CONTINUOUS
 62
     7
 10
145.85556188983611
 20
405.5000000000295
 30
0.0
 11
145.85556188983611
 21
405.00000000002927
 31
0.0
  0
ARC
  5
6E7
  8
DATA
  6
CONTINUOUS
 62
     7
 10
247.3555618898358
 20
402.16666666669602
 30
0.0
 40
4.8333333333333579
 50
43.60281897270395
 51
136.397181027296
  0
ARC
  5
6E8
  8
DATA
  6
CONTINUOUS
 62
     7
 10
149.35556188983611
 20
402.16666666669602
 30
0.0
 40
4.8333333333333579
 50
43.60281897270395
 51
136.397181027296
  0
ARC
  5
6E9
  8
DATA
  6
CONTINUOUS
 62
     7
 10
371.57915174982321
 20
274.91100577179702
 30
0.0
 40
1.3999999999999611
 50
176.35540432688231
 51
3.6445956731173501
  0
ARC
  5
6EA
  8
DATA
  6
CONTINUOUS
 62
     7
 10
542.57915174982304
 20
275.259657032814
 30
0.0
 40
1.399999999999977
 50
190.6884953653325
 51
349.31150463466741
  0
LINE
  5
6EB
  8
DATA
  6
CONTINUOUS
 62
     7
 10
570.57915174982304
 20
-349.9999999999705
 30
0.0
 11
570.57915174982304
 21
-219.9999999999705
 31
0.0
  0
LINE
  5
6EC
  8
DATA
  6
CONTINUOUS
 62
     7
 10
135.57915174982341
 20
-349.9999999999705
 30
0.0
 11
570.57915174982304
 21
-349.9999999999705
 31
0.0
  0
LINE
  5
6ED
  8
DATA
  6
CONTINUOUS
 62
     7
 10
135.57915174982341
 20
-219.9999999999705
 30
0.0
 11
135.57915174982341
 21
-349.9999999999705
 31
0.0
  0
LINE
  5
6EE
  8
DATA
  6
CONTINUOUS
 62
     7
 10
570.57915174982304
 20
-219.9999999999705
 30
0.0
 11
135.57915174982341
 21
-219.9999999999705
 31
0.0
  0
LINE
  5
6EF
  8
DATA
  6
CONTINUOUS
 62
     7
 10
527.36028066085498
 20
-214.9999999999705
 30
0.0
 11
527.36028066085498
 21
-219.9999999999705
 31
0.0
  0
LINE
  5
6F0
  8
DATA
  6
CONTINUOUS
 62
     7
 10
522.68374348041925
 20
-214.9999999999705
 30
0.0
 11
522.68374348041925
 21
-219.9999999999705
 31
0.0
  0
LINE
  5
6F1
  8
DATA
  6
CONTINUOUS
 62
     7
 10
520.7200138734695
 20
-214.9999999999705
 30
0.0
 11
520.7200138734695
 21
-219.9999999999705
 31
0.0
  0
LINE
  5
6F2
  8
DATA
  6
CONTINUOUS
 62
     7
 10
494.86028066085493
 20
-214.9999999999705
 30
0.0
 11
494.86028066085493
 21
-219.9999999999705
 31
0.0
  0
LINE
  5
6F3
  8
DATA
  6
CONTINUOUS
 62
     7
 10
490.18374348041908
 20
-214.9999999999705
 30
0.0
 11
490.18374348041908
 21
-219.9999999999705
 31
0.0
  0
LINE
  5
6F4
  8
DATA
  6
CONTINUOUS
 62
     7
 10
496.87326883272618
 20
-214.9999999999705
 30
0.0
 11
496.87326883272618
 21
-219.9999999999705
 31
0.0
  0
LINE
  5
6F5
  8
DATA
  6
CONTINUOUS
 62
     7
 10
556.08240660566491
 20
-218.4999999999705
 30
0.0
 11
556.08240660566491
 21
-219.9999999999705
 31
0.0
  0
LINE
  5
6F6
  8
DATA
  6
CONTINUOUS
 62
     7
 10
547.44589689398117
 20
-218.4999999999705
 30
0.0
 11
547.44589689398117
 21
-219.99999999997061
 31
0.0
  0
LINE
  5
6F7
  8
DATA
  6
CONTINUOUS
 62
     7
 10
555.47915174982279
 20
-213.99999999997061
 30
0.0
 11
555.47915174982279
 21
-218.4999999999705
 31
0.0
  0
LINE
  5
6F8
  8
DATA
  6
CONTINUOUS
 62
     7
 10
547.67915174982318
 20
-213.99999999997061
 30
0.0
 11
547.67915174982318
 21
-218.4999999999705
 31
0.0
  0
LINE
  5
6F9
  8
DATA
  6
CONTINUOUS
 62
     7
 10
555.47915174982279
 20
-213.9999999999705
 30
0.0
 11
547.67915174982318
 21
-213.9999999999705
 31
0.0
  0
LINE
  5
6FA
  8
DATA
  6
CONTINUOUS
 62
     7
 10
556.08240660566491
 20
-218.4999999999705
 30
0.0
 11
547.44589689398117
 21
-218.4999999999705
 31
0.0
  0
LINE
  5
6FB
  8
DATA
  6
CONTINUOUS
 62
     7
 10
527.36028066085498
 20
-214.9999999999705
 30
0.0
 11
522.68374348041925
 21
-214.9999999999705
 31
0.0
  0
LINE
  5
6FC
  8
DATA
  6
CONTINUOUS
 62
     7
 10
520.7200138734695
 20
-214.9999999999705
 30
0.0
 11
496.87326883272618
 21
-214.9999999999705
 31
0.0
  0
LINE
  5
6FD
  8
DATA
  6
CONTINUOUS
 62
     7
 10
494.86028066085493
 20
-214.9999999999705
 30
0.0
 11
490.18374348041908
 21
-214.9999999999705
 31
0.0
  0
LINE
  5
6FE
  8
DATA
  6
CONTINUOUS
 62
     7
 10
355.36028066085521
 20
-214.9999999999705
 30
0.0
 11
355.36028066085521
 21
-219.9999999999705
 31
0.0
  0
LINE
  5
6FF
  8
DATA
  6
CONTINUOUS
 62
     7
 10
350.68374348041931
 20
-214.9999999999705
 30
0.0
 11
350.68374348041931
 21
-219.9999999999705
 31
0.0
  0
LINE
  5
700
  8
DATA
  6
CONTINUOUS
 62
     7
 10
348.72001387346938
 20
-214.9999999999705
 30
0.0
 11
348.72001387346938
 21
-219.9999999999705
 31
0.0
  0
LINE
  5
701
  8
DATA
  6
CONTINUOUS
 62
     7
 10
322.8602806608551
 20
-214.9999999999705
 30
0.0
 11
322.8602806608551
 21
-219.9999999999705
 31
0.0
  0
LINE
  5
702
  8
DATA
  6
CONTINUOUS
 62
     7
 10
318.18374348041903
 20
-214.9999999999705
 30
0.0
 11
318.18374348041903
 21
-219.9999999999705
 31
0.0
  0
LINE
  5
703
  8
DATA
  6
CONTINUOUS
 62
     7
 10
324.87326883272641
 20
-214.9999999999705
 30
0.0
 11
324.87326883272641
 21
-219.9999999999705
 31
0.0
  0
LINE
  5
704
  8
DATA
  6
CONTINUOUS
 62
     7
 10
355.36028066085521
 20
-214.9999999999705
 30
0.0
 11
350.68374348041931
 21
-214.9999999999705
 31
0.0
  0
LINE
  5
705
  8
DATA
  6
CONTINUOUS
 62
     7
 10
348.72001387346938
 20
-214.9999999999705
 30
0.0
 11
324.87326883272641
 21
-214.9999999999705
 31
0.0
  0
LINE
  5
706
  8
DATA
  6
CONTINUOUS
 62
     7
 10
322.8602806608551
 20
-214.9999999999705
 30
0.0
 11
318.18374348041903
 21
-214.9999999999705
 31
0.0
  0
LINE
  5
707
  8
DATA
  6
CONTINUOUS
 62
     7
 10
250.85556188983571
 20
-219.4999999999705
 30
0.0
 11
250.85556188983571
 21
-219.9999999999705
 31
0.0
  0
LINE
  5
708
  8
DATA
  6
CONTINUOUS
 62
     7
 10
243.85556188983571
 20
-219.4999999999705
 30
0.0
 11
243.85556188983571
 21
-219.9999999999705
 31
0.0
  0
LINE
  5
709
  8
DATA
  6
CONTINUOUS
 62
     7
 10
152.85556188983611
 20
-219.4999999999705
 30
0.0
 11
152.85556188983611
 21
-219.9999999999705
 31
0.0
  0
LINE
  5
70A
  8
DATA
  6
CONTINUOUS
 62
     7
 10
145.85556188983611
 20
-219.4999999999705
 30
0.0
 11
145.85556188983611
 21
-219.9999999999705
 31
0.0
  0
ARC
  5
70B
  8
DATA
  6
CONTINUOUS
 62
     7
 10
247.3555618898358
 20
-222.8333333333039
 30
0.0
 40
4.8333333333333579
 50
43.60281897270395
 51
136.397181027296
  0
ARC
  5
70C
  8
DATA
  6
CONTINUOUS
 62
     7
 10
149.35556188983611
 20
-222.8333333333039
 30
0.0
 40
4.8333333333333579
 50
43.60281897270395
 51
136.397181027296
  0
ARC
  5
70D
  8
DATA
  6
CONTINUOUS
 62
     7
 10
371.57915174982321
 20
-350.08899422820298
 30
0.0
 40
1.3999999999999531
 50
176.355404326887
 51
3.644595673113002
  0
ARC
  5
70E
  8
DATA
  6
CONTINUOUS
 62
     7
 10
542.57915174982304
 20
-349.74034296718611
 30
0.0
 40
1.399999999999977
 50
190.6884953653325
 51
349.31150463466741
  0
LINE
  5
70F
  8
DATA
  6
CONTINUOUS
 62
     7
 10
570.57915174982304
 20
-231.9999999999705
 30
0.0
 11
135.57915174982341
 21
-231.9999999999705
 31
0.0
  0
LINE
  5
710
  8
DATA
  6
CONTINUOUS
 62
     7
 10
570.57915174982304
 20
393.0000000000295
 30
0.0
 11
135.57915174982341
 21
393.0000000000295
 31
0.0
  0
CIRCLE
  5
711
  8
DATA
  6
CONTINUOUS
 62
     7
 10
146.57915174982341
 20
379.85000000002952
 30
0.0
 40
9.0
  0
CIRCLE
  5
712
  8
DATA
  6
CONTINUOUS
 62
     7
 10
146.57915174982341
 20
379.85000000002952
 30
0.0
 40
7.9699999999999989
  0
CIRCLE
  5
713
  8
DATA
  6
CONTINUOUS
 62
     7
 10
146.57915174982341
 20
293.7500000000295
 30
0.0
 40
9.0
  0
CIRCLE
  5
714
  8
DATA
  6
CONTINUOUS
 62
     7
 10
146.57915174982341
 20
293.7500000000295
 30
0.0
 40
7.9699999999999989
  0
CIRCLE
  5
715
  8
DATA
  6
CONTINUOUS
 62
     7
 10
559.57915174982315
 20
379.85000000002952
 30
0.0
 40
9.0
  0
CIRCLE
  5
716
  8
DATA
  6
CONTINUOUS
 62
     7
 10
559.57915174982315
 20
379.85000000002952
 30
0.0
 40
7.9699999999999669
  0
CIRCLE
  5
717
  8
DATA
  6
CONTINUOUS
 62
     7
 10
559.57915174982315
 20
293.7500000000295
 30
0.0
 40
9.0
  0
CIRCLE
  5
718
  8
DATA
  6
CONTINUOUS
 62
     7
 10
559.57915174982315
 20
293.7500000000295
 30
0.0
 40
7.9699999999999669
  0
CIRCLE
  5
719
  8
DATA
  6
CONTINUOUS
 62
     7
 10
146.57915174982341
 20
-245.1499999999705
 30
0.0
 40
9.0
  0
CIRCLE
  5
71A
  8
DATA
  6
CONTINUOUS
 62
     7
 10
146.57915174982341
 20
-245.1499999999705
 30
0.0
 40
7.9699999999999989
  0
CIRCLE
  5
71B
  8
DATA
  6
CONTINUOUS
 62
     7
 10
146.57915174982341
 20
-331.2499999999705
 30
0.0
 40
9.0
  0
CIRCLE
  5
71C
  8
DATA
  6
CONTINUOUS
 62
     7
 10
146.57915174982341
 20
-331.2499999999705
 30
0.0
 40
7.9699999999999989
  0
CIRCLE
  5
71D
  8
DATA
  6
CONTINUOUS
 62
     7
 10
559.57915174982315
 20
-245.1499999999705
 30
0.0
 40
9.0
  0
CIRCLE
  5
71E
  8
DATA
  6
CONTINUOUS
 62
     7
 10
559.57915174982315
 20
-245.1499999999705
 30
0.0
 40
7.9699999999999669
  0
CIRCLE
  5
71F
  8
DATA
  6
CONTINUOUS
 62
     7
 10
559.57915174982315
 20
-331.2499999999705
 30
0.0
 40
9.0
  0
CIRCLE
  5
720
  8
DATA
  6
CONTINUOUS
 62
     7
 10
559.57915174982315
 20
-331.2499999999705
 30
0.0
 40
7.9699999999999669
  0
POLYLINE
  5
721
  8
DATA
  6
CONTINUOUS
 62
     7
 66
     1
 10
0.0
 20
0.0
 30
0.0
 70
     1
  0
VERTEX
  5
F79
  8
DATA
  6
CONTINUOUS
 62
     7
 10
527.57915174982304
 20
-287.9999999999705
 30
0.0
  0
VERTEX
  5
F7A
  8
DATA
  6
CONTINUOUS
 62
     7
 10
541.57915174982304
 20
-287.9999999999705
 30
0.0
  0
VERTEX
  5
F7B
  8
DATA
  6
CONTINUOUS
 62
     7
 10
541.57915174982304
 20
-295.9999999999705
 30
0.0
  0
VERTEX
  5
F7C
  8
DATA
  6
CONTINUOUS
 62
     7
 10
527.57915174982304
 20
-295.9999999999705
 30
0.0
  0
SEQEND
  5
F7D
  8
DATA
  6
CONTINUOUS
 62
     7
  0
LINE
  5
728
  8
DATA
  6
CONTINUOUS
 62
     7
 10
400.13713020926912
 20
-470.60577716199998
 30
0.0
 11
535.96513020926886
 21
-470.60577716199998
 31
0.0
  0
LINE
  5
729
  8
DATA
  6
CONTINUOUS
 62
     7
 10
400.13713020926912
 20
-389.75577716199842
 30
0.0
 11
535.96513020926886
 21
-389.75577716199842
 31
0.0
  0
LINE
  5
72A
  8
DATA
  6
CONTINUOUS
 62
     7
 10
535.96513020926886
 20
-470.60577716199998
 30
0.0
 11
535.96513020926886
 21
-389.75577716199842
 31
0.0
  0
LINE
  5
72B
  8
DATA
  6
CONTINUOUS
 62
     7
 10
400.13713020926912
 20
-470.60577716199998
 30
0.0
 11
400.13713020926912
 21
-389.75577716199842
 31
0.0
  0
POLYLINE
  5
72C
  8
DATA
  6
CONTINUOUS
 62
     7
 66
     1
 10
0.0
 20
0.0
 30
0.0
 70
     1
  0
VERTEX
  5
F7E
  8
DATA
  6
CONTINUOUS
 62
     7
 10
475.5971302092691
 20
-440.20070040745418
 30
0.0
  0
VERTEX
  5
F7F
  8
DATA
  6
CONTINUOUS
 62
     7
 10
475.5971302092691
 20
-428.34270040745417
 30
0.0
  0
VERTEX
  5
F80
  8
DATA
  6
CONTINUOUS
 62
     7
 10
487.4551302092691
 20
-428.34270040745417
 30
0.0
  0
VERTEX
  5
F81
  8
DATA
  6
CONTINUOUS
 62
     7
 10
487.4551302092691
 20
-440.20070040745418
 30
0.0
  0
SEQEND
  5
F82
  8
DATA
  6
CONTINUOUS
 62
     7
  0
POLYLINE
  5
733
  8
DATA
  6
CONTINUOUS
 62
     7
 66
     1
 10
0.0
 20
0.0
 30
0.0
 70
     1
  0
VERTEX
  5
F83
  8
DATA
  6
CONTINUOUS
 62
     7
 10
502.54713020926891
 20
-440.20070040745418
 30
0.0
  0
VERTEX
  5
F84
  8
DATA
  6
CONTINUOUS
 62
     7
 10
502.54713020926891
 20
-428.34270040745417
 30
0.0
  0
VERTEX
  5
F85
  8
DATA
  6
CONTINUOUS
 62
     7
 10
514.40513020926915
 20
-428.34270040745417
 30
0.0
  0
VERTEX
  5
F86
  8
DATA
  6
CONTINUOUS
 62
     7
 10
514.40513020926915
 20
-440.20070040745418
 30
0.0
  0
SEQEND
  5
F87
  8
DATA
  6
CONTINUOUS
 62
     7
  0
LINE
  5
73A
  8
DATA
  6
CONTINUOUS
 62
     7
 10
514.40513020926915
 20
-414.86770040745432
 30
0.0
 11
502.54713020926891
 21
-414.86770040745432
 31
0.0
  0
LINE
  5
73B
  8
DATA
  6
CONTINUOUS
 62
     7
 10
487.4551302092691
 20
-414.86770040745432
 30
0.0
 11
475.59713020926938
 21
-414.86770040745432
 31
0.0
  0
LINE
  5
73C
  8
DATA
  6
CONTINUOUS
 62
     7
 10
514.40513020926915
 20
-428.34270040745417
 30
0.0
 11
514.40513020926915
 21
-414.86770040745432
 31
0.0
  0
LINE
  5
73D
  8
DATA
  6
CONTINUOUS
 62
     7
 10
502.54713020926891
 20
-428.34270040745417
 30
0.0
 11
502.54713020926891
 21
-414.86770040745432
 31
0.0
  0
LINE
  5
73E
  8
DATA
  6
CONTINUOUS
 62
     7
 10
487.4551302092691
 20
-428.34270040745417
 30
0.0
 11
487.4551302092691
 21
-414.86770040745432
 31
0.0
  0
LINE
  5
73F
  8
DATA
  6
CONTINUOUS
 62
     7
 10
475.59713020926938
 20
-428.34270040745417
 30
0.0
 11
475.59713020926938
 21
-414.86770040745432
 31
0.0
  0
POLYLINE
  5
740
  8
DATA
  6
CONTINUOUS
 62
     7
 66
     1
 10
0.0
 20
0.0
 30
0.0
 70
     1
  0
VERTEX
  5
F88
  8
DATA
  6
CONTINUOUS
 62
     7
 10
448.64713020926882
 20
-440.20070040745418
 30
0.0
  0
VERTEX
  5
F89
  8
DATA
  6
CONTINUOUS
 62
     7
 10
448.64713020926882
 20
-428.34270040745417
 30
0.0
  0
VERTEX
  5
F8A
  8
DATA
  6
CONTINUOUS
 62
     7
 10
460.505130209269
 20
-428.34270040745417
 30
0.0
  0
VERTEX
  5
F8B
  8
DATA
  6
CONTINUOUS
 62
     7
 10
460.505130209269
 20
-440.20070040745418
 30
0.0
  0
SEQEND
  5
F8C
  8
DATA
  6
CONTINUOUS
 62
     7
  0
POLYLINE
  5
747
  8
DATA
  6
CONTINUOUS
 62
     7
 66
     1
 10
0.0
 20
0.0
 30
0.0
 70
     1
  0
VERTEX
  5
F8D
  8
DATA
  6
CONTINUOUS
 62
     7
 10
421.69713020926878
 20
-440.20070040745418
 30
0.0
  0
VERTEX
  5
F8E
  8
DATA
  6
CONTINUOUS
 62
     7
 10
421.69713020926878
 20
-428.34270040745417
 30
0.0
  0
VERTEX
  5
F8F
  8
DATA
  6
CONTINUOUS
 62
     7
 10
433.5551302092689
 20
-428.34270040745417
 30
0.0
  0
VERTEX
  5
F90
  8
DATA
  6
CONTINUOUS
 62
     7
 10
433.5551302092689
 20
-440.20070040745418
 30
0.0
  0
SEQEND
  5
F91
  8
DATA
  6
CONTINUOUS
 62
     7
  0
LINE
  5
74E
  8
DATA
  6
CONTINUOUS
 62
     7
 10
421.69713020926918
 20
-414.86770040745432
 30
0.0
 11
433.55513020926912
 21
-414.86770040745432
 31
0.0
  0
LINE
  5
74F
  8
DATA
  6
CONTINUOUS
 62
     7
 10
448.64713020926922
 20
-414.86770040745432
 30
0.0
 11
460.50513020926911
 21
-414.86770040745432
 31
0.0
  0
LINE
  5
750
  8
DATA
  6
CONTINUOUS
 62
     7
 10
421.69713020926918
 20
-428.34270040745417
 30
0.0
 11
421.69713020926918
 21
-414.86770040745432
 31
0.0
  0
LINE
  5
751
  8
DATA
  6
CONTINUOUS
 62
     7
 10
433.55513020926912
 20
-428.34270040745417
 30
0.0
 11
433.55513020926912
 21
-414.86770040745432
 31
0.0
  0
LINE
  5
752
  8
DATA
  6
CONTINUOUS
 62
     7
 10
448.64713020926922
 20
-428.34270040745417
 30
0.0
 11
448.64713020926922
 21
-414.86770040745432
 31
0.0
  0
LINE
  5
753
  8
DATA
  6
CONTINUOUS
 62
     7
 10
460.50513020926911
 20
-428.34270040745417
 30
0.0
 11
460.50513020926911
 21
-414.86770040745432
 31
0.0
  0
TEXT
  5
754
  8
DATA
 62
     7
 10
422.52359687575841
 20
-461.37916727522258
 30
0.0
 40
14.047126041666671
  1
1
 41
0.7
 11
422.52359687575841
 21
-447.33204123355591
 31
0.0
 73
     3
  0
TEXT
  5
755
  8
DATA
 62
     7
 10
449.47359687575818
 20
-461.37916727522258
 30
0.0
 40
14.047126041666671
  1
2
 41
0.7
 11
449.47359687575818
 21
-447.33204123355591
 31
0.0
 73
     3
  0
TEXT
  5
756
  8
DATA
 62
     7
 10
476.42359687575822
 20
-461.37916727522258
 30
0.0
 40
14.047126041666671
  1
3
 41
0.7
 11
476.42359687575822
 21
-447.33204123355591
 31
0.0
 73
     3
  0
TEXT
  5
757
  8
DATA
 62
     7
 10
503.37359687575821
 20
-461.37916727522258
 30
0.0
 40
14.047126041666671
  1
4
 41
0.7
 11
503.37359687575821
 21
-447.33204123355591
 31
0.0
 73
     3
  0
TEXT
  5
758
  8
DATA
 62
     7
 10
432.20030158044432
 20
-407.89054873445099
 30
0.0
 40
14.047126041666671
  1
ON
 41
0.7
 11
432.20030158044432
 21
-393.84342269278437
 31
0.0
 73
     3
  0
TEXT
  5
759
  8
DATA
 62
     7
 10
336.99281005993618
 20
-506.78852154029352
 30
0.0
 40
19.003146701388879
  1
ディツプスイッチ拡大図
 41
0.7
 11
336.99281005993618
 21
-487.78537483890472
 31
0.0
 73
     3
  0
LINE
  5
75A
  8
DATA
  6
CONTINUOUS
 62
     7
 10
527.64154907972966
 20
-295.98268788344598
 30
0.0
 11
540.24154907972945
 21
-295.98268788344598
 31
0.0
  0
LINE
  5
75B
  8
DATA
  6
CONTINUOUS
 62
     7
 10
527.64154907972966
 20
-288.48268788344598
 30
0.0
 11
540.24154907972945
 21
-288.48268788344598
 31
0.0
  0
LINE
  5
75C
  8
DATA
  6
CONTINUOUS
 62
     7
 10
540.24154907972945
 20
-295.98268788344598
 30
0.0
 11
540.24154907972945
 21
-288.48268788344598
 31
0.0
  0
LINE
  5
75D
  8
DATA
  6
CONTINUOUS
 62
     7
 10
527.64154907972966
 20
-295.98268788344598
 30
0.0
 11
527.64154907972966
 21
-288.48268788344598
 31
0.0
  0
POLYLINE
  5
75E
  8
DATA
  6
CONTINUOUS
 62
     7
 66
     1
 10
0.0
 20
0.0
 30
0.0
 70
     1
  0
VERTEX
  5
F92
  8
DATA
  6
CONTINUOUS
 62
     7
 10
534.64154907972954
 20
-293.1621798357146
 30
0.0
  0
VERTEX
  5
F93
  8
DATA
  6
CONTINUOUS
 62
     7
 10
534.64154907972954
 20
-292.06217983571457
 30
0.0
  0
VERTEX
  5
F94
  8
DATA
  6
CONTINUOUS
 62
     7
 10
535.74154907972945
 20
-292.06217983571457
 30
0.0
  0
VERTEX
  5
F95
  8
DATA
  6
CONTINUOUS
 62
     7
 10
535.74154907972945
 20
-293.1621798357146
 30
0.0
  0
SEQEND
  5
F96
  8
DATA
  6
CONTINUOUS
 62
     7
  0
POLYLINE
  5
765
  8
DATA
  6
CONTINUOUS
 62
     7
 66
     1
 10
0.0
 20
0.0
 30
0.0
 70
     1
  0
VERTEX
  5
F97
  8
DATA
  6
CONTINUOUS
 62
     7
 10
537.14154907972954
 20
-293.1621798357146
 30
0.0
  0
VERTEX
  5
F98
  8
DATA
  6
CONTINUOUS
 62
     7
 10
537.14154907972954
 20
-292.06217983571457
 30
0.0
  0
VERTEX
  5
F99
  8
DATA
  6
CONTINUOUS
 62
     7
 10
538.24154907972957
 20
-292.06217983571457
 30
0.0
  0
VERTEX
  5
F9A
  8
DATA
  6
CONTINUOUS
 62
     7
 10
538.24154907972957
 20
-293.1621798357146
 30
0.0
  0
SEQEND
  5
F9B
  8
DATA
  6
CONTINUOUS
 62
     7
  0
LINE
  5
76C
  8
DATA
  6
CONTINUOUS
 62
     7
 10
538.24154907972957
 20
-290.81217983571469
 30
0.0
 11
537.14154907972954
 21
-290.81217983571469
 31
0.0
  0
LINE
  5
76D
  8
DATA
  6
CONTINUOUS
 62
     7
 10
535.74154907972945
 20
-290.81217983571469
 30
0.0
 11
534.64154907972954
 21
-290.81217983571469
 31
0.0
  0
LINE
  5
76E
  8
DATA
  6
CONTINUOUS
 62
     7
 10
538.24154907972957
 20
-292.06217983571457
 30
0.0
 11
538.24154907972957
 21
-290.81217983571469
 31
0.0
  0
LINE
  5
76F
  8
DATA
  6
CONTINUOUS
 62
     7
 10
537.14154907972954
 20
-292.06217983571457
 30
0.0
 11
537.14154907972954
 21
-290.81217983571469
 31
0.0
  0
LINE
  5
770
  8
DATA
  6
CONTINUOUS
 62
     7
 10
535.74154907972945
 20
-292.06217983571457
 30
0.0
 11
535.74154907972945
 21
-290.81217983571469
 31
0.0
  0
LINE
  5
771
  8
DATA
  6
CONTINUOUS
 62
     7
 10
534.64154907972954
 20
-292.06217983571457
 30
0.0
 11
534.64154907972954
 21
-290.81217983571469
 31
0.0
  0
POLYLINE
  5
772
  8
DATA
  6
CONTINUOUS
 62
     7
 66
     1
 10
0.0
 20
0.0
 30
0.0
 70
     1
  0
VERTEX
  5
F9C
  8
DATA
  6
CONTINUOUS
 62
     7
 10
532.14154907972966
 20
-293.1621798357146
 30
0.0
  0
VERTEX
  5
F9D
  8
DATA
  6
CONTINUOUS
 62
     7
 10
532.14154907972966
 20
-292.06217983571457
 30
0.0
  0
VERTEX
  5
F9E
  8
DATA
  6
CONTINUOUS
 62
     7
 10
533.24154907972945
 20
-292.06217983571457
 30
0.0
  0
VERTEX
  5
F9F
  8
DATA
  6
CONTINUOUS
 62
     7
 10
533.24154907972945
 20
-293.1621798357146
 30
0.0
  0
SEQEND
  5
FA0
  8
DATA
  6
CONTINUOUS
 62
     7
  0
POLYLINE
  5
779
  8
DATA
  6
CONTINUOUS
 62
     7
 66
     1
 10
0.0
 20
0.0
 30
0.0
 70
     1
  0
VERTEX
  5
FA1
  8
DATA
  6
CONTINUOUS
 62
     7
 10
529.64154907972954
 20
-293.1621798357146
 30
0.0
  0
VERTEX
  5
FA2
  8
DATA
  6
CONTINUOUS
 62
     7
 10
529.64154907972954
 20
-292.06217983571457
 30
0.0
  0
VERTEX
  5
FA3
  8
DATA
  6
CONTINUOUS
 62
     7
 10
530.74154907972945
 20
-292.06217983571457
 30
0.0
  0
VERTEX
  5
FA4
  8
DATA
  6
CONTINUOUS
 62
     7
 10
530.74154907972945
 20
-293.1621798357146
 30
0.0
  0
SEQEND
  5
FA5
  8
DATA
  6
CONTINUOUS
 62
     7
  0
LINE
  5
780
  8
DATA
  6
CONTINUOUS
 62
     7
 10
529.64154907972954
 20
-290.81217983571469
 30
0.0
 11
530.74154907972945
 21
-290.81217983571469
 31
0.0
  0
LINE
  5
781
  8
DATA
  6
CONTINUOUS
 62
     7
 10
532.14154907972966
 20
-290.81217983571469
 30
0.0
 11
533.24154907972945
 21
-290.81217983571469
 31
0.0
  0
LINE
  5
782
  8
DATA
  6
CONTINUOUS
 62
     7
 10
529.64154907972954
 20
-292.06217983571457
 30
0.0
 11
529.64154907972954
 21
-290.81217983571469
 31
0.0
  0
LINE
  5
783
  8
DATA
  6
CONTINUOUS
 62
     7
 10
530.74154907972945
 20
-292.06217983571457
 30
0.0
 11
530.74154907972945
 21
-290.81217983571469
 31
0.0
  0
LINE
  5
784
  8
DATA
  6
CONTINUOUS
 62
     7
 10
532.14154907972966
 20
-292.06217983571457
 30
0.0
 11
532.14154907972966
 21
-290.81217983571469
 31
0.0
  0
LINE
  5
785
  8
DATA
  6
CONTINUOUS
 62
     7
 10
533.24154907972945
 20
-292.06217983571457
 30
0.0
 11
533.24154907972945
 21
-290.81217983571469
 31
0.0
  0
TEXT
  5
786
  8
DATA
 62
     7
 10
529.71821574637966
 20
-295.12678715183409
 30
0.0
 40
1.303072916666665
  1
1
 41
0.7
 11
529.71821574637966
 21
-293.82371423516742
 31
0.0
 73
     3
  0
TEXT
  5
787
  8
DATA
 62
     7
 10
532.21821574637977
 20
-295.12678715183409
 30
0.0
 40
1.303072916666665
  1
2
 41
0.7
 11
532.21821574637977
 21
-293.82371423516742
 31
0.0
 73
     3
  0
TEXT
  5
788
  8
DATA
 62
     7
 10
534.71821574637966
 20
-295.12678715183409
 30
0.0
 40
1.303072916666665
  1
3
 41
0.7
 11
534.71821574637966
 21
-293.82371423516742
 31
0.0
 73
     3
  0
TEXT
  5
789
  8
DATA
 62
     7
 10
537.21821574637977
 20
-295.12678715183409
 30
0.0
 40
1.303072916666665
  1
4
 41
0.7
 11
537.21821574637977
 21
-293.82371423516742
 31
0.0
 73
     3
  0
TEXT
  5
78A
  8
DATA
 62
     7
 10
530.61586924403127
 20
-290.1649486972172
 30
0.0
 40
1.303072916666665
  1
ON
 41
0.7
 11
530.61586924403127
 21
-288.86187578055052
 31
0.0
 73
     3
  0
POLYLINE
  5
78B
  8
DATA
  6
CONTINUOUS
 62
     7
 66
     1
 10
0.0
 20
0.0
 30
0.0
 70
     1
  0
VERTEX
  5
FA6
  8
DATA
  6
CONTINUOUS
 62
     7
 10
356.57915174982321
 20
-287.9999999999705
 30
0.0
  0
VERTEX
  5
FA7
  8
DATA
  6
CONTINUOUS
 62
     7
 10
370.5791517498231
 20
-287.9999999999705
 30
0.0
  0
VERTEX
  5
FA8
  8
DATA
  6
CONTINUOUS
 62
     7
 10
370.5791517498231
 20
-295.9999999999705
 30
0.0
  0
VERTEX
  5
FA9
  8
DATA
  6
CONTINUOUS
 62
     7
 10
356.57915174982321
 20
-295.9999999999705
 30
0.0
  0
SEQEND
  5
FAA
  8
DATA
  6
CONTINUOUS
 62
     7
  0
LINE
  5
792
  8
DATA
  6
CONTINUOUS
 62
     7
 10
356.64154907972971
 20
-295.98268788344598
 30
0.0
 11
369.24154907972962
 21
-295.98268788344598
 31
0.0
  0
LINE
  5
793
  8
DATA
  6
CONTINUOUS
 62
     7
 10
356.64154907972971
 20
-288.48268788344598
 30
0.0
 11
369.24154907972962
 21
-288.48268788344598
 31
0.0
  0
LINE
  5
794
  8
DATA
  6
CONTINUOUS
 62
     7
 10
369.24154907972962
 20
-295.98268788344598
 30
0.0
 11
369.24154907972962
 21
-288.48268788344598
 31
0.0
  0
LINE
  5
795
  8
DATA
  6
CONTINUOUS
 62
     7
 10
356.64154907972971
 20
-295.98268788344598
 30
0.0
 11
356.64154907972971
 21
-288.48268788344598
 31
0.0
  0
POLYLINE
  5
796
  8
DATA
  6
CONTINUOUS
 62
     7
 66
     1
 10
0.0
 20
0.0
 30
0.0
 70
     1
  0
VERTEX
  5
FAB
  8
DATA
  6
CONTINUOUS
 62
     7
 10
363.6415490797296
 20
-293.1621798357146
 30
0.0
  0
VERTEX
  5
FAC
  8
DATA
  6
CONTINUOUS
 62
     7
 10
363.6415490797296
 20
-292.06217983571457
 30
0.0
  0
VERTEX
  5
FAD
  8
DATA
  6
CONTINUOUS
 62
     7
 10
364.74154907972962
 20
-292.06217983571457
 30
0.0
  0
VERTEX
  5
FAE
  8
DATA
  6
CONTINUOUS
 62
     7
 10
364.74154907972962
 20
-293.1621798357146
 30
0.0
  0
SEQEND
  5
FAF
  8
DATA
  6
CONTINUOUS
 62
     7
  0
POLYLINE
  5
79D
  8
DATA
  6
CONTINUOUS
 62
     7
 66
     1
 10
0.0
 20
0.0
 30
0.0
 70
     1
  0
VERTEX
  5
FB0
  8
DATA
  6
CONTINUOUS
 62
     7
 10
366.1415490797296
 20
-293.1621798357146
 30
0.0
  0
VERTEX
  5
FB1
  8
DATA
  6
CONTINUOUS
 62
     7
 10
366.1415490797296
 20
-292.06217983571457
 30
0.0
  0
VERTEX
  5
FB2
  8
DATA
  6
CONTINUOUS
 62
     7
 10
367.24154907972962
 20
-292.06217983571457
 30
0.0
  0
VERTEX
  5
FB3
  8
DATA
  6
CONTINUOUS
 62
     7
 10
367.24154907972962
 20
-293.1621798357146
 30
0.0
  0
SEQEND
  5
FB4
  8
DATA
  6
CONTINUOUS
 62
     7
  0
LINE
  5
7A4
  8
DATA
  6
CONTINUOUS
 62
     7
 10
367.24154907972962
 20
-290.81217983571469
 30
0.0
 11
366.14154907972971
 21
-290.81217983571469
 31
0.0
  0
LINE
  5
7A5
  8
DATA
  6
CONTINUOUS
 62
     7
 10
364.74154907972962
 20
-290.81217983571469
 30
0.0
 11
363.64154907972971
 21
-290.81217983571469
 31
0.0
  0
LINE
  5
7A6
  8
DATA
  6
CONTINUOUS
 62
     7
 10
367.24154907972962
 20
-292.06217983571457
 30
0.0
 11
367.24154907972962
 21
-290.81217983571469
 31
0.0
  0
LINE
  5
7A7
  8
DATA
  6
CONTINUOUS
 62
     7
 10
366.14154907972971
 20
-292.06217983571457
 30
0.0
 11
366.14154907972971
 21
-290.81217983571469
 31
0.0
  0
LINE
  5
7A8
  8
DATA
  6
CONTINUOUS
 62
     7
 10
364.74154907972962
 20
-292.06217983571457
 30
0.0
 11
364.74154907972962
 21
-290.81217983571469
 31
0.0
  0
LINE
  5
7A9
  8
DATA
  6
CONTINUOUS
 62
     7
 10
363.64154907972971
 20
-292.06217983571457
 30
0.0
 11
363.64154907972971
 21
-290.81217983571469
 31
0.0
  0
POLYLINE
  5
7AA
  8
DATA
  6
CONTINUOUS
 62
     7
 66
     1
 10
0.0
 20
0.0
 30
0.0
 70
     1
  0
VERTEX
  5
FB5
  8
DATA
  6
CONTINUOUS
 62
     7
 10
361.1415490797296
 20
-293.1621798357146
 30
0.0
  0
VERTEX
  5
FB6
  8
DATA
  6
CONTINUOUS
 62
     7
 10
361.1415490797296
 20
-292.06217983571457
 30
0.0
  0
VERTEX
  5
FB7
  8
DATA
  6
CONTINUOUS
 62
     7
 10
362.24154907972962
 20
-292.06217983571457
 30
0.0
  0
VERTEX
  5
FB8
  8
DATA
  6
CONTINUOUS
 62
     7
 10
362.24154907972962
 20
-293.1621798357146
 30
0.0
  0
SEQEND
  5
FB9
  8
DATA
  6
CONTINUOUS
 62
     7
  0
POLYLINE
  5
7B1
  8
DATA
  6
CONTINUOUS
 62
     7
 66
     1
 10
0.0
 20
0.0
 30
0.0
 70
     1
  0
VERTEX
  5
FBA
  8
DATA
  6
CONTINUOUS
 62
     7
 10
358.64154907972949
 20
-293.1621798357146
 30
0.0
  0
VERTEX
  5
FBB
  8
DATA
  6
CONTINUOUS
 62
     7
 10
358.64154907972949
 20
-292.06217983571457
 30
0.0
  0
VERTEX
  5
FBC
  8
DATA
  6
CONTINUOUS
 62
     7
 10
359.74154907972962
 20
-292.06217983571457
 30
0.0
  0
VERTEX
  5
FBD
  8
DATA
  6
CONTINUOUS
 62
     7
 10
359.74154907972962
 20
-293.1621798357146
 30
0.0
  0
SEQEND
  5
FBE
  8
DATA
  6
CONTINUOUS
 62
     7
  0
LINE
  5
7B8
  8
DATA
  6
CONTINUOUS
 62
     7
 10
358.64154907972971
 20
-290.81217983571469
 30
0.0
 11
359.74154907972962
 21
-290.81217983571469
 31
0.0
  0
LINE
  5
7B9
  8
DATA
  6
CONTINUOUS
 62
     7
 10
361.14154907972971
 20
-290.81217983571469
 30
0.0
 11
362.24154907972962
 21
-290.81217983571469
 31
0.0
  0
LINE
  5
7BA
  8
DATA
  6
CONTINUOUS
 62
     7
 10
358.64154907972971
 20
-292.06217983571457
 30
0.0
 11
358.64154907972971
 21
-290.81217983571469
 31
0.0
  0
LINE
  5
7BB
  8
DATA
  6
CONTINUOUS
 62
     7
 10
359.74154907972962
 20
-292.06217983571457
 30
0.0
 11
359.74154907972962
 21
-290.81217983571469
 31
0.0
  0
LINE
  5
7BC
  8
DATA
  6
CONTINUOUS
 62
     7
 10
361.14154907972971
 20
-292.06217983571457
 30
0.0
 11
361.14154907972971
 21
-290.81217983571469
 31
0.0
  0
LINE
  5
7BD
  8
DATA
  6
CONTINUOUS
 62
     7
 10
362.24154907972962
 20
-292.06217983571457
 30
0.0
 11
362.24154907972962
 21
-290.81217983571469
 31
0.0
  0
TEXT
  5
7BE
  8
DATA
 62
     7
 10
358.71821574637983
 20
-295.12678715183409
 30
0.0
 40
1.303072916666665
  1
1
 41
0.7
 11
358.71821574637983
 21
-293.82371423516742
 31
0.0
 73
     3
  0
TEXT
  5
7BF
  8
DATA
 62
     7
 10
361.21821574637983
 20
-295.12678715183409
 30
0.0
 40
1.303072916666665
  1
2
 41
0.7
 11
361.21821574637983
 21
-293.82371423516742
 31
0.0
 73
     3
  0
TEXT
  5
7C0
  8
DATA
 62
     7
 10
363.71821574637983
 20
-295.12678715183409
 30
0.0
 40
1.303072916666665
  1
3
 41
0.7
 11
363.71821574637983
 21
-293.82371423516742
 31
0.0
 73
     3
  0
TEXT
  5
7C1
  8
DATA
 62
     7
 10
366.21821574637983
 20
-295.12678715183409
 30
0.0
 40
1.303072916666665
  1
4
 41
0.7
 11
366.21821574637983
 21
-293.82371423516742
 31
0.0
 73
     3
  0
TEXT
  5
7C2
  8
DATA
 62
     7
 10
359.6158692440315
 20
-290.1649486972172
 30
0.0
 40
1.303072916666665
  1
ON
 41
0.7
 11
359.6158692440315
 21
-288.86187578055052
 31
0.0
 73
     3
  0
LINE
  5
7C3
  8
DATA
  6
CONTINUOUS
 62
     7
 10
325.0
 20
-512.5
 30
0.0
 11
625.0
 21
-512.5
 31
0.0
  0
LINE
  5
7C4
  8
DATA
  6
CONTINUOUS
 62
     7
 10
400.13713020926912
 20
154.3942228380001
 30
0.0
 11
535.96513020926886
 21
154.3942228380001
 31
0.0
  0
LINE
  5
7C5
  8
DATA
  6
CONTINUOUS
 62
     7
 10
400.13713020926912
 20
235.24422283800169
 30
0.0
 11
535.96513020926886
 21
235.24422283800169
 31
0.0
  0
LINE
  5
7C6
  8
DATA
  6
CONTINUOUS
 62
     7
 10
535.96513020926886
 20
154.3942228380001
 30
0.0
 11
535.96513020926886
 21
235.24422283800169
 31
0.0
  0
LINE
  5
7C7
  8
DATA
  6
CONTINUOUS
 62
     7
 10
400.13713020926912
 20
154.3942228380001
 30
0.0
 11
400.13713020926912
 21
235.24422283800169
 31
0.0
  0
POLYLINE
  5
7C8
  8
DATA
  6
CONTINUOUS
 62
     7
 66
     1
 10
0.0
 20
0.0
 30
0.0
 70
     1
  0
VERTEX
  5
FBF
  8
DATA
  6
CONTINUOUS
 62
     7
 10
475.5971302092691
 20
184.79929959254559
 30
0.0
  0
VERTEX
  5
FC0
  8
DATA
  6
CONTINUOUS
 62
     7
 10
475.5971302092691
 20
196.65729959254571
 30
0.0
  0
VERTEX
  5
FC1
  8
DATA
  6
CONTINUOUS
 62
     7
 10
487.4551302092691
 20
196.65729959254571
 30
0.0
  0
VERTEX
  5
FC2
  8
DATA
  6
CONTINUOUS
 62
     7
 10
487.4551302092691
 20
184.79929959254559
 30
0.0
  0
SEQEND
  5
FC3
  8
DATA
  6
CONTINUOUS
 62
     7
  0
POLYLINE
  5
7CF
  8
DATA
  6
CONTINUOUS
 62
     7
 66
     1
 10
0.0
 20
0.0
 30
0.0
 70
     1
  0
VERTEX
  5
FC4
  8
DATA
  6
CONTINUOUS
 62
     7
 10
502.54713020926891
 20
184.79929959254559
 30
0.0
  0
VERTEX
  5
FC5
  8
DATA
  6
CONTINUOUS
 62
     7
 10
502.54713020926891
 20
196.65729959254571
 30
0.0
  0
VERTEX
  5
FC6
  8
DATA
  6
CONTINUOUS
 62
     7
 10
514.40513020926915
 20
196.65729959254571
 30
0.0
  0
VERTEX
  5
FC7
  8
DATA
  6
CONTINUOUS
 62
     7
 10
514.40513020926915
 20
184.79929959254559
 30
0.0
  0
SEQEND
  5
FC8
  8
DATA
  6
CONTINUOUS
 62
     7
  0
LINE
  5
7D6
  8
DATA
  6
CONTINUOUS
 62
     7
 10
514.40513020926915
 20
210.13229959254559
 30
0.0
 11
502.54713020926891
 21
210.13229959254559
 31
0.0
  0
LINE
  5
7D7
  8
DATA
  6
CONTINUOUS
 62
     7
 10
487.4551302092691
 20
210.13229959254559
 30
0.0
 11
475.59713020926938
 21
210.13229959254559
 31
0.0
  0
LINE
  5
7D8
  8
DATA
  6
CONTINUOUS
 62
     7
 10
514.40513020926915
 20
196.65729959254571
 30
0.0
 11
514.40513020926915
 21
210.13229959254559
 31
0.0
  0
LINE
  5
7D9
  8
DATA
  6
CONTINUOUS
 62
     7
 10
502.54713020926891
 20
196.65729959254571
 30
0.0
 11
502.54713020926891
 21
210.13229959254559
 31
0.0
  0
LINE
  5
7DA
  8
DATA
  6
CONTINUOUS
 62
     7
 10
487.4551302092691
 20
196.65729959254571
 30
0.0
 11
487.4551302092691
 21
210.13229959254559
 31
0.0
  0
LINE
  5
7DB
  8
DATA
  6
CONTINUOUS
 62
     7
 10
475.59713020926938
 20
196.65729959254571
 30
0.0
 11
475.59713020926938
 21
210.13229959254559
 31
0.0
  0
POLYLINE
  5
7DC
  8
DATA
  6
CONTINUOUS
 62
     7
 66
     1
 10
0.0
 20
0.0
 30
0.0
 70
     1
  0
VERTEX
  5
FC9
  8
DATA
  6
CONTINUOUS
 62
     7
 10
448.64713020926882
 20
184.79929959254559
 30
0.0
  0
VERTEX
  5
FCA
  8
DATA
  6
CONTINUOUS
 62
     7
 10
448.64713020926882
 20
196.65729959254571
 30
0.0
  0
VERTEX
  5
FCB
  8
DATA
  6
CONTINUOUS
 62
     7
 10
460.505130209269
 20
196.65729959254571
 30
0.0
  0
VERTEX
  5
FCC
  8
DATA
  6
CONTINUOUS
 62
     7
 10
460.505130209269
 20
184.79929959254559
 30
0.0
  0
SEQEND
  5
FCD
  8
DATA
  6
CONTINUOUS
 62
     7
  0
POLYLINE
  5
7E3
  8
DATA
  6
CONTINUOUS
 62
     7
 66
     1
 10
0.0
 20
0.0
 30
0.0
 70
     1
  0
VERTEX
  5
FCE
  8
DATA
  6
CONTINUOUS
 62
     7
 10
421.69713020926878
 20
184.79929959254559
 30
0.0
  0
VERTEX
  5
FCF
  8
DATA
  6
CONTINUOUS
 62
     7
 10
421.69713020926878
 20
196.65729959254571
 30
0.0
  0
VERTEX
  5
FD0
  8
DATA
  6
CONTINUOUS
 62
     7
 10
433.5551302092689
 20
196.65729959254571
 30
0.0
  0
VERTEX
  5
FD1
  8
DATA
  6
CONTINUOUS
 62
     7
 10
433.5551302092689
 20
184.79929959254559
 30
0.0
  0
SEQEND
  5
FD2
  8
DATA
  6
CONTINUOUS
 62
     7
  0
LINE
  5
7EA
  8
DATA
  6
CONTINUOUS
 62
     7
 10
421.69713020926918
 20
210.13229959254559
 30
0.0
 11
433.55513020926912
 21
210.13229959254559
 31
0.0
  0
LINE
  5
7EB
  8
DATA
  6
CONTINUOUS
 62
     7
 10
448.64713020926922
 20
210.13229959254559
 30
0.0
 11
460.50513020926911
 21
210.13229959254559
 31
0.0
  0
LINE
  5
7EC
  8
DATA
  6
CONTINUOUS
 62
     7
 10
421.69713020926918
 20
196.65729959254571
 30
0.0
 11
421.69713020926918
 21
210.13229959254559
 31
0.0
  0
LINE
  5
7ED
  8
DATA
  6
CONTINUOUS
 62
     7
 10
433.55513020926912
 20
196.65729959254571
 30
0.0
 11
433.55513020926912
 21
210.13229959254559
 31
0.0
  0
LINE
  5
7EE
  8
DATA
  6
CONTINUOUS
 62
     7
 10
448.64713020926922
 20
196.65729959254571
 30
0.0
 11
448.64713020926922
 21
210.13229959254559
 31
0.0
  0
LINE
  5
7EF
  8
DATA
  6
CONTINUOUS
 62
     7
 10
460.50513020926911
 20
196.65729959254571
 30
0.0
 11
460.50513020926911
 21
210.13229959254559
 31
0.0
  0
TEXT
  5
7F0
  8
DATA
 62
     7
 10
422.52359687575841
 20
163.62083272477739
 30
0.0
 40
14.047126041666671
  1
1
 41
0.7
 11
422.52359687575841
 21
177.66795876644409
 31
0.0
 73
     3
  0
TEXT
  5
7F1
  8
DATA
 62
     7
 10
449.47359687575818
 20
163.62083272477739
 30
0.0
 40
14.047126041666671
  1
2
 41
0.7
 11
449.47359687575818
 21
177.66795876644409
 31
0.0
 73
     3
  0
TEXT
  5
7F2
  8
DATA
 62
     7
 10
476.42359687575822
 20
163.62083272477739
 30
0.0
 40
14.047126041666671
  1
3
 41
0.7
 11
476.42359687575822
 21
177.66795876644409
 31
0.0
 73
     3
  0
TEXT
  5
7F3
  8
DATA
 62
     7
 10
503.37359687575821
 20
163.62083272477739
 30
0.0
 40
14.047126041666671
  1
4
 41
0.7
 11
503.37359687575821
 21
177.66795876644409
 31
0.0
 73
     3
  0
TEXT
  5
7F4
  8
DATA
 62
     7
 10
432.20030158044432
 20
217.1094512655489
 30
0.0
 40
14.047126041666671
  1
ON
 41
0.7
 11
432.20030158044432
 21
231.1565773072156
 31
0.0
 73
     3
  0
TEXT
  5
7F5
  8
DATA
 62
     7
 10
336.99281005993618
 20
118.2114784597064
 30
0.0
 40
19.003146701388879
  1
ディツプスイッチ拡大図
 41
0.7
 11
336.99281005993618
 21
137.21462516109531
 31
0.0
 73
     3
  0
LINE
  5
7F6
  8
DATA
  6
CONTINUOUS
 62
     7
 10
325.0
 20
112.5
 30
0.0
 11
625.0
 21
112.5
 31
0.0
  0
TEXT
  5
7F7
  8
DATA
 62
     7
 10
-331.32252333144021
 20
-569.02893141053369
 30
0.0
 40
19.003146701388879
  1
CAT5-5600HDR(レシーバー）
 41
0.7
 11
-331.32252333144021
 21
-550.02578470914477
 31
0.0
 73
     3
  0
TEXT
  5
7F8
  8
DATA
 62
     7
 10
-319.8311049829237
 20
57.385024556638832
 30
0.0
 40
19.003146701388879
  1
CAT5-5600HDS(センダー）
 41
0.7
 11
-319.8311049829237
 21
76.388171258027711
 31
0.0
 73
     3
  0
ENDSEC
  0
EOF
