  0
SECTION
  2
HEADER
  9
$ACADVER
  1
AC1009
  9
$INSBASE
 10
0.0
 20
0.0
 30
0.0
  9
$EXTMIN
 10
49.983217159758851
 20
11.906799645864339
 30
-0.0000000349181948
  9
$EXTMAX
 10
950.05798870717877
 20
1350.0824050049371
 30
0.0000000814935747
  9
$LIMMIN
 10
0.0
 20
0.0
  9
$LIMMAX
 10
0.0
 20
0.0
  9
$ORTHOMODE
 70
     0
  9
$REGENMODE
 70
     1
  9
$FILLMODE
 70
     1
  9
$QTEXTMODE
 70
     0
  9
$MIRRTEXT
 70
     1
  9
$DRAGMODE
 70
     2
  9
$LTSCALE
 40
25.399999999999999
  9
$OSMODE
 70
   231
  9
$ATTMODE
 70
     1
  9
$TEXTSIZE
 40
0.0
  9
$TRACEWID
 40
1.0
  9
$TEXTSTYLE
  7
STANDARD
  9
$CLAYER
  8
DATA
  9
$CELTYPE
  6
BYLAYER
  9
$CECOLOR
 62
   256
  9
$DIMSCALE
 40
1.0
  9
$DIMASZ
 40
0.18
  9
$DIMEXO
 40
0.0625
  9
$DIMDLI
 40
0.38
  9
$DIMRND
 40
0.0
  9
$DIMDLE
 40
0.0
  9
$DIMEXE
 40
0.18
  9
$DIMTP
 40
0.0
  9
$DIMTM
 40
0.0
  9
$DIMTXT
 40
0.18
  9
$DIMCEN
 40
0.09
  9
$DIMTSZ
 40
0.0
  9
$DIMTOL
 70
     0
  9
$DIMLIM
 70
     0
  9
$DIMTIH
 70
     1
  9
$DIMTOH
 70
     1
  9
$DIMSE1
 70
     0
  9
$DIMSE2
 70
     0
  9
$DIMTAD
 70
     0
  9
$DIMZIN
 70
     0
  9
$DIMBLK
  1

  9
$DIMASO
 70
     1
  9
$DIMSHO
 70
     1
  9
$DIMPOST
  1

  9
$DIMAPOST
  1

  9
$DIMALT
 70
     0
  9
$DIMALTD
 70
     2
  9
$DIMALTF
 40
25.399999999999999
  9
$DIMLFAC
 40
1.0
  9
$DIMTOFL
 70
     0
  9
$DIMTVP
 40
0.0
  9
$DIMTIX
 70
     0
  9
$DIMSOXD
 70
     0
  9
$DIMSAH
 70
     0
  9
$DIMBLK1
  1

  9
$DIMBLK2
  1

  9
$DIMSTYLE
  2
STANDARD
  9
$DIMCLRD
 70
     0
  9
$DIMCLRE
 70
     0
  9
$DIMCLRT
 70
     0
  9
$DIMTFAC
 40
1.0
  9
$DIMGAP
 40
0.09
  9
$LUNITS
 70
     2
  9
$LUPREC
 70
     4
  9
$SKETCHINC
 40
0.1
  9
$FILLETRAD
 40
0.0
  9
$AUNITS
 70
     0
  9
$AUPREC
 70
     0
  9
$MENU
  1
acad
  9
$ELEVATION
 40
0.0
  9
$PELEVATION
 40
0.0
  9
$THICKNESS
 40
0.0
  9
$LIMCHECK
 70
     0
  9
$BLIPMODE
 70
     0
  9
$CHAMFERA
 40
0.0
  9
$CHAMFERB
 40
0.0
  9
$SKPOLY
 70
     0
  9
$TDCREATE
 40
2456059.7228587968
  9
$TDUPDATE
 40
2456059.7565981359
  9
$TDINDWG
 40
0.0005922917
  9
$TDUSRTIMER
 40
0.0005921181
  9
$USRTIMER
 70
     1
  9
$ANGBASE
 50
0.0
  9
$ANGDIR
 70
     0
  9
$PDMODE
 70
     1
  9
$PDSIZE
 40
-2.0
  9
$PLINEWID
 40
0.0
  9
$COORDS
 70
     2
  9
$SPLFRAME
 70
     0
  9
$SPLINETYPE
 70
     6
  9
$SPLINESEGS
 70
     8
  9
$ATTDIA
 70
     0
  9
$ATTREQ
 70
     1
  9
$HANDLING
 70
     1
  9
$HANDSEED
  5
3A3
  9
$SURFTAB1
 70
     6
  9
$SURFTAB2
 70
     6
  9
$SURFTYPE
 70
     6
  9
$SURFU
 70
     6
  9
$SURFV
 70
     6
  9
$UCSNAME
  2

  9
$UCSORG
 10
0.0
 20
0.0
 30
0.0
  9
$UCSXDIR
 10
1.0
 20
0.0
 30
0.0
  9
$UCSYDIR
 10
0.0
 20
1.0
 30
0.0
  9
$PUCSNAME
  2

  9
$PUCSORG
 10
0.0
 20
0.0
 30
0.0
  9
$PUCSXDIR
 10
1.0
 20
0.0
 30
0.0
  9
$PUCSYDIR
 10
0.0
 20
1.0
 30
0.0
  9
$USERI1
 70
     0
  9
$USERI2
 70
     0
  9
$USERI3
 70
     0
  9
$USERI4
 70
     0
  9
$USERI5
 70
     0
  9
$USERR1
 40
0.0
  9
$USERR2
 40
0.0
  9
$USERR3
 40
0.0
  9
$USERR4
 40
0.0
  9
$USERR5
 40
0.0
  9
$WORLDVIEW
 70
     1
  9
$SHADEDGE
 70
     3
  9
$SHADEDIF
 70
    70
  9
$TILEMODE
 70
     1
  9
$MAXACTVP
 70
    64
  9
$PLIMCHECK
 70
     0
  9
$PEXTMIN
 10
1.0000000000000000E+020
 20
1.0000000000000000E+020
 30
1.0000000000000000E+020
  9
$PEXTMAX
 10
-1.0000000000000000E+020
 20
-1.0000000000000000E+020
 30
-1.0000000000000000E+020
  9
$PLIMMIN
 10
0.0
 20
0.0
  9
$PLIMMAX
 10
12.0
 20
9.0
  9
$UNITMODE
 70
     0
  9
$VISRETAIN
 70
     0
  9
$PLINEGEN
 70
     1
  9
$PSLTSCALE
 70
     0
  0
ENDSEC
  0
SECTION
  2
TABLES
  0
TABLE
  2
VPORT
 70
     1
  0
VPORT
  2
*ACTIVE
 70
     0
 10
0.0
 20
0.0
 11
1.0
 21
1.0
 12
500.02060293346869
 22
680.99460232540093
 13
0.0
 23
0.0
 14
1.0
 24
1.0
 15
0.0
 25
0.0
 16
0.0
 26
0.0
 36
1.0
 17
0.0
 27
0.0
 37
0.0
 40
1348.6437326500179
 41
2.1540469973890342
 42
50.0
 43
0.0
 44
0.0
 50
0.0
 51
0.0
 71
     0
 72
  2000
 73
     1
 74
     1
 75
     0
 76
     0
 77
     0
 78
     0
  0
ENDTAB
  0
TABLE
  2
LTYPE
 70
     1
  0
LTYPE
  2
CONTINUOUS
 70
     0
  3
Solid line
 72
    65
 73
     0
 40
0.0
  0
ENDTAB
  0
TABLE
  2
LAYER
 70
     5
  0
LAYER
  2
0
 70
     0
 62
     7
  6
CONTINUOUS
  0
LAYER
  2
DATA
 70
     0
 62
     7
  6
CONTINUOUS
  0
LAYER
  2
HIBINO-BASE
 70
     0
 62
     7
  6
CONTINUOUS
  0
LAYER
  2
SPEC
 70
     0
 62
     7
  6
CONTINUOUS
  0
LAYER
  2
DIMNSIONS
 70
     0
 62
     7
  6
CONTINUOUS
  0
ENDTAB
  0
TABLE
  2
STYLE
 70
     4
  0
STYLE
  2
STANDARD
 70
     0
 40
0.0
 41
1.0
 50
0.0
 71
     0
 42
0.0
  3
txt
  4
BIGFONT.SHX
  0
ENDTAB
  0
TABLE
  2
VIEW
 70
     0
  0
ENDTAB
  0
TABLE
  2
UCS
 70
     0
  0
ENDTAB
  0
TABLE
  2
APPID
 70
     4
  0
APPID
  2
ACAD
 70
     0
  0
APPID
  2
ACADANNOTATIVE
 70
     0
  0
APPID
  2
ACAD_NAV_VCDISPLAY
 70
     0
  0
APPID
  2
ACAD_MLEADERVER
 70
     0
  0
ENDTAB
  0
TABLE
  2
DIMSTYLE
 70
     2
  0
DIMSTYLE
  2
STANDARD
 70
     0
  3

  4

  5

  6

  7

 40
1.0
 41
0.18
 42
0.0625
 43
0.38
 44
0.18
 45
0.0
 46
0.0
 47
0.0
 48
0.0
140
0.18
141
0.09
142
0.0
143
25.399999999999999
144
1.0
145
0.0
146
1.0
147
0.09
 71
     0
 72
     0
 73
     1
 74
     1
 75
     0
 76
     0
 77
     0
 78
     0
170
     0
171
     2
172
     0
173
     0
174
     0
175
     0
176
     0
177
     0
178
     0
  0
ENDTAB
  0
ENDSEC
  0
SECTION
  2
BLOCKS
  0
BLOCK
  8
0
  2
$MODEL_SPACE
 70
     0
 10
0.0
 20
0.0
 30
0.0
  3
$MODEL_SPACE
  1

  0
ENDBLK
  5
318
  8
0
  0
BLOCK
 67
     1
  8
0
  2
$PAPER_SPACE
 70
     0
 10
0.0
 20
0.0
 30
0.0
  3
$PAPER_SPACE
  1

  0
ENDBLK
  5
314
 67
     1
  8
0
  0
ENDSEC
  0
SECTION
  2
ENTITIES
  0
LINE
  5
2D
  8
HIBINO-BASE
  6
CONTINUOUS
 62
     7
 10
50.0
 20
1350.0
 30
0.0
 11
950.0
 21
1350.0
 31
0.0
  0
LINE
  5
2E
  8
HIBINO-BASE
  6
CONTINUOUS
 62
     7
 10
950.0
 20
50.0
 30
0.0
 11
50.0
 21
50.0
 31
0.0
  0
LINE
  5
2F
  8
HIBINO-BASE
  6
CONTINUOUS
 62
     7
 10
50.0
 20
50.0
 30
0.0
 11
50.0
 21
1350.0
 31
0.0
  0
TEXT
  5
30
  8
HIBINO-BASE
 62
     7
 10
62.820128611047423
 20
17.956611000000109
 30
0.0
 40
18.00022089843748
  1
Hibino-Intersound Corporation
 41
0.7
 11
62.820128611047423
 21
35.956831898437599
 31
0.0
 73
     3
  0
LINE
  5
31
  8
HIBINO-BASE
  6
CONTINUOUS
 62
     7
 10
950.0
 20
1350.0
 30
0.0
 11
950.0
 21
50.0
 31
0.0
  0
LINE
  5
32
  8
HIBINO-BASE
  6
CONTINUOUS
 62
     7
 10
500.0
 20
162.50000000000011
 30
0.0
 11
950.0
 21
162.50000000000011
 31
0.0
  0
LINE
  5
33
  8
HIBINO-BASE
  6
CONTINUOUS
 62
     7
 10
500.0
 20
50.0
 30
0.0
 11
500.0
 21
162.50000000000011
 31
0.0
  0
TEXT
  5
34
  8
HIBINO-BASE
 62
     7
 10
504.49999999999989
 20
149.9565333333334
 30
0.0
 40
8.1442057291666661
  1
NOTE
 41
0.7
 11
504.49999999999989
 21
158.10073906250011
 31
0.0
 73
     3
  0
LINE
  5
35
  8
HIBINO-BASE
  6
CONTINUOUS
 62
     7
 10
675.0
 20
50.0
 30
0.0
 11
675.0
 21
162.50000000000011
 31
0.0
  0
TEXT
  5
36
  8
HIBINO-BASE
 62
     7
 10
679.49999999999989
 20
149.9565333333334
 30
0.0
 40
8.1442057291666661
  1
TITLE
 41
0.7
 11
679.49999999999989
 21
158.10073906250011
 31
0.0
 73
     3
  0
TEXT
  5
37
  8
HIBINO-BASE
 62
     7
 10
595.06609521503515
 20
16.861363937191111
 30
0.0
 40
18.00022089843748
  1
ヒビノインターサウンド株式会社
 41
0.7
 11
595.06609521503515
 21
34.861584835628598
 31
0.0
 73
     3
  0
LINE
  5
38
  8
HIBINO-BASE
  6
CONTINUOUS
 62
     7
 10
500.0
 20
100.0000000000001
 30
0.0
 11
950.0
 21
100.0000000000001
 31
0.0
  0
TEXT
  5
39
  8
HIBINO-BASE
 62
     7
 10
742.0
 20
87.738133333333465
 30
0.0
 40
8.1442057291666661
  1
DRAWN
 41
0.7
 11
742.0
 21
95.882339062500137
 31
0.0
 73
     3
  0
TEXT
  5
3A
  8
HIBINO-BASE
 62
     7
 10
617.0
 20
87.738133333333465
 30
0.0
 40
8.1442057291666661
  1
DATE
 41
0.7
 11
617.0
 21
95.882339062500137
 31
0.0
 73
     3
  0
TEXT
  5
3B
  8
HIBINO-BASE
 62
     7
 10
567.0
 20
87.738133333333465
 30
0.0
 40
8.1442057291666661
  1
SCALE
 41
0.7
 11
567.0
 21
95.882339062500137
 31
0.0
 73
     3
  0
TEXT
  5
3C
  8
HIBINO-BASE
 62
     7
 10
679.49999999999989
 20
87.738133333333465
 30
0.0
 40
8.1442057291666661
  1
DESIGN
 41
0.7
 11
679.49999999999989
 21
95.882339062500137
 31
0.0
 73
     3
  0
TEXT
  5
3D
  8
HIBINO-BASE
 62
     7
 10
867.0
 20
87.738133333333465
 30
0.0
 40
8.1442057291666661
  1
DRAWING NO.
 41
0.7
 11
867.0
 21
95.882339062500137
 31
0.0
 73
     3
  0
TEXT
  5
3E
  8
HIBINO-BASE
 62
     7
 10
804.49999999999989
 20
87.738133333333465
 30
0.0
 40
8.1442057291666661
  1
CHECK
 41
0.7
 11
804.49999999999989
 21
95.882339062500137
 31
0.0
 73
     3
  0
LINE
  5
3F
  8
HIBINO-BASE
  6
CONTINUOUS
 62
     7
 10
571.87499999999989
 20
56.25
 30
0.0
 11
590.625
 21
75.000000000000099
 31
0.0
  0
TEXT
  5
40
  8
HIBINO-BASE
 62
     7
 10
568.74999999999989
 20
69.455283333333384
 30
0.0
 40
8.1442057291666661
  1
1
 41
0.7
 11
568.74999999999989
 21
77.599489062500069
 31
0.0
 73
     3
  0
LINE
  5
41
  8
HIBINO-BASE
  6
CONTINUOUS
 62
     7
 10
562.49999999999989
 20
50.0
 30
0.0
 11
562.49999999999989
 21
100.0000000000001
 31
0.0
  0
LINE
  5
42
  8
HIBINO-BASE
  6
CONTINUOUS
 62
     7
 10
612.49999999999989
 20
50.0
 30
0.0
 11
612.49999999999989
 21
100.0000000000001
 31
0.0
  0
LINE
  5
43
  8
HIBINO-BASE
  6
CONTINUOUS
 62
     7
 10
737.5
 20
100.0000000000001
 30
0.0
 11
737.5
 21
50.0
 31
0.0
  0
LINE
  5
44
  8
HIBINO-BASE
  6
CONTINUOUS
 62
     7
 10
862.5
 20
100.0000000000001
 30
0.0
 11
862.5
 21
50.0
 31
0.0
  0
LINE
  5
45
  8
HIBINO-BASE
  6
CONTINUOUS
 62
     7
 10
800.0
 20
50.0
 30
0.0
 11
800.0
 21
100.0000000000001
 31
0.0
  0
TEXT
  5
46
  8
HIBINO-BASE
 62
     7
 10
616.78269999999986
 20
64.318233333333382
 30
0.0
 40
8.1442057291666661
  1
'12.04.
 41
0.7
 11
616.78269999999986
 21
72.462439062500053
 31
0.0
 73
     3
  0
TEXT
  5
47
  8
HIBINO-BASE
 62
     7
 10
587.5
 20
60.080283333333398
 30
0.0
 40
8.1442057291666661
  1
5
 41
0.7
 11
587.5
 21
68.224489062500069
 31
0.0
 73
     3
  0
TEXT
  5
48
  8
HIBINO-BASE
 62
     7
 10
746.98306333084508
 20
64.53534591951923
 30
0.0
 40
8.1442057291666661
  1
Ootake
 41
0.7
 11
746.98306333084508
 21
72.679551648685901
 31
0.0
 73
     3
  0
TEXT
  5
49
  8
HIBINO-BASE
 62
     7
 10
519.41666666666674
 20
59.88000000000001
 30
0.0
 40
16.288411458333329
  1
A4
 41
0.7
 11
519.41666666666674
 21
76.168411458333324
 31
0.0
 73
     3
  0
TEXT
  5
4A
  8
HIBINO-BASE
 62
     7
 10
504.7916666666664
 20
86.902725000000103
 30
0.0
 40
8.1442057291666661
  1
PAPER SIZE
 41
0.7
 11
504.7916666666664
 21
95.046930729166775
 31
0.0
 73
     3
  0
LINE
  5
4B
  8
SPEC
  6
CONTINUOUS
 62
     7
 10
87.5
 20
1300.0
 30
0.0
 11
825.0
 21
1300.0
 31
0.0
  0
LINE
  5
4C
  8
SPEC
  6
CONTINUOUS
 62
     7
 10
87.5
 20
1281.25
 30
0.0
 11
825.0
 21
1281.25
 31
0.0
  0
LINE
  5
4D
  8
SPEC
  6
CONTINUOUS
 62
     7
 10
87.5
 20
1206.25
 30
0.0
 11
825.0
 21
1206.25
 31
0.0
  0
LINE
  5
4E
  8
SPEC
  6
CONTINUOUS
 62
     7
 10
87.5
 20
1225.0
 30
0.0
 11
825.0
 21
1225.0
 31
0.0
  0
LINE
  5
4F
  8
SPEC
  6
CONTINUOUS
 62
     7
 10
87.5
 20
1243.75
 30
0.0
 11
825.0
 21
1243.75
 31
0.0
  0
LINE
  5
50
  8
SPEC
  6
CONTINUOUS
 62
     7
 10
87.5
 20
1187.5
 30
0.0
 11
825.0
 21
1187.5
 31
0.0
  0
LINE
  5
51
  8
SPEC
  6
CONTINUOUS
 62
     7
 10
87.5
 20
1150.0
 30
0.0
 11
825.0
 21
1150.0
 31
0.0
  0
LINE
  5
52
  8
SPEC
  6
CONTINUOUS
 62
     7
 10
87.5
 20
1168.75
 30
0.0
 11
825.0
 21
1168.75
 31
0.0
  0
LINE
  5
53
  8
SPEC
  6
CONTINUOUS
 62
     7
 10
87.5
 20
1131.25
 30
0.0
 11
825.0
 21
1131.25
 31
0.0
  0
LINE
  5
54
  8
SPEC
  6
CONTINUOUS
 62
     7
 10
87.5
 20
1112.5
 30
0.0
 11
825.0
 21
1112.5
 31
0.0
  0
LINE
  5
55
  8
SPEC
  6
CONTINUOUS
 62
     7
 10
87.5
 20
1262.5
 30
0.0
 11
825.0
 21
1262.5
 31
0.0
  0
TEXT
  5
56
  8
SPEC
 62
     7
 10
93.75
 20
1306.9663499999999
 30
0.0
 40
12.21630859375
  1
仕様
 41
0.7
 11
93.75
 21
1319.1826585937499
 31
0.0
 73
     3
  0
LINE
  5
57
  8
SPEC
  6
CONTINUOUS
 62
     7
 10
325.0
 20
1300.0
 30
0.0
 11
325.0
 21
1112.5
 31
0.0
  0
TEXT
  5
58
  8
SPEC
 62
     7
 10
91.473529153280865
 20
1135.706820725489
 30
0.0
 40
9.5015562499999984
  1
寸法
 41
0.7
 11
91.473529153280865
 21
1145.208376975489
 31
0.0
 73
     3
  0
LINE
  5
59
  8
SPEC
  6
CONTINUOUS
 62
     7
 10
825.0
 20
1300.0
 30
0.0
 11
825.0
 21
1112.5
 31
0.0
  0
TEXT
  5
5A
  8
SPEC
 62
     7
 10
91.722938843005764
 20
1117.632003044115
 30
0.0
 40
9.5015562499999984
  1
重量
 41
0.7
 11
91.722938843005764
 21
1127.133559294115
 31
0.0
 73
     3
  0
LINE
  5
5B
  8
SPEC
  6
CONTINUOUS
 62
     7
 10
87.5
 20
1300.0
 30
0.0
 11
87.5
 21
1112.5
 31
0.0
  0
TEXT
  5
5C
  8
SPEC
 62
     7
 10
89.763795692201583
 20
1286.107388737845
 30
0.0
 40
9.5015562499999984
  1
ビデオアンプ帯域
 41
0.7
 11
89.763795692201583
 21
1295.608944987845
 31
0.0
 73
     3
  0
TEXT
  5
5D
  8
SPEC
 62
     7
 10
329.4895502919872
 20
1285.7956212461211
 30
0.0
 40
9.5015562499999984
  1
360MHz
 41
0.7
 11
329.4895502919872
 21
1295.2971774961211
 31
0.0
 73
     3
  0
TEXT
  5
5E
  8
SPEC
 62
     7
 10
91.94894470343138
 20
1192.479042130544
 30
0.0
 40
9.5015733506944464
  1
RS-232コントロール端子
 41
0.7
 11
91.94894470343138
 21
1201.9806154812379
 31
0.0
 73
     3
  0
TEXT
  5
5F
  8
SPEC
 62
     7
 10
91.590731959934445
 20
1173.7840197851599
 30
0.0
 40
9.5015733506944464
  1
電源
 41
0.7
 11
91.590731959934445
 21
1183.2855931358549
 31
0.0
 73
     3
  0
TEXT
  5
60
  8
SPEC
 62
     7
 10
91.399526048193707
 20
1248.534620351659
 30
0.0
 40
9.5015733506944464
  1
ディスプレイポート端子
 41
0.7
 11
91.399526048193707
 21
1258.0361937023531
 31
0.0
 73
     3
  0
TEXT
  5
61
  8
SPEC
 62
     7
 10
329.65307043868683
 20
1173.13184669523
 30
0.0
 40
9.5015733506944464
  1
5V
 41
0.7
 11
329.65307043868683
 21
1182.633420045925
 31
0.0
 73
     3
  0
TEXT
  5
62
  8
SPEC
 62
     7
 10
328.396512285781
 20
1249.3052042748559
 30
0.0
 40
9.5015733506944464
  1
メス
 41
0.7
 11
328.396512285781
 21
1258.80677762555
 31
0.0
 73
     3
  0
TEXT
  5
63
  8
SPEC
 62
     7
 10
329.82951668809977
 20
1192.263595204998
 30
0.0
 40
9.5015733506944464
  1
DB-9メス
 41
0.7
 11
329.82951668809977
 21
1201.765168555693
 31
0.0
 73
     3
  0
TEXT
  5
64
  8
SPEC
 62
     7
 10
91.964656696692074
 20
1229.9151931629831
 30
0.0
 40
9.5015733506944464
  1
サポートディスプレイポートバージョン
 41
0.7
 11
91.964656696692074
 21
1239.4167665136781
 31
0.0
 73
     3
  0
TEXT
  5
65
  8
SPEC
 62
     7
 10
329.00056637111999
 20
1229.541919734266
 30
0.0
 40
9.5015733506944464
  1
1.1a
 41
0.7
 11
329.00056637111999
 21
1239.0434930849599
 31
0.0
 73
     3
  0
TEXT
  5
66
  8
SPEC
 62
     7
 10
91.658711003848623
 20
1154.80212062689
 30
0.0
 40
9.5015562499999984
  1
消費電力
 41
0.7
 11
91.658711003848623
 21
1164.30367687689
 31
0.0
 73
     3
  0
TEXT
  5
67
  8
SPEC
 62
     7
 10
329.52370849074663
 20
1155.010017376828
 30
0.0
 40
9.5015562499999984
  1
30W
 41
0.7
 11
329.52370849074663
 21
1164.5115736268281
 31
0.0
 73
     3
  0
TEXT
  5
68
  8
SPEC
 62
     7
 10
329.96479484513048
 20
1137.043238063452
 30
0.0
 40
9.5015733506944464
  1
435(W)\U+00D744(H)\U+00D7109(D)mm(突起部含まず)
 41
0.7
 11
329.96479484513048
 21
1146.544811414147
 31
0.0
 73
     3
  0
TEXT
  5
69
  8
SPEC
 62
     7
 10
90.058658092755579
 20
1210.939903862027
 30
0.0
 40
9.5015733506944464
  1
IR延長受光部端子
 41
0.7
 11
90.058658092755579
 21
1220.4414772127211
 31
0.0
 73
     3
  0
TEXT
  5
6A
  8
SPEC
 62
     7
 10
329.77093532641749
 20
1211.0734726256601
 30
0.0
 40
9.5015733506944464
  1
3.5mmステレオ
 41
0.7
 11
329.77093532641749
 21
1220.575045976354
 31
0.0
 73
     3
  0
TEXT
  5
6B
  8
SPEC
 62
     7
 10
92.077411248027786
 20
1267.1338771599419
 30
0.0
 40
9.5015733506944464
  1
最大データレート
 41
0.7
 11
92.077411248027786
 21
1276.635450510636
 31
0.0
 73
     3
  0
TEXT
  5
6C
  8
SPEC
 62
     7
 10
328.84081780077372
 20
1267.6108987598629
 30
0.0
 40
9.5015733506944464
  1
10.8Gbps
 41
0.7
 11
328.84081780077372
 21
1277.112472110558
 31
0.0
 73
     3
  0
TEXT
  5
6D
  8
SPEC
 62
     7
 10
316.97420468999172
 20
1117.664333281067
 30
0.0
 40
9.5015562499999984
  1
　約800g
 41
0.7
 11
316.97420468999172
 21
1127.165889531067
 31
0.0
 73
     3
  0
TEXT
  5
6E
  8
DIMNSIONS
 62
     7
 10
400.0
 20
111.3474499999999
 30
0.0
 40
12.21630859375
  1
(単位：mm)
 41
0.7
 11
400.0
 21
123.5637585937499
 31
0.0
 73
     3
  0
LINE
  5
6F
  8
DIMNSIONS
  6
CONTINUOUS
 62
     7
 10
202.5
 20
425.0
 30
0.0
 11
165.0
 21
425.0
 31
0.0
  0
LINE
  5
70
  8
DIMNSIONS
  6
CONTINUOUS
 62
     7
 10
202.5
 20
469.0
 30
0.0
 11
165.0
 21
469.0
 31
0.0
  0
LINE
  5
71
  8
DIMNSIONS
  6
CONTINUOUS
 62
     7
 10
175.0
 20
425.0
 30
0.0
 11
175.0
 21
469.0
 31
0.0
  0
LINE
  5
72
  8
DIMNSIONS
  6
CONTINUOUS
 62
     7
 10
175.0
 20
425.0
 30
0.0
 11
171.6498010242488
 21
437.50311279296881
 31
0.0
  0
LINE
  5
73
  8
DIMNSIONS
  6
CONTINUOUS
 62
     7
 10
175.0
 20
425.0
 30
0.0
 11
178.3501989757512
 21
437.50311279296881
 31
0.0
  0
LINE
  5
74
  8
DIMNSIONS
  6
CONTINUOUS
 62
     7
 10
175.0
 20
469.0
 30
0.0
 11
178.3501989757512
 21
456.49688720703119
 31
0.0
  0
LINE
  5
75
  8
DIMNSIONS
  6
CONTINUOUS
 62
     7
 10
175.0
 20
469.0
 30
0.0
 11
171.6498010242488
 21
456.49688720703119
 31
0.0
  0
TEXT
  5
76
  8
DIMNSIONS
 62
     7
 10
170.03055555555551
 20
438.18055555555537
 30
0.0
 40
13.57367621527778
  1
44
 50
90.0
 41
0.7
 11
156.45687934027771
 21
438.18055555555537
 31
0.0
 73
     3
  0
LINE
  5
77
  8
DIMNSIONS
  6
CONTINUOUS
 62
     7
 10
212.5
 20
415.0
 30
0.0
 11
212.5
 21
377.5
 31
0.0
  0
LINE
  5
78
  8
DIMNSIONS
  6
CONTINUOUS
 62
     7
 10
647.5
 20
415.0
 30
0.0
 11
647.5
 21
377.5
 31
0.0
  0
LINE
  5
79
  8
DIMNSIONS
  6
CONTINUOUS
 62
     7
 10
212.5
 20
387.5
 30
0.0
 11
647.5
 21
387.5
 31
0.0
  0
LINE
  5
7A
  8
DIMNSIONS
  6
CONTINUOUS
 62
     7
 10
212.5
 20
387.5
 30
0.0
 11
225.00311279296881
 21
390.8501989757512
 31
0.0
  0
LINE
  5
7B
  8
DIMNSIONS
  6
CONTINUOUS
 62
     7
 10
212.5
 20
387.5
 30
0.0
 11
225.00311279296881
 21
384.1498010242488
 31
0.0
  0
LINE
  5
7C
  8
DIMNSIONS
  6
CONTINUOUS
 62
     7
 10
647.5
 20
387.5
 30
0.0
 11
634.99688720703125
 21
384.1498010242488
 31
0.0
  0
LINE
  5
7D
  8
DIMNSIONS
  6
CONTINUOUS
 62
     7
 10
647.5
 20
387.5
 30
0.0
 11
634.99688720703125
 21
390.8501989757512
 31
0.0
  0
TEXT
  5
7E
  8
DIMNSIONS
 62
     7
 10
415.18333232402802
 20
394.40972241935219
 30
0.0
 40
12.63201734710262
  1
435
 41
0.7
 11
415.18333232402802
 21
407.04173976645478
 31
0.0
 73
     3
  0
LINE
  5
7F
  8
DIMNSIONS
  6
CONTINUOUS
 62
     7
 10
202.5
 20
537.5
 30
0.0
 11
165.0
 21
537.5
 31
0.0
  0
LINE
  5
80
  8
DIMNSIONS
  6
CONTINUOUS
 62
     7
 10
202.5
 20
646.49999999999977
 30
0.0
 11
165.0
 21
646.49999999999977
 31
0.0
  0
LINE
  5
81
  8
DIMNSIONS
  6
CONTINUOUS
 62
     7
 10
175.0
 20
537.5
 30
0.0
 11
175.0
 21
646.49999999999977
 31
0.0
  0
LINE
  5
82
  8
DIMNSIONS
  6
CONTINUOUS
 62
     7
 10
175.0
 20
537.5
 30
0.0
 11
171.6498010242488
 21
550.00311279296875
 31
0.0
  0
LINE
  5
83
  8
DIMNSIONS
  6
CONTINUOUS
 62
     7
 10
175.0
 20
537.5
 30
0.0
 11
178.3501989757512
 21
550.00311279296875
 31
0.0
  0
LINE
  5
84
  8
DIMNSIONS
  6
CONTINUOUS
 62
     7
 10
175.0
 20
646.49999999999977
 30
0.0
 11
178.3501989757512
 21
633.99688720703125
 31
0.0
  0
LINE
  5
85
  8
DIMNSIONS
  6
CONTINUOUS
 62
     7
 10
175.0
 20
646.49999999999977
 30
0.0
 11
171.6498010242488
 21
633.99688720703125
 31
0.0
  0
TEXT
  5
86
  8
DIMNSIONS
 62
     7
 10
168.09027758064769
 20
577.18333232402779
 30
0.0
 40
12.63201734710262
  1
109
 50
90.0
 41
0.7
 11
155.4582602335451
 21
577.18333232402779
 31
0.0
 73
     3
  0
LINE
  5
87
  8
DIMNSIONS
  6
CONTINUOUS
 62
     7
 10
202.5
 20
646.49999999999977
 30
0.0
 11
165.0
 21
646.49999999999977
 31
0.0
  0
LINE
  5
88
  8
DIMNSIONS
  6
CONTINUOUS
 62
     7
 10
613.60000000000002
 20
652.50000000002001
 30
0.0
 11
165.0
 21
652.50000000002001
 31
0.0
  0
LINE
  5
89
  8
DIMNSIONS
  6
CONTINUOUS
 62
     7
 10
175.0
 20
652.50000000002001
 30
0.0
 11
175.0
 21
646.49999999999977
 31
0.0
  0
LINE
  5
8A
  8
DIMNSIONS
  6
CONTINUOUS
 62
     7
 10
175.0
 20
646.49999999999977
 30
0.0
 11
175.0
 21
621.49999999999977
 31
0.0
  0
LINE
  5
8B
  8
DIMNSIONS
  6
CONTINUOUS
 62
     7
 10
175.0
 20
646.49999999999977
 30
0.0
 11
178.3501989757512
 21
633.99688720703125
 31
0.0
  0
LINE
  5
8C
  8
DIMNSIONS
  6
CONTINUOUS
 62
     7
 10
175.0
 20
646.49999999999977
 30
0.0
 11
171.6498010242488
 21
633.99688720703125
 31
0.0
  0
LINE
  5
8D
  8
DIMNSIONS
  6
CONTINUOUS
 62
     7
 10
175.0
 20
652.50000000002001
 30
0.0
 11
175.0
 21
675.0
 31
0.0
  0
LINE
  5
8E
  8
DIMNSIONS
  6
CONTINUOUS
 62
     7
 10
175.0
 20
652.50000000002001
 30
0.0
 11
171.6498010242488
 21
665.00311279298865
 31
0.0
  0
LINE
  5
8F
  8
DIMNSIONS
  6
CONTINUOUS
 62
     7
 10
175.0
 20
652.50000000002001
 30
0.0
 11
178.3501989757512
 21
665.00311279298865
 31
0.0
  0
TEXT
  5
90
  8
DIMNSIONS
 62
     7
 10
164.46479892358579
 20
665.12222239043956
 30
0.0
 40
12.63201734710262
  1
6
 50
90.0
 41
0.7
 11
151.8327815764832
 21
665.12222239043956
 31
0.0
 73
     3
  0
LINE
  5
91
  8
DIMNSIONS
  6
CONTINUOUS
 62
     7
 10
212.0
 20
421.0
 30
0.0
 11
165.0
 21
421.0
 31
0.0
  0
LINE
  5
92
  8
DIMNSIONS
  6
CONTINUOUS
 62
     7
 10
202.5
 20
425.0
 30
0.0
 11
165.0
 21
425.0
 31
0.0
  0
LINE
  5
93
  8
DIMNSIONS
  6
CONTINUOUS
 62
     7
 10
175.0
 20
425.0
 30
0.0
 11
175.0
 21
421.0
 31
0.0
  0
LINE
  5
94
  8
DIMNSIONS
  6
CONTINUOUS
 62
     7
 10
175.0
 20
421.0
 30
0.0
 11
175.0
 21
400.0
 31
0.0
  0
LINE
  5
95
  8
DIMNSIONS
  6
CONTINUOUS
 62
     7
 10
175.0
 20
421.0
 30
0.0
 11
178.3501989757512
 21
408.49688720703108
 31
0.0
  0
LINE
  5
96
  8
DIMNSIONS
  6
CONTINUOUS
 62
     7
 10
175.0
 20
421.0
 30
0.0
 11
171.6498010242488
 21
408.49688720703108
 31
0.0
  0
LINE
  5
97
  8
DIMNSIONS
  6
CONTINUOUS
 62
     7
 10
175.0
 20
425.0
 30
0.0
 11
175.0
 21
450.0
 31
0.0
  0
LINE
  5
98
  8
DIMNSIONS
  6
CONTINUOUS
 62
     7
 10
175.0
 20
425.0
 30
0.0
 11
171.6498010242488
 21
437.50311279296881
 31
0.0
  0
LINE
  5
99
  8
DIMNSIONS
  6
CONTINUOUS
 62
     7
 10
175.0
 20
425.0
 30
0.0
 11
178.3501989757512
 21
437.50311279296881
 31
0.0
  0
TEXT
  5
9A
  8
DIMNSIONS
 62
     7
 10
167.1097036342106
 20
400.0
 30
0.0
 40
12.63201734710262
  1
4
 50
90.0
 41
0.7
 11
154.47768628710801
 21
400.0
 31
0.0
 73
     3
  0
TEXT
  5
9B
  8
DATA
 62
     7
 10
750.0
 20
106.0627619472923
 30
0.0
 40
12.21630859375
  1
EXT-DP-441
 41
0.7
 11
750.0
 21
118.2790705410423
 31
0.0
 73
     3
  0
TEXT
  5
9C
  8
DATA
 62
     7
 10
737.5
 20
126.73220419155891
 30
0.0
 40
8.1442057291666661
  1
4\U+00D71ディスプレイポート切替器
 41
0.7
 11
737.5
 21
134.87640992072559
 31
0.0
 73
     3
  0
TEXT
  5
9D
  8
DATA
 62
     7
 10
100.0
 20
71.190000000000111
 30
0.0
 40
8.1442057291666661
  1
仕様および外観は予告なく変更されることがありますので、ご了承ください。
 41
0.7
 11
100.0
 21
79.334205729166783
 31
0.0
 73
     3
  0
TEXT
  5
9E
  8
DATA
 62
     7
 10
748.0
 20
144.68030417747681
 30
0.0
 40
12.21630859375
  1
Gefen
 41
0.7
 11
748.0
 21
156.89661277122681
 31
0.0
 73
     3
  0
LINE
  5
9F
  8
DATA
  6
CONTINUOUS
 62
     7
 10
212.5
 20
425.0
 30
0.0
 11
212.5
 21
469.0
 31
0.0
  0
LINE
  5
A0
  8
DATA
  6
CONTINUOUS
 62
     7
 10
647.5
 20
425.0
 30
0.0
 11
212.5
 21
425.0
 31
0.0
  0
LINE
  5
A1
  8
DATA
  6
CONTINUOUS
 62
     7
 10
647.5
 20
469.0
 30
0.0
 11
647.5
 21
425.0
 31
0.0
  0
LINE
  5
A2
  8
DATA
  6
CONTINUOUS
 62
     7
 10
212.5
 20
469.0
 30
0.0
 11
647.5
 21
469.0
 31
0.0
  0
LINE
  5
A3
  8
DATA
  6
CONTINUOUS
 62
     7
 10
212.5
 20
537.5
 30
0.0
 11
212.5
 21
646.49999999999977
 31
0.0
  0
LINE
  5
A4
  8
DATA
  6
CONTINUOUS
 62
     7
 10
647.5
 20
537.5
 30
0.0
 11
647.5
 21
646.49999999999977
 31
0.0
  0
LINE
  5
A5
  8
DATA
  6
CONTINUOUS
 62
     7
 10
212.5
 20
545.39999999999986
 30
0.0
 11
647.5
 21
545.39999999999986
 31
0.0
  0
LINE
  5
A6
  8
DATA
  6
CONTINUOUS
 62
     7
 10
212.5
 20
537.5
 30
0.0
 11
647.5
 21
537.5
 31
0.0
  0
TEXT
  5
A7
  8
DATA
 62
     7
 10
502.98320487789221
 20
454.45440781433319
 30
0.0
 40
8.5514160156250014
  1
4\U+00D71 DisplayPort Switcher 
 41
0.7
 11
502.98320487789221
 21
463.00582382995827
 31
0.0
 73
     3
  0
LINE
  5
A8
  8
DATA
  6
CONTINUOUS
 62
     7
 10
222.0
 20
421.0
 30
0.0
 11
221.5
 21
425.0
 31
0.0
  0
LINE
  5
A9
  8
DATA
  6
CONTINUOUS
 62
     7
 10
240.0
 20
421.0
 30
0.0
 11
240.5
 21
425.0
 31
0.0
  0
LINE
  5
AA
  8
DATA
  6
CONTINUOUS
 62
     7
 10
222.0
 20
421.0
 30
0.0
 11
240.0
 21
421.0
 31
0.0
  0
LINE
  5
AB
  8
DATA
  6
CONTINUOUS
 62
     7
 10
638.0
 20
421.0
 30
0.0
 11
638.49999999999977
 21
425.0
 31
0.0
  0
LINE
  5
AC
  8
DATA
  6
CONTINUOUS
 62
     7
 10
620.0
 20
421.0
 30
0.0
 11
619.5
 21
425.0
 31
0.0
  0
LINE
  5
AD
  8
DATA
  6
CONTINUOUS
 62
     7
 10
638.0
 20
421.0
 30
0.0
 11
620.0
 21
421.0
 31
0.0
  0
LINE
  5
AE
  8
DATA
  6
CONTINUOUS
 62
     7
 10
212.5
 20
781.5
 30
0.0
 11
212.5
 21
737.5
 31
0.0
  0
LINE
  5
AF
  8
DATA
  6
CONTINUOUS
 62
     7
 10
647.5
 20
781.5
 30
0.0
 11
212.5
 21
781.5
 31
0.0
  0
LINE
  5
B0
  8
DATA
  6
CONTINUOUS
 62
     7
 10
212.50000000000011
 20
737.5
 30
0.0
 11
629.12156350979785
 21
737.5
 31
0.0
  0
LINE
  5
B1
  8
DATA
  6
CONTINUOUS
 62
     7
 10
222.0
 20
785.5
 30
0.0
 11
221.5
 21
781.5
 31
0.0
  0
LINE
  5
B2
  8
DATA
  6
CONTINUOUS
 62
     7
 10
240.0
 20
785.5
 30
0.0
 11
240.5
 21
781.5
 31
0.0
  0
LINE
  5
B3
  8
DATA
  6
CONTINUOUS
 62
     7
 10
222.0
 20
785.5
 30
0.0
 11
240.0
 21
785.5
 31
0.0
  0
LINE
  5
B4
  8
DATA
  6
CONTINUOUS
 62
     7
 10
638.0
 20
785.5
 30
0.0
 11
638.49999999999977
 21
781.5
 31
0.0
  0
LINE
  5
B5
  8
DATA
  6
CONTINUOUS
 62
     7
 10
620.0
 20
785.5
 30
0.0
 11
619.5
 21
781.5
 31
0.0
  0
LINE
  5
B6
  8
DATA
  6
CONTINUOUS
 62
     7
 10
638.0
 20
785.5
 30
0.0
 11
620.0
 21
785.5
 31
0.0
  0
POLYLINE
  5
B7
  8
DATA
  6
CONTINUOUS
 62
     7
 66
     1
 10
0.0
 20
0.0
 30
0.0
  0
VERTEX
  5
339
  8
DATA
  6
CONTINUOUS
 62
     7
 10
489.04663757964192
 20
770.44810133714634
 30
0.0
  0
VERTEX
  5
33A
  8
DATA
  6
CONTINUOUS
 62
     7
 10
489.04663757964192
 20
766.44810133714634
 30
0.0
  0
VERTEX
  5
33B
  8
DATA
  6
CONTINUOUS
 62
     7
 10
505.04663757964198
 20
766.44810133714634
 30
0.0
  0
VERTEX
  5
33C
  8
DATA
  6
CONTINUOUS
 62
     7
 10
505.04663757964198
 20
770.44810133714634
 30
0.0
  0
SEQEND
  5
33D
  8
DATA
  6
CONTINUOUS
 62
     7
  0
LINE
  5
BE
  8
DATA
  6
CONTINUOUS
 62
     7
 10
502.54663757964158
 20
772.44810133714634
 30
0.0
 11
491.54663757964232
 21
772.44810133714634
 31
0.0
  0
ARC
  5
BF
  8
DATA
  6
CONTINUOUS
 62
     7
 10
487.77745390617241
 20
774.59708092898336
 30
0.0
 40
4.3387623639094164
 50
287.00900813209682
 51
330.31060837608419
  0
ARC
  5
C0
  8
DATA
  6
CONTINUOUS
 62
     7
 10
506.31582125311132
 20
774.59708092898336
 30
0.0
 40
4.3387623639096384
 50
209.6893916239147
 51
252.99099186790241
  0
TEXT
  5
C1
  8
DATA
 62
     7
 10
501.08956592278003
 20
778.29378527927565
 30
0.0
 40
2.714735243055554
  1
In 1
 50
180.0
 41
0.7
 11
501.08956592278003
 21
775.57905003622011
 31
0.0
 73
     3
  0
CIRCLE
  5
C2
  8
DATA
  6
CONTINUOUS
 62
     7
 10
279.75869309715762
 20
768.57220401353152
 30
0.0
 40
1.17500000000001
  0
POLYLINE
  5
C3
  8
DATA
  6
CONTINUOUS
 62
     7
 66
     1
 10
0.0
 20
0.0
 30
0.0
 70
     1
  0
VERTEX
  5
33E
  8
DATA
  6
CONTINUOUS
 62
     7
 10
279.75869309715762
 20
765.87220401353181
 30
0.0
  0
VERTEX
  5
33F
  8
DATA
  6
CONTINUOUS
 62
     7
 10
282.09696168737543
 20
767.2222040135315
 30
0.0
  0
VERTEX
  5
340
  8
DATA
  6
CONTINUOUS
 62
     7
 10
282.09696168737543
 20
769.92220401353131
 30
0.0
  0
VERTEX
  5
341
  8
DATA
  6
CONTINUOUS
 62
     7
 10
279.75869309715762
 20
771.27220401353122
 30
0.0
  0
VERTEX
  5
342
  8
DATA
  6
CONTINUOUS
 62
     7
 10
277.42042450693958
 20
769.92220401353131
 30
0.0
  0
VERTEX
  5
343
  8
DATA
  6
CONTINUOUS
 62
     7
 10
277.42042450693958
 20
767.2222040135315
 30
0.0
  0
SEQEND
  5
344
  8
DATA
  6
CONTINUOUS
 62
     7
  0
CIRCLE
  5
CC
  8
DATA
  6
CONTINUOUS
 62
     7
 10
304.75869309715682
 20
768.57220401353152
 30
0.0
 40
1.174999999999784
  0
POLYLINE
  5
CD
  8
DATA
  6
CONTINUOUS
 62
     7
 66
     1
 10
0.0
 20
0.0
 30
0.0
 70
     1
  0
VERTEX
  5
345
  8
DATA
  6
CONTINUOUS
 62
     7
 10
304.75869309715682
 20
765.87220401353181
 30
0.0
  0
VERTEX
  5
346
  8
DATA
  6
CONTINUOUS
 62
     7
 10
307.09696168737429
 20
767.2222040135315
 30
0.0
  0
VERTEX
  5
347
  8
DATA
  6
CONTINUOUS
 62
     7
 10
307.09696168737429
 20
769.92220401353131
 30
0.0
  0
VERTEX
  5
348
  8
DATA
  6
CONTINUOUS
 62
     7
 10
304.75869309715682
 20
771.27220401353122
 30
0.0
  0
VERTEX
  5
349
  8
DATA
  6
CONTINUOUS
 62
     7
 10
302.42042450693941
 20
769.92220401353131
 30
0.0
  0
VERTEX
  5
34A
  8
DATA
  6
CONTINUOUS
 62
     7
 10
302.42042450693941
 20
767.2222040135315
 30
0.0
  0
SEQEND
  5
34B
  8
DATA
  6
CONTINUOUS
 62
     7
  0
LINE
  5
D6
  8
DATA
  6
CONTINUOUS
 62
     7
 10
286.6569298869689
 20
772.57220401353129
 30
0.0
 11
297.860456307346
 21
772.57220401353129
 31
0.0
  0
LINE
  5
D7
  8
DATA
  6
CONTINUOUS
 62
     7
 10
298.672956307346
 20
764.57220401353152
 30
0.0
 11
285.8444298869689
 21
764.57220401353152
 31
0.0
  0
LINE
  5
D8
  8
DATA
  6
CONTINUOUS
 62
     7
 10
299.24367315459767
 20
771.38833164591415
 30
0.0
 11
300.05617315459762
 21
766.1883316459149
 31
0.0
  0
LINE
  5
D9
  8
DATA
  6
CONTINUOUS
 62
     7
 10
284.46121303971728
 20
766.1883316459149
 30
0.0
 11
285.27371303971728
 21
771.38833164591415
 31
0.0
  0
CIRCLE
  5
DA
  8
DATA
  6
CONTINUOUS
 62
     7
 10
292.28532286763237
 20
766.93589584237793
 30
0.0
 40
0.5
  0
ARC
  5
DB
  8
DATA
  6
CONTINUOUS
 62
     7
 10
298.672956307346
 20
765.97220401353138
 30
0.0
 40
1.399999999999977
 50
270.0
 51
8.8806591505205574
  0
ARC
  5
DC
  8
DATA
  6
CONTINUOUS
 62
     7
 10
285.8444298869689
 20
765.97220401353138
 30
0.0
 40
1.400000000000019
 50
171.1193408494795
 51
270.0
  0
ARC
  5
DD
  8
DATA
  6
CONTINUOUS
 62
     7
 10
297.860456307346
 20
771.17220401353109
 30
0.0
 40
1.4000000000000281
 50
8.8806591505228312
 51
90.0
  0
ARC
  5
DE
  8
DATA
  6
CONTINUOUS
 62
     7
 10
286.6569298869689
 20
771.17220401353109
 30
0.0
 40
1.400000000000146
 50
90.0
 51
171.11934084947711
  0
CIRCLE
  5
DF
  8
DATA
  6
CONTINUOUS
 62
     7
 10
294.78532286763237
 20
766.93589584237793
 30
0.0
 40
0.5
  0
CIRCLE
  5
E0
  8
DATA
  6
CONTINUOUS
 62
     7
 10
297.28532286763237
 20
766.93589584237793
 30
0.0
 40
0.5
  0
CIRCLE
  5
E1
  8
DATA
  6
CONTINUOUS
 62
     7
 10
289.78532286763249
 20
766.93589584237793
 30
0.0
 40
0.5
  0
CIRCLE
  5
E2
  8
DATA
  6
CONTINUOUS
 62
     7
 10
287.28532286763237
 20
766.93589584237793
 30
0.0
 40
0.5
  0
CIRCLE
  5
E3
  8
DATA
  6
CONTINUOUS
 62
     7
 10
293.48083404370368
 20
770.55441626114043
 30
0.0
 40
0.5
  0
CIRCLE
  5
E4
  8
DATA
  6
CONTINUOUS
 62
     7
 10
295.98083404370368
 20
770.55441626114043
 30
0.0
 40
0.5
  0
CIRCLE
  5
E5
  8
DATA
  6
CONTINUOUS
 62
     7
 10
290.98083404370368
 20
770.55441626114043
 30
0.0
 40
0.5
  0
CIRCLE
  5
E6
  8
DATA
  6
CONTINUOUS
 62
     7
 10
288.48083404370368
 20
770.55441626114043
 30
0.0
 40
0.5
  0
TEXT
  5
E7
  8
DATA
 62
     7
 10
297.44906075885962
 20
778.78739672430675
 30
0.0
 40
2.693359375
  1
RS-232
 50
180.0
 41
0.7
 11
297.44906075885962
 21
776.09403734930675
 31
0.0
 73
     3
  0
LINE
  5
E8
  8
DATA
  6
CONTINUOUS
 62
     7
 10
623.60000000000002
 20
652.50000000002001
 30
0.0
 11
631.39999999999998
 21
652.50000000002001
 31
0.0
  0
LINE
  5
E9
  8
DATA
  6
CONTINUOUS
 62
     7
 10
623.60000000000002
 20
652.50000000002001
 30
0.0
 11
623.60000000000002
 21
647.80000000001985
 31
0.0
  0
LINE
  5
EA
  8
DATA
  6
CONTINUOUS
 62
     7
 10
631.39999999999998
 20
652.50000000002001
 30
0.0
 11
631.39999999999998
 21
647.80000000001985
 31
0.0
  0
LINE
  5
EB
  8
DATA
  6
CONTINUOUS
 62
     7
 10
622.75
 20
647.80000000001985
 30
0.0
 11
622.75
 21
646.50000000002001
 31
0.0
  0
LINE
  5
EC
  8
DATA
  6
CONTINUOUS
 62
     7
 10
632.24999999999977
 20
647.80000000001985
 30
0.0
 11
632.24999999999977
 21
646.50000000002001
 31
0.0
  0
LINE
  5
ED
  8
DATA
  6
CONTINUOUS
 62
     7
 10
622.75
 20
647.80000000001985
 30
0.0
 11
632.24999999999977
 21
647.80000000001985
 31
0.0
  0
LINE
  5
EE
  8
DATA
  6
CONTINUOUS
 62
     7
 10
627.5
 20
647.80000000001985
 30
0.0
 11
627.5
 21
646.50000000002001
 31
0.0
  0
LINE
  5
EF
  8
DATA
  6
CONTINUOUS
 62
     7
 10
284.4628043094113
 20
651.50000000002001
 30
0.0
 11
284.4628043094113
 21
646.50000000002001
 31
0.0
  0
LINE
  5
F0
  8
DATA
  6
CONTINUOUS
 62
     7
 10
300.07294311619802
 20
651.50000000002001
 30
0.0
 11
300.07294311619802
 21
646.50000000002001
 31
0.0
  0
LINE
  5
F1
  8
DATA
  6
CONTINUOUS
 62
     7
 10
277.42042450472672
 20
651.50000000002001
 30
0.0
 11
277.42042450472672
 21
646.50000000002001
 31
0.0
  0
LINE
  5
F2
  8
DATA
  6
CONTINUOUS
 62
     7
 10
282.09696168516251
 20
651.50000000002001
 30
0.0
 11
282.09696168516251
 21
646.50000000002001
 31
0.0
  0
LINE
  5
F3
  8
DATA
  6
CONTINUOUS
 62
     7
 10
302.42042450472672
 20
651.50000000002001
 30
0.0
 11
302.42042450472672
 21
646.50000000002001
 31
0.0
  0
LINE
  5
F4
  8
DATA
  6
CONTINUOUS
 62
     7
 10
307.09696168516263
 20
651.50000000002001
 30
0.0
 11
307.09696168516263
 21
646.50000000002001
 31
0.0
  0
LINE
  5
F5
  8
DATA
  6
CONTINUOUS
 62
     7
 10
277.42042450472672
 20
651.50000000002001
 30
0.0
 11
282.09696168516251
 21
651.50000000002001
 31
0.0
  0
LINE
  5
F6
  8
DATA
  6
CONTINUOUS
 62
     7
 10
284.4628043094113
 20
651.50000000002001
 30
0.0
 11
300.07294311619802
 21
651.50000000002001
 31
0.0
  0
LINE
  5
F7
  8
DATA
  6
CONTINUOUS
 62
     7
 10
302.42042450472672
 20
651.50000000002001
 30
0.0
 11
307.09696168516263
 21
651.50000000002001
 31
0.0
  0
LINE
  5
F8
  8
DATA
  6
CONTINUOUS
 62
     7
 10
647.5
 20
737.5
 30
0.0
 11
647.5
 21
781.5
 31
0.0
  0
LINE
  5
F9
  8
DATA
  6
CONTINUOUS
 62
     7
 10
240.49926093888899
 20
737.5
 30
0.0
 11
647.5
 21
737.5
 31
0.0
  0
LINE
  5
FA
  8
DATA
  6
CONTINUOUS
 62
     7
 10
212.5
 20
646.49999999999977
 30
0.0
 11
647.5
 21
646.49999999999977
 31
0.0
  0
CIRCLE
  5
FB
  8
DATA
  6
CONTINUOUS
 62
     7
 10
487.5
 20
438.48920402243402
 30
0.0
 40
5.0
  0
CIRCLE
  5
FC
  8
DATA
  6
CONTINUOUS
 62
     7
 10
563.49999999999977
 20
437.0
 30
0.0
 40
2.25
  0
CIRCLE
  5
FD
  8
DATA
  6
CONTINUOUS
 62
     7
 10
577.5
 20
437.0
 30
0.0
 40
2.25
  0
CIRCLE
  5
FE
  8
DATA
  6
CONTINUOUS
 62
     7
 10
591.5
 20
437.0
 30
0.0
 40
2.25
  0
CIRCLE
  5
FF
  8
DATA
  6
CONTINUOUS
 62
     7
 10
605.49999999999977
 20
437.0
 30
0.0
 40
2.25
  0
CIRCLE
  5
100
  8
DATA
  6
CONTINUOUS
 62
     7
 10
620.5
 20
437.0
 30
0.0
 40
1.5
  0
TEXT
  5
101
  8
DATA
 62
     7
 10
614.95767135526899
 20
427.591573962307
 30
0.0
 40
2.6527236428915502
  1
Power
 41
0.7
 11
614.95767135526899
 21
430.2442976051986
 31
0.0
 73
     3
  0
TEXT
  5
102
  8
DATA
 62
     7
 10
604.45818037226366
 20
427.591573962307
 30
0.0
 40
2.6527236428915502
  1
4
 41
0.7
 11
604.45818037226366
 21
430.2442976051986
 31
0.0
 73
     3
  0
TEXT
  5
103
  8
DATA
 62
     7
 10
590.45818037226343
 20
427.591573962307
 30
0.0
 40
2.6527236428915502
  1
3
 41
0.7
 11
590.45818037226343
 21
430.2442976051986
 31
0.0
 73
     3
  0
TEXT
  5
104
  8
DATA
 62
     7
 10
576.37163212193673
 20
427.591573962307
 30
0.0
 40
2.6527236428915502
  1
2
 41
0.7
 11
576.37163212193673
 21
430.2442976051986
 31
0.0
 73
     3
  0
TEXT
  5
105
  8
DATA
 62
     7
 10
561.85234261997584
 20
427.591573962307
 30
0.0
 40
2.6527236428915502
  1
1
 41
0.7
 11
561.85234261997584
 21
430.2442976051986
 31
0.0
 73
     3
  0
TEXT
  5
106
  8
DATA
 62
     7
 10
485.60802293167592
 20
427.591573962307
 30
0.0
 40
2.6527236428915502
  1
IR
 41
0.7
 11
485.60802293167592
 21
430.2442976051986
 31
0.0
 73
     3
  0
CIRCLE
  5
107
  8
DATA
  6
CONTINUOUS
 62
     7
 10
402.5
 20
437.0
 30
0.0
 40
1.5
  0
TEXT
  5
108
  8
DATA
 62
     7
 10
401.2170400903413
 20
427.591573962307
 30
0.0
 40
2.6527236428915502
  1
1
 41
0.7
 11
401.2170400903413
 21
430.2442976051986
 31
0.0
 73
     3
  0
CIRCLE
  5
109
  8
DATA
  6
CONTINUOUS
 62
     7
 10
416.5
 20
437.0
 30
0.0
 40
1.5
  0
TEXT
  5
10A
  8
DATA
 62
     7
 10
415.2170400903413
 20
427.591573962307
 30
0.0
 40
2.6527236428915502
  1
2
 41
0.7
 11
415.2170400903413
 21
430.2442976051986
 31
0.0
 73
     3
  0
CIRCLE
  5
10B
  8
DATA
  6
CONTINUOUS
 62
     7
 10
430.49999999999989
 20
437.0
 30
0.0
 40
1.5
  0
TEXT
  5
10C
  8
DATA
 62
     7
 10
429.21704009034141
 20
427.591573962307
 30
0.0
 40
2.6527236428915502
  1
3
 41
0.7
 11
429.21704009034141
 21
430.2442976051986
 31
0.0
 73
     3
  0
CIRCLE
  5
10D
  8
DATA
  6
CONTINUOUS
 62
     7
 10
444.5
 20
437.0
 30
0.0
 40
1.5
  0
TEXT
  5
10E
  8
DATA
 62
     7
 10
443.2170400903413
 20
427.591573962307
 30
0.0
 40
2.6527236428915502
  1
4
 41
0.7
 11
443.2170400903413
 21
430.2442976051986
 31
0.0
 73
     3
  0
LINE
  5
10F
  8
DATA
  6
CONTINUOUS
 62
     7
 10
561.24999999999977
 20
535.0
 30
0.0
 11
561.24999999999977
 21
537.5
 31
0.0
  0
LINE
  5
110
  8
DATA
  6
CONTINUOUS
 62
     7
 10
565.74999999999977
 20
535.0
 30
0.0
 11
565.74999999999977
 21
537.5
 31
0.0
  0
LINE
  5
111
  8
DATA
  6
CONTINUOUS
 62
     7
 10
561.24999999999977
 20
535.0
 30
0.0
 11
565.74999999999977
 21
535.0
 31
0.0
  0
LINE
  5
112
  8
DATA
  6
CONTINUOUS
 62
     7
 10
575.25
 20
535.0
 30
0.0
 11
575.25
 21
537.5
 31
0.0
  0
LINE
  5
113
  8
DATA
  6
CONTINUOUS
 62
     7
 10
579.75
 20
535.0
 30
0.0
 11
579.75
 21
537.5
 31
0.0
  0
LINE
  5
114
  8
DATA
  6
CONTINUOUS
 62
     7
 10
575.25
 20
535.0
 30
0.0
 11
579.75
 21
535.0
 31
0.0
  0
LINE
  5
115
  8
DATA
  6
CONTINUOUS
 62
     7
 10
589.25
 20
535.0
 30
0.0
 11
589.25
 21
537.5
 31
0.0
  0
LINE
  5
116
  8
DATA
  6
CONTINUOUS
 62
     7
 10
593.75
 20
535.0
 30
0.0
 11
593.75
 21
537.5
 31
0.0
  0
LINE
  5
117
  8
DATA
  6
CONTINUOUS
 62
     7
 10
589.25
 20
535.0
 30
0.0
 11
593.75
 21
535.0
 31
0.0
  0
LINE
  5
118
  8
DATA
  6
CONTINUOUS
 62
     7
 10
603.24999999999977
 20
535.0
 30
0.0
 11
603.24999999999977
 21
537.5
 31
0.0
  0
LINE
  5
119
  8
DATA
  6
CONTINUOUS
 62
     7
 10
607.75
 20
535.0
 30
0.0
 11
607.75
 21
537.5
 31
0.0
  0
LINE
  5
11A
  8
DATA
  6
CONTINUOUS
 62
     7
 10
603.24999999999977
 20
535.0
 30
0.0
 11
607.75
 21
535.0
 31
0.0
  0
ARC
  5
11B
  8
DATA
  6
CONTINUOUS
 62
     7
 10
620.5
 20
537.2818689794874
 30
0.0
 40
1.499999999999998
 50
171.6383593914114
 51
8.361640608588603
  0
ARC
  5
11C
  8
DATA
  6
CONTINUOUS
 62
     7
 10
402.5
 20
537.55446334093722
 30
0.0
 40
1.499999999999992
 50
182.0808037531593
 51
357.91919624684073
  0
ARC
  5
11D
  8
DATA
  6
CONTINUOUS
 62
     7
 10
416.5
 20
537.55446334093722
 30
0.0
 40
1.499999999999992
 50
182.0808037531593
 51
357.91919624684073
  0
ARC
  5
11E
  8
DATA
  6
CONTINUOUS
 62
     7
 10
430.49999999999989
 20
537.55446334093722
 30
0.0
 40
1.499999999999992
 50
182.0808037531593
 51
357.91919624684073
  0
ARC
  5
11F
  8
DATA
  6
CONTINUOUS
 62
     7
 10
444.5
 20
537.55446334093722
 30
0.0
 40
1.499999999999992
 50
182.0808037531593
 51
357.91919624684073
  0
LINE
  5
120
  8
DATA
  6
CONTINUOUS
 62
     7
 10
250.2578646366787
 20
772.5220577252727
 30
0.0
 11
250.2578646366787
 21
759.22205772527263
 31
0.0
  0
LINE
  5
121
  8
DATA
  6
CONTINUOUS
 62
     7
 10
234.55786463667869
 20
772.5220577252727
 30
0.0
 11
234.55786463667869
 21
759.22205772527263
 31
0.0
  0
LINE
  5
122
  8
DATA
  6
CONTINUOUS
 62
     7
 10
234.55786463667869
 20
759.22205772527263
 30
0.0
 11
250.2578646366787
 21
759.22205772527263
 31
0.0
  0
LINE
  5
123
  8
DATA
  6
CONTINUOUS
 62
     7
 10
234.55786463667869
 20
772.5220577252727
 30
0.0
 11
250.2578646366787
 21
772.5220577252727
 31
0.0
  0
LINE
  5
124
  8
DATA
  6
CONTINUOUS
 62
     7
 10
236.2578646366787
 20
770.5534083746669
 30
0.0
 11
248.55786463667869
 21
770.5534083746669
 31
0.0
  0
LINE
  5
125
  8
DATA
  6
CONTINUOUS
 62
     7
 10
236.2578646366787
 20
770.5534083746669
 30
0.0
 11
236.2578646366787
 21
760.72205772527263
 31
0.0
  0
LINE
  5
126
  8
DATA
  6
CONTINUOUS
 62
     7
 10
248.55786463667869
 20
770.5534083746669
 30
0.0
 11
248.55786463667869
 21
760.72205772527263
 31
0.0
  0
LINE
  5
127
  8
DATA
  6
CONTINUOUS
 62
     7
 10
240.18286463667869
 20
759.22205772527263
 30
0.0
 11
240.18286463667869
 21
760.72205772527263
 31
0.0
  0
LINE
  5
128
  8
DATA
  6
CONTINUOUS
 62
     7
 10
244.6328646366787
 20
760.72205772527263
 30
0.0
 11
244.6328646366787
 21
759.22205772527263
 31
0.0
  0
LINE
  5
129
  8
DATA
  6
CONTINUOUS
 62
     7
 10
236.2578646366787
 20
760.72205772527263
 30
0.0
 11
240.18286463667869
 21
760.72205772527263
 31
0.0
  0
LINE
  5
12A
  8
DATA
  6
CONTINUOUS
 62
     7
 10
244.6328646366787
 20
760.72205772527263
 30
0.0
 11
248.55786463667869
 21
760.72205772527263
 31
0.0
  0
LINE
  5
12B
  8
DATA
  6
CONTINUOUS
 62
     7
 10
244.6328646366787
 20
760.72205772527263
 30
0.0
 11
244.6328646366787
 21
763.22205772527263
 31
0.0
  0
LINE
  5
12C
  8
DATA
  6
CONTINUOUS
 62
     7
 10
240.18286463667869
 20
760.72205772527263
 30
0.0
 11
240.18286463667869
 21
763.17205772527268
 31
0.0
  0
LINE
  5
12D
  8
DATA
  6
CONTINUOUS
 62
     7
 10
244.6328646366787
 20
763.22205772527263
 30
0.0
 11
248.55786463667869
 21
763.22205772527263
 31
0.0
  0
LINE
  5
12E
  8
DATA
  6
CONTINUOUS
 62
     7
 10
240.18286463667869
 20
763.17205772527268
 30
0.0
 11
236.2578646366787
 21
763.17205772527268
 31
0.0
  0
CIRCLE
  5
12F
  8
DATA
  6
CONTINUOUS
 62
     7
 10
627.5
 20
763.63019285423252
 30
0.0
 40
3.899999999999975
  0
CIRCLE
  5
130
  8
DATA
  6
CONTINUOUS
 62
     7
 10
627.5
 20
763.63019285423252
 30
0.0
 40
2.75
  0
CIRCLE
  5
131
  8
DATA
  6
CONTINUOUS
 62
     7
 10
627.5
 20
763.63019285423252
 30
0.0
 40
0.5
  0
TEXT
  5
132
  8
DATA
 62
     7
 10
631.61906764051776
 20
778.45208125532815
 30
0.0
 40
2.4432617187500001
  1
5V DC
 50
180.0
 41
0.7
 11
631.61906764051776
 21
776.00881953657824
 31
0.0
 73
     3
  0
POLYLINE
  5
133
  8
DATA
  6
CONTINUOUS
 62
     7
 66
     1
 10
0.0
 20
0.0
 30
0.0
 70
     1
  0
VERTEX
  5
34C
  8
DATA
  6
CONTINUOUS
 62
     7
 10
622.75
 20
760.88777907558165
 30
0.0
  0
VERTEX
  5
34D
  8
DATA
  6
CONTINUOUS
 62
     7
 10
627.5
 20
758.145365296931
 30
0.0
  0
VERTEX
  5
34E
  8
DATA
  6
CONTINUOUS
 62
     7
 10
632.24999999999977
 20
760.88777907558165
 30
0.0
  0
VERTEX
  5
34F
  8
DATA
  6
CONTINUOUS
 62
     7
 10
632.24999999999977
 20
766.37260663288305
 30
0.0
  0
VERTEX
  5
350
  8
DATA
  6
CONTINUOUS
 62
     7
 10
627.5
 20
769.11502041153381
 30
0.0
  0
VERTEX
  5
351
  8
DATA
  6
CONTINUOUS
 62
     7
 10
622.75
 20
766.37260663288305
 30
0.0
  0
SEQEND
  5
352
  8
DATA
  6
CONTINUOUS
 62
     7
  0
POLYLINE
  5
13C
  8
DATA
  6
CONTINUOUS
 62
     7
 66
     1
 10
0.0
 20
0.0
 30
0.0
  0
VERTEX
  5
353
  8
DATA
  6
CONTINUOUS
 62
     7
 10
464.04663757964192
 20
770.44810133714634
 30
0.0
  0
VERTEX
  5
354
  8
DATA
  6
CONTINUOUS
 62
     7
 10
464.04663757964192
 20
766.44810133714634
 30
0.0
  0
VERTEX
  5
355
  8
DATA
  6
CONTINUOUS
 62
     7
 10
480.04663757964198
 20
766.44810133714634
 30
0.0
  0
VERTEX
  5
356
  8
DATA
  6
CONTINUOUS
 62
     7
 10
480.04663757964198
 20
770.44810133714634
 30
0.0
  0
SEQEND
  5
357
  8
DATA
  6
CONTINUOUS
 62
     7
  0
LINE
  5
143
  8
DATA
  6
CONTINUOUS
 62
     7
 10
477.54663757964158
 20
772.44810133714634
 30
0.0
 11
466.54663757964232
 21
772.44810133714634
 31
0.0
  0
ARC
  5
144
  8
DATA
  6
CONTINUOUS
 62
     7
 10
462.77745390617241
 20
774.59708092898336
 30
0.0
 40
4.3387623639094164
 50
287.00900813209682
 51
330.31060837608419
  0
ARC
  5
145
  8
DATA
  6
CONTINUOUS
 62
     7
 10
481.31582125311132
 20
774.59708092898336
 30
0.0
 40
4.3387623639096384
 50
209.6893916239147
 51
252.99099186790241
  0
TEXT
  5
146
  8
DATA
 62
     7
 10
476.08956592278003
 20
778.29378527927565
 30
0.0
 40
2.714735243055554
  1
In 2
 50
180.0
 41
0.7
 11
476.08956592278003
 21
775.57905003622011
 31
0.0
 73
     3
  0
POLYLINE
  5
147
  8
DATA
  6
CONTINUOUS
 62
     7
 66
     1
 10
0.0
 20
0.0
 30
0.0
  0
VERTEX
  5
358
  8
DATA
  6
CONTINUOUS
 62
     7
 10
439.04663757964192
 20
770.44810133714634
 30
0.0
  0
VERTEX
  5
359
  8
DATA
  6
CONTINUOUS
 62
     7
 10
439.04663757964192
 20
766.44810133714634
 30
0.0
  0
VERTEX
  5
35A
  8
DATA
  6
CONTINUOUS
 62
     7
 10
455.04663757964198
 20
766.44810133714634
 30
0.0
  0
VERTEX
  5
35B
  8
DATA
  6
CONTINUOUS
 62
     7
 10
455.04663757964198
 20
770.44810133714634
 30
0.0
  0
SEQEND
  5
35C
  8
DATA
  6
CONTINUOUS
 62
     7
  0
LINE
  5
14E
  8
DATA
  6
CONTINUOUS
 62
     7
 10
452.54663757964158
 20
772.44810133714634
 30
0.0
 11
441.54663757964232
 21
772.44810133714634
 31
0.0
  0
ARC
  5
14F
  8
DATA
  6
CONTINUOUS
 62
     7
 10
437.77745390617241
 20
774.59708092898336
 30
0.0
 40
4.3387623639094164
 50
287.00900813209682
 51
330.31060837608419
  0
ARC
  5
150
  8
DATA
  6
CONTINUOUS
 62
     7
 10
456.31582125311132
 20
774.59708092898336
 30
0.0
 40
4.3387623639096384
 50
209.6893916239147
 51
252.99099186790241
  0
TEXT
  5
151
  8
DATA
 62
     7
 10
451.08956592278003
 20
778.29378527927565
 30
0.0
 40
2.714735243055554
  1
In 3
 50
180.0
 41
0.7
 11
451.08956592278003
 21
775.57905003622011
 31
0.0
 73
     3
  0
POLYLINE
  5
152
  8
DATA
  6
CONTINUOUS
 62
     7
 66
     1
 10
0.0
 20
0.0
 30
0.0
  0
VERTEX
  5
35D
  8
DATA
  6
CONTINUOUS
 62
     7
 10
414.04663757964192
 20
770.44810133714634
 30
0.0
  0
VERTEX
  5
35E
  8
DATA
  6
CONTINUOUS
 62
     7
 10
414.04663757964192
 20
766.44810133714634
 30
0.0
  0
VERTEX
  5
35F
  8
DATA
  6
CONTINUOUS
 62
     7
 10
430.04663757964198
 20
766.44810133714634
 30
0.0
  0
VERTEX
  5
360
  8
DATA
  6
CONTINUOUS
 62
     7
 10
430.04663757964198
 20
770.44810133714634
 30
0.0
  0
SEQEND
  5
361
  8
DATA
  6
CONTINUOUS
 62
     7
  0
LINE
  5
159
  8
DATA
  6
CONTINUOUS
 62
     7
 10
427.54663757964158
 20
772.44810133714634
 30
0.0
 11
416.54663757964232
 21
772.44810133714634
 31
0.0
  0
ARC
  5
15A
  8
DATA
  6
CONTINUOUS
 62
     7
 10
412.77745390617241
 20
774.59708092898336
 30
0.0
 40
4.3387623639094164
 50
287.00900813209682
 51
330.31060837608419
  0
ARC
  5
15B
  8
DATA
  6
CONTINUOUS
 62
     7
 10
431.31582125311132
 20
774.59708092898336
 30
0.0
 40
4.3387623639096384
 50
209.6893916239147
 51
252.99099186790241
  0
TEXT
  5
15C
  8
DATA
 62
     7
 10
426.08956592278003
 20
778.29378527927565
 30
0.0
 40
2.714735243055554
  1
In 4
 50
180.0
 41
0.7
 11
426.08956592278003
 21
775.57905003622011
 31
0.0
 73
     3
  0
POLYLINE
  5
15D
  8
DATA
  6
CONTINUOUS
 62
     7
 66
     1
 10
0.0
 20
0.0
 30
0.0
  0
VERTEX
  5
362
  8
DATA
  6
CONTINUOUS
 62
     7
 10
379.04663757964192
 20
770.44810133714634
 30
0.0
  0
VERTEX
  5
363
  8
DATA
  6
CONTINUOUS
 62
     7
 10
379.04663757964192
 20
766.44810133714634
 30
0.0
  0
VERTEX
  5
364
  8
DATA
  6
CONTINUOUS
 62
     7
 10
395.04663757964209
 20
766.44810133714634
 30
0.0
  0
VERTEX
  5
365
  8
DATA
  6
CONTINUOUS
 62
     7
 10
395.04663757964209
 20
770.44810133714634
 30
0.0
  0
SEQEND
  5
366
  8
DATA
  6
CONTINUOUS
 62
     7
  0
LINE
  5
164
  8
DATA
  6
CONTINUOUS
 62
     7
 10
392.54663757964158
 20
772.44810133714634
 30
0.0
 11
381.54663757964232
 21
772.44810133714634
 31
0.0
  0
ARC
  5
165
  8
DATA
  6
CONTINUOUS
 62
     7
 10
377.77745390617258
 20
774.59708092898336
 30
0.0
 40
4.3387623639094164
 50
287.00900813209682
 51
330.31060837608419
  0
ARC
  5
166
  8
DATA
  6
CONTINUOUS
 62
     7
 10
396.31582125311132
 20
774.59708092898336
 30
0.0
 40
4.3387623639096384
 50
209.6893916239147
 51
252.99099186790241
  0
TEXT
  5
167
  8
DATA
 62
     7
 10
393.0573042697763
 20
778.29378527927565
 30
0.0
 40
2.714735243055554
  1
DP Out
 50
180.0
 41
0.7
 11
393.0573042697763
 21
775.57905003622011
 31
0.0
 73
     3
  0
CIRCLE
  5
168
  8
DATA
  6
CONTINUOUS
 62
     7
 10
338.5
 20
770.60000000000002
 30
0.0
 40
3.0
  0
CIRCLE
  5
169
  8
DATA
  6
CONTINUOUS
 62
     7
 10
338.5
 20
770.60000000000002
 30
0.0
 40
1.75
  0
TEXT
  5
16A
  8
DATA
 62
     7
 10
344.38266817560839
 20
778.29378527927565
 30
0.0
 40
2.714735243055554
  1
Ext IR
 50
180.0
 41
0.7
 11
344.38266817560839
 21
775.57905003622011
 31
0.0
 73
     3
  0
TEXT
  5
16B
  8
DATA
 62
     7
 10
249.6679142656688
 20
778.78739672430675
 30
0.0
 40
2.693359375
  1
Ethernet
 50
180.0
 41
0.7
 11
249.6679142656688
 21
776.09403734930675
 31
0.0
 73
     3
  0
LINE
  5
16C
  8
DATA
  6
CONTINUOUS
 62
     7
 10
234.55786463667869
 20
646.80000000000007
 30
0.0
 11
234.55786463667869
 21
646.49999999999977
 31
0.0
  0
LINE
  5
16D
  8
DATA
  6
CONTINUOUS
 62
     7
 10
250.2578646366787
 20
646.80000000000007
 30
0.0
 11
250.2578646366787
 21
646.49999999999977
 31
0.0
  0
LINE
  5
16E
  8
DATA
  6
CONTINUOUS
 62
     7
 10
234.55786463667869
 20
646.79999999999995
 30
0.0
 11
250.2578646366787
 21
646.79999999999995
 31
0.0
  0
LINE
  5
16F
  8
DATA
  6
CONTINUOUS
 62
     7
 10
726.5
 20
425.0
 30
0.0
 11
833.5
 21
425.0
 31
0.0
  0
LINE
  5
170
  8
DATA
  6
CONTINUOUS
 62
     7
 10
725.49999999999989
 20
426.0
 30
0.0
 11
725.49999999999989
 21
468.0
 31
0.0
  0
LINE
  5
171
  8
DATA
  6
CONTINUOUS
 62
     7
 10
726.5
 20
469.0
 30
0.0
 11
834.5
 21
469.0
 31
0.0
  0
LINE
  5
172
  8
DATA
  6
CONTINUOUS
 62
     7
 10
834.5
 20
426.0
 30
0.0
 11
834.5
 21
469.0
 31
0.0
  0
LINE
  5
173
  8
DATA
  6
CONTINUOUS
 62
     7
 10
733.39999999999975
 20
425.0
 30
0.0
 11
733.39999999999975
 21
426.09999999999991
 31
0.0
  0
LINE
  5
174
  8
DATA
  6
CONTINUOUS
 62
     7
 10
733.39999999999975
 20
467.89999999999998
 30
0.0
 11
733.39999999999975
 21
469.0
 31
0.0
  0
LINE
  5
175
  8
DATA
  6
CONTINUOUS
 62
     7
 10
726.60000000000002
 20
427.09999999999991
 30
0.0
 11
726.60000000000002
 21
466.89999999999992
 31
0.0
  0
LINE
  5
176
  8
DATA
  6
CONTINUOUS
 62
     7
 10
733.39999999999975
 20
467.89999999999998
 30
0.0
 11
727.60000000000002
 21
467.89999999999998
 31
0.0
  0
LINE
  5
177
  8
DATA
  6
CONTINUOUS
 62
     7
 10
733.39999999999975
 20
426.10000000000002
 30
0.0
 11
727.60000000000002
 21
426.10000000000002
 31
0.0
  0
ARC
  5
178
  8
DATA
  6
CONTINUOUS
 62
     7
 10
726.5
 20
468.0
 30
0.0
 40
1.0
 50
90.0
 51
180.0
  0
ARC
  5
179
  8
DATA
  6
CONTINUOUS
 62
     7
 10
727.60000000000002
 20
466.89999999999992
 30
0.0
 40
1.0
 50
90.0
 51
180.0
  0
ARC
  5
17A
  8
DATA
  6
CONTINUOUS
 62
     7
 10
727.60000000000002
 20
427.09999999999991
 30
0.0
 40
1.0
 50
180.0
 51
270.0
  0
ARC
  5
17B
  8
DATA
  6
CONTINUOUS
 62
     7
 10
726.5
 20
426.0
 30
0.0
 40
1.0
 50
180.0
 51
270.0
  0
LINE
  5
17C
  8
DATA
  6
CONTINUOUS
 62
     7
 10
833.5
 20
427.09999999999991
 30
0.0
 11
833.5
 21
468.0
 31
0.0
  0
LINE
  5
17D
  8
DATA
  6
CONTINUOUS
 62
     7
 10
832.49999999999989
 20
426.10000000000002
 30
0.0
 11
822.49999999999989
 21
426.10000000000002
 31
0.0
  0
LINE
  5
17E
  8
DATA
  6
CONTINUOUS
 62
     7
 10
822.49999999999989
 20
426.10000000000002
 30
0.0
 11
822.49999999999989
 21
425.0
 31
0.0
  0
ARC
  5
17F
  8
DATA
  6
CONTINUOUS
 62
     7
 10
832.49999999999989
 20
427.09999999999991
 30
0.0
 40
1.0
 50
270.0
 51
0.0
  0
ARC
  5
180
  8
DATA
  6
CONTINUOUS
 62
     7
 10
833.5
 20
426.0
 30
0.0
 40
1.0
 50
270.0
 51
0.0
  0
CIRCLE
  5
181
  8
DATA
  6
CONTINUOUS
 62
     7
 10
739.5
 20
462.0
 30
0.0
 40
2.5
  0
LINE
  5
182
  8
DATA
  6
CONTINUOUS
 62
     7
 10
738.0
 20
462.0
 30
0.0
 11
741.0
 21
462.0
 31
0.0
  0
LINE
  5
183
  8
DATA
  6
CONTINUOUS
 62
     7
 10
739.5
 20
460.5
 30
0.0
 11
739.5
 21
463.49999999999989
 31
0.0
  0
CIRCLE
  5
184
  8
DATA
  6
CONTINUOUS
 62
     7
 10
739.5
 20
432.0
 30
0.0
 40
2.5
  0
LINE
  5
185
  8
DATA
  6
CONTINUOUS
 62
     7
 10
738.0
 20
432.0
 30
0.0
 11
741.0
 21
432.0
 31
0.0
  0
LINE
  5
186
  8
DATA
  6
CONTINUOUS
 62
     7
 10
739.5
 20
430.49999999999989
 30
0.0
 11
739.5
 21
433.49999999999989
 31
0.0
  0
CIRCLE
  5
187
  8
DATA
  6
CONTINUOUS
 62
     7
 10
814.49999999999989
 20
432.0
 30
0.0
 40
2.5
  0
LINE
  5
188
  8
DATA
  6
CONTINUOUS
 62
     7
 10
813.0
 20
432.0
 30
0.0
 11
816.0
 21
432.0
 31
0.0
  0
LINE
  5
189
  8
DATA
  6
CONTINUOUS
 62
     7
 10
814.49999999999989
 20
430.49999999999989
 30
0.0
 11
814.49999999999989
 21
433.49999999999989
 31
0.0
  0
LINE
  5
18A
  8
DATA
  6
CONTINUOUS
 62
     7
 10
753.0639248048343
 20
421.0
 30
0.0
 11
753.5639248048343
 21
425.0
 31
0.0
  0
LINE
  5
18B
  8
DATA
  6
CONTINUOUS
 62
     7
 10
735.06392480483419
 20
421.0
 30
0.0
 11
734.5639248048343
 21
425.0
 31
0.0
  0
LINE
  5
18C
  8
DATA
  6
CONTINUOUS
 62
     7
 10
753.0639248048343
 20
421.0
 30
0.0
 11
735.06392480483419
 21
421.0
 31
0.0
  0
LINE
  5
18D
  8
DATA
  6
CONTINUOUS
 62
     7
 10
818.4474736338401
 20
421.0
 30
0.0
 11
818.94747363384022
 21
425.0
 31
0.0
  0
LINE
  5
18E
  8
DATA
  6
CONTINUOUS
 62
     7
 10
800.4474736338401
 20
421.0
 30
0.0
 11
799.94747363384022
 21
425.0
 31
0.0
  0
LINE
  5
18F
  8
DATA
  6
CONTINUOUS
 62
     7
 10
818.4474736338401
 20
421.0
 30
0.0
 11
800.4474736338401
 21
421.0
 31
0.0
  0
LINE
  5
190
  8
DATA
  6
CONTINUOUS
 62
     7
 10
840.49999999999989
 20
446.7700000000001
 30
0.0
 11
840.49999999999989
 21
438.97000000000008
 31
0.0
  0
LINE
  5
191
  8
DATA
  6
CONTINUOUS
 62
     7
 10
840.49999999999989
 20
446.7700000000001
 30
0.0
 11
835.79999999999984
 21
446.7700000000001
 31
0.0
  0
LINE
  5
192
  8
DATA
  6
CONTINUOUS
 62
     7
 10
840.49999999999989
 20
438.97000000000008
 30
0.0
 11
835.79999999999984
 21
438.97000000000008
 31
0.0
  0
LINE
  5
193
  8
DATA
  6
CONTINUOUS
 62
     7
 10
835.79999999999984
 20
447.62
 30
0.0
 11
834.5
 21
447.62
 31
0.0
  0
LINE
  5
194
  8
DATA
  6
CONTINUOUS
 62
     7
 10
835.79999999999984
 20
438.11999999999989
 30
0.0
 11
834.5
 21
438.11999999999989
 31
0.0
  0
LINE
  5
195
  8
DATA
  6
CONTINUOUS
 62
     7
 10
835.79999999999984
 20
447.62
 30
0.0
 11
835.79999999999984
 21
438.11999999999989
 31
0.0
  0
LINE
  5
196
  8
DATA
  6
CONTINUOUS
 62
     7
 10
835.79999999999984
 20
442.87
 30
0.0
 11
834.5
 21
442.87
 31
0.0
  0
LINE
  5
197
  8
DATA
  6
CONTINUOUS
 62
     7
 10
835.79999999999984
 20
446.7700000000001
 30
0.0
 11
836.21999999999969
 21
438.97000000000008
 31
0.0
  0
LINE
  5
198
  8
DATA
  6
CONTINUOUS
 62
     7
 10
837.59999999999968
 20
446.7700000000001
 30
0.0
 11
838.01999999999998
 21
438.97000000000008
 31
0.0
  0
LINE
  5
199
  8
DATA
  6
CONTINUOUS
 62
     7
 10
839.39999999999998
 20
446.7700000000001
 30
0.0
 11
839.81999999999994
 21
438.97000000000008
 31
0.0
  0
LINE
  5
19A
  8
DATA
  6
CONTINUOUS
 62
     7
 10
723.0
 20
434.75
 30
0.0
 11
723.0
 21
439.25
 31
0.0
  0
LINE
  5
19B
  8
DATA
  6
CONTINUOUS
 62
     7
 10
723.0
 20
439.25
 30
0.0
 11
725.49999999999989
 21
439.25
 31
0.0
  0
LINE
  5
19C
  8
DATA
  6
CONTINUOUS
 62
     7
 10
723.0
 20
434.75
 30
0.0
 11
725.49999999999989
 21
434.75
 31
0.0
  0
ARC
  5
19D
  8
DATA
  6
CONTINUOUS
 62
     7
 10
725.60245902092743
 20
436.99999999999972
 30
0.0
 40
1.5000000000001821
 50
93.916696046390655
 51
266.08330395360832
  0
LINE
  5
19E
  8
DATA
  6
CONTINUOUS
 62
     7
 10
839.49999999999989
 20
433.19999999999987
 30
0.0
 11
834.5
 21
433.19999999999987
 31
0.0
  0
LINE
  5
19F
  8
DATA
  6
CONTINUOUS
 62
     7
 10
839.49999999999989
 20
438.59999999999991
 30
0.0
 11
839.49999999999989
 21
433.19999999999987
 31
0.0
  0
LINE
  5
1A0
  8
DATA
  6
CONTINUOUS
 62
     7
 10
835.79999999999984
 20
438.59999999999991
 30
0.0
 11
839.49999999999989
 21
438.59999999999991
 31
0.0
  0
LINE
  5
1A1
  8
DATA
  6
CONTINUOUS
 62
     7
 10
839.49999999999989
 20
431.89999999999992
 30
0.0
 11
834.5
 21
431.89999999999992
 31
0.0
  0
LINE
  5
1A2
  8
DATA
  6
CONTINUOUS
 62
     7
 10
839.49999999999989
 20
438.97000000000008
 30
0.0
 11
839.49999999999989
 21
431.89999999999992
 31
0.0
  0
ENDSEC
  0
EOF
