  0
SECTION
  2
HEADER
  9
$ACADVER
  1
AC1009
  9
$INSBASE
 10
0.0
 20
0.0
 30
0.0
  9
$EXTMIN
 10
-170.0164782349211
 20
-265.74833863455001
 30
-0.0015258207003583
  9
$EXTMAX
 10
370.0164807494923
 20
537.09174839639525
 30
0.0000000349246037
  9
$LIMMIN
 10
0.0
 20
0.0
  9
$LIMMAX
 10
0.0
 20
0.0
  9
$ORTHOMODE
 70
     0
  9
$REGENMODE
 70
     1
  9
$FILLMODE
 70
     1
  9
$QTEXTMODE
 70
     0
  9
$MIRRTEXT
 70
     1
  9
$DRAGMODE
 70
     2
  9
$LTSCALE
 40
15.24
  9
$OSMODE
 70
   231
  9
$ATTMODE
 70
     1
  9
$TEXTSIZE
 40
0.0
  9
$TRACEWID
 40
1.0
  9
$TEXTSTYLE
  7
STANDARD
  9
$CLAYER
  8
DATA
  9
$CELTYPE
  6
BYLAYER
  9
$CECOLOR
 62
   256
  9
$DIMSCALE
 40
1.0
  9
$DIMASZ
 40
0.18
  9
$DIMEXO
 40
0.0625
  9
$DIMDLI
 40
0.38
  9
$DIMRND
 40
0.0
  9
$DIMDLE
 40
0.0
  9
$DIMEXE
 40
0.18
  9
$DIMTP
 40
0.0
  9
$DIMTM
 40
0.0
  9
$DIMTXT
 40
0.18
  9
$DIMCEN
 40
0.09
  9
$DIMTSZ
 40
0.0
  9
$DIMTOL
 70
     0
  9
$DIMLIM
 70
     0
  9
$DIMTIH
 70
     1
  9
$DIMTOH
 70
     1
  9
$DIMSE1
 70
     0
  9
$DIMSE2
 70
     0
  9
$DIMTAD
 70
     0
  9
$DIMZIN
 70
     0
  9
$DIMBLK
  1

  9
$DIMASO
 70
     1
  9
$DIMSHO
 70
     1
  9
$DIMPOST
  1

  9
$DIMAPOST
  1

  9
$DIMALT
 70
     0
  9
$DIMALTD
 70
     2
  9
$DIMALTF
 40
25.399999999999999
  9
$DIMLFAC
 40
1.0
  9
$DIMTOFL
 70
     0
  9
$DIMTVP
 40
0.0
  9
$DIMTIX
 70
     0
  9
$DIMSOXD
 70
     0
  9
$DIMSAH
 70
     0
  9
$DIMBLK1
  1

  9
$DIMBLK2
  1

  9
$DIMSTYLE
  2
STANDARD
  9
$DIMCLRD
 70
     0
  9
$DIMCLRE
 70
     0
  9
$DIMCLRT
 70
     0
  9
$DIMTFAC
 40
1.0
  9
$DIMGAP
 40
0.09
  9
$LUNITS
 70
     2
  9
$LUPREC
 70
     4
  9
$SKETCHINC
 40
0.1
  9
$FILLETRAD
 40
0.0
  9
$AUNITS
 70
     0
  9
$AUPREC
 70
     0
  9
$MENU
  1
acad
  9
$ELEVATION
 40
0.0
  9
$PELEVATION
 40
0.0
  9
$THICKNESS
 40
0.0
  9
$LIMCHECK
 70
     0
  9
$BLIPMODE
 70
     0
  9
$CHAMFERA
 40
0.0
  9
$CHAMFERB
 40
0.0
  9
$SKPOLY
 70
     0
  9
$TDCREATE
 40
2455615.6574189821
  9
$TDUPDATE
 40
2455615.6609831601
  9
$TDINDWG
 40
0.0005019907
  9
$TDUSRTIMER
 40
0.000501088
  9
$USRTIMER
 70
     1
  9
$ANGBASE
 50
0.0
  9
$ANGDIR
 70
     0
  9
$PDMODE
 70
     1
  9
$PDSIZE
 40
-2.0
  9
$PLINEWID
 40
0.0
  9
$COORDS
 70
     1
  9
$SPLFRAME
 70
     0
  9
$SPLINETYPE
 70
     6
  9
$SPLINESEGS
 70
     8
  9
$ATTDIA
 70
     0
  9
$ATTREQ
 70
     1
  9
$HANDLING
 70
     1
  9
$HANDSEED
  5
38A
  9
$SURFTAB1
 70
     6
  9
$SURFTAB2
 70
     6
  9
$SURFTYPE
 70
     6
  9
$SURFU
 70
     6
  9
$SURFV
 70
     6
  9
$UCSNAME
  2

  9
$UCSORG
 10
0.0
 20
0.0
 30
0.0
  9
$UCSXDIR
 10
1.0
 20
0.0
 30
0.0
  9
$UCSYDIR
 10
0.0
 20
1.0
 30
0.0
  9
$PUCSNAME
  2

  9
$PUCSORG
 10
0.0
 20
0.0
 30
0.0
  9
$PUCSXDIR
 10
1.0
 20
0.0
 30
0.0
  9
$PUCSYDIR
 10
0.0
 20
1.0
 30
0.0
  9
$USERI1
 70
     0
  9
$USERI2
 70
     0
  9
$USERI3
 70
     0
  9
$USERI4
 70
     0
  9
$USERI5
 70
     0
  9
$USERR1
 40
0.0
  9
$USERR2
 40
0.0
  9
$USERR3
 40
0.0
  9
$USERR4
 40
0.0
  9
$USERR5
 40
0.0
  9
$WORLDVIEW
 70
     1
  9
$SHADEDGE
 70
     3
  9
$SHADEDIF
 70
    70
  9
$TILEMODE
 70
     1
  9
$MAXACTVP
 70
    64
  9
$PLIMCHECK
 70
     0
  9
$PEXTMIN
 10
1.0000000000000000E+020
 20
1.0000000000000000E+020
 30
1.0000000000000000E+020
  9
$PEXTMAX
 10
-1.0000000000000000E+020
 20
-1.0000000000000000E+020
 30
-1.0000000000000000E+020
  9
$PLIMMIN
 10
0.0
 20
0.0
  9
$PLIMMAX
 10
12.0
 20
9.0
  9
$UNITMODE
 70
     0
  9
$VISRETAIN
 70
     0
  9
$PLINEGEN
 70
     1
  9
$PSLTSCALE
 70
     0
  0
ENDSEC
  0
SECTION
  2
TABLES
  0
TABLE
  2
VPORT
 70
     1
  0
VPORT
  2
*ACTIVE
 70
     0
 10
0.0
 20
0.0
 11
1.0
 21
1.0
 12
100.0000012572856
 22
135.6717048809227
 13
0.0
 23
0.0
 14
1.0
 24
1.0
 15
0.0
 25
0.0
 16
0.0
 26
0.0
 36
1.0
 17
0.0
 27
0.0
 37
0.0
 40
808.75056619927125
 41
1.9619164619164611
 42
50.0
 43
0.0
 44
0.0
 50
0.0
 51
0.0
 71
     0
 72
  2000
 73
     1
 74
     1
 75
     0
 76
     0
 77
     0
 78
     0
  0
ENDTAB
  0
TABLE
  2
LTYPE
 70
    11
  0
LTYPE
  2
CONTINUOUS
 70
     0
  3
Solid line
 72
    65
 73
     0
 40
0.0
  0
ENDTAB
  0
TABLE
  2
LAYER
 70
     6
  0
LAYER
  2
0
 70
     0
 62
     7
  6
CONTINUOUS
  0
LAYER
  2
DATA
 70
     0
 62
     7
  6
CONTINUOUS
  0
LAYER
  2
HIBINO-BASE
 70
     0
 62
     7
  6
CONTINUOUS
  0
LAYER
  2
SPEC
 70
     0
 62
     7
  6
CONTINUOUS
  0
LAYER
  2
DIMNSIONS
 70
     0
 62
     7
  6
CONTINUOUS
  0
ENDTAB
  0
TABLE
  2
STYLE
 70
     3
  0
STYLE
  2
STANDARD
 70
     0
 40
0.0
 41
1.0
 50
0.0
 71
     0
 42
0.0
  3
txt
  4
BIGFONT.SHX
  0
ENDTAB
  0
TABLE
  2
VIEW
 70
     0
  0
ENDTAB
  0
TABLE
  2
UCS
 70
     0
  0
ENDTAB
  0
TABLE
  2
APPID
 70
     3
  0
APPID
  2
ACAD
 70
     0
  0
APPID
  2
ACADANNOTATIVE
 70
     0
  0
APPID
  2
ACAD_MLEADERVER
 70
     0
  0
ENDTAB
  0
TABLE
  2
DIMSTYLE
 70
     2
  0
DIMSTYLE
  2
STANDARD
 70
     0
  3

  4

  5

  6

  7

 40
1.0
 41
0.18
 42
0.0625
 43
0.38
 44
0.18
 45
0.0
 46
0.0
 47
0.0
 48
0.0
140
0.18
141
0.09
142
0.0
143
25.399999999999999
144
1.0
145
0.0
146
1.0
147
0.09
 71
     0
 72
     0
 73
     1
 74
     1
 75
     0
 76
     0
 77
     0
 78
     0
170
     0
171
     2
172
     0
173
     0
174
     0
175
     0
176
     0
177
     0
178
     0
  0
ENDTAB
  0
ENDSEC
  0
SECTION
  2
BLOCKS
  0
BLOCK
  8
0
  2
$MODEL_SPACE
 70
     0
 10
0.0
 20
0.0
 30
0.0
  3
$MODEL_SPACE
  1

  0
ENDBLK
  5
2C7
  8
0
  0
BLOCK
 67
     1
  8
0
  2
$PAPER_SPACE
 70
     0
 10
0.0
 20
0.0
 30
0.0
  3
$PAPER_SPACE
  1

  0
ENDBLK
  5
2C3
 67
     1
  8
0
  0
ENDSEC
  0
SECTION
  2
ENTITIES
  0
LINE
  5
2D
  8
HIBINO-BASE
  6
CONTINUOUS
 62
     7
 10
-169.99999999999989
 20
537.06729578973182
 30
0.0
 11
370.0
 21
537.06729578973182
 31
0.0
  0
LINE
  5
2E
  8
HIBINO-BASE
  6
CONTINUOUS
 62
     7
 10
370.0
 20
-242.93270421026821
 30
0.0
 11
-169.99999999999989
 21
-242.93270421026821
 31
0.0
  0
LINE
  5
2F
  8
HIBINO-BASE
  6
CONTINUOUS
 62
     7
 10
-169.99999999999989
 20
-242.93270421026821
 30
0.0
 11
-169.99999999999989
 21
537.06729578973182
 31
0.0
  0
LINE
  5
30
  8
HIBINO-BASE
  6
CONTINUOUS
 62
     7
 10
370.0
 20
537.06729578973182
 30
0.0
 11
370.0
 21
-242.93270421026821
 31
0.0
  0
LINE
  5
31
  8
HIBINO-BASE
  6
CONTINUOUS
 62
     7
 10
100.0
 20
-175.4327042102681
 30
0.0
 11
370.0
 21
-175.4327042102681
 31
0.0
  0
LINE
  5
32
  8
HIBINO-BASE
  6
CONTINUOUS
 62
     7
 10
100.0
 20
-242.93270421026821
 30
0.0
 11
100.0
 21
-175.4327042102681
 31
0.0
  0
TEXT
  5
33
  8
HIBINO-BASE
 62
     7
 10
102.7
 20
-182.95878421026811
 30
0.0
 40
4.8865234374999993
  1
NOTE
 41
0.7
 11
102.7
 21
-178.0722607727682
 31
0.0
 73
     3
  0
LINE
  5
34
  8
HIBINO-BASE
  6
CONTINUOUS
 62
     7
 10
205.0
 20
-242.93270421026821
 30
0.0
 11
205.0
 21
-175.4327042102681
 31
0.0
  0
TEXT
  5
35
  8
HIBINO-BASE
 62
     7
 10
207.69999999999999
 20
-182.95878421026811
 30
0.0
 40
4.8865234374999993
  1
TITLE
 41
0.7
 11
207.69999999999999
 21
-178.0722607727682
 31
0.0
 73
     3
  0
LINE
  5
36
  8
HIBINO-BASE
  6
CONTINUOUS
 62
     7
 10
100.0
 20
-212.9327042102681
 30
0.0
 11
370.0
 21
-212.9327042102681
 31
0.0
  0
TEXT
  5
37
  8
HIBINO-BASE
 62
     7
 10
245.19999999999999
 20
-220.28982421026819
 30
0.0
 40
4.8865234374999993
  1
DRAWN
 41
0.7
 11
245.19999999999999
 21
-215.4033007727682
 31
0.0
 73
     3
  0
TEXT
  5
38
  8
HIBINO-BASE
 62
     7
 10
170.19999999999999
 20
-220.28982421026819
 30
0.0
 40
4.8865234374999993
  1
DATE
 41
0.7
 11
170.19999999999999
 21
-215.4033007727682
 31
0.0
 73
     3
  0
TEXT
  5
39
  8
HIBINO-BASE
 62
     7
 10
140.19999999999999
 20
-220.28982421026819
 30
0.0
 40
4.8865234374999993
  1
SCALE
 41
0.7
 11
140.19999999999999
 21
-215.4033007727682
 31
0.0
 73
     3
  0
TEXT
  5
3A
  8
HIBINO-BASE
 62
     7
 10
207.69999999999999
 20
-220.28982421026819
 30
0.0
 40
4.8865234374999993
  1
DESIGN
 41
0.7
 11
207.69999999999999
 21
-215.4033007727682
 31
0.0
 73
     3
  0
TEXT
  5
3B
  8
HIBINO-BASE
 62
     7
 10
320.19999999999999
 20
-220.28982421026819
 30
0.0
 40
4.8865234374999993
  1
DRAWING NO.
 41
0.7
 11
320.19999999999999
 21
-215.4033007727682
 31
0.0
 73
     3
  0
TEXT
  5
3C
  8
HIBINO-BASE
 62
     7
 10
282.69999999999999
 20
-220.28982421026819
 30
0.0
 40
4.8865234374999993
  1
CHECK
 41
0.7
 11
282.69999999999999
 21
-215.4033007727682
 31
0.0
 73
     3
  0
LINE
  5
3D
  8
HIBINO-BASE
  6
CONTINUOUS
 62
     7
 10
143.12499999999989
 20
-239.18270421026821
 30
0.0
 11
154.375
 21
-227.9327042102681
 31
0.0
  0
TEXT
  5
3E
  8
HIBINO-BASE
 62
     7
 10
141.24999999999989
 20
-231.25953421026821
 30
0.0
 40
4.8865234374999993
  1
1
 41
0.7
 11
141.24999999999989
 21
-226.3730107727682
 31
0.0
 73
     3
  0
LINE
  5
3F
  8
HIBINO-BASE
  6
CONTINUOUS
 62
     7
 10
137.5
 20
-242.93270421026821
 30
0.0
 11
137.5
 21
-212.9327042102681
 31
0.0
  0
LINE
  5
40
  8
HIBINO-BASE
  6
CONTINUOUS
 62
     7
 10
167.5
 20
-242.93270421026821
 30
0.0
 11
167.5
 21
-212.9327042102681
 31
0.0
  0
LINE
  5
41
  8
HIBINO-BASE
  6
CONTINUOUS
 62
     7
 10
242.5
 20
-212.9327042102681
 30
0.0
 11
242.5
 21
-242.93270421026821
 31
0.0
  0
LINE
  5
42
  8
HIBINO-BASE
  6
CONTINUOUS
 62
     7
 10
317.5
 20
-212.9327042102681
 30
0.0
 11
317.5
 21
-242.93270421026821
 31
0.0
  0
LINE
  5
43
  8
HIBINO-BASE
  6
CONTINUOUS
 62
     7
 10
279.99999999999989
 20
-242.93270421026821
 30
0.0
 11
279.99999999999989
 21
-212.9327042102681
 31
0.0
  0
TEXT
  5
44
  8
HIBINO-BASE
 62
     7
 10
170.06961999999999
 20
-234.3417642102682
 30
0.0
 40
4.8865234374999993
  1
'11.02.
 41
0.7
 11
170.06961999999999
 21
-229.45524077276821
 31
0.0
 73
     3
  0
TEXT
  5
45
  8
HIBINO-BASE
 62
     7
 10
152.5
 20
-236.88453421026821
 30
0.0
 40
4.8865234374999993
  1
3
 41
0.7
 11
152.5
 21
-231.9980107727682
 31
0.0
 73
     3
  0
TEXT
  5
46
  8
HIBINO-BASE
 62
     7
 10
247.01743003310389
 20
-234.3417642102682
 30
0.0
 40
4.8865234374999993
  1
T.Ootake
 41
0.7
 11
247.01743003310389
 21
-229.45524077276821
 31
0.0
 73
     3
  0
TEXT
  5
47
  8
HIBINO-BASE
 62
     7
 10
111.65000000000001
 20
-237.0047042102681
 30
0.0
 40
9.7730468749999986
  1
A4
 41
0.7
 11
111.65000000000001
 21
-227.2316573352681
 31
0.0
 73
     3
  0
TEXT
  5
48
  8
HIBINO-BASE
 62
     7
 10
102.875
 20
-220.79106921026809
 30
0.0
 40
4.8865234374999993
  1
PAPER SIZE
 41
0.7
 11
102.875
 21
-215.9045457727681
 31
0.0
 73
     3
  0
TEXT
  5
49
  8
HIBINO-BASE
 62
     7
 10
-161.7210942293294
 20
-262.20842491279689
 30
0.0
 40
10.58746744791666
  1
Hibino-Intersound Corporation
 41
0.7
 11
-161.7210942293294
 21
-251.62095746488029
 31
0.0
 73
     3
  0
TEXT
  5
4A
  8
HIBINO-BASE
 62
     7
 10
160.54182904064169
 20
-261.15516015292872
 30
0.0
 40
10.58746744791666
  1
ヒビノインターサウンド株式会社
 41
0.7
 11
160.54182904064169
 21
-250.56769270501201
 31
0.0
 73
     3
  0
LINE
  5
4B
  8
SPEC
  6
CONTINUOUS
 62
     7
 10
-147.49999999999989
 20
507.0672957897317
 30
0.0
 11
295.0
 21
507.0672957897317
 31
0.0
  0
LINE
  5
4C
  8
SPEC
  6
CONTINUOUS
 62
     7
 10
-147.49999999999989
 20
495.8172957897317
 30
0.0
 11
295.0
 21
495.8172957897317
 31
0.0
  0
LINE
  5
4D
  8
SPEC
  6
CONTINUOUS
 62
     7
 10
-147.49999999999989
 20
473.3172957897317
 30
0.0
 11
295.0
 21
473.3172957897317
 31
0.0
  0
LINE
  5
4E
  8
SPEC
  6
CONTINUOUS
 62
     7
 10
-147.49999999999989
 20
484.5672957897317
 30
0.0
 11
295.0
 21
484.5672957897317
 31
0.0
  0
LINE
  5
4F
  8
SPEC
  6
CONTINUOUS
 62
     7
 10
-147.49999999999989
 20
507.0672957897317
 30
0.0
 11
-147.49999999999989
 21
394.5672957897317
 31
0.0
  0
TEXT
  5
50
  8
SPEC
 62
     7
 10
-143.74999999999989
 20
511.24710578973179
 30
0.0
 40
7.3297851562499989
  1
仕様
 41
0.7
 11
-143.74999999999989
 21
518.57689094598175
 31
0.0
 73
     3
  0
LINE
  5
51
  8
SPEC
  6
CONTINUOUS
 62
     7
 10
-50.0
 20
507.0672957897317
 30
0.0
 11
-50.000000000000021
 21
394.5672957897317
 31
0.0
  0
LINE
  5
52
  8
SPEC
  6
CONTINUOUS
 62
     7
 10
295.0
 20
507.0672957897317
 30
0.0
 11
295.0
 21
394.5672957897317
 31
0.0
  0
LINE
  5
53
  8
SPEC
  6
CONTINUOUS
 62
     7
 10
-147.49999999999989
 20
462.0672957897317
 30
0.0
 11
295.0
 21
462.0672957897317
 31
0.0
  0
LINE
  5
54
  8
SPEC
  6
CONTINUOUS
 62
     7
 10
-147.49999999999989
 20
450.8172957897317
 30
0.0
 11
295.0
 21
450.8172957897317
 31
0.0
  0
LINE
  5
55
  8
SPEC
  6
CONTINUOUS
 62
     7
 10
-147.49999999999989
 20
439.5672957897317
 30
0.0
 11
295.0
 21
439.5672957897317
 31
0.0
  0
LINE
  5
56
  8
SPEC
  6
CONTINUOUS
 62
     7
 10
-147.49999999999989
 20
428.3172957897317
 30
0.0
 11
295.0
 21
428.3172957897317
 31
0.0
  0
LINE
  5
57
  8
SPEC
  6
CONTINUOUS
 62
     7
 10
-147.49999999999989
 20
417.0672957897317
 30
0.0
 11
295.0
 21
417.0672957897317
 31
0.0
  0
LINE
  5
58
  8
SPEC
  6
CONTINUOUS
 62
     7
 10
-147.49999999999989
 20
405.8172957897317
 30
0.0
 11
295.0
 21
405.8172957897317
 31
0.0
  0
LINE
  5
59
  8
SPEC
  6
CONTINUOUS
 62
     7
 10
-147.49999999999989
 20
394.5672957897317
 30
0.0
 11
295.0
 21
394.5672957897317
 31
0.0
  0
TEXT
  5
5A
  8
SPEC
 62
     7
 10
-145.08188188199881
 20
409.16295227601148
 30
0.0
 40
5.7009440104166673
  1
寸法
 41
0.7
 11
-145.08188188199881
 21
414.86389628642809
 31
0.0
 73
     3
  0
TEXT
  5
5B
  8
SPEC
 62
     7
 10
-47.096620080716669
 20
408.17864480305349
 30
0.0
 40
5.7009440104166673
  1
214(W)\U+00D742(H)\U+00D7109(D)mm(突起部含まず）
 41
0.7
 11
-47.096620080716669
 21
413.87958881347009
 31
0.0
 73
     3
  0
TEXT
  5
5C
  8
SPEC
 62
     7
 10
-47.397032094031367
 20
397.3325736404376
 30
0.0
 40
5.7009440104166673
  1
約410g
 41
0.7
 11
-47.397032094031367
 21
403.03351765085421
 31
0.0
 73
     3
  0
TEXT
  5
5D
  8
SPEC
 62
     7
 10
-145.0631177767446
 20
397.92887233246591
 30
0.0
 40
5.7009440104166673
  1
重量
 41
0.7
 11
-145.0631177767446
 21
403.62981634288252
 31
0.0
 73
     3
  0
TEXT
  5
5E
  8
SPEC
 62
     7
 10
-145.42426284725599
 20
420.005725221033
 30
0.0
 40
5.7009440104166673
  1
カラースペース
 41
0.7
 11
-145.42426284725599
 21
425.70666923144961
 31
0.0
 73
     3
  0
TEXT
  5
5F
  8
SPEC
 62
     7
 10
-47.313559210508082
 20
419.79612865109408
 30
0.0
 40
5.7009440104166673
  1
RGB、YCbCr
 41
0.7
 11
-47.313559210508082
 21
425.49707266151069
 31
0.0
 73
     3
  0
TEXT
  5
60
  8
SPEC
 62
     7
 10
-145.32503940871251
 20
431.2541720981198
 30
0.0
 40
5.7009440104166673
  1
出力端子
 41
0.7
 11
-145.32503940871251
 21
436.95511610853652
 31
0.0
 73
     3
  0
TEXT
  5
61
  8
SPEC
 62
     7
 10
-145.06515879477459
 20
442.46529087800673
 30
0.0
 40
5.7009440104166673
  1
入力端子
 41
0.7
 11
-145.06515879477459
 21
448.16623488842339
 31
0.0
 73
     3
  0
TEXT
  5
62
  8
SPEC
 62
     7
 10
-47.57714183234809
 20
442.35895801448811
 30
0.0
 40
5.7009440104166673
  1
ステレオ3.5mm(アナログ)
 41
0.7
 11
-47.57714183234809
 21
448.05990202490472
 31
0.0
 73
     3
  0
TEXT
  5
63
  8
SPEC
 62
     7
 10
-144.8373906452365
 20
465.00261281764801
 30
0.0
 40
5.7009440104166673
  1
USB2.0入力端子
 41
0.7
 11
-144.8373906452365
 21
470.70355682806468
 31
0.0
 73
     3
  0
TEXT
  5
64
  8
SPEC
 62
     7
 10
-47.076820363075583
 20
464.57990785601191
 30
0.0
 40
5.7009440104166673
  1
USB type B
 41
0.7
 11
-47.076820363075583
 21
470.28085186642852
 31
0.0
 73
     3
  0
TEXT
  5
65
  8
SPEC
 62
     7
 10
-145.32212994361899
 20
476.44925862058489
 30
0.0
 40
5.7009440104166673
  1
出力端子
 41
0.7
 11
-145.32212994361899
 21
482.1502026310016
 31
0.0
 73
     3
  0
TEXT
  5
66
  8
SPEC
 62
     7
 10
-144.9355454532716
 20
487.600152987895
 30
0.0
 40
5.7009440104166673
  1
入力端子
 41
0.7
 11
-144.9355454532716
 21
493.30109699831161
 31
0.0
 73
     3
  0
TEXT
  5
67
  8
SPEC
 62
     7
 10
-47.14934450950436
 20
487.48612325816811
 30
0.0
 40
5.7009440104166673
  1
Display Port
 41
0.7
 11
-47.14934450950436
 21
493.18706726858471
 31
0.0
 73
     3
  0
TEXT
  5
68
  8
SPEC
 62
     7
 10
-144.77775650897041
 20
498.45842409376507
 30
0.0
 40
5.7009440104166673
  1
最大対応解像度
 41
0.7
 11
-144.77775650897041
 21
504.15936810418179
 31
0.0
 73
     3
  0
TEXT
  5
69
  8
SPEC
 62
     7
 10
-47.342497787661451
 20
498.34930752670789
 30
0.0
 40
5.7009440104166673
  1
2560\U+00D71600
 41
0.7
 11
-47.342497787661451
 21
504.05025153712461
 31
0.0
 73
     3
  0
TEXT
  5
6A
  8
SPEC
 62
     7
 10
-47.208122985187018
 20
476.37983953139491
 30
0.0
 40
5.7009440104166673
  1
Display Port
 41
0.7
 11
-47.208122985187018
 21
482.08078354181163
 31
0.0
 73
     3
  0
TEXT
  5
6B
  8
SPEC
 62
     7
 10
-144.75042532463451
 20
454.00505729589048
 30
0.0
 40
5.7009440104166673
  1
USB2.0出力端子
 41
0.7
 11
-144.75042532463451
 21
459.7060013063072
 31
0.0
 73
     3
  0
TEXT
  5
6C
  8
SPEC
 62
     7
 10
-47.251300066715928
 20
453.64094332012542
 30
0.0
 40
5.7009440104166673
  1
USB type A
 41
0.7
 11
-47.251300066715928
 21
459.34188733054202
 31
0.0
 73
     3
  0
TEXT
  5
6D
  8
SPEC
 62
     7
 10
-47.614173781599717
 20
431.2847344665214
 30
0.0
 40
5.7009440104166673
  1
ステレオ3.5mm(アナログ)
 41
0.7
 11
-47.614173781599717
 21
436.98567847693812
 31
0.0
 73
     3
  0
TEXT
  5
6E
  8
DIMNSIONS
 62
     7
 10
40.0
 20
-206.12423421026821
 30
0.0
 40
7.3297851562499989
  1
(単位：mm)
 41
0.7
 11
40.0
 21
-198.79444905401809
 31
0.0
 73
     3
  0
LINE
  5
6F
  8
DIMNSIONS
  6
CONTINUOUS
 62
     7
 10
-87.500000000000014
 20
-124.75
 30
0.0
 11
-87.500000000000014
 21
-149.75
 31
0.0
  0
LINE
  5
70
  8
DIMNSIONS
  6
CONTINUOUS
 62
     7
 10
126.5
 20
-124.75
 30
0.0
 11
126.5
 21
-149.75
 31
0.0
  0
LINE
  5
71
  8
DIMNSIONS
  6
CONTINUOUS
 62
     7
 10
-87.500000000000014
 20
-143.75
 30
0.0
 11
126.5
 21
-143.75
 31
0.0
  0
LINE
  5
72
  8
DIMNSIONS
  6
CONTINUOUS
 62
     7
 10
-87.500000000000014
 20
-143.75
 30
0.0
 11
-79.998132324218773
 21
-141.73988061454921
 31
0.0
  0
LINE
  5
73
  8
DIMNSIONS
  6
CONTINUOUS
 62
     7
 10
-87.500000000000014
 20
-143.75
 30
0.0
 11
-79.998132324218773
 21
-145.76011938545071
 31
0.0
  0
LINE
  5
74
  8
DIMNSIONS
  6
CONTINUOUS
 62
     7
 10
126.5
 20
-143.75
 30
0.0
 11
118.9981323242187
 21
-145.76011938545071
 31
0.0
  0
LINE
  5
75
  8
DIMNSIONS
  6
CONTINUOUS
 62
     7
 10
126.5
 20
-143.75
 30
0.0
 11
118.9981323242187
 21
-141.73988061454921
 31
0.0
  0
TEXT
  5
76
  8
DIMNSIONS
 62
     7
 10
11.56249999999998
 20
-140.76833333333329
 30
0.0
 40
8.1442057291666661
  1
214
 41
0.7
 11
11.56249999999998
 21
-132.62412760416669
 31
0.0
 73
     3
  0
LINE
  5
77
  8
DIMNSIONS
  6
CONTINUOUS
 62
     7
 10
-93.499999999999986
 20
-118.75
 30
0.0
 11
-118.5
 21
-118.75
 31
0.0
  0
LINE
  5
78
  8
DIMNSIONS
  6
CONTINUOUS
 62
     7
 10
-93.499999999999986
 20
-76.75
 30
0.0
 11
-118.5
 21
-76.75
 31
0.0
  0
LINE
  5
79
  8
DIMNSIONS
  6
CONTINUOUS
 62
     7
 10
-112.5
 20
-118.75
 30
0.0
 11
-112.5
 21
-76.75
 31
0.0
  0
LINE
  5
7A
  8
DIMNSIONS
  6
CONTINUOUS
 62
     7
 10
-112.5
 20
-118.75
 30
0.0
 11
-114.51011938545069
 21
-111.2481323242187
 31
0.0
  0
LINE
  5
7B
  8
DIMNSIONS
  6
CONTINUOUS
 62
     7
 10
-112.5
 20
-118.75
 30
0.0
 11
-110.48988061454919
 21
-111.2481323242187
 31
0.0
  0
LINE
  5
7C
  8
DIMNSIONS
  6
CONTINUOUS
 62
     7
 10
-112.5
 20
-76.75
 30
0.0
 11
-110.48988061454919
 21
-84.251867675781256
 31
0.0
  0
LINE
  5
7D
  8
DIMNSIONS
  6
CONTINUOUS
 62
     7
 10
-112.5
 20
-76.75
 30
0.0
 11
-114.51011938545069
 21
-84.251867675781256
 31
0.0
  0
TEXT
  5
7E
  8
DIMNSIONS
 62
     7
 10
-115.4816666666666
 20
-103.0416666666666
 30
0.0
 40
8.1442057291666661
  1
42
 50
90.0
 41
0.7
 11
-123.6258723958333
 21
-103.0416666666666
 31
0.0
 73
     3
  0
LINE
  5
7F
  8
DIMNSIONS
  6
CONTINUOUS
 62
     7
 10
-93.499999999999986
 20
-43.75
 30
0.0
 11
-118.5
 21
-43.75
 31
0.0
  0
LINE
  5
80
  8
DIMNSIONS
  6
CONTINUOUS
 62
     7
 10
-93.499999999999986
 20
65.25
 30
0.0
 11
-118.5
 21
65.25
 31
0.0
  0
LINE
  5
81
  8
DIMNSIONS
  6
CONTINUOUS
 62
     7
 10
-112.5
 20
-43.75
 30
0.0
 11
-112.5
 21
65.25
 31
0.0
  0
LINE
  5
82
  8
DIMNSIONS
  6
CONTINUOUS
 62
     7
 10
-112.5
 20
-43.75
 30
0.0
 11
-114.51011938545069
 21
-36.248132324218737
 31
0.0
  0
LINE
  5
83
  8
DIMNSIONS
  6
CONTINUOUS
 62
     7
 10
-112.5
 20
-43.75
 30
0.0
 11
-110.48988061454919
 21
-36.248132324218737
 31
0.0
  0
LINE
  5
84
  8
DIMNSIONS
  6
CONTINUOUS
 62
     7
 10
-112.5
 20
65.25
 30
0.0
 11
-110.48988061454919
 21
57.74813232421873
 31
0.0
  0
LINE
  5
85
  8
DIMNSIONS
  6
CONTINUOUS
 62
     7
 10
-112.5
 20
65.25
 30
0.0
 11
-114.51011938545069
 21
57.74813232421873
 31
0.0
  0
TEXT
  5
86
  8
DIMNSIONS
 62
     7
 10
-115.4816666666666
 20
2.8124999999999991
 30
0.0
 40
8.1442057291666661
  1
109
 50
90.0
 41
0.7
 11
-123.6258723958333
 21
2.8125
 31
0.0
 73
     3
  0
LINE
  5
87
  8
DIMNSIONS
  6
CONTINUOUS
 62
     7
 10
-87.450000000000003
 20
-122.75
 30
0.0
 11
-118.5
 21
-122.75
 31
0.0
  0
LINE
  5
88
  8
DIMNSIONS
  6
CONTINUOUS
 62
     7
 10
-93.499999999999986
 20
-118.75
 30
0.0
 11
-118.5
 21
-118.75
 31
0.0
  0
LINE
  5
89
  8
DIMNSIONS
  6
CONTINUOUS
 62
     7
 10
-112.5
 20
-118.75
 30
0.0
 11
-112.5
 21
-122.75
 31
0.0
  0
LINE
  5
8A
  8
DIMNSIONS
  6
CONTINUOUS
 62
     7
 10
-112.5
 20
-122.75
 30
0.0
 11
-112.5
 21
-136.54166666666671
 31
0.0
  0
LINE
  5
8B
  8
DIMNSIONS
  6
CONTINUOUS
 62
     7
 10
-112.5
 20
-122.75
 30
0.0
 11
-110.48988061454919
 21
-130.2518676757812
 31
0.0
  0
LINE
  5
8C
  8
DIMNSIONS
  6
CONTINUOUS
 62
     7
 10
-112.5
 20
-122.75
 30
0.0
 11
-114.51011938545069
 21
-130.2518676757812
 31
0.0
  0
LINE
  5
8D
  8
DIMNSIONS
  6
CONTINUOUS
 62
     7
 10
-112.5
 20
-118.75
 30
0.0
 11
-112.5
 21
-103.75
 31
0.0
  0
LINE
  5
8E
  8
DIMNSIONS
  6
CONTINUOUS
 62
     7
 10
-112.5
 20
-118.75
 30
0.0
 11
-114.51011938545069
 21
-111.2481323242187
 31
0.0
  0
LINE
  5
8F
  8
DIMNSIONS
  6
CONTINUOUS
 62
     7
 10
-112.5
 20
-118.75
 30
0.0
 11
-110.48988061454919
 21
-111.2481323242187
 31
0.0
  0
TEXT
  5
90
  8
DIMNSIONS
 62
     7
 10
-115.4816666666667
 20
-136.54166666666671
 30
0.0
 40
8.1442057291666661
  1
4
 50
90.0
 41
0.7
 11
-123.6258723958333
 21
-136.54166666666671
 31
0.0
 73
     3
  0
LINE
  5
91
  8
DIMNSIONS
  6
CONTINUOUS
 62
     7
 10
59.749999999999993
 20
-45.75
 30
0.0
 11
-118.5
 21
-45.75
 31
0.0
  0
LINE
  5
92
  8
DIMNSIONS
  6
CONTINUOUS
 62
     7
 10
-93.499999999999986
 20
-43.75
 30
0.0
 11
-118.5
 21
-43.75
 31
0.0
  0
LINE
  5
93
  8
DIMNSIONS
  6
CONTINUOUS
 62
     7
 10
-112.5
 20
-43.75
 30
0.0
 11
-112.5
 21
-45.75
 31
0.0
  0
LINE
  5
94
  8
DIMNSIONS
  6
CONTINUOUS
 62
     7
 10
-112.5
 20
-45.75
 30
0.0
 11
-112.5
 21
-61.54166666666665
 31
0.0
  0
LINE
  5
95
  8
DIMNSIONS
  6
CONTINUOUS
 62
     7
 10
-112.5
 20
-45.75
 30
0.0
 11
-110.48988061454919
 21
-53.251867675781263
 31
0.0
  0
LINE
  5
96
  8
DIMNSIONS
  6
CONTINUOUS
 62
     7
 10
-112.5
 20
-45.75
 30
0.0
 11
-114.51011938545069
 21
-53.251867675781263
 31
0.0
  0
LINE
  5
97
  8
DIMNSIONS
  6
CONTINUOUS
 62
     7
 10
-112.5
 20
-43.75
 30
0.0
 11
-112.5
 21
-28.75
 31
0.0
  0
LINE
  5
98
  8
DIMNSIONS
  6
CONTINUOUS
 62
     7
 10
-112.5
 20
-43.75
 30
0.0
 11
-114.51011938545069
 21
-36.248132324218737
 31
0.0
  0
LINE
  5
99
  8
DIMNSIONS
  6
CONTINUOUS
 62
     7
 10
-112.5
 20
-43.75
 30
0.0
 11
-110.48988061454919
 21
-36.248132324218737
 31
0.0
  0
TEXT
  5
9A
  8
DIMNSIONS
 62
     7
 10
-115.4816666666667
 20
-61.54166666666665
 30
0.0
 40
8.1442057291666661
  1
2
 50
90.0
 41
0.7
 11
-123.6258723958333
 21
-61.54166666666665
 31
0.0
 73
     3
  0
LINE
  5
9B
  8
DIMNSIONS
  6
CONTINUOUS
 62
     7
 10
-93.499999999999986
 20
65.25
 30
0.0
 11
-118.5
 21
65.25
 31
0.0
  0
LINE
  5
9C
  8
DIMNSIONS
  6
CONTINUOUS
 62
     7
 10
-22.621924474027232
 20
70.25
 30
0.0
 11
-118.5
 21
70.25
 31
0.0
  0
LINE
  5
9D
  8
DIMNSIONS
  6
CONTINUOUS
 62
     7
 10
-112.5
 20
70.25
 30
0.0
 11
-112.5
 21
65.25
 31
0.0
  0
LINE
  5
9E
  8
DIMNSIONS
  6
CONTINUOUS
 62
     7
 10
-112.5
 20
65.25
 30
0.0
 11
-112.5
 21
50.25
 31
0.0
  0
LINE
  5
9F
  8
DIMNSIONS
  6
CONTINUOUS
 62
     7
 10
-112.5
 20
65.25
 30
0.0
 11
-110.48988061454919
 21
57.74813232421873
 31
0.0
  0
LINE
  5
A0
  8
DIMNSIONS
  6
CONTINUOUS
 62
     7
 10
-112.5
 20
65.25
 30
0.0
 11
-114.51011938545069
 21
57.74813232421873
 31
0.0
  0
LINE
  5
A1
  8
DIMNSIONS
  6
CONTINUOUS
 62
     7
 10
-112.5
 20
70.25
 30
0.0
 11
-112.5
 21
86.541666666666657
 31
0.0
  0
LINE
  5
A2
  8
DIMNSIONS
  6
CONTINUOUS
 62
     7
 10
-112.5
 20
70.25
 30
0.0
 11
-114.51011938545069
 21
77.751867675781256
 31
0.0
  0
LINE
  5
A3
  8
DIMNSIONS
  6
CONTINUOUS
 62
     7
 10
-112.5
 20
70.25
 30
0.0
 11
-110.48988061454919
 21
77.751867675781256
 31
0.0
  0
TEXT
  5
A4
  8
DIMNSIONS
 62
     7
 10
-115.4816666666667
 20
81.25
 30
0.0
 40
8.1442057291666661
  1
5
 50
90.0
 41
0.7
 11
-123.6258723958333
 21
81.25
 31
0.0
 73
     3
  0
TEXT
  5
A5
  8
DATA
 62
     7
 10
262.6944870079555
 20
-210.288246439261
 30
0.0
 40
7.3297851562499989
  1
EXT-DPKVM-241
 41
0.7
 11
262.6944870079555
 21
-202.95846128301099
 31
0.0
 73
     3
  0
TEXT
  5
A6
  8
DATA
 62
     7
 10
262.6944870079555
 20
-187.7900342102682
 30
0.0
 40
7.3297851562499989
  1
Gefen
 41
0.7
 11
262.6944870079555
 21
-180.46024905401811
 31
0.0
 73
     3
  0
TEXT
  5
A7
  8
DATA
 62
     7
 10
256.92354421736712
 20
-197.90853777416021
 30
0.0
 40
4.8865311328124994
  1
2\U+00D71 ディスプレイポ－ト切替機
 41
0.7
 11
256.92354421736712
 21
-193.0220066413477
 31
0.0
 73
     3
  0
TEXT
  5
A8
  8
DATA
 62
     7
 10
-139.99999999999989
 20
-230.21870421026821
 30
0.0
 40
4.8865234374999993
  1
仕様および外観は予告なく変更されることがありますので、ご了承ください。
 41
0.7
 11
-139.99999999999989
 21
-225.3321807727682
 31
0.0
 73
     3
  0
LINE
  5
A9
  8
DATA
  6
CONTINUOUS
 62
     7
 10
-87.500000000000014
 20
-118.75
 30
0.0
 11
-87.500000000000014
 21
-76.75
 31
0.0
  0
LINE
  5
AA
  8
DATA
  6
CONTINUOUS
 62
     7
 10
126.5
 20
-118.75
 30
0.0
 11
-87.500000000000014
 21
-118.75
 31
0.0
  0
LINE
  5
AB
  8
DATA
  6
CONTINUOUS
 62
     7
 10
126.5
 20
-76.75
 30
0.0
 11
126.5
 21
-118.75
 31
0.0
  0
LINE
  5
AC
  8
DATA
  6
CONTINUOUS
 62
     7
 10
-87.500000000000014
 20
-76.75
 30
0.0
 11
126.5
 21
-76.75
 31
0.0
  0
LINE
  5
AD
  8
DATA
  6
CONTINUOUS
 62
     7
 10
-87.500000000000014
 20
-43.75
 30
0.0
 11
-87.500000000000014
 21
65.25
 31
0.0
  0
LINE
  5
AE
  8
DATA
  6
CONTINUOUS
 62
     7
 10
126.5
 20
-43.75
 30
0.0
 11
-87.500000000000014
 21
-43.75
 31
0.0
  0
LINE
  5
AF
  8
DATA
  6
CONTINUOUS
 62
     7
 10
126.5
 20
65.25
 30
0.0
 11
126.5
 21
-43.75
 31
0.0
  0
LINE
  5
B0
  8
DATA
  6
CONTINUOUS
 62
     7
 10
-87.500000000000014
 20
65.25
 30
0.0
 11
126.5
 21
65.25
 31
0.0
  0
LINE
  5
B1
  8
DATA
  6
CONTINUOUS
 62
     7
 10
-81.450000000000017
 20
-122.75
 30
0.0
 11
-71.550000000000026
 21
-122.75
 31
0.0
  0
LINE
  5
B2
  8
DATA
  6
CONTINUOUS
 62
     7
 10
-81.450000000000017
 20
-122.75
 30
0.0
 11
-82.500000000000014
 21
-118.75
 31
0.0
  0
LINE
  5
B3
  8
DATA
  6
CONTINUOUS
 62
     7
 10
-71.550000000000026
 20
-122.75
 30
0.0
 11
-70.500000000000014
 21
-118.75
 31
0.0
  0
LINE
  5
B4
  8
DATA
  6
CONTINUOUS
 62
     7
 10
110.55
 20
-122.75
 30
0.0
 11
120.4499999999999
 21
-122.75
 31
0.0
  0
LINE
  5
B5
  8
DATA
  6
CONTINUOUS
 62
     7
 10
110.55
 20
-122.75
 30
0.0
 11
109.5
 21
-118.75
 31
0.0
  0
LINE
  5
B6
  8
DATA
  6
CONTINUOUS
 62
     7
 10
120.4499999999999
 20
-122.75
 30
0.0
 11
121.5
 21
-118.75
 31
0.0
  0
CIRCLE
  5
B7
  8
DATA
  6
CONTINUOUS
 62
     7
 10
-60.500000000000021
 20
-105.75
 30
0.0
 40
1.5
  0
TEXT
  5
B8
  8
DATA
 62
     7
 10
-65.7916666666667
 20
-115.4496684163351
 30
0.0
 40
3.2576822916666659
  1
Power
 41
0.7
 11
-65.7916666666667
 21
-112.1919861246685
 31
0.0
 73
     3
  0
CIRCLE
  5
B9
  8
DATA
  6
CONTINUOUS
 62
     7
 10
2.4999999999999849
 20
-104.75
 30
0.0
 40
5.0
  0
CIRCLE
  5
BA
  8
DATA
  6
CONTINUOUS
 62
     7
 10
29.499999999999989
 20
-105.75
 30
0.0
 40
1.5
  0
CIRCLE
  5
BB
  8
DATA
  6
CONTINUOUS
 62
     7
 10
49.499999999999993
 20
-105.75
 30
0.0
 40
1.5
  0
CIRCLE
  5
BC
  8
DATA
  6
CONTINUOUS
 62
     7
 10
67.999999999999986
 20
-106.75
 30
0.0
 40
2.25
  0
TEXT
  5
BD
  8
DATA
 62
     7
 10
-0.2793582837440598
 20
-115.4496684163351
 30
0.0
 40
3.2576822916666659
  1
IR
 41
0.7
 11
-0.2793582837440596
 21
-112.1919861246685
 31
0.0
 73
     3
  0
TEXT
  5
BE
  8
DATA
 62
     7
 10
28.437503762233451
 20
-115.4496684163351
 30
0.0
 40
3.2576822916666659
  1
1
 41
0.7
 11
28.437503762233451
 21
-112.1919861246685
 31
0.0
 73
     3
  0
TEXT
  5
BF
  8
DATA
 62
     7
 10
48.437503762233447
 20
-115.4496684163351
 30
0.0
 40
3.2576822916666659
  1
2
 41
0.7
 11
48.437503762233447
 21
-112.1919861246685
 31
0.0
 73
     3
  0
TEXT
  5
C0
  8
DATA
 62
     7
 10
61.962120528078749
 20
-115.4496684163351
 30
0.0
 40
3.2576822916666659
  1
Select
 41
0.7
 11
61.962120528078749
 21
-112.1919861246685
 31
0.0
 73
     3
  0
TEXT
  5
C1
  8
DATA
 62
     7
 10
44.906742714937373
 20
-88.53133333333335
 30
0.0
 40
6.5153645833333318
  1
2\U+00D71DPKVM Switch
 41
0.7
 11
44.906742714937373
 21
-82.015968750000013
 31
0.0
 73
     3
  0
LINE
  5
C2
  8
DATA
  6
CONTINUOUS
 62
     7
 10
126.5
 20
-34.75
 30
0.0
 11
-87.500000000000014
 21
-34.75
 31
0.0
  0
ARC
  5
C3
  8
DATA
  6
CONTINUOUS
 62
     7
 10
-60.500000000000021
 20
-43.419914155438271
 30
0.0
 40
1.5000000000000011
 50
192.7123943914705
 51
347.28760560852947
  0
ARC
  5
C4
  8
DATA
  6
CONTINUOUS
 62
     7
 10
29.499999999999989
 20
-43.419914155438271
 30
0.0
 40
1.500000000000002
 50
192.71239439146831
 51
347.28760560853181
  0
ARC
  5
C5
  8
DATA
  6
CONTINUOUS
 62
     7
 10
49.499999999999993
 20
-43.419914155438271
 30
0.0
 40
1.4999999999999949
 50
192.7123943914695
 51
347.2876056085305
  0
LINE
  5
C6
  8
DATA
  6
CONTINUOUS
 62
     7
 10
65.749999999999986
 20
-45.75
 30
0.0
 11
65.749999999999986
 21
-43.75
 31
0.0
  0
LINE
  5
C7
  8
DATA
  6
CONTINUOUS
 62
     7
 10
70.249999999999986
 20
-45.75
 30
0.0
 11
70.249999999999986
 21
-43.75
 31
0.0
  0
LINE
  5
C8
  8
DATA
  6
CONTINUOUS
 62
     7
 10
70.249999999999986
 20
-45.75
 30
0.0
 11
65.749999999999986
 21
-45.75
 31
0.0
  0
LINE
  5
C9
  8
DATA
  6
CONTINUOUS
 62
     7
 10
-87.500000000000014
 20
142.0
 30
0.0
 11
-87.500000000000014
 21
100.0
 31
0.0
  0
LINE
  5
CA
  8
DATA
  6
CONTINUOUS
 62
     7
 10
126.5
 20
142.0
 30
0.0
 11
-87.500000000000014
 21
142.0
 31
0.0
  0
LINE
  5
CB
  8
DATA
  6
CONTINUOUS
 62
     7
 10
126.5
 20
100.0
 30
0.0
 11
126.5
 21
142.0
 31
0.0
  0
LINE
  5
CC
  8
DATA
  6
CONTINUOUS
 62
     7
 10
-87.500000000000014
 20
100.0
 30
0.0
 11
126.5
 21
100.0
 31
0.0
  0
LINE
  5
CD
  8
DATA
  6
CONTINUOUS
 62
     7
 10
-81.450000000000017
 20
146.0
 30
0.0
 11
-71.550000000000026
 21
146.0
 31
0.0
  0
LINE
  5
CE
  8
DATA
  6
CONTINUOUS
 62
     7
 10
-81.450000000000017
 20
146.0
 30
0.0
 11
-82.500000000000014
 21
142.0
 31
0.0
  0
LINE
  5
CF
  8
DATA
  6
CONTINUOUS
 62
     7
 10
-71.550000000000026
 20
146.0
 30
0.0
 11
-70.500000000000014
 21
142.0
 31
0.0
  0
LINE
  5
D0
  8
DATA
  6
CONTINUOUS
 62
     7
 10
110.55
 20
146.0
 30
0.0
 11
120.4499999999999
 21
146.0
 31
0.0
  0
LINE
  5
D1
  8
DATA
  6
CONTINUOUS
 62
     7
 10
110.55
 20
146.0
 30
0.0
 11
109.5
 21
142.0
 31
0.0
  0
LINE
  5
D2
  8
DATA
  6
CONTINUOUS
 62
     7
 10
120.4499999999999
 20
146.0
 30
0.0
 11
121.5
 21
142.0
 31
0.0
  0
CIRCLE
  5
D3
  8
DATA
  6
CONTINUOUS
 62
     7
 10
112.0
 20
127.0
 30
0.0
 40
3.25
  0
CIRCLE
  5
D4
  8
DATA
  6
CONTINUOUS
 62
     7
 10
112.0
 20
127.0
 30
0.0
 40
0.75
  0
LINE
  5
D5
  8
DATA
  6
CONTINUOUS
 62
     7
 10
-78.510614180179743
 20
123.0008898546359
 30
0.0
 11
-78.510614180179743
 21
133.00088985463589
 31
0.0
  0
LINE
  5
D6
  8
DATA
  6
CONTINUOUS
 62
     7
 10
-66.010614180179729
 20
123.0008898546359
 30
0.0
 11
-78.510614180179743
 21
123.0008898546359
 31
0.0
  0
LINE
  5
D7
  8
DATA
  6
CONTINUOUS
 62
     7
 10
-66.010614180179729
 20
133.00088985463589
 30
0.0
 11
-66.010614180179729
 21
123.0008898546359
 31
0.0
  0
LINE
  5
D8
  8
DATA
  6
CONTINUOUS
 62
     7
 10
-78.510614180179743
 20
133.00088985463589
 30
0.0
 11
-66.010614180179729
 21
133.00088985463589
 31
0.0
  0
POLYLINE
  5
D9
  8
DATA
  6
CONTINUOUS
 62
     7
 66
     1
 10
0.0
 20
0.0
 30
0.0
  0
VERTEX
  5
2F4
  8
DATA
  6
CONTINUOUS
 62
     7
 10
-76.610614180179695
 20
126.530301619037
 30
0.0
  0
VERTEX
  5
2F5
  8
DATA
  6
CONTINUOUS
 62
     7
 10
-76.610614180179695
 20
131.90088985463589
 30
0.0
  0
VERTEX
  5
2F6
  8
DATA
  6
CONTINUOUS
 62
     7
 10
-67.910614180179735
 20
131.90088985463589
 30
0.0
  0
VERTEX
  5
2F7
  8
DATA
  6
CONTINUOUS
 62
     7
 10
-67.910614180179735
 20
126.530301619037
 30
0.0
  0
SEQEND
  5
2F8
  8
DATA
  6
CONTINUOUS
 62
     7
  0
LINE
  5
E0
  8
DATA
  6
CONTINUOUS
 62
     7
 10
-70.010614180179743
 20
124.10088985463589
 30
0.0
 11
-74.510614180179743
 21
124.10088985463589
 31
0.0
  0
POLYLINE
  5
E1
  8
DATA
  6
CONTINUOUS
 62
     7
 66
     1
 10
0.0
 20
0.0
 30
0.0
 70
     1
  0
VERTEX
  5
2F9
  8
DATA
  6
CONTINUOUS
 62
     7
 10
-75.260614180179743
 20
129.50088985463589
 30
0.0
  0
VERTEX
  5
2FA
  8
DATA
  6
CONTINUOUS
 62
     7
 10
-69.260614180179701
 20
129.50088985463589
 30
0.0
  0
VERTEX
  5
2FB
  8
DATA
  6
CONTINUOUS
 62
     7
 10
-69.260614180179701
 20
126.5008898546359
 30
0.0
  0
VERTEX
  5
2FC
  8
DATA
  6
CONTINUOUS
 62
     7
 10
-75.260614180179743
 20
126.5008898546359
 30
0.0
  0
SEQEND
  5
2FD
  8
DATA
  6
CONTINUOUS
 62
     7
  0
LINE
  5
E8
  8
DATA
  6
CONTINUOUS
 62
     7
 10
-74.510614180179743
 20
124.10088985463589
 30
0.0
 11
-76.610614180179695
 21
126.530301619037
 31
0.0
  0
LINE
  5
E9
  8
DATA
  6
CONTINUOUS
 62
     7
 10
-70.010614180179729
 20
124.10088985463589
 30
0.0
 11
-67.910614180179735
 21
126.530301619037
 31
0.0
  0
LINE
  5
EA
  8
DATA
  6
CONTINUOUS
 62
     7
 10
-63.510614180179729
 20
123.0008898546359
 30
0.0
 11
-63.510614180179729
 21
133.00088985463589
 31
0.0
  0
LINE
  5
EB
  8
DATA
  6
CONTINUOUS
 62
     7
 10
-51.010614180179729
 20
123.0008898546359
 30
0.0
 11
-63.510614180179729
 21
123.0008898546359
 31
0.0
  0
LINE
  5
EC
  8
DATA
  6
CONTINUOUS
 62
     7
 10
-51.010614180179729
 20
133.00088985463589
 30
0.0
 11
-51.010614180179729
 21
123.0008898546359
 31
0.0
  0
LINE
  5
ED
  8
DATA
  6
CONTINUOUS
 62
     7
 10
-63.510614180179729
 20
133.00088985463589
 30
0.0
 11
-51.010614180179729
 21
133.00088985463589
 31
0.0
  0
POLYLINE
  5
EE
  8
DATA
  6
CONTINUOUS
 62
     7
 66
     1
 10
0.0
 20
0.0
 30
0.0
  0
VERTEX
  5
2FE
  8
DATA
  6
CONTINUOUS
 62
     7
 10
-61.610614180179731
 20
126.530301619037
 30
0.0
  0
VERTEX
  5
2FF
  8
DATA
  6
CONTINUOUS
 62
     7
 10
-61.610614180179731
 20
131.90088985463589
 30
0.0
  0
VERTEX
  5
300
  8
DATA
  6
CONTINUOUS
 62
     7
 10
-52.910614180179742
 20
131.90088985463589
 30
0.0
  0
VERTEX
  5
301
  8
DATA
  6
CONTINUOUS
 62
     7
 10
-52.910614180179742
 20
126.530301619037
 30
0.0
  0
SEQEND
  5
302
  8
DATA
  6
CONTINUOUS
 62
     7
  0
LINE
  5
F5
  8
DATA
  6
CONTINUOUS
 62
     7
 10
-55.010614180179751
 20
124.10088985463589
 30
0.0
 11
-59.510614180179751
 21
124.10088985463589
 31
0.0
  0
POLYLINE
  5
F6
  8
DATA
  6
CONTINUOUS
 62
     7
 66
     1
 10
0.0
 20
0.0
 30
0.0
 70
     1
  0
VERTEX
  5
303
  8
DATA
  6
CONTINUOUS
 62
     7
 10
-60.260614180179729
 20
129.50088985463589
 30
0.0
  0
VERTEX
  5
304
  8
DATA
  6
CONTINUOUS
 62
     7
 10
-54.260614180179701
 20
129.50088985463589
 30
0.0
  0
VERTEX
  5
305
  8
DATA
  6
CONTINUOUS
 62
     7
 10
-54.260614180179701
 20
126.5008898546359
 30
0.0
  0
VERTEX
  5
306
  8
DATA
  6
CONTINUOUS
 62
     7
 10
-60.260614180179729
 20
126.5008898546359
 30
0.0
  0
SEQEND
  5
307
  8
DATA
  6
CONTINUOUS
 62
     7
  0
LINE
  5
FD
  8
DATA
  6
CONTINUOUS
 62
     7
 10
-59.510614180179751
 20
124.10088985463589
 30
0.0
 11
-61.610614180179731
 21
126.530301619037
 31
0.0
  0
LINE
  5
FE
  8
DATA
  6
CONTINUOUS
 62
     7
 10
-55.010614180179729
 20
124.10088985463589
 30
0.0
 11
-52.910614180179742
 21
126.530301619037
 31
0.0
  0
LINE
  5
FF
  8
DATA
  6
CONTINUOUS
 62
     7
 10
-42.811085532291671
 20
119.688689835416
 30
0.0
 11
-47.457373710370277
 21
119.688689835416
 31
0.0
  0
LINE
  5
100
  8
DATA
  6
CONTINUOUS
 62
     7
 10
-42.211085532291669
 20
131.58868983541589
 30
0.0
 11
-42.211085532291669
 21
120.28868983541599
 31
0.0
  0
LINE
  5
101
  8
DATA
  6
CONTINUOUS
 62
     7
 10
-47.457373710370277
 20
132.1886898354158
 30
0.0
 11
-42.811085532291671
 21
132.1886898354158
 31
0.0
  0
LINE
  5
102
  8
DATA
  6
CONTINUOUS
 62
     7
 10
-47.457373710370277
 20
132.98868983541581
 30
0.0
 11
-47.457373710370277
 21
118.888689835416
 31
0.0
  0
LINE
  5
103
  8
DATA
  6
CONTINUOUS
 62
     7
 10
-44.611085532291682
 20
131.6886898354158
 30
0.0
 11
-44.611085532291682
 21
120.188689835416
 31
0.0
  0
LINE
  5
104
  8
DATA
  6
CONTINUOUS
 62
     7
 10
-45.911085532291672
 20
131.6886898354158
 30
0.0
 11
-45.911085532291672
 21
120.188689835416
 31
0.0
  0
LINE
  5
105
  8
DATA
  6
CONTINUOUS
 62
     7
 10
-44.611085532291682
 20
125.3508341447717
 30
0.0
 11
-44.536085532291672
 21
125.3508341447717
 31
0.0
  0
LINE
  5
106
  8
DATA
  6
CONTINUOUS
 62
     7
 10
-44.611085532291682
 20
124.1008341447717
 30
0.0
 11
-44.536085532291672
 21
124.1008341447717
 31
0.0
  0
LINE
  5
107
  8
DATA
  6
CONTINUOUS
 62
     7
 10
-44.536085532291672
 20
124.1008341447717
 30
0.0
 11
-44.536085532291672
 21
125.3508341447717
 31
0.0
  0
LINE
  5
108
  8
DATA
  6
CONTINUOUS
 62
     7
 10
-44.611085532291682
 20
126.5265455260603
 30
0.0
 11
-44.536085532291672
 21
126.5265455260603
 31
0.0
  0
LINE
  5
109
  8
DATA
  6
CONTINUOUS
 62
     7
 10
-44.611085532291682
 20
127.7765455260602
 30
0.0
 11
-44.536085532291672
 21
127.7765455260602
 31
0.0
  0
LINE
  5
10A
  8
DATA
  6
CONTINUOUS
 62
     7
 10
-44.536085532291672
 20
127.7765455260602
 30
0.0
 11
-44.536085532291672
 21
126.5265455260603
 31
0.0
  0
LINE
  5
10B
  8
DATA
  6
CONTINUOUS
 62
     7
 10
-44.611085532291682
 20
122.93083414477169
 30
0.0
 11
-44.536085532291672
 21
122.93083414477169
 31
0.0
  0
LINE
  5
10C
  8
DATA
  6
CONTINUOUS
 62
     7
 10
-44.611085532291682
 20
121.68083414477169
 30
0.0
 11
-44.536085532291672
 21
121.68083414477169
 31
0.0
  0
LINE
  5
10D
  8
DATA
  6
CONTINUOUS
 62
     7
 10
-44.536085532291672
 20
121.68083414477169
 30
0.0
 11
-44.536085532291672
 21
122.93083414477169
 31
0.0
  0
LINE
  5
10E
  8
DATA
  6
CONTINUOUS
 62
     7
 10
-44.611085532291682
 20
128.94654552606019
 30
0.0
 11
-44.536085532291672
 21
128.94654552606019
 31
0.0
  0
LINE
  5
10F
  8
DATA
  6
CONTINUOUS
 62
     7
 10
-44.611085532291682
 20
130.19654552606011
 30
0.0
 11
-44.536085532291672
 21
130.19654552606011
 31
0.0
  0
LINE
  5
110
  8
DATA
  6
CONTINUOUS
 62
     7
 10
-44.536085532291672
 20
130.19654552606011
 30
0.0
 11
-44.536085532291672
 21
128.94654552606019
 31
0.0
  0
ARC
  5
111
  8
DATA
  6
CONTINUOUS
 62
     7
 10
-42.811085532291671
 20
120.28868983541599
 30
0.0
 40
0.6000000000000229
 50
270.0
 51
0.0
  0
ARC
  5
112
  8
DATA
  6
CONTINUOUS
 62
     7
 10
-42.811085532291671
 20
131.58868983541589
 30
0.0
 40
0.5999999999999944
 50
0.0
 51
90.0
  0
LINE
  5
113
  8
DATA
  6
CONTINUOUS
 62
     7
 10
-44.611085532291682
 20
120.188689835416
 30
0.0
 11
-45.911085532291672
 21
120.188689835416
 31
0.0
  0
LINE
  5
114
  8
DATA
  6
CONTINUOUS
 62
     7
 10
-44.611085532291682
 20
131.6886898354158
 30
0.0
 11
-45.911085532291672
 21
131.6886898354158
 31
0.0
  0
LINE
  5
115
  8
DATA
  6
CONTINUOUS
 62
     7
 10
-41.644049563006241
 20
118.888689835416
 30
0.0
 11
-41.644049563006241
 21
132.98868983541581
 31
0.0
  0
LINE
  5
116
  8
DATA
  6
CONTINUOUS
 62
     7
 10
-47.457373710370277
 20
132.98868983541581
 30
0.0
 11
-41.644049563006241
 21
132.98868983541581
 31
0.0
  0
LINE
  5
117
  8
DATA
  6
CONTINUOUS
 62
     7
 10
-47.457373710370277
 20
118.888689835416
 30
0.0
 11
-41.644049563006241
 21
118.888689835416
 31
0.0
  0
LINE
  5
118
  8
DATA
  6
CONTINUOUS
 62
     7
 10
-31.811085532291671
 20
119.688689835416
 30
0.0
 11
-36.457373710370291
 21
119.688689835416
 31
0.0
  0
LINE
  5
119
  8
DATA
  6
CONTINUOUS
 62
     7
 10
-31.21108553229168
 20
131.58868983541589
 30
0.0
 11
-31.21108553229168
 21
120.28868983541599
 31
0.0
  0
LINE
  5
11A
  8
DATA
  6
CONTINUOUS
 62
     7
 10
-36.457373710370291
 20
132.1886898354158
 30
0.0
 11
-31.811085532291671
 21
132.1886898354158
 31
0.0
  0
LINE
  5
11B
  8
DATA
  6
CONTINUOUS
 62
     7
 10
-36.457373710370291
 20
132.98868983541581
 30
0.0
 11
-36.457373710370291
 21
118.888689835416
 31
0.0
  0
LINE
  5
11C
  8
DATA
  6
CONTINUOUS
 62
     7
 10
-33.611085532291682
 20
131.6886898354158
 30
0.0
 11
-33.611085532291682
 21
120.188689835416
 31
0.0
  0
LINE
  5
11D
  8
DATA
  6
CONTINUOUS
 62
     7
 10
-34.911085532291672
 20
131.6886898354158
 30
0.0
 11
-34.911085532291672
 21
120.188689835416
 31
0.0
  0
LINE
  5
11E
  8
DATA
  6
CONTINUOUS
 62
     7
 10
-33.611085532291682
 20
125.3508341447717
 30
0.0
 11
-33.536085532291672
 21
125.3508341447717
 31
0.0
  0
LINE
  5
11F
  8
DATA
  6
CONTINUOUS
 62
     7
 10
-33.611085532291682
 20
124.1008341447717
 30
0.0
 11
-33.536085532291672
 21
124.1008341447717
 31
0.0
  0
LINE
  5
120
  8
DATA
  6
CONTINUOUS
 62
     7
 10
-33.536085532291672
 20
124.1008341447717
 30
0.0
 11
-33.536085532291672
 21
125.3508341447717
 31
0.0
  0
LINE
  5
121
  8
DATA
  6
CONTINUOUS
 62
     7
 10
-33.611085532291682
 20
126.5265455260603
 30
0.0
 11
-33.536085532291672
 21
126.5265455260603
 31
0.0
  0
LINE
  5
122
  8
DATA
  6
CONTINUOUS
 62
     7
 10
-33.611085532291682
 20
127.7765455260602
 30
0.0
 11
-33.536085532291672
 21
127.7765455260602
 31
0.0
  0
LINE
  5
123
  8
DATA
  6
CONTINUOUS
 62
     7
 10
-33.536085532291672
 20
127.7765455260602
 30
0.0
 11
-33.536085532291672
 21
126.5265455260603
 31
0.0
  0
LINE
  5
124
  8
DATA
  6
CONTINUOUS
 62
     7
 10
-33.611085532291682
 20
122.93083414477169
 30
0.0
 11
-33.536085532291672
 21
122.93083414477169
 31
0.0
  0
LINE
  5
125
  8
DATA
  6
CONTINUOUS
 62
     7
 10
-33.611085532291682
 20
121.68083414477169
 30
0.0
 11
-33.536085532291672
 21
121.68083414477169
 31
0.0
  0
LINE
  5
126
  8
DATA
  6
CONTINUOUS
 62
     7
 10
-33.536085532291672
 20
121.68083414477169
 30
0.0
 11
-33.536085532291672
 21
122.93083414477169
 31
0.0
  0
LINE
  5
127
  8
DATA
  6
CONTINUOUS
 62
     7
 10
-33.611085532291682
 20
128.94654552606019
 30
0.0
 11
-33.536085532291672
 21
128.94654552606019
 31
0.0
  0
LINE
  5
128
  8
DATA
  6
CONTINUOUS
 62
     7
 10
-33.611085532291682
 20
130.19654552606011
 30
0.0
 11
-33.536085532291672
 21
130.19654552606011
 31
0.0
  0
LINE
  5
129
  8
DATA
  6
CONTINUOUS
 62
     7
 10
-33.536085532291672
 20
130.19654552606011
 30
0.0
 11
-33.536085532291672
 21
128.94654552606019
 31
0.0
  0
ARC
  5
12A
  8
DATA
  6
CONTINUOUS
 62
     7
 10
-31.811085532291671
 20
120.28868983541599
 30
0.0
 40
0.6000000000000229
 50
270.0
 51
0.0
  0
ARC
  5
12B
  8
DATA
  6
CONTINUOUS
 62
     7
 10
-31.811085532291671
 20
131.58868983541589
 30
0.0
 40
0.5999999999999944
 50
0.0
 51
90.0
  0
LINE
  5
12C
  8
DATA
  6
CONTINUOUS
 62
     7
 10
-33.611085532291682
 20
120.188689835416
 30
0.0
 11
-34.911085532291672
 21
120.188689835416
 31
0.0
  0
LINE
  5
12D
  8
DATA
  6
CONTINUOUS
 62
     7
 10
-33.611085532291682
 20
131.6886898354158
 30
0.0
 11
-34.911085532291672
 21
131.6886898354158
 31
0.0
  0
LINE
  5
12E
  8
DATA
  6
CONTINUOUS
 62
     7
 10
-30.644049563006249
 20
118.888689835416
 30
0.0
 11
-30.644049563006249
 21
132.98868983541581
 31
0.0
  0
LINE
  5
12F
  8
DATA
  6
CONTINUOUS
 62
     7
 10
-36.457373710370291
 20
132.98868983541581
 30
0.0
 11
-30.644049563006249
 21
132.98868983541581
 31
0.0
  0
LINE
  5
130
  8
DATA
  6
CONTINUOUS
 62
     7
 10
-36.457373710370291
 20
118.888689835416
 30
0.0
 11
-30.644049563006249
 21
118.888689835416
 31
0.0
  0
CIRCLE
  5
131
  8
DATA
  6
CONTINUOUS
 62
     7
 10
-23.500000000000011
 20
132.98868983541581
 30
0.0
 40
2.8499999999999939
  0
CIRCLE
  5
132
  8
DATA
  6
CONTINUOUS
 62
     7
 10
-23.500000000000011
 20
132.98868983541581
 30
0.0
 40
1.75
  0
CIRCLE
  5
133
  8
DATA
  6
CONTINUOUS
 62
     7
 10
-8.5000000000000142
 20
132.98868983541581
 30
0.0
 40
2.8499999999999939
  0
CIRCLE
  5
134
  8
DATA
  6
CONTINUOUS
 62
     7
 10
-8.5000000000000142
 20
132.98868983541581
 30
0.0
 40
1.75
  0
CIRCLE
  5
135
  8
DATA
  6
CONTINUOUS
 62
     7
 10
6.4999999999999849
 20
132.98868983541581
 30
0.0
 40
2.8499999999999939
  0
CIRCLE
  5
136
  8
DATA
  6
CONTINUOUS
 62
     7
 10
6.4999999999999849
 20
132.98868983541581
 30
0.0
 40
1.75
  0
CIRCLE
  5
137
  8
DATA
  6
CONTINUOUS
 62
     7
 10
21.499999999999989
 20
132.98868983541581
 30
0.0
 40
2.8499999999999939
  0
CIRCLE
  5
138
  8
DATA
  6
CONTINUOUS
 62
     7
 10
21.499999999999989
 20
132.98868983541581
 30
0.0
 40
1.75
  0
LINE
  5
139
  8
DATA
  6
CONTINUOUS
 62
     7
 10
86.148010791125415
 20
127.93442774526299
 30
0.0
 11
103.1480107911254
 21
127.93442774526299
 31
0.0
  0
POLYLINE
  5
13A
  8
DATA
  6
CONTINUOUS
 62
     7
 66
     1
 10
0.0
 20
0.0
 30
0.0
 70
     1
  0
VERTEX
  5
308
  8
DATA
  6
CONTINUOUS
 62
     7
 10
89.648010791125415
 20
130.72059091975589
 30
0.0
  0
VERTEX
  5
309
  8
DATA
  6
CONTINUOUS
 62
     7
 10
99.648010791125415
 20
130.72059091975589
 30
0.0
  0
VERTEX
  5
30A
  8
DATA
  6
CONTINUOUS
 62
     7
 10
99.648010791125415
 20
130.22059091975589
 30
0.0
  0
VERTEX
  5
30B
  8
DATA
  6
CONTINUOUS
 62
     7
 10
89.648010791125415
 20
130.22059091975589
 30
0.0
  0
SEQEND
  5
30C
  8
DATA
  6
CONTINUOUS
 62
     7
  0
LINE
  5
141
  8
DATA
  6
CONTINUOUS
 62
     7
 10
86.148010791125415
 20
132.93442774526301
 30
0.0
 11
101.96224862433149
 21
132.93442774526301
 31
0.0
  0
LINE
  5
142
  8
DATA
  6
CONTINUOUS
 62
     7
 10
103.1480107911254
 20
127.93442774526299
 30
0.0
 11
103.1480107911254
 21
131.7486655784692
 31
0.0
  0
LINE
  5
143
  8
DATA
  6
CONTINUOUS
 62
     7
 10
103.1480107911254
 20
131.7486655784692
 30
0.0
 11
101.96224862433149
 21
132.93442774526301
 31
0.0
  0
LINE
  5
144
  8
DATA
  6
CONTINUOUS
 62
     7
 10
86.148010791125415
 20
127.93442774526299
 30
0.0
 11
86.148010791125415
 21
132.93442774526301
 31
0.0
  0
LINE
  5
145
  8
DATA
  6
CONTINUOUS
 62
     7
 10
62.148010791125401
 20
127.93442774526299
 30
0.0
 11
79.148010791125401
 21
127.93442774526299
 31
0.0
  0
POLYLINE
  5
146
  8
DATA
  6
CONTINUOUS
 62
     7
 66
     1
 10
0.0
 20
0.0
 30
0.0
 70
     1
  0
VERTEX
  5
30D
  8
DATA
  6
CONTINUOUS
 62
     7
 10
65.648010791125401
 20
130.72059091975589
 30
0.0
  0
VERTEX
  5
30E
  8
DATA
  6
CONTINUOUS
 62
     7
 10
75.648010791125401
 20
130.72059091975589
 30
0.0
  0
VERTEX
  5
30F
  8
DATA
  6
CONTINUOUS
 62
     7
 10
75.648010791125401
 20
130.22059091975589
 30
0.0
  0
VERTEX
  5
310
  8
DATA
  6
CONTINUOUS
 62
     7
 10
65.648010791125401
 20
130.22059091975589
 30
0.0
  0
SEQEND
  5
311
  8
DATA
  6
CONTINUOUS
 62
     7
  0
LINE
  5
14D
  8
DATA
  6
CONTINUOUS
 62
     7
 10
62.148010791125401
 20
132.93442774526301
 30
0.0
 11
77.962248624331551
 21
132.93442774526301
 31
0.0
  0
LINE
  5
14E
  8
DATA
  6
CONTINUOUS
 62
     7
 10
79.148010791125401
 20
127.93442774526299
 30
0.0
 11
79.148010791125401
 21
131.7486655784692
 31
0.0
  0
LINE
  5
14F
  8
DATA
  6
CONTINUOUS
 62
     7
 10
79.148010791125401
 20
131.7486655784692
 30
0.0
 11
77.962248624331551
 21
132.93442774526301
 31
0.0
  0
LINE
  5
150
  8
DATA
  6
CONTINUOUS
 62
     7
 10
62.148010791125401
 20
127.93442774526299
 30
0.0
 11
62.148010791125401
 21
132.93442774526301
 31
0.0
  0
LINE
  5
151
  8
DATA
  6
CONTINUOUS
 62
     7
 10
38.148010791125401
 20
127.93442774526299
 30
0.0
 11
55.148010791125401
 21
127.93442774526299
 31
0.0
  0
POLYLINE
  5
152
  8
DATA
  6
CONTINUOUS
 62
     7
 66
     1
 10
0.0
 20
0.0
 30
0.0
 70
     1
  0
VERTEX
  5
312
  8
DATA
  6
CONTINUOUS
 62
     7
 10
41.648010791125401
 20
130.72059091975589
 30
0.0
  0
VERTEX
  5
313
  8
DATA
  6
CONTINUOUS
 62
     7
 10
51.648010791125401
 20
130.72059091975589
 30
0.0
  0
VERTEX
  5
314
  8
DATA
  6
CONTINUOUS
 62
     7
 10
51.648010791125401
 20
130.22059091975589
 30
0.0
  0
VERTEX
  5
315
  8
DATA
  6
CONTINUOUS
 62
     7
 10
41.648010791125401
 20
130.22059091975589
 30
0.0
  0
SEQEND
  5
316
  8
DATA
  6
CONTINUOUS
 62
     7
  0
LINE
  5
159
  8
DATA
  6
CONTINUOUS
 62
     7
 10
38.148010791125401
 20
132.93442774526301
 30
0.0
 11
53.962248624331536
 21
132.93442774526301
 31
0.0
  0
LINE
  5
15A
  8
DATA
  6
CONTINUOUS
 62
     7
 10
55.148010791125401
 20
127.93442774526299
 30
0.0
 11
55.148010791125401
 21
131.7486655784692
 31
0.0
  0
LINE
  5
15B
  8
DATA
  6
CONTINUOUS
 62
     7
 10
55.148010791125401
 20
131.7486655784692
 30
0.0
 11
53.962248624331572
 21
132.93442774526301
 31
0.0
  0
LINE
  5
15C
  8
DATA
  6
CONTINUOUS
 62
     7
 10
38.148010791125401
 20
127.93442774526299
 30
0.0
 11
38.148010791125401
 21
132.93442774526301
 31
0.0
  0
CIRCLE
  5
15D
  8
DATA
  6
CONTINUOUS
 62
     7
 10
-14.28365588380924
 20
113.6652700436145
 30
0.0
 40
1.1750000000000109
  0
POLYLINE
  5
15E
  8
DATA
  6
CONTINUOUS
 62
     7
 66
     1
 10
0.0
 20
0.0
 30
0.0
 70
     1
  0
VERTEX
  5
317
  8
DATA
  6
CONTINUOUS
 62
     7
 10
-14.28365588380924
 20
110.96527004361459
 30
0.0
  0
VERTEX
  5
318
  8
DATA
  6
CONTINUOUS
 62
     7
 10
-11.945387293591461
 20
112.3152700436146
 30
0.0
  0
VERTEX
  5
319
  8
DATA
  6
CONTINUOUS
 62
     7
 10
-11.945387293591461
 20
115.01527004361429
 30
0.0
  0
VERTEX
  5
31A
  8
DATA
  6
CONTINUOUS
 62
     7
 10
-14.28365588380924
 20
116.3652700436142
 30
0.0
  0
VERTEX
  5
31B
  8
DATA
  6
CONTINUOUS
 62
     7
 10
-16.621924474027221
 20
115.01527004361429
 30
0.0
  0
VERTEX
  5
31C
  8
DATA
  6
CONTINUOUS
 62
     7
 10
-16.621924474027221
 20
112.3152700436146
 30
0.0
  0
SEQEND
  5
31D
  8
DATA
  6
CONTINUOUS
 62
     7
  0
CIRCLE
  5
167
  8
DATA
  6
CONTINUOUS
 62
     7
 10
10.71634411619082
 20
113.6652700436145
 30
0.0
 40
1.175000000000054
  0
POLYLINE
  5
168
  8
DATA
  6
CONTINUOUS
 62
     7
 66
     1
 10
0.0
 20
0.0
 30
0.0
 70
     1
  0
VERTEX
  5
31E
  8
DATA
  6
CONTINUOUS
 62
     7
 10
10.71634411619082
 20
110.96527004361459
 30
0.0
  0
VERTEX
  5
31F
  8
DATA
  6
CONTINUOUS
 62
     7
 10
13.054612706408721
 20
112.3152700436146
 30
0.0
  0
VERTEX
  5
320
  8
DATA
  6
CONTINUOUS
 62
     7
 10
13.054612706408721
 20
115.01527004361429
 30
0.0
  0
VERTEX
  5
321
  8
DATA
  6
CONTINUOUS
 62
     7
 10
10.71634411619082
 20
116.3652700436142
 30
0.0
  0
VERTEX
  5
322
  8
DATA
  6
CONTINUOUS
 62
     7
 10
8.3780755259728021
 20
115.01527004361429
 30
0.0
  0
VERTEX
  5
323
  8
DATA
  6
CONTINUOUS
 62
     7
 10
8.3780755259728021
 20
112.3152700436146
 30
0.0
  0
SEQEND
  5
324
  8
DATA
  6
CONTINUOUS
 62
     7
  0
LINE
  5
171
  8
DATA
  6
CONTINUOUS
 62
     7
 10
-7.3854190939979381
 20
117.6652700436144
 30
0.0
 11
3.818107326379276
 21
117.6652700436144
 31
0.0
  0
LINE
  5
172
  8
DATA
  6
CONTINUOUS
 62
     7
 10
4.6306073263791632
 20
109.6652700436146
 30
0.0
 11
-8.1979190939979372
 21
109.6652700436146
 31
0.0
  0
LINE
  5
173
  8
DATA
  6
CONTINUOUS
 62
     7
 10
5.2013241736308364
 20
116.4813976759973
 30
0.0
 11
6.0138241736307227
 21
111.2813976759977
 31
0.0
  0
LINE
  5
174
  8
DATA
  6
CONTINUOUS
 62
     7
 10
-9.5811359412495012
 20
111.2813976759977
 30
0.0
 11
-8.7686359412494994
 21
116.4813976759973
 31
0.0
  0
CIRCLE
  5
175
  8
DATA
  6
CONTINUOUS
 62
     7
 10
-1.7570261133344041
 20
112.0289618724609
 30
0.0
 40
0.5
  0
ARC
  5
176
  8
DATA
  6
CONTINUOUS
 62
     7
 10
4.6306073263791632
 20
111.0652700436146
 30
0.0
 40
1.399999999999977
 50
270.0
 51
8.8806591505205574
  0
ARC
  5
177
  8
DATA
  6
CONTINUOUS
 62
     7
 10
-8.1979190939979372
 20
111.0652700436146
 30
0.0
 40
1.400000000000019
 50
171.1193408494795
 51
270.0
  0
ARC
  5
178
  8
DATA
  6
CONTINUOUS
 62
     7
 10
3.818107326379276
 20
116.26527004361419
 30
0.0
 40
1.4000000000000281
 50
8.8806591505228312
 51
90.0
  0
ARC
  5
179
  8
DATA
  6
CONTINUOUS
 62
     7
 10
-7.3854190939979381
 20
116.26527004361419
 30
0.0
 40
1.4000000000001469
 50
90.0
 51
171.11934084947711
  0
CIRCLE
  5
17A
  8
DATA
  6
CONTINUOUS
 62
     7
 10
0.7429738866655953
 20
112.0289618724609
 30
0.0
 40
0.5
  0
CIRCLE
  5
17B
  8
DATA
  6
CONTINUOUS
 62
     7
 10
3.2429738866655948
 20
112.0289618724609
 30
0.0
 40
0.5
  0
CIRCLE
  5
17C
  8
DATA
  6
CONTINUOUS
 62
     7
 10
-4.2570261133344038
 20
112.0289618724609
 30
0.0
 40
0.5
  0
CIRCLE
  5
17D
  8
DATA
  6
CONTINUOUS
 62
     7
 10
-6.7570261133344038
 20
112.0289618724609
 30
0.0
 40
0.5
  0
CIRCLE
  5
17E
  8
DATA
  6
CONTINUOUS
 62
     7
 10
-0.5615149372631551
 20
115.6474822912233
 30
0.0
 40
0.5
  0
CIRCLE
  5
17F
  8
DATA
  6
CONTINUOUS
 62
     7
 10
1.938485062736844
 20
115.6474822912233
 30
0.0
 40
0.5
  0
CIRCLE
  5
180
  8
DATA
  6
CONTINUOUS
 62
     7
 10
-3.061514937263154
 20
115.6474822912233
 30
0.0
 40
0.5
  0
CIRCLE
  5
181
  8
DATA
  6
CONTINUOUS
 62
     7
 10
-5.561514937263154
 20
115.6474822912233
 30
0.0
 40
0.5
  0
TEXT
  5
182
  8
DATA
 62
     7
 10
3.3678444033539421
 20
107.45120072708499
 30
0.0
 40
2.4432617187500001
  1
RS-232
 50
180.0
 41
0.7
 11
3.3678444033539421
 21
105.007939008335
 31
0.0
 73
     3
  0
TEXT
  5
183
  8
DATA
 62
     7
 10
-52.208707949588728
 20
115.6305
 30
0.0
 40
2.4432617187500001
  1
USB
 50
180.0
 41
0.7
 11
-52.208707949588728
 21
113.18723828125
 31
0.0
 73
     3
  0
LINE
  5
184
  8
DATA
  6
CONTINUOUS
 62
     7
 10
-50.000000000000028
 20
114.4875
 30
0.0
 11
-29.600000000000041
 21
114.4875
 31
0.0
  0
LINE
  5
185
  8
DATA
  6
CONTINUOUS
 62
     7
 10
-58.78693807561698
 20
114.4875
 30
0.0
 11
-79.186938075616993
 21
114.4875
 31
0.0
  0
TEXT
  5
186
  8
DATA
 62
     7
 10
115.7999999999999
 20
139.90113022858699
 30
0.0
 40
2.4432617187500001
  1
5V DC
 50
180.0
 41
0.7
 11
115.7999999999999
 21
137.457868509837
 31
0.0
 73
     3
  0
TEXT
  5
187
  8
DATA
 62
     7
 10
98.113447374151079
 20
139.90113022858699
 30
0.0
 40
2.4432617187500001
  1
In 1
 50
180.0
 41
0.7
 11
98.113447374151079
 21
137.457868509837
 31
0.0
 73
     3
  0
TEXT
  5
188
  8
DATA
 62
     7
 10
72.682810173191655
 20
139.90113022858699
 30
0.0
 40
2.4432617187500001
  1
Out
 50
180.0
 41
0.7
 11
72.682810173191655
 21
137.457868509837
 31
0.0
 73
     3
  0
TEXT
  5
189
  8
DATA
 62
     7
 10
50.113447374151072
 20
139.90113022858699
 30
0.0
 40
2.4432617187500001
  1
In 2
 50
180.0
 41
0.7
 11
50.113447374151072
 21
137.457868509837
 31
0.0
 73
     3
  0
TEXT
  5
18A
  8
DATA
 62
     7
 10
24.345660699166771
 20
139.90113022858699
 30
0.0
 40
2.4432617187500001
  1
In 1
 50
180.0
 41
0.7
 11
24.345660699166771
 21
137.457868509837
 31
0.0
 73
     3
  0
TEXT
  5
18B
  8
DATA
 62
     7
 10
10.09577031585785
 20
139.90113022858699
 30
0.0
 40
2.4432617187500001
  1
In 2
 50
180.0
 41
0.7
 11
10.09577031585785
 21
137.457868509837
 31
0.0
 73
     3
  0
TEXT
  5
18C
  8
DATA
 62
     7
 10
-6.4219067424353806
 20
139.90113022858699
 30
0.0
 40
2.4432617187500001
  1
Out
 50
180.0
 41
0.7
 11
-6.4219067424353824
 21
137.457868509837
 31
0.0
 73
     3
  0
TEXT
  5
18D
  8
DATA
 62
     7
 10
-19.993272675754771
 20
139.90113022858699
 30
0.0
 40
2.4432617187500001
  1
ExtIR
 50
180.0
 41
0.7
 11
-19.993272675754771
 21
137.457868509837
 31
0.0
 73
     3
  0
TEXT
  5
18E
  8
DATA
 62
     7
 10
-37.279065259105529
 20
139.90113022858699
 30
0.0
 40
2.4432617187500001
  1
Out
 50
180.0
 41
0.7
 11
-37.279065259105529
 21
137.457868509837
 31
0.0
 73
     3
  0
TEXT
  5
18F
  8
DATA
 62
     7
 10
-54.743711142519047
 20
139.90113022858699
 30
0.0
 40
2.4432617187500001
  1
In 1
 50
180.0
 41
0.7
 11
-54.743711142519047
 21
137.457868509837
 31
0.0
 73
     3
  0
TEXT
  5
190
  8
DATA
 62
     7
 10
-68.99360152582797
 20
139.90113022858699
 30
0.0
 40
2.4432617187500001
  1
In 2
 50
180.0
 41
0.7
 11
-68.99360152582797
 21
137.457868509837
 31
0.0
 73
     3
  0
TEXT
  5
191
  8
DATA
 62
     7
 10
10.4119546225224
 20
125.6277220361298
 30
0.0
 40
2.4432617187500001
  1
Audio
 50
180.0
 41
0.7
 11
10.4119546225224
 21
123.1844603173798
 31
0.0
 73
     3
  0
TEXT
  5
192
  8
DATA
 62
     7
 10
78.637650752296807
 20
125.4764811352414
 30
0.0
 40
2.4432617187500001
  1
DisplayPort
 50
180.0
 41
0.7
 11
78.637650752296807
 21
123.03321941649141
 31
0.0
 73
     3
  0
LINE
  5
193
  8
DATA
  6
CONTINUOUS
 62
     7
 10
103.1480107911254
 20
124.8427124774086
 30
0.0
 11
81.599999999999937
 21
124.8427124774086
 31
0.0
  0
LINE
  5
194
  8
DATA
  6
CONTINUOUS
 62
     7
 10
38.148010791125401
 20
124.8427124774086
 30
0.0
 11
58.79999999999999
 21
124.8427124774086
 31
0.0
  0
LINE
  5
195
  8
DATA
  6
CONTINUOUS
 62
     7
 10
-9.2764117491684157
 20
124.8427124774086
 30
0.0
 11
0.6235882508315598
 21
124.8427124774086
 31
0.0
  0
LINE
  5
196
  8
DATA
  6
CONTINUOUS
 62
     7
 10
22.276411749168378
 20
124.8427124774086
 30
0.0
 11
12.37641174916841
 21
124.8427124774086
 31
0.0
  0
LINE
  5
197
  8
DATA
  6
CONTINUOUS
 62
     7
 10
-16.621924474027221
 20
70.25
 30
0.0
 11
-16.621924474027221
 21
65.25
 31
0.0
  0
LINE
  5
198
  8
DATA
  6
CONTINUOUS
 62
     7
 10
-11.945387293591461
 20
70.25
 30
0.0
 11
-11.945387293591461
 21
65.25
 31
0.0
  0
LINE
  5
199
  8
DATA
  6
CONTINUOUS
 62
     7
 10
8.3780755259728021
 20
70.25
 30
0.0
 11
8.3780755259728021
 21
65.25
 31
0.0
  0
LINE
  5
19A
  8
DATA
  6
CONTINUOUS
 62
     7
 10
13.054612706408721
 20
70.25
 30
0.0
 11
13.054612706408721
 21
65.25
 31
0.0
  0
LINE
  5
19B
  8
DATA
  6
CONTINUOUS
 62
     7
 10
-9.5943430983746634
 20
70.25
 30
0.0
 11
-9.5943430983746634
 21
65.25
 31
0.0
  0
LINE
  5
19C
  8
DATA
  6
CONTINUOUS
 62
     7
 10
6.25
 20
70.25
 30
0.0
 11
6.25
 21
65.25
 31
0.0
  0
LINE
  5
19D
  8
DATA
  6
CONTINUOUS
 62
     7
 10
-16.621924474027221
 20
70.25
 30
0.0
 11
-11.945387293591461
 21
70.25
 31
0.0
  0
LINE
  5
19E
  8
DATA
  6
CONTINUOUS
 62
     7
 10
-9.5943430983746634
 20
70.25
 30
0.0
 11
6.25
 21
70.25
 31
0.0
  0
LINE
  5
19F
  8
DATA
  6
CONTINUOUS
 62
     7
 10
8.3780755259728021
 20
70.25
 30
0.0
 11
13.054612706408721
 21
70.25
 31
0.0
  0
LINE
  5
1A0
  8
DATA
  6
CONTINUOUS
 62
     7
 10
-87.500000000000014
 20
284.00000000001648
 30
0.0
 11
-87.500000000000014
 21
175.00000000001631
 31
0.0
  0
LINE
  5
1A1
  8
DATA
  6
CONTINUOUS
 62
     7
 10
126.5
 20
284.00000000001648
 30
0.0
 11
-87.500000000000014
 21
284.00000000001648
 31
0.0
  0
LINE
  5
1A2
  8
DATA
  6
CONTINUOUS
 62
     7
 10
126.5
 20
175.00000000001631
 30
0.0
 11
126.5
 21
284.00000000001648
 31
0.0
  0
LINE
  5
1A3
  8
DATA
  6
CONTINUOUS
 62
     7
 10
-87.500000000000014
 20
175.00000000001631
 30
0.0
 11
126.5
 21
175.00000000001631
 31
0.0
  0
ARC
  5
1A4
  8
DATA
  6
CONTINUOUS
 62
     7
 10
-60.500000000000021
 20
283.66991415545482
 30
0.0
 40
1.5000000000000011
 50
12.71239439147052
 51
167.2876056085295
  0
ARC
  5
1A5
  8
DATA
  6
CONTINUOUS
 62
     7
 10
29.499999999999989
 20
283.66991415545482
 30
0.0
 40
1.500000000000002
 50
12.71239439146828
 51
167.28760560853169
  0
ARC
  5
1A6
  8
DATA
  6
CONTINUOUS
 62
     7
 10
49.499999999999993
 20
283.66991415545482
 30
0.0
 40
1.4999999999999949
 50
12.712394391469459
 51
167.2876056085305
  0
LINE
  5
1A7
  8
DATA
  6
CONTINUOUS
 62
     7
 10
65.749999999999986
 20
286.0000000000166
 30
0.0
 11
65.749999999999986
 21
284.00000000001648
 31
0.0
  0
LINE
  5
1A8
  8
DATA
  6
CONTINUOUS
 62
     7
 10
70.249999999999986
 20
286.0000000000166
 30
0.0
 11
70.249999999999986
 21
284.00000000001648
 31
0.0
  0
LINE
  5
1A9
  8
DATA
  6
CONTINUOUS
 62
     7
 10
70.249999999999986
 20
286.0000000000166
 30
0.0
 11
65.749999999999986
 21
286.0000000000166
 31
0.0
  0
LINE
  5
1AA
  8
DATA
  6
CONTINUOUS
 62
     7
 10
-16.621924474027221
 20
170.00000000001631
 30
0.0
 11
-16.621924474027221
 21
175.00000000001631
 31
0.0
  0
LINE
  5
1AB
  8
DATA
  6
CONTINUOUS
 62
     7
 10
-11.945387293591461
 20
170.00000000001631
 30
0.0
 11
-11.945387293591461
 21
175.00000000001631
 31
0.0
  0
LINE
  5
1AC
  8
DATA
  6
CONTINUOUS
 62
     7
 10
8.3780755259728021
 20
170.00000000001631
 30
0.0
 11
8.3780755259728021
 21
175.00000000001631
 31
0.0
  0
LINE
  5
1AD
  8
DATA
  6
CONTINUOUS
 62
     7
 10
13.054612706408721
 20
170.00000000001631
 30
0.0
 11
13.054612706408721
 21
175.00000000001631
 31
0.0
  0
LINE
  5
1AE
  8
DATA
  6
CONTINUOUS
 62
     7
 10
-9.5943430983746634
 20
170.00000000001631
 30
0.0
 11
-9.5943430983746634
 21
175.00000000001631
 31
0.0
  0
LINE
  5
1AF
  8
DATA
  6
CONTINUOUS
 62
     7
 10
6.25
 20
170.00000000001631
 30
0.0
 11
6.25
 21
175.00000000001631
 31
0.0
  0
LINE
  5
1B0
  8
DATA
  6
CONTINUOUS
 62
     7
 10
-16.621924474027221
 20
170.00000000001631
 30
0.0
 11
-11.945387293591461
 21
170.00000000001631
 31
0.0
  0
LINE
  5
1B1
  8
DATA
  6
CONTINUOUS
 62
     7
 10
-9.5943430983746634
 20
170.00000000001631
 30
0.0
 11
6.25
 21
170.00000000001631
 31
0.0
  0
LINE
  5
1B2
  8
DATA
  6
CONTINUOUS
 62
     7
 10
8.3780755259728021
 20
170.00000000001631
 30
0.0
 11
13.054612706408721
 21
170.00000000001631
 31
0.0
  0
LINE
  5
1B3
  8
DATA
  6
CONTINUOUS
 62
     7
 10
-87.500000000000014
 20
187.00000000001631
 30
0.0
 11
126.5
 21
187.00000000001631
 31
0.0
  0
CIRCLE
  5
1B4
  8
DATA
  6
CONTINUOUS
 62
     7
 10
-76.500000000000014
 20
274.00000000001648
 30
0.0
 40
6.0
  0
CIRCLE
  5
1B5
  8
DATA
  6
CONTINUOUS
 62
     7
 10
-76.500000000000014
 20
274.00000000001648
 30
0.0
 40
5.0
  0
CIRCLE
  5
1B6
  8
DATA
  6
CONTINUOUS
 62
     7
 10
-76.500000000000014
 20
196.00000000001651
 30
0.0
 40
6.0
  0
CIRCLE
  5
1B7
  8
DATA
  6
CONTINUOUS
 62
     7
 10
-76.500000000000014
 20
196.00000000001651
 30
0.0
 40
5.0
  0
CIRCLE
  5
1B8
  8
DATA
  6
CONTINUOUS
 62
     7
 10
115.5
 20
274.00000000001648
 30
0.0
 40
6.0
  0
CIRCLE
  5
1B9
  8
DATA
  6
CONTINUOUS
 62
     7
 10
115.5
 20
274.00000000001648
 30
0.0
 40
5.0
  0
CIRCLE
  5
1BA
  8
DATA
  6
CONTINUOUS
 62
     7
 10
115.5
 20
196.00000000001651
 30
0.0
 40
6.0
  0
CIRCLE
  5
1BB
  8
DATA
  6
CONTINUOUS
 62
     7
 10
115.5
 20
196.00000000001651
 30
0.0
 40
5.0
  0
CIRCLE
  5
1BC
  8
DATA
  6
CONTINUOUS
 62
     7
 10
19.499999999999972
 20
181.00000000001631
 30
0.0
 40
2.5
  0
LINE
  5
1BD
  8
DATA
  6
CONTINUOUS
 62
     7
 10
20.91421356235692
 20
181.00000000001631
 30
0.0
 11
18.085786437643019
 21
181.00000000001631
 31
0.0
  0
LINE
  5
1BE
  8
DATA
  6
CONTINUOUS
 62
     7
 10
19.499999999999972
 20
179.58578643765941
 30
0.0
 11
19.499999999999972
 21
182.41421356237331
 31
0.0
  0
CIRCLE
  5
1BF
  8
DATA
  6
CONTINUOUS
 62
     7
 10
94.499999999999943
 20
181.00000000001631
 30
0.0
 40
2.5
  0
LINE
  5
1C0
  8
DATA
  6
CONTINUOUS
 62
     7
 10
95.914213562356935
 20
181.00000000001631
 30
0.0
 11
93.085786437643009
 21
181.00000000001631
 31
0.0
  0
LINE
  5
1C1
  8
DATA
  6
CONTINUOUS
 62
     7
 10
94.499999999999943
 20
179.58578643765941
 30
0.0
 11
94.499999999999943
 21
182.41421356237331
 31
0.0
  0
CIRCLE
  5
1C2
  8
DATA
  6
CONTINUOUS
 62
     7
 10
-55.500000000000021
 20
181.00000000001631
 30
0.0
 40
2.5
  0
LINE
  5
1C3
  8
DATA
  6
CONTINUOUS
 62
     7
 10
-54.085786437643073
 20
181.00000000001631
 30
0.0
 11
-56.91421356235697
 21
181.00000000001631
 31
0.0
  0
LINE
  5
1C4
  8
DATA
  6
CONTINUOUS
 62
     7
 10
-55.500000000000021
 20
179.58578643765941
 30
0.0
 11
-55.500000000000021
 21
182.41421356237331
 31
0.0
  0
CIRCLE
  5
1C5
  8
DATA
  6
CONTINUOUS
 62
     7
 10
-15.500000000000011
 20
230.00000000001651
 30
0.0
 40
1.400000000000005
  0
CIRCLE
  5
1C6
  8
DATA
  6
CONTINUOUS
 62
     7
 10
54.499999999999993
 20
230.00000000001651
 30
0.0
 40
1.3999999999999979
  0
LINE
  5
1C7
  8
DATA
  6
CONTINUOUS
 62
     7
 10
-86.000000000000014
 20
276.00000000001648
 30
0.0
 11
-86.000000000000014
 21
187.00000000001631
 31
0.0
  0
LINE
  5
1C8
  8
DATA
  6
CONTINUOUS
 62
     7
 10
125.0
 20
187.00000000001631
 30
0.0
 11
125.0
 21
276.00000000001648
 31
0.0
  0
LINE
  5
1C9
  8
DATA
  6
CONTINUOUS
 62
     7
 10
126.5
 20
276.00000000001648
 30
0.0
 11
125.0
 21
276.00000000001648
 31
0.0
  0
LINE
  5
1CA
  8
DATA
  6
CONTINUOUS
 62
     7
 10
-86.000000000000014
 20
276.00000000001648
 30
0.0
 11
-87.500000000000014
 21
276.00000000001648
 31
0.0
  0
LINE
  5
1CB
  8
DATA
  6
CONTINUOUS
 62
     7
 10
92.499999999999986
 20
235.40000000001649
 30
0.0
 11
92.499999999999986
 21
248.00000000001651
 31
0.0
  0
LINE
  5
1CC
  8
DATA
  6
CONTINUOUS
 62
     7
 10
84.999999999999986
 20
235.40000000001649
 30
0.0
 11
84.999999999999986
 21
248.00000000001651
 31
0.0
  0
LINE
  5
1CD
  8
DATA
  6
CONTINUOUS
 62
     7
 10
92.499999999999986
 20
248.00000000001651
 30
0.0
 11
84.999999999999986
 21
248.00000000001651
 31
0.0
  0
LINE
  5
1CE
  8
DATA
  6
CONTINUOUS
 62
     7
 10
92.499999999999986
 20
235.40000000001649
 30
0.0
 11
84.999999999999986
 21
235.40000000001649
 31
0.0
  0
POLYLINE
  5
1CF
  8
DATA
  6
CONTINUOUS
 62
     7
 66
     1
 10
0.0
 20
0.0
 30
0.0
 70
     1
  0
VERTEX
  5
325
  8
DATA
  6
CONTINUOUS
 62
     7
 10
88.579491952268597
 20
243.50000000001651
 30
0.0
  0
VERTEX
  5
326
  8
DATA
  6
CONTINUOUS
 62
     7
 10
89.679491952268606
 20
243.50000000001651
 30
0.0
  0
VERTEX
  5
327
  8
DATA
  6
CONTINUOUS
 62
     7
 10
89.679491952268606
 20
242.40000000001649
 30
0.0
  0
VERTEX
  5
328
  8
DATA
  6
CONTINUOUS
 62
     7
 10
88.579491952268597
 20
242.40000000001649
 30
0.0
  0
SEQEND
  5
329
  8
DATA
  6
CONTINUOUS
 62
     7
  0
POLYLINE
  5
1D6
  8
DATA
  6
CONTINUOUS
 62
     7
 66
     1
 10
0.0
 20
0.0
 30
0.0
 70
     1
  0
VERTEX
  5
32A
  8
DATA
  6
CONTINUOUS
 62
     7
 10
88.579491952268597
 20
246.00000000001651
 30
0.0
  0
VERTEX
  5
32B
  8
DATA
  6
CONTINUOUS
 62
     7
 10
89.679491952268606
 20
246.00000000001651
 30
0.0
  0
VERTEX
  5
32C
  8
DATA
  6
CONTINUOUS
 62
     7
 10
89.679491952268606
 20
244.90000000001649
 30
0.0
  0
VERTEX
  5
32D
  8
DATA
  6
CONTINUOUS
 62
     7
 10
88.579491952268597
 20
244.90000000001649
 30
0.0
  0
SEQEND
  5
32E
  8
DATA
  6
CONTINUOUS
 62
     7
  0
LINE
  5
1DD
  8
DATA
  6
CONTINUOUS
 62
     7
 10
87.329491952268597
 20
246.00000000001651
 30
0.0
 11
87.329491952268597
 21
244.90000000001649
 31
0.0
  0
LINE
  5
1DE
  8
DATA
  6
CONTINUOUS
 62
     7
 10
87.329491952268597
 20
243.50000000001651
 30
0.0
 11
87.329491952268597
 21
242.40000000001649
 31
0.0
  0
LINE
  5
1DF
  8
DATA
  6
CONTINUOUS
 62
     7
 10
88.579491952268597
 20
246.00000000001651
 30
0.0
 11
87.329491952268597
 21
246.00000000001651
 31
0.0
  0
LINE
  5
1E0
  8
DATA
  6
CONTINUOUS
 62
     7
 10
88.579491952268597
 20
244.90000000001649
 30
0.0
 11
87.329491952268597
 21
244.90000000001649
 31
0.0
  0
LINE
  5
1E1
  8
DATA
  6
CONTINUOUS
 62
     7
 10
88.579491952268597
 20
243.50000000001651
 30
0.0
 11
87.329491952268597
 21
243.50000000001651
 31
0.0
  0
LINE
  5
1E2
  8
DATA
  6
CONTINUOUS
 62
     7
 10
88.579491952268597
 20
242.40000000001649
 30
0.0
 11
87.329491952268597
 21
242.40000000001649
 31
0.0
  0
POLYLINE
  5
1E3
  8
DATA
  6
CONTINUOUS
 62
     7
 66
     1
 10
0.0
 20
0.0
 30
0.0
 70
     1
  0
VERTEX
  5
32F
  8
DATA
  6
CONTINUOUS
 62
     7
 10
88.579491952268597
 20
241.00000000001651
 30
0.0
  0
VERTEX
  5
330
  8
DATA
  6
CONTINUOUS
 62
     7
 10
89.679491952268606
 20
241.00000000001651
 30
0.0
  0
VERTEX
  5
331
  8
DATA
  6
CONTINUOUS
 62
     7
 10
89.679491952268606
 20
239.90000000001649
 30
0.0
  0
VERTEX
  5
332
  8
DATA
  6
CONTINUOUS
 62
     7
 10
88.579491952268597
 20
239.90000000001649
 30
0.0
  0
SEQEND
  5
333
  8
DATA
  6
CONTINUOUS
 62
     7
  0
POLYLINE
  5
1EA
  8
DATA
  6
CONTINUOUS
 62
     7
 66
     1
 10
0.0
 20
0.0
 30
0.0
 70
     1
  0
VERTEX
  5
334
  8
DATA
  6
CONTINUOUS
 62
     7
 10
88.579491952268597
 20
238.50000000001651
 30
0.0
  0
VERTEX
  5
335
  8
DATA
  6
CONTINUOUS
 62
     7
 10
89.679491952268606
 20
238.50000000001651
 30
0.0
  0
VERTEX
  5
336
  8
DATA
  6
CONTINUOUS
 62
     7
 10
89.679491952268606
 20
237.40000000001649
 30
0.0
  0
VERTEX
  5
337
  8
DATA
  6
CONTINUOUS
 62
     7
 10
88.579491952268597
 20
237.40000000001649
 30
0.0
  0
SEQEND
  5
338
  8
DATA
  6
CONTINUOUS
 62
     7
  0
LINE
  5
1F1
  8
DATA
  6
CONTINUOUS
 62
     7
 10
87.329491952268597
 20
237.40000000001649
 30
0.0
 11
87.329491952268597
 21
238.50000000001651
 31
0.0
  0
LINE
  5
1F2
  8
DATA
  6
CONTINUOUS
 62
     7
 10
87.329491952268597
 20
239.90000000001649
 30
0.0
 11
87.329491952268597
 21
241.00000000001651
 31
0.0
  0
LINE
  5
1F3
  8
DATA
  6
CONTINUOUS
 62
     7
 10
88.579491952268597
 20
237.40000000001649
 30
0.0
 11
87.329491952268597
 21
237.40000000001649
 31
0.0
  0
LINE
  5
1F4
  8
DATA
  6
CONTINUOUS
 62
     7
 10
88.579491952268597
 20
238.50000000001651
 30
0.0
 11
87.329491952268597
 21
238.50000000001651
 31
0.0
  0
LINE
  5
1F5
  8
DATA
  6
CONTINUOUS
 62
     7
 10
88.579491952268597
 20
239.90000000001649
 30
0.0
 11
87.329491952268597
 21
239.90000000001649
 31
0.0
  0
LINE
  5
1F6
  8
DATA
  6
CONTINUOUS
 62
     7
 10
88.579491952268597
 20
241.00000000001651
 30
0.0
 11
87.329491952268597
 21
241.00000000001651
 31
0.0
  0
TEXT
  5
1F7
  8
DATA
 62
     7
 10
91.644099268388047
 20
237.47666666666669
 30
0.0
 40
1.3030729166666659
  1
1
 50
90.0
 41
0.7
 11
90.341026351721396
 21
237.47666666666669
 31
0.0
 73
     3
  0
TEXT
  5
1F8
  8
DATA
 62
     7
 10
91.644099268388047
 20
239.97666666666669
 30
0.0
 40
1.3030729166666659
  1
2
 50
90.0
 41
0.7
 11
90.341026351721396
 21
239.97666666666669
 31
0.0
 73
     3
  0
TEXT
  5
1F9
  8
DATA
 62
     7
 10
91.644099268388047
 20
242.47666666666669
 30
0.0
 40
1.3030729166666659
  1
3
 50
90.0
 41
0.7
 11
90.341026351721396
 21
242.47666666666669
 31
0.0
 73
     3
  0
TEXT
  5
1FA
  8
DATA
 62
     7
 10
91.644099268388047
 20
244.97666666666669
 30
0.0
 40
1.3030729166666659
  1
4
 50
90.0
 41
0.7
 11
90.341026351721396
 21
244.97666666666669
 31
0.0
 73
     3
  0
TEXT
  5
1FB
  8
DATA
 62
     7
 10
86.682260813771109
 20
238.37432016431839
 30
0.0
 40
1.3030729166666659
  1
ON
 50
90.0
 41
0.7
 11
85.379187897104444
 21
238.37432016431839
 31
0.0
 73
     3
  0
LINE
  5
1FC
  8
DATA
  6
CONTINUOUS
 62
     7
 10
244.19616257387111
 20
208.48796320801009
 30
0.0
 11
244.19616257387111
 21
271.48796320801011
 31
0.0
  0
LINE
  5
1FD
  8
DATA
  6
CONTINUOUS
 62
     7
 10
206.6961625738704
 20
208.48796320801009
 30
0.0
 11
206.6961625738704
 21
271.48796320801011
 31
0.0
  0
LINE
  5
1FE
  8
DATA
  6
CONTINUOUS
 62
     7
 10
244.19616257387111
 20
271.48796320801011
 30
0.0
 11
206.6961625738704
 21
271.48796320801011
 31
0.0
  0
LINE
  5
1FF
  8
DATA
  6
CONTINUOUS
 62
     7
 10
244.19616257387111
 20
208.48796320801009
 30
0.0
 11
206.6961625738704
 21
208.48796320801009
 31
0.0
  0
POLYLINE
  5
200
  8
DATA
  6
CONTINUOUS
 62
     7
 66
     1
 10
0.0
 20
0.0
 30
0.0
 70
     1
  0
VERTEX
  5
339
  8
DATA
  6
CONTINUOUS
 62
     7
 10
224.5936223352135
 20
248.98796320801009
 30
0.0
  0
VERTEX
  5
33A
  8
DATA
  6
CONTINUOUS
 62
     7
 10
230.0936223352135
 20
248.98796320801009
 30
0.0
  0
VERTEX
  5
33B
  8
DATA
  6
CONTINUOUS
 62
     7
 10
230.0936223352135
 20
243.48796320801009
 30
0.0
  0
VERTEX
  5
33C
  8
DATA
  6
CONTINUOUS
 62
     7
 10
224.5936223352135
 20
243.48796320801009
 30
0.0
  0
SEQEND
  5
33D
  8
DATA
  6
CONTINUOUS
 62
     7
  0
POLYLINE
  5
207
  8
DATA
  6
CONTINUOUS
 62
     7
 66
     1
 10
0.0
 20
0.0
 30
0.0
 70
     1
  0
VERTEX
  5
33E
  8
DATA
  6
CONTINUOUS
 62
     7
 10
224.5936223352135
 20
261.48796320801011
 30
0.0
  0
VERTEX
  5
33F
  8
DATA
  6
CONTINUOUS
 62
     7
 10
230.0936223352135
 20
261.48796320801011
 30
0.0
  0
VERTEX
  5
340
  8
DATA
  6
CONTINUOUS
 62
     7
 10
230.0936223352135
 20
255.98796320801009
 30
0.0
  0
VERTEX
  5
341
  8
DATA
  6
CONTINUOUS
 62
     7
 10
224.5936223352135
 20
255.98796320801009
 30
0.0
  0
SEQEND
  5
342
  8
DATA
  6
CONTINUOUS
 62
     7
  0
LINE
  5
20E
  8
DATA
  6
CONTINUOUS
 62
     7
 10
218.34362233521361
 20
261.48796320801011
 30
0.0
 11
218.34362233521361
 21
255.98796320801009
 31
0.0
  0
LINE
  5
20F
  8
DATA
  6
CONTINUOUS
 62
     7
 10
218.34362233521361
 20
248.98796320801009
 30
0.0
 11
218.34362233521361
 21
243.48796320801009
 31
0.0
  0
LINE
  5
210
  8
DATA
  6
CONTINUOUS
 62
     7
 10
224.5936223352135
 20
261.48796320801011
 30
0.0
 11
218.34362233521361
 21
261.48796320801011
 31
0.0
  0
LINE
  5
211
  8
DATA
  6
CONTINUOUS
 62
     7
 10
224.5936223352135
 20
255.98796320801009
 30
0.0
 11
218.34362233521361
 21
255.98796320801009
 31
0.0
  0
LINE
  5
212
  8
DATA
  6
CONTINUOUS
 62
     7
 10
224.5936223352135
 20
248.98796320801009
 30
0.0
 11
218.34362233521361
 21
248.98796320801009
 31
0.0
  0
LINE
  5
213
  8
DATA
  6
CONTINUOUS
 62
     7
 10
224.5936223352135
 20
243.48796320801009
 30
0.0
 11
218.34362233521361
 21
243.48796320801009
 31
0.0
  0
POLYLINE
  5
214
  8
DATA
  6
CONTINUOUS
 62
     7
 66
     1
 10
0.0
 20
0.0
 30
0.0
 70
     1
  0
VERTEX
  5
343
  8
DATA
  6
CONTINUOUS
 62
     7
 10
224.5936223352135
 20
236.48796320801
 30
0.0
  0
VERTEX
  5
344
  8
DATA
  6
CONTINUOUS
 62
     7
 10
230.0936223352135
 20
236.48796320801
 30
0.0
  0
VERTEX
  5
345
  8
DATA
  6
CONTINUOUS
 62
     7
 10
230.0936223352135
 20
230.98796320801
 30
0.0
  0
VERTEX
  5
346
  8
DATA
  6
CONTINUOUS
 62
     7
 10
224.5936223352135
 20
230.98796320801
 30
0.0
  0
SEQEND
  5
347
  8
DATA
  6
CONTINUOUS
 62
     7
  0
POLYLINE
  5
21B
  8
DATA
  6
CONTINUOUS
 62
     7
 66
     1
 10
0.0
 20
0.0
 30
0.0
 70
     1
  0
VERTEX
  5
348
  8
DATA
  6
CONTINUOUS
 62
     7
 10
224.5936223352135
 20
223.98796320801
 30
0.0
  0
VERTEX
  5
349
  8
DATA
  6
CONTINUOUS
 62
     7
 10
230.0936223352135
 20
223.98796320801
 30
0.0
  0
VERTEX
  5
34A
  8
DATA
  6
CONTINUOUS
 62
     7
 10
230.0936223352135
 20
218.48796320801
 30
0.0
  0
VERTEX
  5
34B
  8
DATA
  6
CONTINUOUS
 62
     7
 10
224.5936223352135
 20
218.48796320801
 30
0.0
  0
SEQEND
  5
34C
  8
DATA
  6
CONTINUOUS
 62
     7
  0
LINE
  5
222
  8
DATA
  6
CONTINUOUS
 62
     7
 10
218.34362233521361
 20
218.48796320801
 30
0.0
 11
218.34362233521361
 21
223.98796320801009
 31
0.0
  0
LINE
  5
223
  8
DATA
  6
CONTINUOUS
 62
     7
 10
218.34362233521361
 20
230.98796320801
 30
0.0
 11
218.34362233521361
 21
236.48796320801009
 31
0.0
  0
LINE
  5
224
  8
DATA
  6
CONTINUOUS
 62
     7
 10
224.5936223352135
 20
218.48796320801
 30
0.0
 11
218.34362233521361
 21
218.48796320801
 31
0.0
  0
LINE
  5
225
  8
DATA
  6
CONTINUOUS
 62
     7
 10
224.5936223352135
 20
223.98796320801009
 30
0.0
 11
218.34362233521361
 21
223.98796320801009
 31
0.0
  0
LINE
  5
226
  8
DATA
  6
CONTINUOUS
 62
     7
 10
224.5936223352135
 20
230.98796320801
 30
0.0
 11
218.34362233521361
 21
230.98796320801
 31
0.0
  0
LINE
  5
227
  8
DATA
  6
CONTINUOUS
 62
     7
 10
224.5936223352135
 20
236.48796320801009
 30
0.0
 11
218.34362233521361
 21
236.48796320801009
 31
0.0
  0
TEXT
  5
228
  8
DATA
 62
     7
 10
239.91665891581101
 20
218.8712965412611
 30
0.0
 40
6.5153645833333327
  1
1
 50
90.0
 41
0.7
 11
233.4012943324777
 21
218.8712965412611
 31
0.0
 73
     3
  0
TEXT
  5
229
  8
DATA
 62
     7
 10
239.91665891581101
 20
231.3712965412611
 30
0.0
 40
6.5153645833333327
  1
2
 50
90.0
 41
0.7
 11
233.4012943324777
 21
231.3712965412611
 31
0.0
 73
     3
  0
TEXT
  5
22A
  8
DATA
 62
     7
 10
239.91665891581101
 20
243.8712965412611
 30
0.0
 40
6.5153645833333327
  1
3
 50
90.0
 41
0.7
 11
233.4012943324777
 21
243.8712965412611
 31
0.0
 73
     3
  0
TEXT
  5
22B
  8
DATA
 62
     7
 10
239.91665891581101
 20
256.37129654126107
 30
0.0
 40
6.5153645833333327
  1
4
 50
90.0
 41
0.7
 11
233.4012943324777
 21
256.37129654126107
 31
0.0
 73
     3
  0
TEXT
  5
22C
  8
DATA
 62
     7
 10
215.10746664272611
 20
223.3595640295197
 30
0.0
 40
6.5153645833333327
  1
ON
 50
90.0
 41
0.7
 11
208.59210205939269
 21
223.3595640295197
 31
0.0
 73
     3
  0
TEXT
  5
22D
  8
DATA
 62
     7
 10
167.5
 20
186.37423125964301
 30
0.0
 40
8.1442057291666661
  1
ディツプスイッチ拡大図
 41
0.7
 11
167.5
 21
194.5184369888097
 31
0.0
 73
     3
  0
LINE
  5
22E
  8
DATA
  6
CONTINUOUS
 62
     7
 10
162.5
 20
181.25
 30
0.0
 11
287.5
 21
181.25
 31
0.0
  0
LINE
  5
22F
  8
DATA
  6
CONTINUOUS
 62
     7
 10
194.94999999999999
 20
-118.75
 30
0.0
 11
301.55000000000001
 21
-118.75
 31
0.0
  0
LINE
  5
230
  8
DATA
  6
CONTINUOUS
 62
     7
 10
194.94999999999999
 20
-76.75
 30
0.0
 11
301.55000000000001
 21
-76.75
 31
0.0
  0
LINE
  5
231
  8
DATA
  6
CONTINUOUS
 62
     7
 10
193.75
 20
-117.55
 30
0.0
 11
193.75
 21
-77.950000000000003
 31
0.0
  0
LINE
  5
232
  8
DATA
  6
CONTINUOUS
 62
     7
 10
302.75
 20
-117.5499999999999
 30
0.0
 11
302.75
 21
-77.950000000000003
 31
0.0
  0
LINE
  5
233
  8
DATA
  6
CONTINUOUS
 62
     7
 10
196.87552649342729
 20
-122.75
 30
0.0
 11
206.77552649342721
 21
-122.75
 31
0.0
  0
LINE
  5
234
  8
DATA
  6
CONTINUOUS
 62
     7
 10
196.87552649342729
 20
-122.75
 30
0.0
 11
195.82552649342719
 21
-118.75
 31
0.0
  0
LINE
  5
235
  8
DATA
  6
CONTINUOUS
 62
     7
 10
206.77552649342721
 20
-122.75
 30
0.0
 11
207.8255264934273
 21
-118.75
 31
0.0
  0
LINE
  5
236
  8
DATA
  6
CONTINUOUS
 62
     7
 10
274.87552649342729
 20
-122.75
 30
0.0
 11
284.77552649342732
 21
-122.75
 31
0.0
  0
LINE
  5
237
  8
DATA
  6
CONTINUOUS
 62
     7
 10
274.87552649342729
 20
-122.75
 30
0.0
 11
273.82552649342728
 21
-118.75
 31
0.0
  0
LINE
  5
238
  8
DATA
  6
CONTINUOUS
 62
     7
 10
284.77552649342732
 20
-122.75
 30
0.0
 11
285.82552649342722
 21
-118.75
 31
0.0
  0
LINE
  5
239
  8
DATA
  6
CONTINUOUS
 62
     7
 10
191.75
 20
-104.5
 30
0.0
 11
193.75
 21
-104.5
 31
0.0
  0
LINE
  5
23A
  8
DATA
  6
CONTINUOUS
 62
     7
 10
191.75
 20
-109.0
 30
0.0
 11
193.75
 21
-109.0
 31
0.0
  0
LINE
  5
23B
  8
DATA
  6
CONTINUOUS
 62
     7
 10
191.75
 20
-109.0
 30
0.0
 11
191.75
 21
-104.5
 31
0.0
  0
LINE
  5
23C
  8
DATA
  6
CONTINUOUS
 62
     7
 10
194.94999999999999
 20
-116.34999999999999
 30
0.0
 11
194.94999999999999
 21
-79.149999999999977
 31
0.0
  0
LINE
  5
23D
  8
DATA
  6
CONTINUOUS
 62
     7
 10
301.55000000000001
 20
-116.35000000000009
 30
0.0
 11
301.55000000000001
 21
-77.950000000000003
 31
0.0
  0
LINE
  5
23E
  8
DATA
  6
CONTINUOUS
 62
     7
 10
290.75
 20
-117.55
 30
0.0
 11
300.35000000000002
 21
-117.55
 31
0.0
  0
LINE
  5
23F
  8
DATA
  6
CONTINUOUS
 62
     7
 10
196.15000000000001
 20
-77.950000000000003
 30
0.0
 11
202.75
 21
-77.950000000000003
 31
0.0
  0
ARC
  5
240
  8
DATA
  6
CONTINUOUS
 62
     7
 10
196.15000000000001
 20
-79.149999999999977
 30
0.0
 40
1.199999999999988
 50
90.0
 51
180.0
  0
ARC
  5
241
  8
DATA
  6
CONTINUOUS
 62
     7
 10
194.94999999999999
 20
-77.950000000000003
 30
0.0
 40
1.199999999999988
 50
90.0
 51
180.0
  0
ARC
  5
242
  8
DATA
  6
CONTINUOUS
 62
     7
 10
301.55000000000001
 20
-77.950000000000003
 30
0.0
 40
1.199999999999988
 50
0.0
 51
90.0
  0
LINE
  5
243
  8
DATA
  6
CONTINUOUS
 62
     7
 10
202.75
 20
-77.950000000000003
 30
0.0
 11
202.75
 21
-76.75
 31
0.0
  0
LINE
  5
244
  8
DATA
  6
CONTINUOUS
 62
     7
 10
290.75
 20
-117.55
 30
0.0
 11
290.75
 21
-118.75
 31
0.0
  0
ARC
  5
245
  8
DATA
  6
CONTINUOUS
 62
     7
 10
300.35000000000002
 20
-116.35000000000009
 30
0.0
 40
1.1999999999999309
 50
270.0
 51
0.0000000000027285
  0
ARC
  5
246
  8
DATA
  6
CONTINUOUS
 62
     7
 10
301.55000000000001
 20
-117.5499999999999
 30
0.0
 40
1.200000000000045
 50
270.0
 51
359.99999999999733
  0
LINE
  5
247
  8
DATA
  6
CONTINUOUS
 62
     7
 10
200.75
 20
-118.75
 30
0.0
 11
200.75
 21
-117.55
 31
0.0
  0
LINE
  5
248
  8
DATA
  6
CONTINUOUS
 62
     7
 10
200.75
 20
-117.55
 30
0.0
 11
196.15000000000001
 21
-117.55
 31
0.0
  0
ARC
  5
249
  8
DATA
  6
CONTINUOUS
 62
     7
 10
196.15000000000001
 20
-116.34999999999999
 30
0.0
 40
1.199999999999988
 50
180.0
 51
270.00000000000068
  0
ARC
  5
24A
  8
DATA
  6
CONTINUOUS
 62
     7
 10
194.94999999999999
 20
-117.55
 30
0.0
 40
1.2000000000000171
 50
180.0
 51
269.99999999999932
  0
CIRCLE
  5
24B
  8
DATA
  6
CONTINUOUS
 62
     7
 10
207.25
 20
-112.75
 30
0.0
 40
2.5
  0
LINE
  5
24C
  8
DATA
  6
CONTINUOUS
 62
     7
 10
208.66421356235699
 20
-112.75
 30
0.0
 11
205.83578643764301
 21
-112.75
 31
0.0
  0
LINE
  5
24D
  8
DATA
  6
CONTINUOUS
 62
     7
 10
207.25
 20
-114.16421356235691
 30
0.0
 11
207.25
 21
-111.33578643764299
 31
0.0
  0
CIRCLE
  5
24E
  8
DATA
  6
CONTINUOUS
 62
     7
 10
207.25
 20
-82.75
 30
0.0
 40
2.5
  0
LINE
  5
24F
  8
DATA
  6
CONTINUOUS
 62
     7
 10
208.66421356235699
 20
-82.75
 30
0.0
 11
205.83578643764301
 21
-82.75
 31
0.0
  0
LINE
  5
250
  8
DATA
  6
CONTINUOUS
 62
     7
 10
207.25
 20
-84.164213562356935
 30
0.0
 11
207.25
 21
-81.335786437642994
 31
0.0
  0
CIRCLE
  5
251
  8
DATA
  6
CONTINUOUS
 62
     7
 10
279.25
 20
-112.75
 30
0.0
 40
2.5
  0
LINE
  5
252
  8
DATA
  6
CONTINUOUS
 62
     7
 10
280.66421356235702
 20
-112.75
 30
0.0
 11
277.83578643764309
 21
-112.75
 31
0.0
  0
LINE
  5
253
  8
DATA
  6
CONTINUOUS
 62
     7
 10
279.25
 20
-114.16421356235691
 30
0.0
 11
279.25
 21
-111.33578643764299
 31
0.0
  0
LINE
  5
254
  8
DATA
  6
CONTINUOUS
 62
     7
 10
307.75
 20
-93.75
 30
0.0
 11
307.75
 21
-85.750000000000014
 31
0.0
  0
LINE
  5
255
  8
DATA
  6
CONTINUOUS
 62
     7
 10
307.75
 20
-93.75
 30
0.0
 11
302.75
 21
-93.75
 31
0.0
  0
LINE
  5
256
  8
DATA
  6
CONTINUOUS
 62
     7
 10
302.75
 20
-85.750000000000014
 30
0.0
 11
307.75
 21
-85.750000000000014
 31
0.0
  0
LINE
  5
257
  8
DATA
  6
CONTINUOUS
 62
     7
 10
307.75
 20
-92.150000000000006
 30
0.0
 11
302.75
 21
-92.150000000000006
 31
0.0
  0
LINE
  5
258
  8
DATA
  6
CONTINUOUS
 62
     7
 10
302.75
 20
-87.350000000000023
 30
0.0
 11
307.75
 21
-87.350000000000023
 31
0.0
  0
ENDSEC
  0
EOF
