  0
SECTION
  2
HEADER
  9
$ACADVER
  1
AC1009
  9
$INSBASE
 10
0.0
 20
0.0
 30
0.0
  9
$EXTMIN
 10
29.989015033921529
 20
7.2674579490762881
 30
-0.0015258207003583
  9
$EXTMAX
 10
570.01739634668616
 20
810.02472112423811
 30
0.0000000349246037
  9
$LIMMIN
 10
0.0
 20
0.0
  9
$LIMMAX
 10
0.0
 20
0.0
  9
$ORTHOMODE
 70
     0
  9
$REGENMODE
 70
     1
  9
$FILLMODE
 70
     1
  9
$QTEXTMODE
 70
     0
  9
$MIRRTEXT
 70
     1
  9
$DRAGMODE
 70
     2
  9
$LTSCALE
 40
15.24
  9
$OSMODE
 70
   231
  9
$ATTMODE
 70
     1
  9
$TEXTSIZE
 40
0.0
  9
$TRACEWID
 40
1.0
  9
$TEXTSTYLE
  7
STANDARD
  9
$CLAYER
  8
DATA
  9
$CELTYPE
  6
BYLAYER
  9
$CECOLOR
 62
   256
  9
$DIMSCALE
 40
1.0
  9
$DIMASZ
 40
0.18
  9
$DIMEXO
 40
0.0625
  9
$DIMDLI
 40
0.38
  9
$DIMRND
 40
0.0
  9
$DIMDLE
 40
0.0
  9
$DIMEXE
 40
0.18
  9
$DIMTP
 40
0.0
  9
$DIMTM
 40
0.0
  9
$DIMTXT
 40
0.18
  9
$DIMCEN
 40
0.09
  9
$DIMTSZ
 40
0.0
  9
$DIMTOL
 70
     0
  9
$DIMLIM
 70
     0
  9
$DIMTIH
 70
     1
  9
$DIMTOH
 70
     1
  9
$DIMSE1
 70
     0
  9
$DIMSE2
 70
     0
  9
$DIMTAD
 70
     0
  9
$DIMZIN
 70
     0
  9
$DIMBLK
  1

  9
$DIMASO
 70
     1
  9
$DIMSHO
 70
     1
  9
$DIMPOST
  1

  9
$DIMAPOST
  1

  9
$DIMALT
 70
     0
  9
$DIMALTD
 70
     2
  9
$DIMALTF
 40
25.399999999999999
  9
$DIMLFAC
 40
1.0
  9
$DIMTOFL
 70
     0
  9
$DIMTVP
 40
0.0
  9
$DIMTIX
 70
     0
  9
$DIMSOXD
 70
     0
  9
$DIMSAH
 70
     0
  9
$DIMBLK1
  1

  9
$DIMBLK2
  1

  9
$DIMSTYLE
  2
STANDARD
  9
$DIMCLRD
 70
     0
  9
$DIMCLRE
 70
     0
  9
$DIMCLRT
 70
     0
  9
$DIMTFAC
 40
1.0
  9
$DIMGAP
 40
0.09
  9
$LUNITS
 70
     2
  9
$LUPREC
 70
     4
  9
$SKETCHINC
 40
0.1
  9
$FILLETRAD
 40
0.0
  9
$AUNITS
 70
     0
  9
$AUPREC
 70
     0
  9
$MENU
  1
acad
  9
$ELEVATION
 40
0.0
  9
$PELEVATION
 40
0.0
  9
$THICKNESS
 40
0.0
  9
$LIMCHECK
 70
     0
  9
$BLIPMODE
 70
     0
  9
$CHAMFERA
 40
0.0
  9
$CHAMFERB
 40
0.0
  9
$SKPOLY
 70
     0
  9
$TDCREATE
 40
2455477.4182754629
  9
$TDUPDATE
 40
2455477.4272092599
  9
$TDINDWG
 40
0.0002652894
  9
$TDUSRTIMER
 40
0.0002651042
  9
$USRTIMER
 70
     1
  9
$ANGBASE
 50
0.0
  9
$ANGDIR
 70
     0
  9
$PDMODE
 70
     1
  9
$PDSIZE
 40
-2.0
  9
$PLINEWID
 40
0.0
  9
$COORDS
 70
     0
  9
$SPLFRAME
 70
     0
  9
$SPLINETYPE
 70
     6
  9
$SPLINESEGS
 70
     8
  9
$ATTDIA
 70
     0
  9
$ATTREQ
 70
     1
  9
$HANDLING
 70
     1
  9
$HANDSEED
  5
5F9
  9
$SURFTAB1
 70
     6
  9
$SURFTAB2
 70
     6
  9
$SURFTYPE
 70
     6
  9
$SURFU
 70
     6
  9
$SURFV
 70
     6
  9
$UCSNAME
  2

  9
$UCSORG
 10
0.0
 20
0.0
 30
0.0
  9
$UCSXDIR
 10
1.0
 20
0.0
 30
0.0
  9
$UCSYDIR
 10
0.0
 20
1.0
 30
0.0
  9
$PUCSNAME
  2

  9
$PUCSORG
 10
0.0
 20
0.0
 30
0.0
  9
$PUCSXDIR
 10
1.0
 20
0.0
 30
0.0
  9
$PUCSYDIR
 10
0.0
 20
1.0
 30
0.0
  9
$USERI1
 70
     0
  9
$USERI2
 70
     0
  9
$USERI3
 70
     0
  9
$USERI4
 70
     0
  9
$USERI5
 70
     0
  9
$USERR1
 40
0.0
  9
$USERR2
 40
0.0
  9
$USERR3
 40
0.0
  9
$USERR4
 40
0.0
  9
$USERR5
 40
0.0
  9
$WORLDVIEW
 70
     1
  9
$SHADEDGE
 70
     3
  9
$SHADEDIF
 70
    70
  9
$TILEMODE
 70
     1
  9
$MAXACTVP
 70
    64
  9
$PLIMCHECK
 70
     0
  9
$PEXTMIN
 10
1.0000000000000000E+020
 20
1.0000000000000000E+020
 30
1.0000000000000000E+020
  9
$PEXTMAX
 10
-1.0000000000000000E+020
 20
-1.0000000000000000E+020
 30
-1.0000000000000000E+020
  9
$PLIMMIN
 10
0.0
 20
0.0
  9
$PLIMMAX
 10
12.0
 20
9.0
  9
$UNITMODE
 70
     0
  9
$VISRETAIN
 70
     0
  9
$PLINEGEN
 70
     1
  9
$PSLTSCALE
 70
     0
  0
ENDSEC
  0
SECTION
  2
TABLES
  0
TABLE
  2
VPORT
 70
     1
  0
VPORT
  2
*ACTIVE
 70
     0
 10
0.0
 20
0.0
 11
1.0
 21
1.0
 12
300.00320569030379
 22
408.64608953665709
 13
0.0
 23
0.0
 14
1.0
 24
1.0
 15
0.0
 25
0.0
 16
0.0
 26
0.0
 36
1.0
 17
0.0
 27
0.0
 37
0.0
 40
808.66713259731011
 41
1.9619164619164611
 42
50.0
 43
0.0
 44
0.0
 50
0.0
 51
0.0
 71
     0
 72
  2000
 73
     1
 74
     1
 75
     0
 76
     0
 77
     0
 78
     0
  0
ENDTAB
  0
TABLE
  2
LTYPE
 70
    11
  0
LTYPE
  2
CONTINUOUS
 70
     0
  3
Solid line
 72
    65
 73
     0
 40
0.0
  0
ENDTAB
  0
TABLE
  2
LAYER
 70
     5
  0
LAYER
  2
0
 70
     0
 62
     7
  6
CONTINUOUS
  0
LAYER
  2
DATA
 70
     0
 62
     7
  6
CONTINUOUS
  0
LAYER
  2
HIBINO-BASE
 70
     0
 62
     7
  6
CONTINUOUS
  0
LAYER
  2
SPEC
 70
     0
 62
     7
  6
CONTINUOUS
  0
LAYER
  2
DIMNSIONS
 70
     0
 62
     7
  6
CONTINUOUS
  0
ENDTAB
  0
TABLE
  2
STYLE
 70
     3
  0
STYLE
  2
STANDARD
 70
     0
 40
0.0
 41
1.0
 50
0.0
 71
     0
 42
0.0
  3
txt
  4
BIGFONT.SHX
  0
ENDTAB
  0
TABLE
  2
VIEW
 70
     0
  0
ENDTAB
  0
TABLE
  2
UCS
 70
     0
  0
ENDTAB
  0
TABLE
  2
APPID
 70
     3
  0
APPID
  2
ACAD
 70
     0
  0
APPID
  2
ACADANNOTATIVE
 70
     0
  0
APPID
  2
ACAD_MLEADERVER
 70
     0
  0
ENDTAB
  0
TABLE
  2
DIMSTYLE
 70
     2
  0
DIMSTYLE
  2
STANDARD
 70
     0
  3

  4

  5

  6

  7

 40
1.0
 41
0.18
 42
0.0625
 43
0.38
 44
0.18
 45
0.0
 46
0.0
 47
0.0
 48
0.0
140
0.18
141
0.09
142
0.0
143
25.399999999999999
144
1.0
145
0.0
146
1.0
147
0.09
 71
     0
 72
     0
 73
     1
 74
     1
 75
     0
 76
     0
 77
     0
 78
     0
170
     0
171
     2
172
     0
173
     0
174
     0
175
     0
176
     0
177
     0
178
     0
  0
ENDTAB
  0
ENDSEC
  0
SECTION
  2
BLOCKS
  0
BLOCK
  8
0
  2
$MODEL_SPACE
 70
     0
 10
0.0
 20
0.0
 30
0.0
  3
$MODEL_SPACE
  1

  0
ENDBLK
  5
42F
  8
0
  0
BLOCK
 67
     1
  8
0
  2
$PAPER_SPACE
 70
     0
 10
0.0
 20
0.0
 30
0.0
  3
$PAPER_SPACE
  1

  0
ENDBLK
  5
42B
 67
     1
  8
0
  0
ENDSEC
  0
SECTION
  2
ENTITIES
  0
LINE
  5
2C
  8
HIBINO-BASE
  6
CONTINUOUS
 62
     7
 10
30.0
 20
810.0
 30
0.0
 11
569.99999999999989
 21
810.0
 31
0.0
  0
LINE
  5
2D
  8
HIBINO-BASE
  6
CONTINUOUS
 62
     7
 10
569.99999999999989
 20
30.0
 30
0.0
 11
30.0
 21
30.0
 31
0.0
  0
LINE
  5
2E
  8
HIBINO-BASE
  6
CONTINUOUS
 62
     7
 10
30.0
 20
30.0
 30
0.0
 11
30.0
 21
810.0
 31
0.0
  0
LINE
  5
2F
  8
HIBINO-BASE
  6
CONTINUOUS
 62
     7
 10
569.99999999999989
 20
810.0
 30
0.0
 11
569.99999999999989
 21
30.0
 31
0.0
  0
LINE
  5
30
  8
HIBINO-BASE
  6
CONTINUOUS
 62
     7
 10
300.0
 20
97.500000000000057
 30
0.0
 11
569.99999999999989
 21
97.500000000000057
 31
0.0
  0
LINE
  5
31
  8
HIBINO-BASE
  6
CONTINUOUS
 62
     7
 10
300.0
 20
30.0
 30
0.0
 11
300.0
 21
97.500000000000057
 31
0.0
  0
TEXT
  5
32
  8
HIBINO-BASE
 62
     7
 10
302.69999999999987
 20
89.973919999999993
 30
0.0
 40
4.8865234374999993
  1
NOTE
 41
0.7
 11
302.69999999999987
 21
94.860443437499995
 31
0.0
 73
     3
  0
LINE
  5
33
  8
HIBINO-BASE
  6
CONTINUOUS
 62
     7
 10
405.0
 20
30.0
 30
0.0
 11
405.0
 21
97.500000000000057
 31
0.0
  0
TEXT
  5
34
  8
HIBINO-BASE
 62
     7
 10
407.69999999999987
 20
89.973919999999993
 30
0.0
 40
4.8865234374999993
  1
TITLE
 41
0.7
 11
407.69999999999987
 21
94.860443437499995
 31
0.0
 73
     3
  0
LINE
  5
35
  8
HIBINO-BASE
  6
CONTINUOUS
 62
     7
 10
300.0
 20
60.000000000000071
 30
0.0
 11
569.99999999999989
 21
60.000000000000071
 31
0.0
  0
TEXT
  5
36
  8
HIBINO-BASE
 62
     7
 10
445.19999999999987
 20
52.64287999999997
 30
0.0
 40
4.8865234374999993
  1
DRAWN
 41
0.7
 11
445.19999999999987
 21
57.529403437499973
 31
0.0
 73
     3
  0
TEXT
  5
37
  8
HIBINO-BASE
 62
     7
 10
370.19999999999987
 20
52.64287999999997
 30
0.0
 40
4.8865234374999993
  1
DATE
 41
0.7
 11
370.19999999999987
 21
57.529403437499973
 31
0.0
 73
     3
  0
TEXT
  5
38
  8
HIBINO-BASE
 62
     7
 10
340.19999999999987
 20
52.64287999999997
 30
0.0
 40
4.8865234374999993
  1
SCALE
 41
0.7
 11
340.19999999999987
 21
57.529403437499973
 31
0.0
 73
     3
  0
TEXT
  5
39
  8
HIBINO-BASE
 62
     7
 10
407.69999999999987
 20
52.64287999999997
 30
0.0
 40
4.8865234374999993
  1
DESIGN
 41
0.7
 11
407.69999999999987
 21
57.529403437499973
 31
0.0
 73
     3
  0
TEXT
  5
3A
  8
HIBINO-BASE
 62
     7
 10
520.19999999999993
 20
52.64287999999997
 30
0.0
 40
4.8865234374999993
  1
DRAWING NO.
 41
0.7
 11
520.19999999999993
 21
57.529403437499973
 31
0.0
 73
     3
  0
TEXT
  5
3B
  8
HIBINO-BASE
 62
     7
 10
482.69999999999987
 20
52.64287999999997
 30
0.0
 40
4.8865234374999993
  1
CHECK
 41
0.7
 11
482.69999999999987
 21
57.529403437499973
 31
0.0
 73
     3
  0
LINE
  5
3C
  8
HIBINO-BASE
  6
CONTINUOUS
 62
     7
 10
343.12499999999989
 20
33.75
 30
0.0
 11
354.37499999999989
 21
45.000000000000057
 31
0.0
  0
TEXT
  5
3D
  8
HIBINO-BASE
 62
     7
 10
341.25
 20
41.673170000000013
 30
0.0
 40
4.8865234374999993
  1
1
 41
0.7
 11
341.25
 21
46.559693437500009
 31
0.0
 73
     3
  0
LINE
  5
3E
  8
HIBINO-BASE
  6
CONTINUOUS
 62
     7
 10
337.5
 20
30.0
 30
0.0
 11
337.5
 21
60.000000000000071
 31
0.0
  0
LINE
  5
3F
  8
HIBINO-BASE
  6
CONTINUOUS
 62
     7
 10
367.5
 20
30.0
 30
0.0
 11
367.5
 21
60.000000000000071
 31
0.0
  0
LINE
  5
40
  8
HIBINO-BASE
  6
CONTINUOUS
 62
     7
 10
442.49999999999989
 20
60.000000000000071
 30
0.0
 11
442.49999999999989
 21
30.0
 31
0.0
  0
LINE
  5
41
  8
HIBINO-BASE
  6
CONTINUOUS
 62
     7
 10
517.49999999999989
 20
60.000000000000071
 30
0.0
 11
517.49999999999989
 21
30.0
 31
0.0
  0
LINE
  5
42
  8
HIBINO-BASE
  6
CONTINUOUS
 62
     7
 10
479.99999999999989
 20
30.0
 30
0.0
 11
479.99999999999989
 21
60.000000000000071
 31
0.0
  0
TEXT
  5
43
  8
HIBINO-BASE
 62
     7
 10
370.06961999999987
 20
38.590939999999982
 30
0.0
 40
4.8865234374999993
  1
'10.10.
 41
0.7
 11
370.06961999999987
 21
43.477463437499978
 31
0.0
 73
     3
  0
TEXT
  5
44
  8
HIBINO-BASE
 62
     7
 10
352.49999999999989
 20
36.048170000000013
 30
0.0
 40
4.8865234374999993
  1
3
 41
0.7
 11
352.49999999999989
 21
40.934693437500009
 31
0.0
 73
     3
  0
TEXT
  5
45
  8
HIBINO-BASE
 62
     7
 10
447.01743003310372
 20
38.590939999999982
 30
0.0
 40
4.8865234374999993
  1
T.Ootake
 41
0.7
 11
447.01743003310372
 21
43.477463437499978
 31
0.0
 73
     3
  0
TEXT
  5
46
  8
HIBINO-BASE
 62
     7
 10
311.64999999999998
 20
35.928000000000033
 30
0.0
 40
9.7730468749999986
  1
A4
 41
0.7
 11
311.64999999999998
 21
45.701046875000031
 31
0.0
 73
     3
  0
TEXT
  5
47
  8
HIBINO-BASE
 62
     7
 10
302.875
 20
52.141635000000051
 30
0.0
 40
4.8865234374999993
  1
PAPER SIZE
 41
0.7
 11
302.875
 21
57.028158437500053
 31
0.0
 73
     3
  0
TEXT
  5
48
  8
HIBINO-BASE
 62
     7
 10
38.742632240394357
 20
10.816519385235591
 30
0.0
 40
10.58746744791666
  1
Hibino-Intersound Corporation
 41
0.7
 11
38.742632240394357
 21
21.40398683315226
 31
0.0
 73
     3
  0
TEXT
  5
49
  8
HIBINO-BASE
 62
     7
 10
361.9378998119634
 20
11.74753638661347
 30
0.0
 40
10.58746744791666
  1
ヒビノインターサウンド株式会社
 41
0.7
 11
361.9378998119634
 21
22.335003834530141
 31
0.0
 73
     3
  0
LINE
  5
4A
  8
SPEC
  6
CONTINUOUS
 62
     7
 10
52.5
 20
780.0
 30
0.0
 11
495.0
 21
780.0
 31
0.0
  0
LINE
  5
4B
  8
SPEC
  6
CONTINUOUS
 62
     7
 10
52.5
 20
768.75
 30
0.0
 11
495.0
 21
768.75
 31
0.0
  0
LINE
  5
4C
  8
SPEC
  6
CONTINUOUS
 62
     7
 10
52.5
 20
723.74999999999989
 30
0.0
 11
495.0
 21
723.74999999999989
 31
0.0
  0
LINE
  5
4D
  8
SPEC
  6
CONTINUOUS
 62
     7
 10
52.5
 20
735.0
 30
0.0
 11
495.0
 21
735.0
 31
0.0
  0
LINE
  5
4E
  8
SPEC
  6
CONTINUOUS
 62
     7
 10
52.5
 20
746.25
 30
0.0
 11
495.0
 21
746.25
 31
0.0
  0
LINE
  5
4F
  8
SPEC
  6
CONTINUOUS
 62
     7
 10
52.5
 20
712.5
 30
0.0
 11
495.0
 21
712.5
 31
0.0
  0
LINE
  5
50
  8
SPEC
  6
CONTINUOUS
 62
     7
 10
52.5
 20
690.0
 30
0.0
 11
495.0
 21
690.0
 31
0.0
  0
LINE
  5
51
  8
SPEC
  6
CONTINUOUS
 62
     7
 10
52.5
 20
701.25
 30
0.0
 11
495.0
 21
701.25
 31
0.0
  0
LINE
  5
52
  8
SPEC
  6
CONTINUOUS
 62
     7
 10
52.5
 20
757.5
 30
0.0
 11
495.0
 21
757.5
 31
0.0
  0
LINE
  5
53
  8
SPEC
  6
CONTINUOUS
 62
     7
 10
52.5
 20
780.0
 30
0.0
 11
52.5
 21
656.25
 31
0.0
  0
TEXT
  5
54
  8
SPEC
 62
     7
 10
56.25
 20
784.17980999999986
 30
0.0
 40
7.3297851562499989
  1
仕様
 41
0.7
 11
56.25
 21
791.50959515624982
 31
0.0
 73
     3
  0
LINE
  5
55
  8
SPEC
  6
CONTINUOUS
 62
     7
 10
150.0
 20
780.0
 30
0.0
 11
150.0
 21
656.25
 31
0.0
  0
LINE
  5
56
  8
SPEC
  6
CONTINUOUS
 62
     7
 10
495.0
 20
780.0
 30
0.0
 11
495.0
 21
656.25
 31
0.0
  0
TEXT
  5
57
  8
SPEC
 62
     7
 10
55.10369630893814
 20
771.50728961713151
 30
0.0
 40
5.700933749999999
  1
形式
 41
0.7
 11
55.10369630893814
 21
777.20822336713161
 31
0.0
 73
     3
  0
TEXT
  5
58
  8
SPEC
 62
     7
 10
152.89237315247451
 20
771.55755921111972
 30
0.0
 40
5.700933749999999
  1
DVI延長機
 41
0.7
 11
152.89237315247451
 21
777.25849296111971
 31
0.0
 73
     3
  0
TEXT
  5
59
  8
SPEC
 62
     7
 10
54.904126310260708
 20
670.41988344867343
 30
0.0
 40
5.700933749999999
  1
寸法
 41
0.7
 11
54.904126310260708
 21
676.12081719867342
 31
0.0
 73
     3
  0
TEXT
  5
5A
  8
SPEC
 62
     7
 10
55.010242189658811
 20
659.279963097821
 30
0.0
 40
5.700933749999999
  1
重量
 41
0.7
 11
55.010242189658811
 21
664.98089684782087
 31
0.0
 73
     3
  0
TEXT
  5
5B
  8
SPEC
 62
     7
 10
55.001675948909281
 20
692.77948925040732
 30
0.0
 40
5.700933749999999
  1
電源
 41
0.7
 11
55.001675948909281
 21
698.48042300040731
 31
0.0
 73
     3
  0
TEXT
  5
5C
  8
SPEC
 62
     7
 10
53.876009294973748
 20
760.28363547117021
 30
0.0
 40
5.700933749999999
  1
ビデオアンプ帯域
 41
0.7
 11
53.876009294973748
 21
765.98456922117009
 31
0.0
 73
     3
  0
TEXT
  5
5D
  8
SPEC
 62
     7
 10
55.075054456330783
 20
737.82812841774762
 30
0.0
 40
5.700933749999999
  1
入力DDC信号
 41
0.7
 11
55.075054456330783
 21
743.5290621677475
 31
0.0
 73
     3
  0
TEXT
  5
5E
  8
SPEC
 62
     7
 10
152.72198812211869
 20
692.75432174450043
 30
0.0
 40
5.700933749999999
  1
5V DC
 41
0.7
 11
152.72198812211869
 21
698.45525549450042
 31
0.0
 73
     3
  0
TEXT
  5
5F
  8
SPEC
 62
     7
 10
152.69018606411899
 20
737.99233347275242
 30
0.0
 40
5.700933749999999
  1
5Vp-p(TTL)
 41
0.7
 11
152.69018606411899
 21
743.6932672227523
 31
0.0
 73
     3
  0
TEXT
  5
60
  8
SPEC
 62
     7
 10
152.56787536443011
 20
760.14548828466582
 30
0.0
 40
5.700933749999999
  1
165MHz
 41
0.7
 11
152.56787536443011
 21
765.84642203466581
 31
0.0
 73
     3
  0
TEXT
  5
61
  8
SPEC
 62
     7
 10
152.7513545907743
 20
670.24399689599363
 30
0.0
 40
5.7009440104166647
  1
83(W)\U+00D729(H)\U+00D785(D)mm(突起部含まず)、(センダー、レシーバー共に)
 41
0.7
 11
152.7513545907743
 21
675.94494090641035
 31
0.0
 73
     3
  0
TEXT
  5
62
  8
SPEC
 62
     7
 10
152.59303673319951
 20
659.27308891418829
 30
0.0
 40
5.7009440104166647
  1
約150g(センダー、レシーバー共に）
 41
0.7
 11
152.59303673319951
 21
664.97403292460501
 31
0.0
 73
     3
  0
LINE
  5
63
  8
SPEC
  6
CONTINUOUS
 62
     7
 10
52.5
 20
678.75
 30
0.0
 11
495.0
 21
678.75
 31
0.0
  0
LINE
  5
64
  8
SPEC
  6
CONTINUOUS
 62
     7
 10
52.5
 20
656.25
 30
0.0
 11
495.0
 21
656.25
 31
0.0
  0
TEXT
  5
65
  8
SPEC
 62
     7
 10
55.036209838431823
 20
681.7036228348785
 30
0.0
 40
5.700933749999999
  1
消費電力
 41
0.7
 11
55.036209838431823
 21
687.40455658487849
 31
0.0
 73
     3
  0
TEXT
  5
66
  8
SPEC
 62
     7
 10
152.33036432575551
 20
681.69405550073407
 30
0.0
 40
5.700933749999999
  1
10W(最大)
 41
0.7
 11
152.33036432575551
 21
687.39498925073406
 31
0.0
 73
     3
  0
TEXT
  5
67
  8
SPEC
 62
     7
 10
55.195247647725438
 20
749.11215247135635
 30
0.0
 40
5.700933749999999
  1
最大対応解像度
 41
0.7
 11
55.195247647725438
 21
754.81308622135634
 31
0.0
 73
     3
  0
TEXT
  5
68
  8
SPEC
 62
     7
 10
152.6598767477353
 20
748.89548828466582
 30
0.0
 40
5.700933749999999
  1
1920\U+00D71200 @60Hz
 41
0.7
 11
152.6598767477353
 21
754.59642203466569
 31
0.0
 73
     3
  0
TEXT
  5
69
  8
SPEC
 62
     7
 10
55.18978033809546
 20
715.21041916837282
 30
0.0
 40
5.700933749999999
  1
DVIコネクタ ー
 41
0.7
 11
55.18978033809546
 21
720.91135291837281
 31
0.0
 73
     3
  0
TEXT
  5
6A
  8
SPEC
 62
     7
 10
152.78886259880841
 20
715.16887401032761
 30
0.0
 40
5.700933749999999
  1
DVI-I(29pin)female(digital only)
 41
0.7
 11
152.78886259880841
 21
720.86980776032749
 31
0.0
 73
     3
  0
TEXT
  5
6B
  8
SPEC
 62
     7
 10
53.77570725346235
 20
704.33457930059171
 30
0.0
 40
5.700933749999999
  1
リンクコネクター
 41
0.7
 11
53.77570725346235
 21
710.0355130505917
 31
0.0
 73
     3
  0
TEXT
  5
6C
  8
SPEC
 62
     7
 10
152.7368740197289
 20
704.06806415445681
 30
0.0
 40
5.700933749999999
  1
RJ-45シールド付き
 41
0.7
 11
152.7368740197289
 21
709.76899790445668
 31
0.0
 73
     3
  0
LINE
  5
6D
  8
SPEC
  6
CONTINUOUS
 62
     7
 10
52.5
 20
667.49999999999989
 30
0.0
 11
495.0
 21
667.49999999999989
 31
0.0
  0
TEXT
  5
6E
  8
SPEC
 62
     7
 10
55.075054456330783
 20
726.57812841774762
 30
0.0
 40
5.700933749999999
  1
入力ビデオ信号
 41
0.7
 11
55.075054456330783
 21
732.27906216774761
 31
0.0
 73
     3
  0
TEXT
  5
6F
  8
SPEC
 62
     7
 10
152.69018606411899
 20
726.55297250380158
 30
0.0
 40
5.700933749999999
  1
1.2Vp-p
 41
0.7
 11
152.69018606411899
 21
732.25390625380146
 31
0.0
 73
     3
  0
TEXT
  5
70
  8
DIMNSIONS
 62
     7
 10
240.0
 20
66.808470000000028
 30
0.0
 40
7.3297851562499989
  1
(単位：mm)
 41
0.7
 11
240.0
 21
74.138255156250025
 31
0.0
 73
     3
  0
LINE
  5
71
  8
DIMNSIONS
  6
CONTINUOUS
 62
     7
 10
131.5
 20
481.25
 30
0.0
 11
106.5
 21
481.25
 31
0.0
  0
LINE
  5
72
  8
DIMNSIONS
  6
CONTINUOUS
 62
     7
 10
131.5
 20
566.25
 30
0.0
 11
106.5
 21
566.25
 31
0.0
  0
LINE
  5
73
  8
DIMNSIONS
  6
CONTINUOUS
 62
     7
 10
112.5
 20
481.25
 30
0.0
 11
112.5
 21
566.25
 31
0.0
  0
LINE
  5
74
  8
DIMNSIONS
  6
CONTINUOUS
 62
     7
 10
112.5
 20
481.25
 30
0.0
 11
110.48988061454919
 21
488.75186767578111
 31
0.0
  0
LINE
  5
75
  8
DIMNSIONS
  6
CONTINUOUS
 62
     7
 10
112.5
 20
481.25
 30
0.0
 11
114.51011938545069
 21
488.75186767578111
 31
0.0
  0
LINE
  5
76
  8
DIMNSIONS
  6
CONTINUOUS
 62
     7
 10
112.5
 20
566.25
 30
0.0
 11
114.51011938545069
 21
558.74813232421877
 31
0.0
  0
LINE
  5
77
  8
DIMNSIONS
  6
CONTINUOUS
 62
     7
 10
112.5
 20
566.25
 30
0.0
 11
110.48988061454919
 21
558.74813232421877
 31
0.0
  0
TEXT
  5
78
  8
DIMNSIONS
 62
     7
 10
109.5183333333333
 20
518.45833333333337
 30
0.0
 40
8.1442057291666661
  1
85
 50
90.0
 41
0.7
 11
101.3741276041667
 21
518.45833333333337
 31
0.0
 73
     3
  0
LINE
  5
79
  8
DIMNSIONS
  6
CONTINUOUS
 62
     7
 10
137.5
 20
419.0
 30
0.0
 11
137.5
 21
394.0
 31
0.0
  0
LINE
  5
7A
  8
DIMNSIONS
  6
CONTINUOUS
 62
     7
 10
220.5
 20
419.0
 30
0.0
 11
220.5
 21
394.0
 31
0.0
  0
LINE
  5
7B
  8
DIMNSIONS
  6
CONTINUOUS
 62
     7
 10
137.5
 20
400.0
 30
0.0
 11
220.5
 21
400.0
 31
0.0
  0
LINE
  5
7C
  8
DIMNSIONS
  6
CONTINUOUS
 62
     7
 10
137.5
 20
400.0
 30
0.0
 11
145.0018676757812
 21
402.01011938545071
 31
0.0
  0
LINE
  5
7D
  8
DIMNSIONS
  6
CONTINUOUS
 62
     7
 10
137.5
 20
400.0
 30
0.0
 11
145.0018676757812
 21
397.98988061454918
 31
0.0
  0
LINE
  5
7E
  8
DIMNSIONS
  6
CONTINUOUS
 62
     7
 10
220.5
 20
400.0
 30
0.0
 11
212.9981323242188
 21
397.98988061454918
 31
0.0
  0
LINE
  5
7F
  8
DIMNSIONS
  6
CONTINUOUS
 62
     7
 10
220.5
 20
400.0
 30
0.0
 11
212.9981323242188
 21
402.01011938545071
 31
0.0
  0
TEXT
  5
80
  8
DIMNSIONS
 62
     7
 10
173.70833333333329
 20
402.98166666666663
 30
0.0
 40
8.1442057291666661
  1
83
 41
0.7
 11
173.70833333333329
 21
411.1258723958332
 31
0.0
 73
     3
  0
LINE
  5
81
  8
DIMNSIONS
  6
CONTINUOUS
 62
     7
 10
131.5
 20
425.0
 30
0.0
 11
106.5
 21
425.0
 31
0.0
  0
LINE
  5
82
  8
DIMNSIONS
  6
CONTINUOUS
 62
     7
 10
131.5
 20
454.0
 30
0.0
 11
106.5
 21
454.0
 31
0.0
  0
LINE
  5
83
  8
DIMNSIONS
  6
CONTINUOUS
 62
     7
 10
112.5
 20
425.0
 30
0.0
 11
112.5
 21
454.0
 31
0.0
  0
LINE
  5
84
  8
DIMNSIONS
  6
CONTINUOUS
 62
     7
 10
112.5
 20
425.0
 30
0.0
 11
110.48988061454919
 21
432.50186767578111
 31
0.0
  0
LINE
  5
85
  8
DIMNSIONS
  6
CONTINUOUS
 62
     7
 10
112.5
 20
425.0
 30
0.0
 11
114.51011938545069
 21
432.50186767578111
 31
0.0
  0
LINE
  5
86
  8
DIMNSIONS
  6
CONTINUOUS
 62
     7
 10
112.5
 20
454.0
 30
0.0
 11
114.51011938545069
 21
446.49813232421877
 31
0.0
  0
LINE
  5
87
  8
DIMNSIONS
  6
CONTINUOUS
 62
     7
 10
112.5
 20
454.0
 30
0.0
 11
110.48988061454919
 21
446.49813232421877
 31
0.0
  0
TEXT
  5
88
  8
DIMNSIONS
 62
     7
 10
109.5183333333333
 20
434.20833333333331
 30
0.0
 40
8.1442057291666661
  1
29
 50
90.0
 41
0.7
 11
101.3741276041667
 21
434.20833333333331
 31
0.0
 73
     3
  0
LINE
  5
89
  8
DIMNSIONS
  6
CONTINUOUS
 62
     7
 10
135.25
 20
423.0
 30
0.0
 11
106.5
 21
423.0
 31
0.0
  0
LINE
  5
8A
  8
DIMNSIONS
  6
CONTINUOUS
 62
     7
 10
131.5
 20
425.0
 30
0.0
 11
106.5
 21
425.0
 31
0.0
  0
LINE
  5
8B
  8
DIMNSIONS
  6
CONTINUOUS
 62
     7
 10
112.5
 20
425.0
 30
0.0
 11
112.5
 21
423.0
 31
0.0
  0
LINE
  5
8C
  8
DIMNSIONS
  6
CONTINUOUS
 62
     7
 10
112.5
 20
423.0
 30
0.0
 11
112.5
 21
407.2083333333332
 31
0.0
  0
LINE
  5
8D
  8
DIMNSIONS
  6
CONTINUOUS
 62
     7
 10
112.5
 20
423.0
 30
0.0
 11
114.51011938545069
 21
415.49813232421872
 31
0.0
  0
LINE
  5
8E
  8
DIMNSIONS
  6
CONTINUOUS
 62
     7
 10
112.5
 20
423.0
 30
0.0
 11
110.48988061454919
 21
415.49813232421872
 31
0.0
  0
LINE
  5
8F
  8
DIMNSIONS
  6
CONTINUOUS
 62
     7
 10
112.5
 20
425.0
 30
0.0
 11
112.5
 21
440.0
 31
0.0
  0
LINE
  5
90
  8
DIMNSIONS
  6
CONTINUOUS
 62
     7
 10
112.5
 20
425.0
 30
0.0
 11
110.48988061454919
 21
432.50186767578111
 31
0.0
  0
LINE
  5
91
  8
DIMNSIONS
  6
CONTINUOUS
 62
     7
 10
112.5
 20
425.0
 30
0.0
 11
114.51011938545069
 21
432.50186767578111
 31
0.0
  0
TEXT
  5
92
  8
DIMNSIONS
 62
     7
 10
109.5183333333333
 20
407.2083333333332
 30
0.0
 40
8.1442057291666661
  1
2
 50
90.0
 41
0.7
 11
101.3741276041666
 21
407.2083333333332
 31
0.0
 73
     3
  0
LINE
  5
93
  8
DIMNSIONS
  6
CONTINUOUS
 62
     7
 10
131.5
 20
206.25
 30
0.0
 11
106.5
 21
206.25
 31
0.0
  0
LINE
  5
94
  8
DIMNSIONS
  6
CONTINUOUS
 62
     7
 10
131.5
 20
291.25
 30
0.0
 11
106.5
 21
291.25
 31
0.0
  0
LINE
  5
95
  8
DIMNSIONS
  6
CONTINUOUS
 62
     7
 10
112.5
 20
206.25
 30
0.0
 11
112.5
 21
291.25
 31
0.0
  0
LINE
  5
96
  8
DIMNSIONS
  6
CONTINUOUS
 62
     7
 10
112.5
 20
206.25
 30
0.0
 11
110.48988061454919
 21
213.75186767578131
 31
0.0
  0
LINE
  5
97
  8
DIMNSIONS
  6
CONTINUOUS
 62
     7
 10
112.5
 20
206.25
 30
0.0
 11
114.51011938545069
 21
213.75186767578131
 31
0.0
  0
LINE
  5
98
  8
DIMNSIONS
  6
CONTINUOUS
 62
     7
 10
112.5
 20
291.25
 30
0.0
 11
114.51011938545069
 21
283.74813232421877
 31
0.0
  0
LINE
  5
99
  8
DIMNSIONS
  6
CONTINUOUS
 62
     7
 10
112.5
 20
291.25
 30
0.0
 11
110.48988061454919
 21
283.74813232421877
 31
0.0
  0
TEXT
  5
9A
  8
DIMNSIONS
 62
     7
 10
109.5183333333333
 20
243.45833333333329
 30
0.0
 40
8.1442057291666661
  1
85
 50
90.0
 41
0.7
 11
101.3741276041667
 21
243.45833333333329
 31
0.0
 73
     3
  0
LINE
  5
9B
  8
DIMNSIONS
  6
CONTINUOUS
 62
     7
 10
137.5
 20
144.0
 30
0.0
 11
137.5
 21
119.0
 31
0.0
  0
LINE
  5
9C
  8
DIMNSIONS
  6
CONTINUOUS
 62
     7
 10
220.5
 20
144.0
 30
0.0
 11
220.5
 21
119.0
 31
0.0
  0
LINE
  5
9D
  8
DIMNSIONS
  6
CONTINUOUS
 62
     7
 10
137.5
 20
125.0
 30
0.0
 11
220.5
 21
125.0
 31
0.0
  0
LINE
  5
9E
  8
DIMNSIONS
  6
CONTINUOUS
 62
     7
 10
137.5
 20
125.0
 30
0.0
 11
145.0018676757812
 21
127.01011938545069
 31
0.0
  0
LINE
  5
9F
  8
DIMNSIONS
  6
CONTINUOUS
 62
     7
 10
137.5
 20
125.0
 30
0.0
 11
145.0018676757812
 21
122.98988061454919
 31
0.0
  0
LINE
  5
A0
  8
DIMNSIONS
  6
CONTINUOUS
 62
     7
 10
220.5
 20
125.0
 30
0.0
 11
212.9981323242188
 21
122.98988061454919
 31
0.0
  0
LINE
  5
A1
  8
DIMNSIONS
  6
CONTINUOUS
 62
     7
 10
220.5
 20
125.0
 30
0.0
 11
212.9981323242188
 21
127.01011938545069
 31
0.0
  0
TEXT
  5
A2
  8
DIMNSIONS
 62
     7
 10
173.70833333333329
 20
127.9816666666666
 30
0.0
 40
8.1442057291666661
  1
83
 41
0.7
 11
173.70833333333329
 21
136.12587239583331
 31
0.0
 73
     3
  0
LINE
  5
A3
  8
DIMNSIONS
  6
CONTINUOUS
 62
     7
 10
131.5
 20
150.0
 30
0.0
 11
106.5
 21
150.0
 31
0.0
  0
LINE
  5
A4
  8
DIMNSIONS
  6
CONTINUOUS
 62
     7
 10
131.5
 20
179.0
 30
0.0
 11
106.5
 21
179.0
 31
0.0
  0
LINE
  5
A5
  8
DIMNSIONS
  6
CONTINUOUS
 62
     7
 10
112.5
 20
150.0
 30
0.0
 11
112.5
 21
179.0
 31
0.0
  0
LINE
  5
A6
  8
DIMNSIONS
  6
CONTINUOUS
 62
     7
 10
112.5
 20
150.0
 30
0.0
 11
110.48988061454919
 21
157.5018676757812
 31
0.0
  0
LINE
  5
A7
  8
DIMNSIONS
  6
CONTINUOUS
 62
     7
 10
112.5
 20
150.0
 30
0.0
 11
114.51011938545069
 21
157.5018676757812
 31
0.0
  0
LINE
  5
A8
  8
DIMNSIONS
  6
CONTINUOUS
 62
     7
 10
112.5
 20
179.0
 30
0.0
 11
114.51011938545069
 21
171.49813232421869
 31
0.0
  0
LINE
  5
A9
  8
DIMNSIONS
  6
CONTINUOUS
 62
     7
 10
112.5
 20
179.0
 30
0.0
 11
110.48988061454919
 21
171.49813232421869
 31
0.0
  0
TEXT
  5
AA
  8
DIMNSIONS
 62
     7
 10
109.5183333333333
 20
159.20833333333329
 30
0.0
 40
8.1442057291666661
  1
29
 50
90.0
 41
0.7
 11
101.3741276041667
 21
159.20833333333329
 31
0.0
 73
     3
  0
LINE
  5
AB
  8
DIMNSIONS
  6
CONTINUOUS
 62
     7
 10
135.25
 20
148.0
 30
0.0
 11
106.5
 21
148.0
 31
0.0
  0
LINE
  5
AC
  8
DIMNSIONS
  6
CONTINUOUS
 62
     7
 10
131.5
 20
150.0
 30
0.0
 11
106.5
 21
150.0
 31
0.0
  0
LINE
  5
AD
  8
DIMNSIONS
  6
CONTINUOUS
 62
     7
 10
112.5
 20
150.0
 30
0.0
 11
112.5
 21
148.0
 31
0.0
  0
LINE
  5
AE
  8
DIMNSIONS
  6
CONTINUOUS
 62
     7
 10
112.5
 20
148.0
 30
0.0
 11
112.5
 21
132.20833333333329
 31
0.0
  0
LINE
  5
AF
  8
DIMNSIONS
  6
CONTINUOUS
 62
     7
 10
112.5
 20
148.0
 30
0.0
 11
114.51011938545069
 21
140.49813232421869
 31
0.0
  0
LINE
  5
B0
  8
DIMNSIONS
  6
CONTINUOUS
 62
     7
 10
112.5
 20
148.0
 30
0.0
 11
110.48988061454919
 21
140.49813232421869
 31
0.0
  0
LINE
  5
B1
  8
DIMNSIONS
  6
CONTINUOUS
 62
     7
 10
112.5
 20
150.0
 30
0.0
 11
112.5
 21
165.0
 31
0.0
  0
LINE
  5
B2
  8
DIMNSIONS
  6
CONTINUOUS
 62
     7
 10
112.5
 20
150.0
 30
0.0
 11
110.48988061454919
 21
157.5018676757812
 31
0.0
  0
LINE
  5
B3
  8
DIMNSIONS
  6
CONTINUOUS
 62
     7
 10
112.5
 20
150.0
 30
0.0
 11
114.51011938545069
 21
157.5018676757812
 31
0.0
  0
TEXT
  5
B4
  8
DIMNSIONS
 62
     7
 10
109.5183333333333
 20
132.20833333333329
 30
0.0
 40
8.1442057291666661
  1
2
 50
90.0
 41
0.7
 11
101.3741276041666
 21
132.20833333333329
 31
0.0
 73
     3
  0
LINE
  5
B5
  8
DIMNSIONS
  6
CONTINUOUS
 62
     7
 10
167.6854076874223
 20
476.25
 30
0.0
 11
106.5
 21
476.25
 31
0.0
  0
LINE
  5
B6
  8
DIMNSIONS
  6
CONTINUOUS
 62
     7
 10
131.5
 20
481.25
 30
0.0
 11
106.5
 21
481.25
 31
0.0
  0
LINE
  5
B7
  8
DIMNSIONS
  6
CONTINUOUS
 62
     7
 10
112.5
 20
481.25
 30
0.0
 11
112.5
 21
476.25
 31
0.0
  0
LINE
  5
B8
  8
DIMNSIONS
  6
CONTINUOUS
 62
     7
 10
112.5
 20
476.25
 30
0.0
 11
112.5
 21
463.4583333333332
 31
0.0
  0
LINE
  5
B9
  8
DIMNSIONS
  6
CONTINUOUS
 62
     7
 10
112.5
 20
476.25
 30
0.0
 11
114.51011938545069
 21
468.74813232421877
 31
0.0
  0
LINE
  5
BA
  8
DIMNSIONS
  6
CONTINUOUS
 62
     7
 10
112.5
 20
476.25
 30
0.0
 11
110.48988061454919
 21
468.74813232421877
 31
0.0
  0
LINE
  5
BB
  8
DIMNSIONS
  6
CONTINUOUS
 62
     7
 10
112.5
 20
481.25
 30
0.0
 11
112.5
 21
496.25
 31
0.0
  0
LINE
  5
BC
  8
DIMNSIONS
  6
CONTINUOUS
 62
     7
 10
112.5
 20
481.25
 30
0.0
 11
110.48988061454919
 21
488.75186767578111
 31
0.0
  0
LINE
  5
BD
  8
DIMNSIONS
  6
CONTINUOUS
 62
     7
 10
112.5
 20
481.25
 30
0.0
 11
114.51011938545069
 21
488.75186767578111
 31
0.0
  0
TEXT
  5
BE
  8
DIMNSIONS
 62
     7
 10
109.5183333333333
 20
463.45833333333331
 30
0.0
 40
8.1442057291666661
  1
5
 50
90.0
 41
0.7
 11
101.3741276041666
 21
463.45833333333331
 31
0.0
 73
     3
  0
LINE
  5
BF
  8
DIMNSIONS
  6
CONTINUOUS
 62
     7
 10
148.6890900892607
 20
201.25
 30
0.0
 11
106.5
 21
201.25
 31
0.0
  0
LINE
  5
C0
  8
DIMNSIONS
  6
CONTINUOUS
 62
     7
 10
131.5
 20
206.25
 30
0.0
 11
106.5
 21
206.25
 31
0.0
  0
LINE
  5
C1
  8
DIMNSIONS
  6
CONTINUOUS
 62
     7
 10
112.5
 20
206.25
 30
0.0
 11
112.5
 21
201.25
 31
0.0
  0
LINE
  5
C2
  8
DIMNSIONS
  6
CONTINUOUS
 62
     7
 10
112.5
 20
201.25
 30
0.0
 11
112.5
 21
188.45833333333329
 31
0.0
  0
LINE
  5
C3
  8
DIMNSIONS
  6
CONTINUOUS
 62
     7
 10
112.5
 20
201.25
 30
0.0
 11
114.51011938545069
 21
193.74813232421869
 31
0.0
  0
LINE
  5
C4
  8
DIMNSIONS
  6
CONTINUOUS
 62
     7
 10
112.5
 20
201.25
 30
0.0
 11
110.48988061454919
 21
193.74813232421869
 31
0.0
  0
LINE
  5
C5
  8
DIMNSIONS
  6
CONTINUOUS
 62
     7
 10
112.5
 20
206.25
 30
0.0
 11
112.5
 21
221.25
 31
0.0
  0
LINE
  5
C6
  8
DIMNSIONS
  6
CONTINUOUS
 62
     7
 10
112.5
 20
206.25
 30
0.0
 11
110.48988061454919
 21
213.75186767578131
 31
0.0
  0
LINE
  5
C7
  8
DIMNSIONS
  6
CONTINUOUS
 62
     7
 10
112.5
 20
206.25
 30
0.0
 11
114.51011938545069
 21
213.75186767578131
 31
0.0
  0
TEXT
  5
C8
  8
DIMNSIONS
 62
     7
 10
109.5183333333333
 20
188.45833333333329
 30
0.0
 40
8.1442057291666661
  1
5
 50
90.0
 41
0.7
 11
101.3741276041666
 21
188.45833333333329
 31
0.0
 73
     3
  0
TEXT
  5
C9
  8
DATA
 62
     7
 10
449.99999999999989
 20
62.926524856753723
 30
0.0
 40
7.3297851562499989
  1
EXT-DVI-1CAT6
 41
0.7
 11
449.99999999999989
 21
70.256310013003713
 31
0.0
 73
     3
  0
TEXT
  5
CA
  8
DATA
 62
     7
 10
60.0
 20
42.713999999999977
 30
0.0
 40
4.8865234374999993
  1
仕様および外観は予告なく変更されることがありますので、ご了承ください。
 41
0.7
 11
60.0
 21
47.600523437499987
 31
0.0
 73
     3
  0
TEXT
  5
CB
  8
DATA
 62
     7
 10
449.9713515443359
 20
85.047561257843299
 30
0.0
 40
7.3297851562499989
  1
Gefen
 41
0.7
 11
449.9713515443359
 21
92.377346414093296
 31
0.0
 73
     3
  0
TEXT
  5
CC
  8
DATA
 62
     7
 10
445.3494740600226
 20
74.972854856753685
 30
0.0
 40
4.8865234374999993
  1
DVI延長機
 41
0.7
 11
445.3494740600226
 21
79.859378294253702
 31
0.0
 73
     3
  0
LINE
  5
CD
  8
DATA
  6
CONTINUOUS
 62
     7
 10
137.5
 20
426.0
 30
0.0
 11
137.5
 21
453.0
 31
0.0
  0
LINE
  5
CE
  8
DATA
  6
CONTINUOUS
 62
     7
 10
137.5
 20
481.25
 30
0.0
 11
137.5
 21
566.25
 31
0.0
  0
TEXT
  5
CF
  8
DATA
 62
     7
 10
118.69903975407119
 20
375.49570096040833
 30
0.0
 40
8.1442057291666661
  1
DVI-1CAT6-S(センダー)
 41
0.7
 11
118.69903975407119
 21
383.6399066895749
 31
0.0
 73
     3
  0
LINE
  5
D0
  8
DATA
  6
CONTINUOUS
 62
     7
 10
137.5
 20
426.0
 30
0.0
 11
137.5
 21
453.0
 31
0.0
  0
LINE
  5
D1
  8
DATA
  6
CONTINUOUS
 62
     7
 10
219.5
 20
425.0
 30
0.0
 11
208.5
 21
425.0
 31
0.0
  0
LINE
  5
D2
  8
DATA
  6
CONTINUOUS
 62
     7
 10
149.5
 20
425.0
 30
0.0
 11
138.5
 21
425.0
 31
0.0
  0
LINE
  5
D3
  8
DATA
  6
CONTINUOUS
 62
     7
 10
137.5
 20
566.25
 30
0.0
 11
220.5
 21
566.25
 31
0.0
  0
LINE
  5
D4
  8
DATA
  6
CONTINUOUS
 62
     7
 10
137.5
 20
481.25
 30
0.0
 11
220.5
 21
481.25
 31
0.0
  0
TEXT
  5
D5
  8
DATA
 62
     7
 10
174.93521072235609
 20
499.61027252853228
 30
0.0
 40
8.0627636718750004
  1
DVI
 41
0.7
 11
174.93521072235609
 21
507.67303620040741
 31
0.0
 73
     3
  0
TEXT
  5
D6
  8
DATA
 62
     7
 10
191.6265327986813
 20
499.59337771224273
 30
0.0
 40
6.2710384114583331
  1
over
 41
0.7
 11
191.6265327986813
 21
505.86441612370112
 31
0.0
 73
     3
  0
TEXT
  5
D7
  8
DATA
 62
     7
 10
175.1033691242335
 20
488.16471432076509
 30
0.0
 40
8.0627636718750004
  1
1CAT6S
 41
0.7
 11
175.1033691242335
 21
496.2274779926401
 31
0.0
 73
     3
  0
LINE
  5
D8
  8
DATA
  6
CONTINUOUS
 62
     7
 10
220.5
 20
426.0
 30
0.0
 11
220.5
 21
453.0
 31
0.0
  0
LINE
  5
D9
  8
DATA
  6
CONTINUOUS
 62
     7
 10
220.5
 20
481.25
 30
0.0
 11
220.5
 21
566.25
 31
0.0
  0
LINE
  5
DA
  8
DATA
  6
CONTINUOUS
 62
     7
 10
219.5
 20
454.0
 30
0.0
 11
138.5
 21
454.0
 31
0.0
  0
LINE
  5
DB
  8
DATA
  6
CONTINUOUS
 62
     7
 10
149.5
 20
425.0
 30
0.0
 11
149.5
 21
426.49999999999989
 31
0.0
  0
LINE
  5
DC
  8
DATA
  6
CONTINUOUS
 62
     7
 10
208.5
 20
425.0
 30
0.0
 11
208.5
 21
426.49999999999989
 31
0.0
  0
LINE
  5
DD
  8
DATA
  6
CONTINUOUS
 62
     7
 10
140.7077186008068
 20
423.0
 30
0.0
 11
139.50771860080681
 21
425.0
 31
0.0
  0
LINE
  5
DE
  8
DATA
  6
CONTINUOUS
 62
     7
 10
145.7077186008068
 20
423.0
 30
0.0
 11
146.90771860080679
 21
425.0
 31
0.0
  0
LINE
  5
DF
  8
DATA
  6
CONTINUOUS
 62
     7
 10
140.7077186008068
 20
423.0
 30
0.0
 11
145.7077186008068
 21
423.0
 31
0.0
  0
LINE
  5
E0
  8
DATA
  6
CONTINUOUS
 62
     7
 10
217.29228139919309
 20
423.0
 30
0.0
 11
218.49228139919319
 21
425.0
 31
0.0
  0
LINE
  5
E1
  8
DATA
  6
CONTINUOUS
 62
     7
 10
212.2922813991932
 20
423.0
 30
0.0
 11
211.09228139919321
 21
425.0
 31
0.0
  0
LINE
  5
E2
  8
DATA
  6
CONTINUOUS
 62
     7
 10
217.29228139919309
 20
423.0
 30
0.0
 11
212.2922813991932
 21
423.0
 31
0.0
  0
LINE
  5
E3
  8
DATA
  6
CONTINUOUS
 62
     7
 10
137.5
 20
615.5
 30
0.0
 11
137.5
 21
588.49999999999989
 31
0.0
  0
LINE
  5
E4
  8
DATA
  6
CONTINUOUS
 62
     7
 10
137.5
 20
615.5
 30
0.0
 11
137.5
 21
615.0
 31
0.0
  0
LINE
  5
E5
  8
DATA
  6
CONTINUOUS
 62
     7
 10
137.5
 20
589.0
 30
0.0
 11
137.5
 21
588.49999999999989
 31
0.0
  0
LINE
  5
E6
  8
DATA
  6
CONTINUOUS
 62
     7
 10
219.5
 20
616.5
 30
0.0
 11
208.5
 21
616.5
 31
0.0
  0
LINE
  5
E7
  8
DATA
  6
CONTINUOUS
 62
     7
 10
149.5
 20
616.5
 30
0.0
 11
138.5
 21
616.5
 31
0.0
  0
LINE
  5
E8
  8
DATA
  6
CONTINUOUS
 62
     7
 10
220.5
 20
615.5
 30
0.0
 11
220.5
 21
588.49999999999989
 31
0.0
  0
LINE
  5
E9
  8
DATA
  6
CONTINUOUS
 62
     7
 10
219.5
 20
587.5
 30
0.0
 11
138.5
 21
587.5
 31
0.0
  0
LINE
  5
EA
  8
DATA
  6
CONTINUOUS
 62
     7
 10
149.5
 20
616.5
 30
0.0
 11
149.5
 21
615.0
 31
0.0
  0
LINE
  5
EB
  8
DATA
  6
CONTINUOUS
 62
     7
 10
208.5
 20
616.5
 30
0.0
 11
208.5
 21
615.0
 31
0.0
  0
LINE
  5
EC
  8
DATA
  6
CONTINUOUS
 62
     7
 10
140.7077186008068
 20
618.5
 30
0.0
 11
139.50771860080681
 21
616.5
 31
0.0
  0
LINE
  5
ED
  8
DATA
  6
CONTINUOUS
 62
     7
 10
145.7077186008068
 20
618.5
 30
0.0
 11
146.90771860080679
 21
616.5
 31
0.0
  0
LINE
  5
EE
  8
DATA
  6
CONTINUOUS
 62
     7
 10
140.7077186008068
 20
618.5
 30
0.0
 11
145.7077186008068
 21
618.5
 31
0.0
  0
LINE
  5
EF
  8
DATA
  6
CONTINUOUS
 62
     7
 10
217.29228139919309
 20
618.5
 30
0.0
 11
218.49228139919319
 21
616.5
 31
0.0
  0
LINE
  5
F0
  8
DATA
  6
CONTINUOUS
 62
     7
 10
212.2922813991932
 20
618.5
 30
0.0
 11
211.09228139919321
 21
616.5
 31
0.0
  0
LINE
  5
F1
  8
DATA
  6
CONTINUOUS
 62
     7
 10
217.29228139919309
 20
618.5
 30
0.0
 11
212.2922813991932
 21
618.5
 31
0.0
  0
LINE
  5
F2
  8
DATA
  6
CONTINUOUS
 62
     7
 10
275.0
 20
425.0
 30
0.0
 11
360.0
 21
425.0
 31
0.0
  0
LINE
  5
F3
  8
DATA
  6
CONTINUOUS
 62
     7
 10
275.0
 20
454.0
 30
0.0
 11
360.0
 21
454.0
 31
0.0
  0
LINE
  5
F4
  8
DATA
  6
CONTINUOUS
 62
     7
 10
275.0
 20
425.0
 30
0.0
 11
275.0
 21
454.0
 31
0.0
  0
LINE
  5
F5
  8
DATA
  6
CONTINUOUS
 62
     7
 10
360.0
 20
425.0
 30
0.0
 11
360.0
 21
454.0
 31
0.0
  0
LINE
  5
F6
  8
DATA
  6
CONTINUOUS
 62
     7
 10
285.23933217635619
 20
423.0
 30
0.0
 11
286.43933217635617
 21
425.0
 31
0.0
  0
LINE
  5
F7
  8
DATA
  6
CONTINUOUS
 62
     7
 10
280.23933217635607
 20
423.0
 30
0.0
 11
279.03933217635608
 21
425.0
 31
0.0
  0
LINE
  5
F8
  8
DATA
  6
CONTINUOUS
 62
     7
 10
285.23933217635619
 20
423.0
 30
0.0
 11
280.23933217635607
 21
423.0
 31
0.0
  0
LINE
  5
F9
  8
DATA
  6
CONTINUOUS
 62
     7
 10
348.67281673842751
 20
423.0
 30
0.0
 11
349.87281673842767
 21
425.0
 31
0.0
  0
LINE
  5
FA
  8
DATA
  6
CONTINUOUS
 62
     7
 10
343.6728167384274
 20
423.0
 30
0.0
 11
342.4728167384273
 21
425.0
 31
0.0
  0
LINE
  5
FB
  8
DATA
  6
CONTINUOUS
 62
     7
 10
348.67281673842751
 20
423.0
 30
0.0
 11
343.6728167384274
 21
423.0
 31
0.0
  0
LINE
  5
FC
  8
DATA
  6
CONTINUOUS
 62
     7
 10
218.0
 20
452.5
 30
0.0
 11
140.0
 21
452.5
 31
0.0
  0
LINE
  5
FD
  8
DATA
  6
CONTINUOUS
 62
     7
 10
139.0
 20
427.5
 30
0.0
 11
139.0
 21
451.49999999999989
 31
0.0
  0
LINE
  5
FE
  8
DATA
  6
CONTINUOUS
 62
     7
 10
219.0
 20
427.5
 30
0.0
 11
219.0
 21
451.49999999999989
 31
0.0
  0
LINE
  5
FF
  8
DATA
  6
CONTINUOUS
 62
     7
 10
218.0
 20
426.49999999999989
 30
0.0
 11
140.0
 21
426.49999999999989
 31
0.0
  0
ARC
  5
100
  8
DATA
  6
CONTINUOUS
 62
     7
 10
140.0
 20
451.49999999999989
 30
0.0
 40
1.0
 50
90.0
 51
180.0
  0
ARC
  5
101
  8
DATA
  6
CONTINUOUS
 62
     7
 10
138.5
 20
453.0
 30
0.0
 40
1.0
 50
90.0
 51
180.0
  0
ARC
  5
102
  8
DATA
  6
CONTINUOUS
 62
     7
 10
140.0
 20
427.5
 30
0.0
 40
1.0
 50
180.0
 51
270.0
  0
ARC
  5
103
  8
DATA
  6
CONTINUOUS
 62
     7
 10
138.5
 20
426.0
 30
0.0
 40
1.0
 50
180.0
 51
270.0
  0
ARC
  5
104
  8
DATA
  6
CONTINUOUS
 62
     7
 10
218.0
 20
427.5
 30
0.0
 40
1.0
 50
270.0
 51
0.0
  0
ARC
  5
105
  8
DATA
  6
CONTINUOUS
 62
     7
 10
219.5
 20
426.0
 30
0.0
 40
1.0
 50
270.0
 51
0.0
  0
ARC
  5
106
  8
DATA
  6
CONTINUOUS
 62
     7
 10
218.0
 20
451.49999999999989
 30
0.0
 40
1.0
 50
0.0
 51
90.0
  0
ARC
  5
107
  8
DATA
  6
CONTINUOUS
 62
     7
 10
219.5
 20
453.0
 30
0.0
 40
1.0
 50
0.0
 51
90.0
  0
CIRCLE
  5
108
  8
DATA
  6
CONTINUOUS
 62
     7
 10
176.02367627764011
 20
438.50287685778659
 30
0.0
 40
1.175000000000068
  0
POLYLINE
  5
109
  8
DATA
  6
CONTINUOUS
 62
     7
 66
     1
 10
0.0
 20
0.0
 30
0.0
 70
     1
  0
VERTEX
  5
45B
  8
DATA
  6
CONTINUOUS
 62
     7
 10
176.02367627764011
 20
441.20287685778652
 30
0.0
  0
VERTEX
  5
45C
  8
DATA
  6
CONTINUOUS
 62
     7
 10
173.68540768742221
 20
439.85287685778661
 30
0.0
  0
VERTEX
  5
45D
  8
DATA
  6
CONTINUOUS
 62
     7
 10
173.68540768742221
 20
437.15287685778651
 30
0.0
  0
VERTEX
  5
45E
  8
DATA
  6
CONTINUOUS
 62
     7
 10
176.02367627764011
 20
435.8028768577866
 30
0.0
  0
VERTEX
  5
45F
  8
DATA
  6
CONTINUOUS
 62
     7
 10
178.3619448678582
 20
437.15287685778651
 30
0.0
  0
VERTEX
  5
460
  8
DATA
  6
CONTINUOUS
 62
     7
 10
178.3619448678582
 20
439.85287685778661
 30
0.0
  0
SEQEND
  5
461
  8
DATA
  6
CONTINUOUS
 62
     7
  0
CIRCLE
  5
112
  8
DATA
  6
CONTINUOUS
 62
     7
 10
208.52367627764099
 20
438.50287685778659
 30
0.0
 40
1.175000000000068
  0
POLYLINE
  5
113
  8
DATA
  6
CONTINUOUS
 62
     7
 66
     1
 10
0.0
 20
0.0
 30
0.0
 70
     1
  0
VERTEX
  5
462
  8
DATA
  6
CONTINUOUS
 62
     7
 10
208.52367627764099
 20
441.20287685778652
 30
0.0
  0
VERTEX
  5
463
  8
DATA
  6
CONTINUOUS
 62
     7
 10
206.18540768742309
 20
439.85287685778661
 30
0.0
  0
VERTEX
  5
464
  8
DATA
  6
CONTINUOUS
 62
     7
 10
206.18540768742309
 20
437.15287685778651
 30
0.0
  0
VERTEX
  5
465
  8
DATA
  6
CONTINUOUS
 62
     7
 10
208.52367627764099
 20
435.8028768577866
 30
0.0
  0
VERTEX
  5
466
  8
DATA
  6
CONTINUOUS
 62
     7
 10
210.86194486785911
 20
437.15287685778651
 30
0.0
  0
VERTEX
  5
467
  8
DATA
  6
CONTINUOUS
 62
     7
 10
210.86194486785911
 20
439.85287685778661
 30
0.0
  0
SEQEND
  5
468
  8
DATA
  6
CONTINUOUS
 62
     7
  0
LINE
  5
11C
  8
DATA
  6
CONTINUOUS
 62
     7
 10
181.3237713904484
 20
442.4278768577866
 30
0.0
 11
203.22358116483289
 21
442.4278768577866
 31
0.0
  0
LINE
  5
11D
  8
DATA
  6
CONTINUOUS
 62
     7
 10
202.66466396738059
 20
434.57787685778652
 30
0.0
 11
181.8826885879007
 21
434.57787685778652
 31
0.0
  0
POLYLINE
  5
11E
  8
DATA
  6
CONTINUOUS
 62
     7
 66
     1
 10
0.0
 20
0.0
 30
0.0
 70
     1
  0
VERTEX
  5
469
  8
DATA
  6
CONTINUOUS
 62
     7
 10
181.27361010646081
 20
439.26787685778652
 30
0.0
  0
VERTEX
  5
46A
  8
DATA
  6
CONTINUOUS
 62
     7
 10
182.80361010646081
 20
439.26787685778652
 30
0.0
  0
VERTEX
  5
46B
  8
DATA
  6
CONTINUOUS
 62
     7
 10
182.80361010646081
 20
437.7378768577866
 30
0.0
  0
VERTEX
  5
46C
  8
DATA
  6
CONTINUOUS
 62
     7
 10
181.27361010646081
 20
437.7378768577866
 30
0.0
  0
SEQEND
  5
46D
  8
DATA
  6
CONTINUOUS
 62
     7
  0
POLYLINE
  5
125
  8
DATA
  6
CONTINUOUS
 62
     7
 66
     1
 10
0.0
 20
0.0
 30
0.0
 70
     1
  0
VERTEX
  5
46E
  8
DATA
  6
CONTINUOUS
 62
     7
 10
183.27361010646081
 20
439.26787685778652
 30
0.0
  0
VERTEX
  5
46F
  8
DATA
  6
CONTINUOUS
 62
     7
 10
184.80361010646081
 20
439.26787685778652
 30
0.0
  0
VERTEX
  5
470
  8
DATA
  6
CONTINUOUS
 62
     7
 10
184.80361010646081
 20
437.7378768577866
 30
0.0
  0
VERTEX
  5
471
  8
DATA
  6
CONTINUOUS
 62
     7
 10
183.27361010646081
 20
437.7378768577866
 30
0.0
  0
SEQEND
  5
472
  8
DATA
  6
CONTINUOUS
 62
     7
  0
POLYLINE
  5
12C
  8
DATA
  6
CONTINUOUS
 62
     7
 66
     1
 10
0.0
 20
0.0
 30
0.0
 70
     1
  0
VERTEX
  5
473
  8
DATA
  6
CONTINUOUS
 62
     7
 10
185.27361010646081
 20
439.26787685778652
 30
0.0
  0
VERTEX
  5
474
  8
DATA
  6
CONTINUOUS
 62
     7
 10
186.80361010646081
 20
439.26787685778652
 30
0.0
  0
VERTEX
  5
475
  8
DATA
  6
CONTINUOUS
 62
     7
 10
186.80361010646081
 20
437.7378768577866
 30
0.0
  0
VERTEX
  5
476
  8
DATA
  6
CONTINUOUS
 62
     7
 10
185.27361010646081
 20
437.7378768577866
 30
0.0
  0
SEQEND
  5
477
  8
DATA
  6
CONTINUOUS
 62
     7
  0
POLYLINE
  5
133
  8
DATA
  6
CONTINUOUS
 62
     7
 66
     1
 10
0.0
 20
0.0
 30
0.0
 70
     1
  0
VERTEX
  5
478
  8
DATA
  6
CONTINUOUS
 62
     7
 10
187.27361010646081
 20
439.26787685778652
 30
0.0
  0
VERTEX
  5
479
  8
DATA
  6
CONTINUOUS
 62
     7
 10
188.80361010646081
 20
439.26787685778652
 30
0.0
  0
VERTEX
  5
47A
  8
DATA
  6
CONTINUOUS
 62
     7
 10
188.80361010646081
 20
437.7378768577866
 30
0.0
  0
VERTEX
  5
47B
  8
DATA
  6
CONTINUOUS
 62
     7
 10
187.27361010646081
 20
437.7378768577866
 30
0.0
  0
SEQEND
  5
47C
  8
DATA
  6
CONTINUOUS
 62
     7
  0
POLYLINE
  5
13A
  8
DATA
  6
CONTINUOUS
 62
     7
 66
     1
 10
0.0
 20
0.0
 30
0.0
 70
     1
  0
VERTEX
  5
47D
  8
DATA
  6
CONTINUOUS
 62
     7
 10
189.27361010646081
 20
439.26787685778652
 30
0.0
  0
VERTEX
  5
47E
  8
DATA
  6
CONTINUOUS
 62
     7
 10
190.80361010646089
 20
439.26787685778652
 30
0.0
  0
VERTEX
  5
47F
  8
DATA
  6
CONTINUOUS
 62
     7
 10
190.80361010646089
 20
437.7378768577866
 30
0.0
  0
VERTEX
  5
480
  8
DATA
  6
CONTINUOUS
 62
     7
 10
189.27361010646081
 20
437.7378768577866
 30
0.0
  0
SEQEND
  5
481
  8
DATA
  6
CONTINUOUS
 62
     7
  0
POLYLINE
  5
141
  8
DATA
  6
CONTINUOUS
 62
     7
 66
     1
 10
0.0
 20
0.0
 30
0.0
 70
     1
  0
VERTEX
  5
482
  8
DATA
  6
CONTINUOUS
 62
     7
 10
191.27361010646089
 20
439.26787685778652
 30
0.0
  0
VERTEX
  5
483
  8
DATA
  6
CONTINUOUS
 62
     7
 10
192.80361010646109
 20
439.26787685778652
 30
0.0
  0
VERTEX
  5
484
  8
DATA
  6
CONTINUOUS
 62
     7
 10
192.80361010646109
 20
437.7378768577866
 30
0.0
  0
VERTEX
  5
485
  8
DATA
  6
CONTINUOUS
 62
     7
 10
191.27361010646089
 20
437.7378768577866
 30
0.0
  0
SEQEND
  5
486
  8
DATA
  6
CONTINUOUS
 62
     7
  0
POLYLINE
  5
148
  8
DATA
  6
CONTINUOUS
 62
     7
 66
     1
 10
0.0
 20
0.0
 30
0.0
 70
     1
  0
VERTEX
  5
487
  8
DATA
  6
CONTINUOUS
 62
     7
 10
193.27361010646109
 20
439.26787685778652
 30
0.0
  0
VERTEX
  5
488
  8
DATA
  6
CONTINUOUS
 62
     7
 10
194.80361010646121
 20
439.26787685778652
 30
0.0
  0
VERTEX
  5
489
  8
DATA
  6
CONTINUOUS
 62
     7
 10
194.80361010646121
 20
437.7378768577866
 30
0.0
  0
VERTEX
  5
48A
  8
DATA
  6
CONTINUOUS
 62
     7
 10
193.27361010646109
 20
437.7378768577866
 30
0.0
  0
SEQEND
  5
48B
  8
DATA
  6
CONTINUOUS
 62
     7
  0
POLYLINE
  5
14F
  8
DATA
  6
CONTINUOUS
 62
     7
 66
     1
 10
0.0
 20
0.0
 30
0.0
 70
     1
  0
VERTEX
  5
48C
  8
DATA
  6
CONTINUOUS
 62
     7
 10
195.27361010646129
 20
439.26787685778652
 30
0.0
  0
VERTEX
  5
48D
  8
DATA
  6
CONTINUOUS
 62
     7
 10
196.80361010646141
 20
439.26787685778652
 30
0.0
  0
VERTEX
  5
48E
  8
DATA
  6
CONTINUOUS
 62
     7
 10
196.80361010646141
 20
437.7378768577866
 30
0.0
  0
VERTEX
  5
48F
  8
DATA
  6
CONTINUOUS
 62
     7
 10
195.27361010646129
 20
437.7378768577866
 30
0.0
  0
SEQEND
  5
490
  8
DATA
  6
CONTINUOUS
 62
     7
  0
POLYLINE
  5
156
  8
DATA
  6
CONTINUOUS
 62
     7
 66
     1
 10
0.0
 20
0.0
 30
0.0
 70
     1
  0
VERTEX
  5
491
  8
DATA
  6
CONTINUOUS
 62
     7
 10
181.27361010646081
 20
441.26787685778652
 30
0.0
  0
VERTEX
  5
492
  8
DATA
  6
CONTINUOUS
 62
     7
 10
182.80361010646081
 20
441.26787685778652
 30
0.0
  0
VERTEX
  5
493
  8
DATA
  6
CONTINUOUS
 62
     7
 10
182.80361010646081
 20
439.7378768577866
 30
0.0
  0
VERTEX
  5
494
  8
DATA
  6
CONTINUOUS
 62
     7
 10
181.27361010646081
 20
439.7378768577866
 30
0.0
  0
SEQEND
  5
495
  8
DATA
  6
CONTINUOUS
 62
     7
  0
POLYLINE
  5
15D
  8
DATA
  6
CONTINUOUS
 62
     7
 66
     1
 10
0.0
 20
0.0
 30
0.0
 70
     1
  0
VERTEX
  5
496
  8
DATA
  6
CONTINUOUS
 62
     7
 10
183.27361010646081
 20
441.26787685778652
 30
0.0
  0
VERTEX
  5
497
  8
DATA
  6
CONTINUOUS
 62
     7
 10
184.80361010646081
 20
441.26787685778652
 30
0.0
  0
VERTEX
  5
498
  8
DATA
  6
CONTINUOUS
 62
     7
 10
184.80361010646081
 20
439.7378768577866
 30
0.0
  0
VERTEX
  5
499
  8
DATA
  6
CONTINUOUS
 62
     7
 10
183.27361010646081
 20
439.7378768577866
 30
0.0
  0
SEQEND
  5
49A
  8
DATA
  6
CONTINUOUS
 62
     7
  0
POLYLINE
  5
164
  8
DATA
  6
CONTINUOUS
 62
     7
 66
     1
 10
0.0
 20
0.0
 30
0.0
 70
     1
  0
VERTEX
  5
49B
  8
DATA
  6
CONTINUOUS
 62
     7
 10
185.27361010646081
 20
441.26787685778652
 30
0.0
  0
VERTEX
  5
49C
  8
DATA
  6
CONTINUOUS
 62
     7
 10
186.80361010646081
 20
441.26787685778652
 30
0.0
  0
VERTEX
  5
49D
  8
DATA
  6
CONTINUOUS
 62
     7
 10
186.80361010646081
 20
439.7378768577866
 30
0.0
  0
VERTEX
  5
49E
  8
DATA
  6
CONTINUOUS
 62
     7
 10
185.27361010646081
 20
439.7378768577866
 30
0.0
  0
SEQEND
  5
49F
  8
DATA
  6
CONTINUOUS
 62
     7
  0
POLYLINE
  5
16B
  8
DATA
  6
CONTINUOUS
 62
     7
 66
     1
 10
0.0
 20
0.0
 30
0.0
 70
     1
  0
VERTEX
  5
4A0
  8
DATA
  6
CONTINUOUS
 62
     7
 10
187.27361010646081
 20
441.26787685778652
 30
0.0
  0
VERTEX
  5
4A1
  8
DATA
  6
CONTINUOUS
 62
     7
 10
188.80361010646081
 20
441.26787685778652
 30
0.0
  0
VERTEX
  5
4A2
  8
DATA
  6
CONTINUOUS
 62
     7
 10
188.80361010646081
 20
439.7378768577866
 30
0.0
  0
VERTEX
  5
4A3
  8
DATA
  6
CONTINUOUS
 62
     7
 10
187.27361010646081
 20
439.7378768577866
 30
0.0
  0
SEQEND
  5
4A4
  8
DATA
  6
CONTINUOUS
 62
     7
  0
POLYLINE
  5
172
  8
DATA
  6
CONTINUOUS
 62
     7
 66
     1
 10
0.0
 20
0.0
 30
0.0
 70
     1
  0
VERTEX
  5
4A5
  8
DATA
  6
CONTINUOUS
 62
     7
 10
189.27361010646081
 20
441.26787685778652
 30
0.0
  0
VERTEX
  5
4A6
  8
DATA
  6
CONTINUOUS
 62
     7
 10
190.80361010646089
 20
441.26787685778652
 30
0.0
  0
VERTEX
  5
4A7
  8
DATA
  6
CONTINUOUS
 62
     7
 10
190.80361010646089
 20
439.7378768577866
 30
0.0
  0
VERTEX
  5
4A8
  8
DATA
  6
CONTINUOUS
 62
     7
 10
189.27361010646081
 20
439.7378768577866
 30
0.0
  0
SEQEND
  5
4A9
  8
DATA
  6
CONTINUOUS
 62
     7
  0
POLYLINE
  5
179
  8
DATA
  6
CONTINUOUS
 62
     7
 66
     1
 10
0.0
 20
0.0
 30
0.0
 70
     1
  0
VERTEX
  5
4AA
  8
DATA
  6
CONTINUOUS
 62
     7
 10
191.27361010646089
 20
441.26787685778652
 30
0.0
  0
VERTEX
  5
4AB
  8
DATA
  6
CONTINUOUS
 62
     7
 10
192.80361010646109
 20
441.26787685778652
 30
0.0
  0
VERTEX
  5
4AC
  8
DATA
  6
CONTINUOUS
 62
     7
 10
192.80361010646109
 20
439.7378768577866
 30
0.0
  0
VERTEX
  5
4AD
  8
DATA
  6
CONTINUOUS
 62
     7
 10
191.27361010646089
 20
439.7378768577866
 30
0.0
  0
SEQEND
  5
4AE
  8
DATA
  6
CONTINUOUS
 62
     7
  0
POLYLINE
  5
180
  8
DATA
  6
CONTINUOUS
 62
     7
 66
     1
 10
0.0
 20
0.0
 30
0.0
 70
     1
  0
VERTEX
  5
4AF
  8
DATA
  6
CONTINUOUS
 62
     7
 10
193.27361010646109
 20
441.26787685778652
 30
0.0
  0
VERTEX
  5
4B0
  8
DATA
  6
CONTINUOUS
 62
     7
 10
194.80361010646121
 20
441.26787685778652
 30
0.0
  0
VERTEX
  5
4B1
  8
DATA
  6
CONTINUOUS
 62
     7
 10
194.80361010646121
 20
439.7378768577866
 30
0.0
  0
VERTEX
  5
4B2
  8
DATA
  6
CONTINUOUS
 62
     7
 10
193.27361010646109
 20
439.7378768577866
 30
0.0
  0
SEQEND
  5
4B3
  8
DATA
  6
CONTINUOUS
 62
     7
  0
POLYLINE
  5
187
  8
DATA
  6
CONTINUOUS
 62
     7
 66
     1
 10
0.0
 20
0.0
 30
0.0
 70
     1
  0
VERTEX
  5
4B4
  8
DATA
  6
CONTINUOUS
 62
     7
 10
195.27361010646129
 20
441.26787685778652
 30
0.0
  0
VERTEX
  5
4B5
  8
DATA
  6
CONTINUOUS
 62
     7
 10
196.80361010646141
 20
441.26787685778652
 30
0.0
  0
VERTEX
  5
4B6
  8
DATA
  6
CONTINUOUS
 62
     7
 10
196.80361010646141
 20
439.7378768577866
 30
0.0
  0
VERTEX
  5
4B7
  8
DATA
  6
CONTINUOUS
 62
     7
 10
195.27361010646129
 20
439.7378768577866
 30
0.0
  0
SEQEND
  5
4B8
  8
DATA
  6
CONTINUOUS
 62
     7
  0
POLYLINE
  5
18E
  8
DATA
  6
CONTINUOUS
 62
     7
 66
     1
 10
0.0
 20
0.0
 30
0.0
 70
     1
  0
VERTEX
  5
4B9
  8
DATA
  6
CONTINUOUS
 62
     7
 10
181.27361010646081
 20
437.26787685778652
 30
0.0
  0
VERTEX
  5
4BA
  8
DATA
  6
CONTINUOUS
 62
     7
 10
182.80361010646081
 20
437.26787685778652
 30
0.0
  0
VERTEX
  5
4BB
  8
DATA
  6
CONTINUOUS
 62
     7
 10
182.80361010646081
 20
435.7378768577866
 30
0.0
  0
VERTEX
  5
4BC
  8
DATA
  6
CONTINUOUS
 62
     7
 10
181.27361010646081
 20
435.7378768577866
 30
0.0
  0
SEQEND
  5
4BD
  8
DATA
  6
CONTINUOUS
 62
     7
  0
POLYLINE
  5
195
  8
DATA
  6
CONTINUOUS
 62
     7
 66
     1
 10
0.0
 20
0.0
 30
0.0
 70
     1
  0
VERTEX
  5
4BE
  8
DATA
  6
CONTINUOUS
 62
     7
 10
183.27361010646081
 20
437.26787685778652
 30
0.0
  0
VERTEX
  5
4BF
  8
DATA
  6
CONTINUOUS
 62
     7
 10
184.80361010646081
 20
437.26787685778652
 30
0.0
  0
VERTEX
  5
4C0
  8
DATA
  6
CONTINUOUS
 62
     7
 10
184.80361010646081
 20
435.7378768577866
 30
0.0
  0
VERTEX
  5
4C1
  8
DATA
  6
CONTINUOUS
 62
     7
 10
183.27361010646081
 20
435.7378768577866
 30
0.0
  0
SEQEND
  5
4C2
  8
DATA
  6
CONTINUOUS
 62
     7
  0
POLYLINE
  5
19C
  8
DATA
  6
CONTINUOUS
 62
     7
 66
     1
 10
0.0
 20
0.0
 30
0.0
 70
     1
  0
VERTEX
  5
4C3
  8
DATA
  6
CONTINUOUS
 62
     7
 10
185.27361010646081
 20
437.26787685778652
 30
0.0
  0
VERTEX
  5
4C4
  8
DATA
  6
CONTINUOUS
 62
     7
 10
186.80361010646081
 20
437.26787685778652
 30
0.0
  0
VERTEX
  5
4C5
  8
DATA
  6
CONTINUOUS
 62
     7
 10
186.80361010646081
 20
435.7378768577866
 30
0.0
  0
VERTEX
  5
4C6
  8
DATA
  6
CONTINUOUS
 62
     7
 10
185.27361010646081
 20
435.7378768577866
 30
0.0
  0
SEQEND
  5
4C7
  8
DATA
  6
CONTINUOUS
 62
     7
  0
POLYLINE
  5
1A3
  8
DATA
  6
CONTINUOUS
 62
     7
 66
     1
 10
0.0
 20
0.0
 30
0.0
 70
     1
  0
VERTEX
  5
4C8
  8
DATA
  6
CONTINUOUS
 62
     7
 10
187.27361010646081
 20
437.26787685778652
 30
0.0
  0
VERTEX
  5
4C9
  8
DATA
  6
CONTINUOUS
 62
     7
 10
188.80361010646081
 20
437.26787685778652
 30
0.0
  0
VERTEX
  5
4CA
  8
DATA
  6
CONTINUOUS
 62
     7
 10
188.80361010646081
 20
435.7378768577866
 30
0.0
  0
VERTEX
  5
4CB
  8
DATA
  6
CONTINUOUS
 62
     7
 10
187.27361010646081
 20
435.7378768577866
 30
0.0
  0
SEQEND
  5
4CC
  8
DATA
  6
CONTINUOUS
 62
     7
  0
POLYLINE
  5
1AA
  8
DATA
  6
CONTINUOUS
 62
     7
 66
     1
 10
0.0
 20
0.0
 30
0.0
 70
     1
  0
VERTEX
  5
4CD
  8
DATA
  6
CONTINUOUS
 62
     7
 10
189.27361010646081
 20
437.26787685778652
 30
0.0
  0
VERTEX
  5
4CE
  8
DATA
  6
CONTINUOUS
 62
     7
 10
190.80361010646089
 20
437.26787685778652
 30
0.0
  0
VERTEX
  5
4CF
  8
DATA
  6
CONTINUOUS
 62
     7
 10
190.80361010646089
 20
435.7378768577866
 30
0.0
  0
VERTEX
  5
4D0
  8
DATA
  6
CONTINUOUS
 62
     7
 10
189.27361010646081
 20
435.7378768577866
 30
0.0
  0
SEQEND
  5
4D1
  8
DATA
  6
CONTINUOUS
 62
     7
  0
POLYLINE
  5
1B1
  8
DATA
  6
CONTINUOUS
 62
     7
 66
     1
 10
0.0
 20
0.0
 30
0.0
 70
     1
  0
VERTEX
  5
4D2
  8
DATA
  6
CONTINUOUS
 62
     7
 10
191.27361010646089
 20
437.26787685778652
 30
0.0
  0
VERTEX
  5
4D3
  8
DATA
  6
CONTINUOUS
 62
     7
 10
192.80361010646109
 20
437.26787685778652
 30
0.0
  0
VERTEX
  5
4D4
  8
DATA
  6
CONTINUOUS
 62
     7
 10
192.80361010646109
 20
435.7378768577866
 30
0.0
  0
VERTEX
  5
4D5
  8
DATA
  6
CONTINUOUS
 62
     7
 10
191.27361010646089
 20
435.7378768577866
 30
0.0
  0
SEQEND
  5
4D6
  8
DATA
  6
CONTINUOUS
 62
     7
  0
POLYLINE
  5
1B8
  8
DATA
  6
CONTINUOUS
 62
     7
 66
     1
 10
0.0
 20
0.0
 30
0.0
 70
     1
  0
VERTEX
  5
4D7
  8
DATA
  6
CONTINUOUS
 62
     7
 10
193.27361010646109
 20
437.26787685778652
 30
0.0
  0
VERTEX
  5
4D8
  8
DATA
  6
CONTINUOUS
 62
     7
 10
194.80361010646121
 20
437.26787685778652
 30
0.0
  0
VERTEX
  5
4D9
  8
DATA
  6
CONTINUOUS
 62
     7
 10
194.80361010646121
 20
435.7378768577866
 30
0.0
  0
VERTEX
  5
4DA
  8
DATA
  6
CONTINUOUS
 62
     7
 10
193.27361010646109
 20
435.7378768577866
 30
0.0
  0
SEQEND
  5
4DB
  8
DATA
  6
CONTINUOUS
 62
     7
  0
POLYLINE
  5
1BF
  8
DATA
  6
CONTINUOUS
 62
     7
 66
     1
 10
0.0
 20
0.0
 30
0.0
 70
     1
  0
VERTEX
  5
4DC
  8
DATA
  6
CONTINUOUS
 62
     7
 10
195.27361010646129
 20
437.26787685778652
 30
0.0
  0
VERTEX
  5
4DD
  8
DATA
  6
CONTINUOUS
 62
     7
 10
196.80361010646141
 20
437.26787685778652
 30
0.0
  0
VERTEX
  5
4DE
  8
DATA
  6
CONTINUOUS
 62
     7
 10
196.80361010646141
 20
435.7378768577866
 30
0.0
  0
VERTEX
  5
4DF
  8
DATA
  6
CONTINUOUS
 62
     7
 10
195.27361010646129
 20
435.7378768577866
 30
0.0
  0
SEQEND
  5
4E0
  8
DATA
  6
CONTINUOUS
 62
     7
  0
POLYLINE
  5
1C6
  8
DATA
  6
CONTINUOUS
 62
     7
 66
     1
 10
0.0
 20
0.0
 30
0.0
  0
VERTEX
  5
4E1
  8
DATA
  6
CONTINUOUS
 62
     7
 10
200.82367627764111
 20
438.90287685778651
 30
0.0
  0
VERTEX
  5
4E2
  8
DATA
  6
CONTINUOUS
 62
     7
 10
202.92367627764119
 20
438.90287685778651
 30
0.0
  0
VERTEX
  5
4E3
  8
DATA
  6
CONTINUOUS
 62
     7
 10
202.92367627764119
 20
438.1028768577865
 30
0.0
  0
VERTEX
  5
4E4
  8
DATA
  6
CONTINUOUS
 62
     7
 10
200.82367627764111
 20
438.1028768577865
 30
0.0
  0
SEQEND
  5
4E5
  8
DATA
  6
CONTINUOUS
 62
     7
  0
POLYLINE
  5
1CD
  8
DATA
  6
CONTINUOUS
 62
     7
 66
     1
 10
0.0
 20
0.0
 30
0.0
  0
VERTEX
  5
4E6
  8
DATA
  6
CONTINUOUS
 62
     7
 10
200.0236762776411
 20
438.1028768577865
 30
0.0
  0
VERTEX
  5
4E7
  8
DATA
  6
CONTINUOUS
 62
     7
 10
197.92367627764091
 20
438.1028768577865
 30
0.0
  0
VERTEX
  5
4E8
  8
DATA
  6
CONTINUOUS
 62
     7
 10
197.92367627764091
 20
438.90287685778651
 30
0.0
  0
VERTEX
  5
4E9
  8
DATA
  6
CONTINUOUS
 62
     7
 10
200.0236762776411
 20
438.90287685778651
 30
0.0
  0
SEQEND
  5
4EA
  8
DATA
  6
CONTINUOUS
 62
     7
  0
POLYLINE
  5
1D4
  8
DATA
  6
CONTINUOUS
 62
     7
 66
     1
 10
0.0
 20
0.0
 30
0.0
  0
VERTEX
  5
4EB
  8
DATA
  6
CONTINUOUS
 62
     7
 10
200.82367627764111
 20
438.1028768577865
 30
0.0
  0
VERTEX
  5
4EC
  8
DATA
  6
CONTINUOUS
 62
     7
 10
200.82367627764111
 20
436.00287685778659
 30
0.0
  0
VERTEX
  5
4ED
  8
DATA
  6
CONTINUOUS
 62
     7
 10
200.0236762776411
 20
436.00287685778659
 30
0.0
  0
VERTEX
  5
4EE
  8
DATA
  6
CONTINUOUS
 62
     7
 10
200.0236762776411
 20
438.1028768577865
 30
0.0
  0
SEQEND
  5
4EF
  8
DATA
  6
CONTINUOUS
 62
     7
  0
POLYLINE
  5
1DB
  8
DATA
  6
CONTINUOUS
 62
     7
 66
     1
 10
0.0
 20
0.0
 30
0.0
  0
VERTEX
  5
4F0
  8
DATA
  6
CONTINUOUS
 62
     7
 10
200.0236762776411
 20
438.90287685778651
 30
0.0
  0
VERTEX
  5
4F1
  8
DATA
  6
CONTINUOUS
 62
     7
 10
200.0236762776411
 20
441.00287685778659
 30
0.0
  0
VERTEX
  5
4F2
  8
DATA
  6
CONTINUOUS
 62
     7
 10
200.82367627764111
 20
441.00287685778659
 30
0.0
  0
VERTEX
  5
4F3
  8
DATA
  6
CONTINUOUS
 62
     7
 10
200.82367627764111
 20
438.90287685778651
 30
0.0
  0
SEQEND
  5
4F4
  8
DATA
  6
CONTINUOUS
 62
     7
  0
POLYLINE
  5
1E2
  8
DATA
  6
CONTINUOUS
 62
     7
 66
     1
 10
0.0
 20
0.0
 30
0.0
 70
     1
  0
VERTEX
  5
4F5
  8
DATA
  6
CONTINUOUS
 62
     7
 10
198.56339184716921
 20
440.26230466843651
 30
0.0
  0
VERTEX
  5
4F6
  8
DATA
  6
CONTINUOUS
 62
     7
 10
199.5633918471693
 20
440.26230466843651
 30
0.0
  0
VERTEX
  5
4F7
  8
DATA
  6
CONTINUOUS
 62
     7
 10
199.5633918471693
 20
439.26230466843663
 30
0.0
  0
VERTEX
  5
4F8
  8
DATA
  6
CONTINUOUS
 62
     7
 10
198.56339184716921
 20
439.26230466843663
 30
0.0
  0
SEQEND
  5
4F9
  8
DATA
  6
CONTINUOUS
 62
     7
  0
POLYLINE
  5
1E9
  8
DATA
  6
CONTINUOUS
 62
     7
 66
     1
 10
0.0
 20
0.0
 30
0.0
 70
     1
  0
VERTEX
  5
4FA
  8
DATA
  6
CONTINUOUS
 62
     7
 10
201.2839607081128
 20
440.26230466843651
 30
0.0
  0
VERTEX
  5
4FB
  8
DATA
  6
CONTINUOUS
 62
     7
 10
202.28396070811289
 20
440.26230466843651
 30
0.0
  0
VERTEX
  5
4FC
  8
DATA
  6
CONTINUOUS
 62
     7
 10
202.28396070811289
 20
439.26230466843663
 30
0.0
  0
VERTEX
  5
4FD
  8
DATA
  6
CONTINUOUS
 62
     7
 10
201.2839607081128
 20
439.26230466843663
 30
0.0
  0
SEQEND
  5
4FE
  8
DATA
  6
CONTINUOUS
 62
     7
  0
POLYLINE
  5
1F0
  8
DATA
  6
CONTINUOUS
 62
     7
 66
     1
 10
0.0
 20
0.0
 30
0.0
 70
     1
  0
VERTEX
  5
4FF
  8
DATA
  6
CONTINUOUS
 62
     7
 10
198.56339184716921
 20
437.74344904713672
 30
0.0
  0
VERTEX
  5
500
  8
DATA
  6
CONTINUOUS
 62
     7
 10
199.5633918471693
 20
437.74344904713672
 30
0.0
  0
VERTEX
  5
501
  8
DATA
  6
CONTINUOUS
 62
     7
 10
199.5633918471693
 20
436.74344904713672
 30
0.0
  0
VERTEX
  5
502
  8
DATA
  6
CONTINUOUS
 62
     7
 10
198.56339184716921
 20
436.74344904713672
 30
0.0
  0
SEQEND
  5
503
  8
DATA
  6
CONTINUOUS
 62
     7
  0
POLYLINE
  5
1F7
  8
DATA
  6
CONTINUOUS
 62
     7
 66
     1
 10
0.0
 20
0.0
 30
0.0
 70
     1
  0
VERTEX
  5
504
  8
DATA
  6
CONTINUOUS
 62
     7
 10
201.2839607081128
 20
437.74344904713672
 30
0.0
  0
VERTEX
  5
505
  8
DATA
  6
CONTINUOUS
 62
     7
 10
202.28396070811289
 20
437.74344904713672
 30
0.0
  0
VERTEX
  5
506
  8
DATA
  6
CONTINUOUS
 62
     7
 10
202.28396070811289
 20
436.74344904713672
 30
0.0
  0
VERTEX
  5
507
  8
DATA
  6
CONTINUOUS
 62
     7
 10
201.2839607081128
 20
436.74344904713672
 30
0.0
  0
SEQEND
  5
508
  8
DATA
  6
CONTINUOUS
 62
     7
  0
LINE
  5
1FE
  8
DATA
  6
CONTINUOUS
 62
     7
 10
180.3283044596931
 20
441.33276855230031
 30
0.0
 11
180.88722165714529
 21
435.48276855230029
 31
0.0
  0
LINE
  5
1FF
  8
DATA
  6
CONTINUOUS
 62
     7
 10
204.21904809558831
 20
441.33276855230031
 30
0.0
 11
203.660130898136
 21
435.4827685523004
 31
0.0
  0
ARC
  5
200
  8
DATA
  6
CONTINUOUS
 62
     7
 10
181.3237713904484
 20
441.4278768577866
 30
0.0
 40
1.00000000000001
 50
90.0
 51
185.45755348510761
  0
ARC
  5
201
  8
DATA
  6
CONTINUOUS
 62
     7
 10
203.22358116483289
 20
441.4278768577866
 30
0.0
 40
0.9999999999999754
 50
354.54244651489228
 51
90.0
  0
ARC
  5
202
  8
DATA
  6
CONTINUOUS
 62
     7
 10
181.8826885879007
 20
435.57787685778658
 30
0.0
 40
0.9999999999999754
 50
185.45755348510761
 51
270.0
  0
ARC
  5
203
  8
DATA
  6
CONTINUOUS
 62
     7
 10
202.66466396738059
 20
435.57787685778658
 30
0.0
 40
0.9999999999999982
 50
270.0
 51
354.54244651489557
  0
TEXT
  5
204
  8
DATA
 62
     7
 10
187.23753741380381
 20
428.41473272218428
 30
0.0
 40
2.24780078125
  1
DVI In
 41
0.7
 11
187.23753741380381
 21
430.6625335034343
 31
0.0
 73
     3
  0
CIRCLE
  5
205
  8
DATA
  6
CONTINUOUS
 62
     7
 10
164.4399630503251
 20
438.50107411326172
 30
0.0
 40
1.450000000000045
  0
CIRCLE
  5
206
  8
DATA
  6
CONTINUOUS
 62
     7
 10
152.4188030963935
 20
438.50107411326172
 30
0.0
 40
3.25
  0
CIRCLE
  5
207
  8
DATA
  6
CONTINUOUS
 62
     7
 10
152.4188030963935
 20
438.50107411326172
 30
0.0
 40
0.5
  0
TEXT
  5
208
  8
DATA
 62
     7
 10
149.14992936263559
 20
443.27942320610339
 30
0.0
 40
2.24780078125
  1
5 VDC
 41
0.7
 11
149.14992936263559
 21
445.52722398735352
 31
0.0
 73
     3
  0
TEXT
  5
209
  8
DATA
 62
     7
 10
160.542713933372
 20
428.36501425288458
 30
0.0
 40
2.24780078125
  1
Power
 41
0.7
 11
160.542713933372
 21
430.61281503413448
 31
0.0
 73
     3
  0
LINE
  5
20A
  8
DATA
  6
CONTINUOUS
 62
     7
 10
173.68540768742221
 20
476.25
 30
0.0
 11
173.68540768742221
 21
481.25
 31
0.0
  0
LINE
  5
20B
  8
DATA
  6
CONTINUOUS
 62
     7
 10
178.3619448678582
 20
476.25
 30
0.0
 11
178.3619448678582
 21
481.25
 31
0.0
  0
LINE
  5
20C
  8
DATA
  6
CONTINUOUS
 62
     7
 10
180.3283044596931
 20
476.25
 30
0.0
 11
180.3283044596931
 21
481.25
 31
0.0
  0
LINE
  5
20D
  8
DATA
  6
CONTINUOUS
 62
     7
 10
206.18540768742309
 20
476.25
 30
0.0
 11
206.18540768742309
 21
481.25
 31
0.0
  0
LINE
  5
20E
  8
DATA
  6
CONTINUOUS
 62
     7
 10
210.86194486785911
 20
476.25
 30
0.0
 11
210.86194486785911
 21
481.25
 31
0.0
  0
LINE
  5
20F
  8
DATA
  6
CONTINUOUS
 62
     7
 10
204.21904809558831
 20
476.25
 30
0.0
 11
204.21904809558831
 21
481.25
 31
0.0
  0
LINE
  5
210
  8
DATA
  6
CONTINUOUS
 62
     7
 10
173.68540768742221
 20
476.25
 30
0.0
 11
178.3619448678582
 21
476.25
 31
0.0
  0
LINE
  5
211
  8
DATA
  6
CONTINUOUS
 62
     7
 10
180.3283044596931
 20
476.25
 30
0.0
 11
204.21904809558831
 21
476.25
 31
0.0
  0
LINE
  5
212
  8
DATA
  6
CONTINUOUS
 62
     7
 10
206.18540768742309
 20
476.25
 30
0.0
 11
210.86194486785911
 21
476.25
 31
0.0
  0
ARC
  5
213
  8
DATA
  6
CONTINUOUS
 62
     7
 10
164.4399630503251
 20
481.25600055671441
 30
0.0
 40
1.4500000000000459
 50
180.2371086591686
 51
359.7628913408314
  0
LINE
  5
214
  8
DATA
  6
CONTINUOUS
 62
     7
 10
218.0
 20
589.0
 30
0.0
 11
140.0
 21
589.0
 31
0.0
  0
LINE
  5
215
  8
DATA
  6
CONTINUOUS
 62
     7
 10
218.0
 20
615.0
 30
0.0
 11
140.0
 21
615.0
 31
0.0
  0
LINE
  5
216
  8
DATA
  6
CONTINUOUS
 62
     7
 10
139.0
 20
614.0
 30
0.0
 11
139.0
 21
590.0
 31
0.0
  0
LINE
  5
217
  8
DATA
  6
CONTINUOUS
 62
     7
 10
219.0
 20
614.0
 30
0.0
 11
219.0
 21
590.0
 31
0.0
  0
ARC
  5
218
  8
DATA
  6
CONTINUOUS
 62
     7
 10
138.5
 20
588.49999999999989
 30
0.0
 40
1.0
 50
180.0
 51
270.0
  0
ARC
  5
219
  8
DATA
  6
CONTINUOUS
 62
     7
 10
140.0
 20
590.0
 30
0.0
 40
1.0
 50
180.0
 51
270.0
  0
ARC
  5
21A
  8
DATA
  6
CONTINUOUS
 62
     7
 10
138.5
 20
615.5
 30
0.0
 40
1.0
 50
90.0
 51
180.0
  0
ARC
  5
21B
  8
DATA
  6
CONTINUOUS
 62
     7
 10
140.0
 20
614.0
 30
0.0
 40
1.0
 50
90.0
 51
180.0
  0
ARC
  5
21C
  8
DATA
  6
CONTINUOUS
 62
     7
 10
218.0
 20
614.0
 30
0.0
 40
1.0
 50
0.0
 51
90.0
  0
ARC
  5
21D
  8
DATA
  6
CONTINUOUS
 62
     7
 10
219.5
 20
615.5
 30
0.0
 40
1.0
 50
0.0
 51
90.0
  0
ARC
  5
21E
  8
DATA
  6
CONTINUOUS
 62
     7
 10
218.0
 20
590.0
 30
0.0
 40
1.0
 50
270.0
 51
0.0
  0
ARC
  5
21F
  8
DATA
  6
CONTINUOUS
 62
     7
 10
219.5
 20
588.49999999999989
 30
0.0
 40
1.0
 50
270.0
 51
0.0
  0
LINE
  5
220
  8
DATA
  6
CONTINUOUS
 62
     7
 10
204.88295605551761
 20
607.33762391363928
 30
0.0
 11
204.88295605551761
 21
594.03762391363921
 31
0.0
  0
LINE
  5
221
  8
DATA
  6
CONTINUOUS
 62
     7
 10
189.18295605551771
 20
607.33762391363928
 30
0.0
 11
189.18295605551771
 21
594.03762391363921
 31
0.0
  0
LINE
  5
222
  8
DATA
  6
CONTINUOUS
 62
     7
 10
189.18295605551771
 20
594.03762391363921
 30
0.0
 11
204.88295605551761
 21
594.03762391363921
 31
0.0
  0
LINE
  5
223
  8
DATA
  6
CONTINUOUS
 62
     7
 10
189.18295605551771
 20
607.33762391363928
 30
0.0
 11
204.88295605551761
 21
607.33762391363928
 31
0.0
  0
LINE
  5
224
  8
DATA
  6
CONTINUOUS
 62
     7
 10
190.88295605551761
 20
604.33762391363916
 30
0.0
 11
203.18295605551771
 21
604.33762391363916
 31
0.0
  0
LINE
  5
225
  8
DATA
  6
CONTINUOUS
 62
     7
 10
190.88295605551761
 20
604.33762391363916
 30
0.0
 11
190.88295605551761
 21
597.03762391363921
 31
0.0
  0
LINE
  5
226
  8
DATA
  6
CONTINUOUS
 62
     7
 10
203.18295605551771
 20
604.33762391363916
 30
0.0
 11
203.18295605551771
 21
597.03762391363921
 31
0.0
  0
LINE
  5
227
  8
DATA
  6
CONTINUOUS
 62
     7
 10
194.80795605551771
 20
594.03762391363921
 30
0.0
 11
194.80795605551771
 21
595.5376239136391
 31
0.0
  0
LINE
  5
228
  8
DATA
  6
CONTINUOUS
 62
     7
 10
199.25795605551761
 20
595.5376239136391
 30
0.0
 11
199.25795605551761
 21
594.03762391363921
 31
0.0
  0
LINE
  5
229
  8
DATA
  6
CONTINUOUS
 62
     7
 10
193.68295605551771
 20
595.5376239136391
 30
0.0
 11
194.80795605551771
 21
595.5376239136391
 31
0.0
  0
LINE
  5
22A
  8
DATA
  6
CONTINUOUS
 62
     7
 10
199.25795605551761
 20
595.5376239136391
 30
0.0
 11
200.38295605551761
 21
595.5376239136391
 31
0.0
  0
LINE
  5
22B
  8
DATA
  6
CONTINUOUS
 62
     7
 10
190.88295605551761
 20
597.03762391363921
 30
0.0
 11
193.68295605551771
 21
597.03762391363921
 31
0.0
  0
LINE
  5
22C
  8
DATA
  6
CONTINUOUS
 62
     7
 10
200.38295605551761
 20
597.03762391363921
 30
0.0
 11
203.18295605551771
 21
597.03762391363921
 31
0.0
  0
LINE
  5
22D
  8
DATA
  6
CONTINUOUS
 62
     7
 10
193.68295605551771
 20
595.5376239136391
 30
0.0
 11
193.68295605551771
 21
597.03762391363921
 31
0.0
  0
LINE
  5
22E
  8
DATA
  6
CONTINUOUS
 62
     7
 10
200.38295605551761
 20
597.03762391363921
 30
0.0
 11
200.38295605551761
 21
595.5376239136391
 31
0.0
  0
TEXT
  5
22F
  8
DATA
 62
     7
 10
199.8521880330874
 20
610.29979198766273
 30
0.0
 40
2.24780078125
  1
Link
 50
180.0
 41
0.7
 11
199.8521880330874
 21
608.05199120641271
 31
0.0
 73
     3
  0
LINE
  5
230
  8
DATA
  6
CONTINUOUS
 62
     7
 10
189.18295605551771
 20
567.25
 30
0.0
 11
204.88295605551761
 21
567.25
 31
0.0
  0
LINE
  5
231
  8
DATA
  6
CONTINUOUS
 62
     7
 10
189.18295605551771
 20
567.25
 30
0.0
 11
189.18295605551771
 21
566.25
 31
0.0
  0
LINE
  5
232
  8
DATA
  6
CONTINUOUS
 62
     7
 10
204.88295605551761
 20
567.25
 30
0.0
 11
204.88295605551761
 21
566.25
 31
0.0
  0
LINE
  5
233
  8
DATA
  6
CONTINUOUS
 62
     7
 10
269.99999999989927
 20
435.82922975049678
 30
0.0
 11
274.99999999989927
 21
435.82922975049678
 31
0.0
  0
LINE
  5
234
  8
DATA
  6
CONTINUOUS
 62
     7
 10
274.99999999989927
 20
441.029229750497
 30
0.0
 11
269.99999999989927
 21
441.029229750497
 31
0.0
  0
LINE
  5
235
  8
DATA
  6
CONTINUOUS
 62
     7
 10
269.99999999989927
 20
434.42922975049692
 30
0.0
 11
274.99999999989927
 21
434.42922975049692
 31
0.0
  0
LINE
  5
236
  8
DATA
  6
CONTINUOUS
 62
     7
 10
274.99999999989927
 20
442.42922975049692
 30
0.0
 11
269.99999999989927
 21
442.42922975049692
 31
0.0
  0
LINE
  5
237
  8
DATA
  6
CONTINUOUS
 62
     7
 10
269.99999999989927
 20
442.42922975049692
 30
0.0
 11
269.99999999989927
 21
434.42922975049692
 31
0.0
  0
LINE
  5
238
  8
DATA
  6
CONTINUOUS
 62
     7
 10
361.0
 20
434.19999999999987
 30
0.0
 11
361.0
 21
447.5
 31
0.0
  0
LINE
  5
239
  8
DATA
  6
CONTINUOUS
 62
     7
 10
360.0
 20
447.5
 30
0.0
 11
361.0
 21
447.5
 31
0.0
  0
LINE
  5
23A
  8
DATA
  6
CONTINUOUS
 62
     7
 10
360.0
 20
434.19999999999987
 30
0.0
 11
361.0
 21
434.19999999999987
 31
0.0
  0
LINE
  5
23B
  8
DATA
  6
CONTINUOUS
 62
     7
 10
137.5
 20
151.0
 30
0.0
 11
137.5
 21
178.0
 31
0.0
  0
LINE
  5
23C
  8
DATA
  6
CONTINUOUS
 62
     7
 10
137.5
 20
206.25
 30
0.0
 11
137.5
 21
291.25
 31
0.0
  0
TEXT
  5
23D
  8
DATA
 62
     7
 10
118.46287700351721
 20
101.07216190748549
 30
0.0
 40
8.1442057291666661
  1
DVI-1CAT6-R(レシーバー)
 41
0.7
 11
118.46287700351721
 21
109.21636763665209
 31
0.0
 73
     3
  0
LINE
  5
23E
  8
DATA
  6
CONTINUOUS
 62
     7
 10
137.5
 20
151.0
 30
0.0
 11
137.5
 21
178.0
 31
0.0
  0
LINE
  5
23F
  8
DATA
  6
CONTINUOUS
 62
     7
 10
219.5
 20
150.0
 30
0.0
 11
208.5
 21
150.0
 31
0.0
  0
LINE
  5
240
  8
DATA
  6
CONTINUOUS
 62
     7
 10
149.5
 20
150.0
 30
0.0
 11
138.5
 21
150.0
 31
0.0
  0
LINE
  5
241
  8
DATA
  6
CONTINUOUS
 62
     7
 10
137.5
 20
291.25
 30
0.0
 11
220.5
 21
291.25
 31
0.0
  0
LINE
  5
242
  8
DATA
  6
CONTINUOUS
 62
     7
 10
137.5
 20
206.25
 30
0.0
 11
220.5
 21
206.25
 31
0.0
  0
TEXT
  5
243
  8
DATA
 62
     7
 10
174.93521072235609
 20
224.61027252853251
 30
0.0
 40
8.0627636718750004
  1
DVI
 41
0.7
 11
174.93521072235609
 21
232.67303620040741
 31
0.0
 73
     3
  0
TEXT
  5
244
  8
DATA
 62
     7
 10
191.6265327986813
 20
224.5933777122427
 30
0.0
 40
6.2710384114583331
  1
over
 41
0.7
 11
191.6265327986813
 21
230.86441612370101
 31
0.0
 73
     3
  0
TEXT
  5
245
  8
DATA
 62
     7
 10
175.1033691242335
 20
213.1647143207652
 30
0.0
 40
8.0627636718750004
  1
1CAT6R
 41
0.7
 11
175.1033691242335
 21
221.2274779926401
 31
0.0
 73
     3
  0
LINE
  5
246
  8
DATA
  6
CONTINUOUS
 62
     7
 10
220.5
 20
151.0
 30
0.0
 11
220.5
 21
178.0
 31
0.0
  0
LINE
  5
247
  8
DATA
  6
CONTINUOUS
 62
     7
 10
220.5
 20
206.25
 30
0.0
 11
220.5
 21
291.25
 31
0.0
  0
LINE
  5
248
  8
DATA
  6
CONTINUOUS
 62
     7
 10
219.5
 20
179.0
 30
0.0
 11
138.5
 21
179.0
 31
0.0
  0
LINE
  5
249
  8
DATA
  6
CONTINUOUS
 62
     7
 10
149.5
 20
150.0
 30
0.0
 11
149.5
 21
151.5
 31
0.0
  0
LINE
  5
24A
  8
DATA
  6
CONTINUOUS
 62
     7
 10
208.5
 20
150.0
 30
0.0
 11
208.5
 21
151.5
 31
0.0
  0
LINE
  5
24B
  8
DATA
  6
CONTINUOUS
 62
     7
 10
140.7077186008068
 20
148.0
 30
0.0
 11
139.50771860080681
 21
150.0
 31
0.0
  0
LINE
  5
24C
  8
DATA
  6
CONTINUOUS
 62
     7
 10
145.7077186008068
 20
148.0
 30
0.0
 11
146.90771860080679
 21
150.0
 31
0.0
  0
LINE
  5
24D
  8
DATA
  6
CONTINUOUS
 62
     7
 10
140.7077186008068
 20
148.0
 30
0.0
 11
145.7077186008068
 21
148.0
 31
0.0
  0
LINE
  5
24E
  8
DATA
  6
CONTINUOUS
 62
     7
 10
217.29228139919309
 20
148.0
 30
0.0
 11
218.49228139919319
 21
150.0
 31
0.0
  0
LINE
  5
24F
  8
DATA
  6
CONTINUOUS
 62
     7
 10
212.2922813991932
 20
148.0
 30
0.0
 11
211.09228139919321
 21
150.0
 31
0.0
  0
LINE
  5
250
  8
DATA
  6
CONTINUOUS
 62
     7
 10
217.29228139919309
 20
148.0
 30
0.0
 11
212.2922813991932
 21
148.0
 31
0.0
  0
LINE
  5
251
  8
DATA
  6
CONTINUOUS
 62
     7
 10
137.5
 20
340.5
 30
0.0
 11
137.5
 21
313.5
 31
0.0
  0
LINE
  5
252
  8
DATA
  6
CONTINUOUS
 62
     7
 10
137.5
 20
340.5
 30
0.0
 11
137.5
 21
340.0
 31
0.0
  0
LINE
  5
253
  8
DATA
  6
CONTINUOUS
 62
     7
 10
137.5
 20
314.0
 30
0.0
 11
137.5
 21
313.5
 31
0.0
  0
LINE
  5
254
  8
DATA
  6
CONTINUOUS
 62
     7
 10
219.5
 20
341.5
 30
0.0
 11
208.5
 21
341.5
 31
0.0
  0
LINE
  5
255
  8
DATA
  6
CONTINUOUS
 62
     7
 10
149.5
 20
341.5
 30
0.0
 11
138.5
 21
341.5
 31
0.0
  0
LINE
  5
256
  8
DATA
  6
CONTINUOUS
 62
     7
 10
220.5
 20
340.5
 30
0.0
 11
220.5
 21
313.5
 31
0.0
  0
LINE
  5
257
  8
DATA
  6
CONTINUOUS
 62
     7
 10
219.5
 20
312.5
 30
0.0
 11
138.5
 21
312.5
 31
0.0
  0
LINE
  5
258
  8
DATA
  6
CONTINUOUS
 62
     7
 10
149.5
 20
341.5
 30
0.0
 11
149.5
 21
340.0
 31
0.0
  0
LINE
  5
259
  8
DATA
  6
CONTINUOUS
 62
     7
 10
208.5
 20
341.5
 30
0.0
 11
208.5
 21
340.0
 31
0.0
  0
LINE
  5
25A
  8
DATA
  6
CONTINUOUS
 62
     7
 10
140.7077186008068
 20
343.5
 30
0.0
 11
139.50771860080681
 21
341.5
 31
0.0
  0
LINE
  5
25B
  8
DATA
  6
CONTINUOUS
 62
     7
 10
145.7077186008068
 20
343.5
 30
0.0
 11
146.90771860080679
 21
341.5
 31
0.0
  0
LINE
  5
25C
  8
DATA
  6
CONTINUOUS
 62
     7
 10
140.7077186008068
 20
343.5
 30
0.0
 11
145.7077186008068
 21
343.5
 31
0.0
  0
LINE
  5
25D
  8
DATA
  6
CONTINUOUS
 62
     7
 10
217.29228139919309
 20
343.5
 30
0.0
 11
218.49228139919319
 21
341.5
 31
0.0
  0
LINE
  5
25E
  8
DATA
  6
CONTINUOUS
 62
     7
 10
212.2922813991932
 20
343.5
 30
0.0
 11
211.09228139919321
 21
341.5
 31
0.0
  0
LINE
  5
25F
  8
DATA
  6
CONTINUOUS
 62
     7
 10
217.29228139919309
 20
343.5
 30
0.0
 11
212.2922813991932
 21
343.5
 31
0.0
  0
LINE
  5
260
  8
DATA
  6
CONTINUOUS
 62
     7
 10
275.0
 20
150.0
 30
0.0
 11
360.0
 21
150.0
 31
0.0
  0
LINE
  5
261
  8
DATA
  6
CONTINUOUS
 62
     7
 10
275.0
 20
179.0
 30
0.0
 11
360.0
 21
179.0
 31
0.0
  0
LINE
  5
262
  8
DATA
  6
CONTINUOUS
 62
     7
 10
275.0
 20
150.0
 30
0.0
 11
275.0
 21
179.0
 31
0.0
  0
LINE
  5
263
  8
DATA
  6
CONTINUOUS
 62
     7
 10
360.0
 20
150.0
 30
0.0
 11
360.0
 21
179.0
 31
0.0
  0
LINE
  5
264
  8
DATA
  6
CONTINUOUS
 62
     7
 10
285.23933217635619
 20
148.0
 30
0.0
 11
286.43933217635617
 21
150.0
 31
0.0
  0
LINE
  5
265
  8
DATA
  6
CONTINUOUS
 62
     7
 10
280.23933217635607
 20
148.0
 30
0.0
 11
279.03933217635608
 21
150.0
 31
0.0
  0
LINE
  5
266
  8
DATA
  6
CONTINUOUS
 62
     7
 10
285.23933217635619
 20
148.0
 30
0.0
 11
280.23933217635607
 21
148.0
 31
0.0
  0
LINE
  5
267
  8
DATA
  6
CONTINUOUS
 62
     7
 10
348.67281673842751
 20
148.0
 30
0.0
 11
349.87281673842767
 21
150.0
 31
0.0
  0
LINE
  5
268
  8
DATA
  6
CONTINUOUS
 62
     7
 10
343.6728167384274
 20
148.0
 30
0.0
 11
342.4728167384273
 21
150.0
 31
0.0
  0
LINE
  5
269
  8
DATA
  6
CONTINUOUS
 62
     7
 10
348.67281673842751
 20
148.0
 30
0.0
 11
343.6728167384274
 21
148.0
 31
0.0
  0
LINE
  5
26A
  8
DATA
  6
CONTINUOUS
 62
     7
 10
218.0
 20
177.5
 30
0.0
 11
140.0
 21
177.5
 31
0.0
  0
LINE
  5
26B
  8
DATA
  6
CONTINUOUS
 62
     7
 10
139.0
 20
152.5
 30
0.0
 11
139.0
 21
176.5
 31
0.0
  0
LINE
  5
26C
  8
DATA
  6
CONTINUOUS
 62
     7
 10
219.0
 20
152.5
 30
0.0
 11
219.0
 21
176.5
 31
0.0
  0
LINE
  5
26D
  8
DATA
  6
CONTINUOUS
 62
     7
 10
218.0
 20
151.5
 30
0.0
 11
140.0
 21
151.5
 31
0.0
  0
ARC
  5
26E
  8
DATA
  6
CONTINUOUS
 62
     7
 10
140.0
 20
176.5
 30
0.0
 40
1.0
 50
90.0
 51
180.0
  0
ARC
  5
26F
  8
DATA
  6
CONTINUOUS
 62
     7
 10
138.5
 20
178.0
 30
0.0
 40
1.0
 50
90.0
 51
180.0
  0
ARC
  5
270
  8
DATA
  6
CONTINUOUS
 62
     7
 10
140.0
 20
152.5
 30
0.0
 40
1.0
 50
180.0
 51
270.0
  0
ARC
  5
271
  8
DATA
  6
CONTINUOUS
 62
     7
 10
138.5
 20
151.0
 30
0.0
 40
1.0
 50
180.0
 51
270.0
  0
ARC
  5
272
  8
DATA
  6
CONTINUOUS
 62
     7
 10
218.0
 20
152.5
 30
0.0
 40
1.0
 50
270.0
 51
0.0
  0
ARC
  5
273
  8
DATA
  6
CONTINUOUS
 62
     7
 10
219.5
 20
151.0
 30
0.0
 40
1.0
 50
270.0
 51
0.0
  0
ARC
  5
274
  8
DATA
  6
CONTINUOUS
 62
     7
 10
218.0
 20
176.5
 30
0.0
 40
1.0
 50
0.0
 51
90.0
  0
ARC
  5
275
  8
DATA
  6
CONTINUOUS
 62
     7
 10
219.5
 20
178.0
 30
0.0
 40
1.0
 50
0.0
 51
90.0
  0
CIRCLE
  5
276
  8
DATA
  6
CONTINUOUS
 62
     7
 10
157.0969900961905
 20
163.50287685778659
 30
0.0
 40
1.175000000000068
  0
POLYLINE
  5
277
  8
DATA
  6
CONTINUOUS
 62
     7
 66
     1
 10
0.0
 20
0.0
 30
0.0
 70
     1
  0
VERTEX
  5
509
  8
DATA
  6
CONTINUOUS
 62
     7
 10
157.0969900961905
 20
166.20287685778661
 30
0.0
  0
VERTEX
  5
50A
  8
DATA
  6
CONTINUOUS
 62
     7
 10
154.7587215059726
 20
164.85287685778661
 30
0.0
  0
VERTEX
  5
50B
  8
DATA
  6
CONTINUOUS
 62
     7
 10
154.7587215059726
 20
162.15287685778659
 30
0.0
  0
VERTEX
  5
50C
  8
DATA
  6
CONTINUOUS
 62
     7
 10
157.0969900961905
 20
160.8028768577866
 30
0.0
  0
VERTEX
  5
50D
  8
DATA
  6
CONTINUOUS
 62
     7
 10
159.43525868640859
 20
162.15287685778659
 30
0.0
  0
VERTEX
  5
50E
  8
DATA
  6
CONTINUOUS
 62
     7
 10
159.43525868640859
 20
164.85287685778661
 30
0.0
  0
SEQEND
  5
50F
  8
DATA
  6
CONTINUOUS
 62
     7
  0
CIRCLE
  5
280
  8
DATA
  6
CONTINUOUS
 62
     7
 10
189.5969900961914
 20
163.50287685778659
 30
0.0
 40
1.175000000000068
  0
POLYLINE
  5
281
  8
DATA
  6
CONTINUOUS
 62
     7
 66
     1
 10
0.0
 20
0.0
 30
0.0
 70
     1
  0
VERTEX
  5
510
  8
DATA
  6
CONTINUOUS
 62
     7
 10
189.5969900961914
 20
166.20287685778661
 30
0.0
  0
VERTEX
  5
511
  8
DATA
  6
CONTINUOUS
 62
     7
 10
187.25872150597351
 20
164.85287685778661
 30
0.0
  0
VERTEX
  5
512
  8
DATA
  6
CONTINUOUS
 62
     7
 10
187.25872150597351
 20
162.15287685778659
 30
0.0
  0
VERTEX
  5
513
  8
DATA
  6
CONTINUOUS
 62
     7
 10
189.5969900961914
 20
160.8028768577866
 30
0.0
  0
VERTEX
  5
514
  8
DATA
  6
CONTINUOUS
 62
     7
 10
191.93525868640941
 20
162.15287685778659
 30
0.0
  0
VERTEX
  5
515
  8
DATA
  6
CONTINUOUS
 62
     7
 10
191.93525868640941
 20
164.85287685778661
 30
0.0
  0
SEQEND
  5
516
  8
DATA
  6
CONTINUOUS
 62
     7
  0
LINE
  5
28A
  8
DATA
  6
CONTINUOUS
 62
     7
 10
162.39708520899879
 20
167.4278768577866
 30
0.0
 11
184.29689498338331
 21
167.4278768577866
 31
0.0
  0
LINE
  5
28B
  8
DATA
  6
CONTINUOUS
 62
     7
 10
183.73797778593101
 20
159.57787685778661
 30
0.0
 11
162.95600240645109
 21
159.57787685778661
 31
0.0
  0
POLYLINE
  5
28C
  8
DATA
  6
CONTINUOUS
 62
     7
 66
     1
 10
0.0
 20
0.0
 30
0.0
 70
     1
  0
VERTEX
  5
517
  8
DATA
  6
CONTINUOUS
 62
     7
 10
162.3469239250112
 20
164.2678768577866
 30
0.0
  0
VERTEX
  5
518
  8
DATA
  6
CONTINUOUS
 62
     7
 10
163.8769239250112
 20
164.2678768577866
 30
0.0
  0
VERTEX
  5
519
  8
DATA
  6
CONTINUOUS
 62
     7
 10
163.8769239250112
 20
162.7378768577866
 30
0.0
  0
VERTEX
  5
51A
  8
DATA
  6
CONTINUOUS
 62
     7
 10
162.3469239250112
 20
162.7378768577866
 30
0.0
  0
SEQEND
  5
51B
  8
DATA
  6
CONTINUOUS
 62
     7
  0
POLYLINE
  5
293
  8
DATA
  6
CONTINUOUS
 62
     7
 66
     1
 10
0.0
 20
0.0
 30
0.0
 70
     1
  0
VERTEX
  5
51C
  8
DATA
  6
CONTINUOUS
 62
     7
 10
164.3469239250112
 20
164.2678768577866
 30
0.0
  0
VERTEX
  5
51D
  8
DATA
  6
CONTINUOUS
 62
     7
 10
165.8769239250112
 20
164.2678768577866
 30
0.0
  0
VERTEX
  5
51E
  8
DATA
  6
CONTINUOUS
 62
     7
 10
165.8769239250112
 20
162.7378768577866
 30
0.0
  0
VERTEX
  5
51F
  8
DATA
  6
CONTINUOUS
 62
     7
 10
164.3469239250112
 20
162.7378768577866
 30
0.0
  0
SEQEND
  5
520
  8
DATA
  6
CONTINUOUS
 62
     7
  0
POLYLINE
  5
29A
  8
DATA
  6
CONTINUOUS
 62
     7
 66
     1
 10
0.0
 20
0.0
 30
0.0
 70
     1
  0
VERTEX
  5
521
  8
DATA
  6
CONTINUOUS
 62
     7
 10
166.3469239250112
 20
164.2678768577866
 30
0.0
  0
VERTEX
  5
522
  8
DATA
  6
CONTINUOUS
 62
     7
 10
167.8769239250112
 20
164.2678768577866
 30
0.0
  0
VERTEX
  5
523
  8
DATA
  6
CONTINUOUS
 62
     7
 10
167.8769239250112
 20
162.7378768577866
 30
0.0
  0
VERTEX
  5
524
  8
DATA
  6
CONTINUOUS
 62
     7
 10
166.3469239250112
 20
162.7378768577866
 30
0.0
  0
SEQEND
  5
525
  8
DATA
  6
CONTINUOUS
 62
     7
  0
POLYLINE
  5
2A1
  8
DATA
  6
CONTINUOUS
 62
     7
 66
     1
 10
0.0
 20
0.0
 30
0.0
 70
     1
  0
VERTEX
  5
526
  8
DATA
  6
CONTINUOUS
 62
     7
 10
168.3469239250112
 20
164.2678768577866
 30
0.0
  0
VERTEX
  5
527
  8
DATA
  6
CONTINUOUS
 62
     7
 10
169.8769239250112
 20
164.2678768577866
 30
0.0
  0
VERTEX
  5
528
  8
DATA
  6
CONTINUOUS
 62
     7
 10
169.8769239250112
 20
162.7378768577866
 30
0.0
  0
VERTEX
  5
529
  8
DATA
  6
CONTINUOUS
 62
     7
 10
168.3469239250112
 20
162.7378768577866
 30
0.0
  0
SEQEND
  5
52A
  8
DATA
  6
CONTINUOUS
 62
     7
  0
POLYLINE
  5
2A8
  8
DATA
  6
CONTINUOUS
 62
     7
 66
     1
 10
0.0
 20
0.0
 30
0.0
 70
     1
  0
VERTEX
  5
52B
  8
DATA
  6
CONTINUOUS
 62
     7
 10
170.3469239250112
 20
164.2678768577866
 30
0.0
  0
VERTEX
  5
52C
  8
DATA
  6
CONTINUOUS
 62
     7
 10
171.87692392501131
 20
164.2678768577866
 30
0.0
  0
VERTEX
  5
52D
  8
DATA
  6
CONTINUOUS
 62
     7
 10
171.87692392501131
 20
162.7378768577866
 30
0.0
  0
VERTEX
  5
52E
  8
DATA
  6
CONTINUOUS
 62
     7
 10
170.3469239250112
 20
162.7378768577866
 30
0.0
  0
SEQEND
  5
52F
  8
DATA
  6
CONTINUOUS
 62
     7
  0
POLYLINE
  5
2AF
  8
DATA
  6
CONTINUOUS
 62
     7
 66
     1
 10
0.0
 20
0.0
 30
0.0
 70
     1
  0
VERTEX
  5
530
  8
DATA
  6
CONTINUOUS
 62
     7
 10
172.3469239250114
 20
164.2678768577866
 30
0.0
  0
VERTEX
  5
531
  8
DATA
  6
CONTINUOUS
 62
     7
 10
173.87692392501151
 20
164.2678768577866
 30
0.0
  0
VERTEX
  5
532
  8
DATA
  6
CONTINUOUS
 62
     7
 10
173.87692392501151
 20
162.7378768577866
 30
0.0
  0
VERTEX
  5
533
  8
DATA
  6
CONTINUOUS
 62
     7
 10
172.3469239250114
 20
162.7378768577866
 30
0.0
  0
SEQEND
  5
534
  8
DATA
  6
CONTINUOUS
 62
     7
  0
POLYLINE
  5
2B6
  8
DATA
  6
CONTINUOUS
 62
     7
 66
     1
 10
0.0
 20
0.0
 30
0.0
 70
     1
  0
VERTEX
  5
535
  8
DATA
  6
CONTINUOUS
 62
     7
 10
174.34692392501151
 20
164.2678768577866
 30
0.0
  0
VERTEX
  5
536
  8
DATA
  6
CONTINUOUS
 62
     7
 10
175.8769239250116
 20
164.2678768577866
 30
0.0
  0
VERTEX
  5
537
  8
DATA
  6
CONTINUOUS
 62
     7
 10
175.8769239250116
 20
162.7378768577866
 30
0.0
  0
VERTEX
  5
538
  8
DATA
  6
CONTINUOUS
 62
     7
 10
174.34692392501151
 20
162.7378768577866
 30
0.0
  0
SEQEND
  5
539
  8
DATA
  6
CONTINUOUS
 62
     7
  0
POLYLINE
  5
2BD
  8
DATA
  6
CONTINUOUS
 62
     7
 66
     1
 10
0.0
 20
0.0
 30
0.0
 70
     1
  0
VERTEX
  5
53A
  8
DATA
  6
CONTINUOUS
 62
     7
 10
176.34692392501171
 20
164.2678768577866
 30
0.0
  0
VERTEX
  5
53B
  8
DATA
  6
CONTINUOUS
 62
     7
 10
177.87692392501171
 20
164.2678768577866
 30
0.0
  0
VERTEX
  5
53C
  8
DATA
  6
CONTINUOUS
 62
     7
 10
177.87692392501171
 20
162.7378768577866
 30
0.0
  0
VERTEX
  5
53D
  8
DATA
  6
CONTINUOUS
 62
     7
 10
176.34692392501171
 20
162.7378768577866
 30
0.0
  0
SEQEND
  5
53E
  8
DATA
  6
CONTINUOUS
 62
     7
  0
POLYLINE
  5
2C4
  8
DATA
  6
CONTINUOUS
 62
     7
 66
     1
 10
0.0
 20
0.0
 30
0.0
 70
     1
  0
VERTEX
  5
53F
  8
DATA
  6
CONTINUOUS
 62
     7
 10
162.3469239250112
 20
166.2678768577866
 30
0.0
  0
VERTEX
  5
540
  8
DATA
  6
CONTINUOUS
 62
     7
 10
163.8769239250112
 20
166.2678768577866
 30
0.0
  0
VERTEX
  5
541
  8
DATA
  6
CONTINUOUS
 62
     7
 10
163.8769239250112
 20
164.7378768577866
 30
0.0
  0
VERTEX
  5
542
  8
DATA
  6
CONTINUOUS
 62
     7
 10
162.3469239250112
 20
164.7378768577866
 30
0.0
  0
SEQEND
  5
543
  8
DATA
  6
CONTINUOUS
 62
     7
  0
POLYLINE
  5
2CB
  8
DATA
  6
CONTINUOUS
 62
     7
 66
     1
 10
0.0
 20
0.0
 30
0.0
 70
     1
  0
VERTEX
  5
544
  8
DATA
  6
CONTINUOUS
 62
     7
 10
164.3469239250112
 20
166.2678768577866
 30
0.0
  0
VERTEX
  5
545
  8
DATA
  6
CONTINUOUS
 62
     7
 10
165.8769239250112
 20
166.2678768577866
 30
0.0
  0
VERTEX
  5
546
  8
DATA
  6
CONTINUOUS
 62
     7
 10
165.8769239250112
 20
164.7378768577866
 30
0.0
  0
VERTEX
  5
547
  8
DATA
  6
CONTINUOUS
 62
     7
 10
164.3469239250112
 20
164.7378768577866
 30
0.0
  0
SEQEND
  5
548
  8
DATA
  6
CONTINUOUS
 62
     7
  0
POLYLINE
  5
2D2
  8
DATA
  6
CONTINUOUS
 62
     7
 66
     1
 10
0.0
 20
0.0
 30
0.0
 70
     1
  0
VERTEX
  5
549
  8
DATA
  6
CONTINUOUS
 62
     7
 10
166.3469239250112
 20
166.2678768577866
 30
0.0
  0
VERTEX
  5
54A
  8
DATA
  6
CONTINUOUS
 62
     7
 10
167.8769239250112
 20
166.2678768577866
 30
0.0
  0
VERTEX
  5
54B
  8
DATA
  6
CONTINUOUS
 62
     7
 10
167.8769239250112
 20
164.7378768577866
 30
0.0
  0
VERTEX
  5
54C
  8
DATA
  6
CONTINUOUS
 62
     7
 10
166.3469239250112
 20
164.7378768577866
 30
0.0
  0
SEQEND
  5
54D
  8
DATA
  6
CONTINUOUS
 62
     7
  0
POLYLINE
  5
2D9
  8
DATA
  6
CONTINUOUS
 62
     7
 66
     1
 10
0.0
 20
0.0
 30
0.0
 70
     1
  0
VERTEX
  5
54E
  8
DATA
  6
CONTINUOUS
 62
     7
 10
168.3469239250112
 20
166.2678768577866
 30
0.0
  0
VERTEX
  5
54F
  8
DATA
  6
CONTINUOUS
 62
     7
 10
169.8769239250112
 20
166.2678768577866
 30
0.0
  0
VERTEX
  5
550
  8
DATA
  6
CONTINUOUS
 62
     7
 10
169.8769239250112
 20
164.7378768577866
 30
0.0
  0
VERTEX
  5
551
  8
DATA
  6
CONTINUOUS
 62
     7
 10
168.3469239250112
 20
164.7378768577866
 30
0.0
  0
SEQEND
  5
552
  8
DATA
  6
CONTINUOUS
 62
     7
  0
POLYLINE
  5
2E0
  8
DATA
  6
CONTINUOUS
 62
     7
 66
     1
 10
0.0
 20
0.0
 30
0.0
 70
     1
  0
VERTEX
  5
553
  8
DATA
  6
CONTINUOUS
 62
     7
 10
170.3469239250112
 20
166.2678768577866
 30
0.0
  0
VERTEX
  5
554
  8
DATA
  6
CONTINUOUS
 62
     7
 10
171.87692392501131
 20
166.2678768577866
 30
0.0
  0
VERTEX
  5
555
  8
DATA
  6
CONTINUOUS
 62
     7
 10
171.87692392501131
 20
164.7378768577866
 30
0.0
  0
VERTEX
  5
556
  8
DATA
  6
CONTINUOUS
 62
     7
 10
170.3469239250112
 20
164.7378768577866
 30
0.0
  0
SEQEND
  5
557
  8
DATA
  6
CONTINUOUS
 62
     7
  0
POLYLINE
  5
2E7
  8
DATA
  6
CONTINUOUS
 62
     7
 66
     1
 10
0.0
 20
0.0
 30
0.0
 70
     1
  0
VERTEX
  5
558
  8
DATA
  6
CONTINUOUS
 62
     7
 10
172.3469239250114
 20
166.2678768577866
 30
0.0
  0
VERTEX
  5
559
  8
DATA
  6
CONTINUOUS
 62
     7
 10
173.87692392501151
 20
166.2678768577866
 30
0.0
  0
VERTEX
  5
55A
  8
DATA
  6
CONTINUOUS
 62
     7
 10
173.87692392501151
 20
164.7378768577866
 30
0.0
  0
VERTEX
  5
55B
  8
DATA
  6
CONTINUOUS
 62
     7
 10
172.3469239250114
 20
164.7378768577866
 30
0.0
  0
SEQEND
  5
55C
  8
DATA
  6
CONTINUOUS
 62
     7
  0
POLYLINE
  5
2EE
  8
DATA
  6
CONTINUOUS
 62
     7
 66
     1
 10
0.0
 20
0.0
 30
0.0
 70
     1
  0
VERTEX
  5
55D
  8
DATA
  6
CONTINUOUS
 62
     7
 10
174.34692392501151
 20
166.2678768577866
 30
0.0
  0
VERTEX
  5
55E
  8
DATA
  6
CONTINUOUS
 62
     7
 10
175.8769239250116
 20
166.2678768577866
 30
0.0
  0
VERTEX
  5
55F
  8
DATA
  6
CONTINUOUS
 62
     7
 10
175.8769239250116
 20
164.7378768577866
 30
0.0
  0
VERTEX
  5
560
  8
DATA
  6
CONTINUOUS
 62
     7
 10
174.34692392501151
 20
164.7378768577866
 30
0.0
  0
SEQEND
  5
561
  8
DATA
  6
CONTINUOUS
 62
     7
  0
POLYLINE
  5
2F5
  8
DATA
  6
CONTINUOUS
 62
     7
 66
     1
 10
0.0
 20
0.0
 30
0.0
 70
     1
  0
VERTEX
  5
562
  8
DATA
  6
CONTINUOUS
 62
     7
 10
176.34692392501171
 20
166.2678768577866
 30
0.0
  0
VERTEX
  5
563
  8
DATA
  6
CONTINUOUS
 62
     7
 10
177.87692392501171
 20
166.2678768577866
 30
0.0
  0
VERTEX
  5
564
  8
DATA
  6
CONTINUOUS
 62
     7
 10
177.87692392501171
 20
164.7378768577866
 30
0.0
  0
VERTEX
  5
565
  8
DATA
  6
CONTINUOUS
 62
     7
 10
176.34692392501171
 20
164.7378768577866
 30
0.0
  0
SEQEND
  5
566
  8
DATA
  6
CONTINUOUS
 62
     7
  0
POLYLINE
  5
2FC
  8
DATA
  6
CONTINUOUS
 62
     7
 66
     1
 10
0.0
 20
0.0
 30
0.0
 70
     1
  0
VERTEX
  5
567
  8
DATA
  6
CONTINUOUS
 62
     7
 10
162.3469239250112
 20
162.2678768577866
 30
0.0
  0
VERTEX
  5
568
  8
DATA
  6
CONTINUOUS
 62
     7
 10
163.8769239250112
 20
162.2678768577866
 30
0.0
  0
VERTEX
  5
569
  8
DATA
  6
CONTINUOUS
 62
     7
 10
163.8769239250112
 20
160.7378768577866
 30
0.0
  0
VERTEX
  5
56A
  8
DATA
  6
CONTINUOUS
 62
     7
 10
162.3469239250112
 20
160.7378768577866
 30
0.0
  0
SEQEND
  5
56B
  8
DATA
  6
CONTINUOUS
 62
     7
  0
POLYLINE
  5
303
  8
DATA
  6
CONTINUOUS
 62
     7
 66
     1
 10
0.0
 20
0.0
 30
0.0
 70
     1
  0
VERTEX
  5
56C
  8
DATA
  6
CONTINUOUS
 62
     7
 10
164.3469239250112
 20
162.2678768577866
 30
0.0
  0
VERTEX
  5
56D
  8
DATA
  6
CONTINUOUS
 62
     7
 10
165.8769239250112
 20
162.2678768577866
 30
0.0
  0
VERTEX
  5
56E
  8
DATA
  6
CONTINUOUS
 62
     7
 10
165.8769239250112
 20
160.7378768577866
 30
0.0
  0
VERTEX
  5
56F
  8
DATA
  6
CONTINUOUS
 62
     7
 10
164.3469239250112
 20
160.7378768577866
 30
0.0
  0
SEQEND
  5
570
  8
DATA
  6
CONTINUOUS
 62
     7
  0
POLYLINE
  5
30A
  8
DATA
  6
CONTINUOUS
 62
     7
 66
     1
 10
0.0
 20
0.0
 30
0.0
 70
     1
  0
VERTEX
  5
571
  8
DATA
  6
CONTINUOUS
 62
     7
 10
166.3469239250112
 20
162.2678768577866
 30
0.0
  0
VERTEX
  5
572
  8
DATA
  6
CONTINUOUS
 62
     7
 10
167.8769239250112
 20
162.2678768577866
 30
0.0
  0
VERTEX
  5
573
  8
DATA
  6
CONTINUOUS
 62
     7
 10
167.8769239250112
 20
160.7378768577866
 30
0.0
  0
VERTEX
  5
574
  8
DATA
  6
CONTINUOUS
 62
     7
 10
166.3469239250112
 20
160.7378768577866
 30
0.0
  0
SEQEND
  5
575
  8
DATA
  6
CONTINUOUS
 62
     7
  0
POLYLINE
  5
311
  8
DATA
  6
CONTINUOUS
 62
     7
 66
     1
 10
0.0
 20
0.0
 30
0.0
 70
     1
  0
VERTEX
  5
576
  8
DATA
  6
CONTINUOUS
 62
     7
 10
168.3469239250112
 20
162.2678768577866
 30
0.0
  0
VERTEX
  5
577
  8
DATA
  6
CONTINUOUS
 62
     7
 10
169.8769239250112
 20
162.2678768577866
 30
0.0
  0
VERTEX
  5
578
  8
DATA
  6
CONTINUOUS
 62
     7
 10
169.8769239250112
 20
160.7378768577866
 30
0.0
  0
VERTEX
  5
579
  8
DATA
  6
CONTINUOUS
 62
     7
 10
168.3469239250112
 20
160.7378768577866
 30
0.0
  0
SEQEND
  5
57A
  8
DATA
  6
CONTINUOUS
 62
     7
  0
POLYLINE
  5
318
  8
DATA
  6
CONTINUOUS
 62
     7
 66
     1
 10
0.0
 20
0.0
 30
0.0
 70
     1
  0
VERTEX
  5
57B
  8
DATA
  6
CONTINUOUS
 62
     7
 10
170.3469239250112
 20
162.2678768577866
 30
0.0
  0
VERTEX
  5
57C
  8
DATA
  6
CONTINUOUS
 62
     7
 10
171.87692392501131
 20
162.2678768577866
 30
0.0
  0
VERTEX
  5
57D
  8
DATA
  6
CONTINUOUS
 62
     7
 10
171.87692392501131
 20
160.7378768577866
 30
0.0
  0
VERTEX
  5
57E
  8
DATA
  6
CONTINUOUS
 62
     7
 10
170.3469239250112
 20
160.7378768577866
 30
0.0
  0
SEQEND
  5
57F
  8
DATA
  6
CONTINUOUS
 62
     7
  0
POLYLINE
  5
31F
  8
DATA
  6
CONTINUOUS
 62
     7
 66
     1
 10
0.0
 20
0.0
 30
0.0
 70
     1
  0
VERTEX
  5
580
  8
DATA
  6
CONTINUOUS
 62
     7
 10
172.3469239250114
 20
162.2678768577866
 30
0.0
  0
VERTEX
  5
581
  8
DATA
  6
CONTINUOUS
 62
     7
 10
173.87692392501151
 20
162.2678768577866
 30
0.0
  0
VERTEX
  5
582
  8
DATA
  6
CONTINUOUS
 62
     7
 10
173.87692392501151
 20
160.7378768577866
 30
0.0
  0
VERTEX
  5
583
  8
DATA
  6
CONTINUOUS
 62
     7
 10
172.3469239250114
 20
160.7378768577866
 30
0.0
  0
SEQEND
  5
584
  8
DATA
  6
CONTINUOUS
 62
     7
  0
POLYLINE
  5
326
  8
DATA
  6
CONTINUOUS
 62
     7
 66
     1
 10
0.0
 20
0.0
 30
0.0
 70
     1
  0
VERTEX
  5
585
  8
DATA
  6
CONTINUOUS
 62
     7
 10
174.34692392501151
 20
162.2678768577866
 30
0.0
  0
VERTEX
  5
586
  8
DATA
  6
CONTINUOUS
 62
     7
 10
175.8769239250116
 20
162.2678768577866
 30
0.0
  0
VERTEX
  5
587
  8
DATA
  6
CONTINUOUS
 62
     7
 10
175.8769239250116
 20
160.7378768577866
 30
0.0
  0
VERTEX
  5
588
  8
DATA
  6
CONTINUOUS
 62
     7
 10
174.34692392501151
 20
160.7378768577866
 30
0.0
  0
SEQEND
  5
589
  8
DATA
  6
CONTINUOUS
 62
     7
  0
POLYLINE
  5
32D
  8
DATA
  6
CONTINUOUS
 62
     7
 66
     1
 10
0.0
 20
0.0
 30
0.0
 70
     1
  0
VERTEX
  5
58A
  8
DATA
  6
CONTINUOUS
 62
     7
 10
176.34692392501171
 20
162.2678768577866
 30
0.0
  0
VERTEX
  5
58B
  8
DATA
  6
CONTINUOUS
 62
     7
 10
177.87692392501171
 20
162.2678768577866
 30
0.0
  0
VERTEX
  5
58C
  8
DATA
  6
CONTINUOUS
 62
     7
 10
177.87692392501171
 20
160.7378768577866
 30
0.0
  0
VERTEX
  5
58D
  8
DATA
  6
CONTINUOUS
 62
     7
 10
176.34692392501171
 20
160.7378768577866
 30
0.0
  0
SEQEND
  5
58E
  8
DATA
  6
CONTINUOUS
 62
     7
  0
POLYLINE
  5
334
  8
DATA
  6
CONTINUOUS
 62
     7
 66
     1
 10
0.0
 20
0.0
 30
0.0
  0
VERTEX
  5
58F
  8
DATA
  6
CONTINUOUS
 62
     7
 10
181.89699009619139
 20
163.90287685778659
 30
0.0
  0
VERTEX
  5
590
  8
DATA
  6
CONTINUOUS
 62
     7
 10
183.99699009619161
 20
163.90287685778659
 30
0.0
  0
VERTEX
  5
591
  8
DATA
  6
CONTINUOUS
 62
     7
 10
183.99699009619161
 20
163.10287685778661
 30
0.0
  0
VERTEX
  5
592
  8
DATA
  6
CONTINUOUS
 62
     7
 10
181.89699009619139
 20
163.10287685778661
 30
0.0
  0
SEQEND
  5
593
  8
DATA
  6
CONTINUOUS
 62
     7
  0
POLYLINE
  5
33B
  8
DATA
  6
CONTINUOUS
 62
     7
 66
     1
 10
0.0
 20
0.0
 30
0.0
  0
VERTEX
  5
594
  8
DATA
  6
CONTINUOUS
 62
     7
 10
181.09699009619149
 20
163.10287685778661
 30
0.0
  0
VERTEX
  5
595
  8
DATA
  6
CONTINUOUS
 62
     7
 10
178.9969900961913
 20
163.10287685778661
 30
0.0
  0
VERTEX
  5
596
  8
DATA
  6
CONTINUOUS
 62
     7
 10
178.9969900961913
 20
163.90287685778659
 30
0.0
  0
VERTEX
  5
597
  8
DATA
  6
CONTINUOUS
 62
     7
 10
181.09699009619149
 20
163.90287685778659
 30
0.0
  0
SEQEND
  5
598
  8
DATA
  6
CONTINUOUS
 62
     7
  0
POLYLINE
  5
342
  8
DATA
  6
CONTINUOUS
 62
     7
 66
     1
 10
0.0
 20
0.0
 30
0.0
  0
VERTEX
  5
599
  8
DATA
  6
CONTINUOUS
 62
     7
 10
181.89699009619139
 20
163.10287685778661
 30
0.0
  0
VERTEX
  5
59A
  8
DATA
  6
CONTINUOUS
 62
     7
 10
181.89699009619139
 20
161.00287685778659
 30
0.0
  0
VERTEX
  5
59B
  8
DATA
  6
CONTINUOUS
 62
     7
 10
181.09699009619149
 20
161.00287685778659
 30
0.0
  0
VERTEX
  5
59C
  8
DATA
  6
CONTINUOUS
 62
     7
 10
181.09699009619149
 20
163.10287685778661
 30
0.0
  0
SEQEND
  5
59D
  8
DATA
  6
CONTINUOUS
 62
     7
  0
POLYLINE
  5
349
  8
DATA
  6
CONTINUOUS
 62
     7
 66
     1
 10
0.0
 20
0.0
 30
0.0
  0
VERTEX
  5
59E
  8
DATA
  6
CONTINUOUS
 62
     7
 10
181.09699009619149
 20
163.90287685778659
 30
0.0
  0
VERTEX
  5
59F
  8
DATA
  6
CONTINUOUS
 62
     7
 10
181.09699009619149
 20
166.00287685778659
 30
0.0
  0
VERTEX
  5
5A0
  8
DATA
  6
CONTINUOUS
 62
     7
 10
181.89699009619139
 20
166.00287685778659
 30
0.0
  0
VERTEX
  5
5A1
  8
DATA
  6
CONTINUOUS
 62
     7
 10
181.89699009619139
 20
163.90287685778659
 30
0.0
  0
SEQEND
  5
5A2
  8
DATA
  6
CONTINUOUS
 62
     7
  0
POLYLINE
  5
350
  8
DATA
  6
CONTINUOUS
 62
     7
 66
     1
 10
0.0
 20
0.0
 30
0.0
 70
     1
  0
VERTEX
  5
5A3
  8
DATA
  6
CONTINUOUS
 62
     7
 10
179.6367056657196
 20
165.26230466843651
 30
0.0
  0
VERTEX
  5
5A4
  8
DATA
  6
CONTINUOUS
 62
     7
 10
180.63670566571969
 20
165.26230466843651
 30
0.0
  0
VERTEX
  5
5A5
  8
DATA
  6
CONTINUOUS
 62
     7
 10
180.63670566571969
 20
164.26230466843651
 30
0.0
  0
VERTEX
  5
5A6
  8
DATA
  6
CONTINUOUS
 62
     7
 10
179.6367056657196
 20
164.26230466843651
 30
0.0
  0
SEQEND
  5
5A7
  8
DATA
  6
CONTINUOUS
 62
     7
  0
POLYLINE
  5
357
  8
DATA
  6
CONTINUOUS
 62
     7
 66
     1
 10
0.0
 20
0.0
 30
0.0
 70
     1
  0
VERTEX
  5
5A8
  8
DATA
  6
CONTINUOUS
 62
     7
 10
182.35727452666319
 20
165.26230466843651
 30
0.0
  0
VERTEX
  5
5A9
  8
DATA
  6
CONTINUOUS
 62
     7
 10
183.3572745266633
 20
165.26230466843651
 30
0.0
  0
VERTEX
  5
5AA
  8
DATA
  6
CONTINUOUS
 62
     7
 10
183.3572745266633
 20
164.26230466843651
 30
0.0
  0
VERTEX
  5
5AB
  8
DATA
  6
CONTINUOUS
 62
     7
 10
182.35727452666319
 20
164.26230466843651
 30
0.0
  0
SEQEND
  5
5AC
  8
DATA
  6
CONTINUOUS
 62
     7
  0
POLYLINE
  5
35E
  8
DATA
  6
CONTINUOUS
 62
     7
 66
     1
 10
0.0
 20
0.0
 30
0.0
 70
     1
  0
VERTEX
  5
5AD
  8
DATA
  6
CONTINUOUS
 62
     7
 10
179.6367056657196
 20
162.74344904713669
 30
0.0
  0
VERTEX
  5
5AE
  8
DATA
  6
CONTINUOUS
 62
     7
 10
180.63670566571969
 20
162.74344904713669
 30
0.0
  0
VERTEX
  5
5AF
  8
DATA
  6
CONTINUOUS
 62
     7
 10
180.63670566571969
 20
161.74344904713669
 30
0.0
  0
VERTEX
  5
5B0
  8
DATA
  6
CONTINUOUS
 62
     7
 10
179.6367056657196
 20
161.74344904713669
 30
0.0
  0
SEQEND
  5
5B1
  8
DATA
  6
CONTINUOUS
 62
     7
  0
POLYLINE
  5
365
  8
DATA
  6
CONTINUOUS
 62
     7
 66
     1
 10
0.0
 20
0.0
 30
0.0
 70
     1
  0
VERTEX
  5
5B2
  8
DATA
  6
CONTINUOUS
 62
     7
 10
182.35727452666319
 20
162.74344904713669
 30
0.0
  0
VERTEX
  5
5B3
  8
DATA
  6
CONTINUOUS
 62
     7
 10
183.3572745266633
 20
162.74344904713669
 30
0.0
  0
VERTEX
  5
5B4
  8
DATA
  6
CONTINUOUS
 62
     7
 10
183.3572745266633
 20
161.74344904713669
 30
0.0
  0
VERTEX
  5
5B5
  8
DATA
  6
CONTINUOUS
 62
     7
 10
182.35727452666319
 20
161.74344904713669
 30
0.0
  0
SEQEND
  5
5B6
  8
DATA
  6
CONTINUOUS
 62
     7
  0
LINE
  5
36C
  8
DATA
  6
CONTINUOUS
 62
     7
 10
161.4016182782434
 20
166.33276855230039
 30
0.0
 11
161.96053547569571
 21
160.4827685523004
 31
0.0
  0
LINE
  5
36D
  8
DATA
  6
CONTINUOUS
 62
     7
 10
185.29236191413861
 20
166.33276855230039
 30
0.0
 11
184.73344471668639
 21
160.4827685523004
 31
0.0
  0
ARC
  5
36E
  8
DATA
  6
CONTINUOUS
 62
     7
 10
162.39708520899879
 20
166.4278768577866
 30
0.0
 40
1.0
 50
90.0
 51
185.45755348510761
  0
ARC
  5
36F
  8
DATA
  6
CONTINUOUS
 62
     7
 10
184.29689498338331
 20
166.4278768577866
 30
0.0
 40
0.9999999999999754
 50
354.54244651489228
 51
90.0
  0
ARC
  5
370
  8
DATA
  6
CONTINUOUS
 62
     7
 10
162.95600240645109
 20
160.57787685778661
 30
0.0
 40
0.9999999999999754
 50
185.45755348510761
 51
270.0
  0
ARC
  5
371
  8
DATA
  6
CONTINUOUS
 62
     7
 10
183.73797778593101
 20
160.57787685778661
 30
0.0
 40
1.0
 50
270.0
 51
354.54244651489557
  0
TEXT
  5
372
  8
DATA
 62
     7
 10
168.3108512323542
 20
153.4147327221844
 30
0.0
 40
2.24780078125
  1
DVI Out
 41
0.7
 11
168.3108512323542
 21
155.66253350343439
 31
0.0
 73
     3
  0
CIRCLE
  5
373
  8
DATA
  6
CONTINUOUS
 62
     7
 10
212.5381171203876
 20
163.50107411326181
 30
0.0
 40
1.450000000000045
  0
CIRCLE
  5
374
  8
DATA
  6
CONTINUOUS
 62
     7
 10
200.516957166456
 20
163.50107411326181
 30
0.0
 40
3.25
  0
CIRCLE
  5
375
  8
DATA
  6
CONTINUOUS
 62
     7
 10
200.516957166456
 20
163.50107411326181
 30
0.0
 40
0.5
  0
TEXT
  5
376
  8
DATA
 62
     7
 10
197.24808343269811
 20
168.27942320610339
 30
0.0
 40
2.24780078125
  1
5 VDC
 41
0.7
 11
197.24808343269811
 21
170.52722398735341
 31
0.0
 73
     3
  0
TEXT
  5
377
  8
DATA
 62
     7
 10
208.64086800343449
 20
153.36501425288461
 30
0.0
 40
2.24780078125
  1
Power
 41
0.7
 11
208.64086800343449
 21
155.6128150341346
 31
0.0
 73
     3
  0
LINE
  5
378
  8
DATA
  6
CONTINUOUS
 62
     7
 10
154.6890900892607
 20
201.25
 30
0.0
 11
154.6890900892607
 21
206.25
 31
0.0
  0
LINE
  5
379
  8
DATA
  6
CONTINUOUS
 62
     7
 10
159.36562726969669
 20
201.25
 30
0.0
 11
159.36562726969669
 21
206.25
 31
0.0
  0
LINE
  5
37A
  8
DATA
  6
CONTINUOUS
 62
     7
 10
161.33198686153159
 20
201.25
 30
0.0
 11
161.33198686153159
 21
206.25
 31
0.0
  0
LINE
  5
37B
  8
DATA
  6
CONTINUOUS
 62
     7
 10
187.18909008926161
 20
201.25
 30
0.0
 11
187.18909008926161
 21
206.25
 31
0.0
  0
LINE
  5
37C
  8
DATA
  6
CONTINUOUS
 62
     7
 10
191.8656272696976
 20
201.25
 30
0.0
 11
191.8656272696976
 21
206.25
 31
0.0
  0
LINE
  5
37D
  8
DATA
  6
CONTINUOUS
 62
     7
 10
185.22273049742671
 20
201.25
 30
0.0
 11
185.22273049742671
 21
206.25
 31
0.0
  0
LINE
  5
37E
  8
DATA
  6
CONTINUOUS
 62
     7
 10
154.6890900892607
 20
201.25
 30
0.0
 11
159.36562726969669
 21
201.25
 31
0.0
  0
LINE
  5
37F
  8
DATA
  6
CONTINUOUS
 62
     7
 10
161.33198686153159
 20
201.25
 30
0.0
 11
185.22273049742671
 21
201.25
 31
0.0
  0
LINE
  5
380
  8
DATA
  6
CONTINUOUS
 62
     7
 10
187.18909008926161
 20
201.25
 30
0.0
 11
191.8656272696976
 21
201.25
 31
0.0
  0
ARC
  5
381
  8
DATA
  6
CONTINUOUS
 62
     7
 10
212.53332570194041
 20
206.2560005567145
 30
0.0
 40
1.4500000000000459
 50
180.23710865916831
 51
359.76289134083157
  0
LINE
  5
382
  8
DATA
  6
CONTINUOUS
 62
     7
 10
218.0
 20
314.0
 30
0.0
 11
140.0
 21
314.0
 31
0.0
  0
LINE
  5
383
  8
DATA
  6
CONTINUOUS
 62
     7
 10
218.0
 20
340.0
 30
0.0
 11
140.0
 21
340.0
 31
0.0
  0
LINE
  5
384
  8
DATA
  6
CONTINUOUS
 62
     7
 10
139.0
 20
339.0
 30
0.0
 11
139.0
 21
315.0
 31
0.0
  0
LINE
  5
385
  8
DATA
  6
CONTINUOUS
 62
     7
 10
219.0
 20
339.0
 30
0.0
 11
219.0
 21
315.0
 31
0.0
  0
ARC
  5
386
  8
DATA
  6
CONTINUOUS
 62
     7
 10
138.5
 20
313.5
 30
0.0
 40
1.0
 50
180.0
 51
270.0
  0
ARC
  5
387
  8
DATA
  6
CONTINUOUS
 62
     7
 10
140.0
 20
315.0
 30
0.0
 40
1.0
 50
180.0
 51
270.0
  0
ARC
  5
388
  8
DATA
  6
CONTINUOUS
 62
     7
 10
138.5
 20
340.5
 30
0.0
 40
1.0
 50
90.0
 51
180.0
  0
ARC
  5
389
  8
DATA
  6
CONTINUOUS
 62
     7
 10
140.0
 20
339.0
 30
0.0
 40
1.0
 50
90.0
 51
180.0
  0
ARC
  5
38A
  8
DATA
  6
CONTINUOUS
 62
     7
 10
218.0
 20
339.0
 30
0.0
 40
1.0
 50
0.0
 51
90.0
  0
ARC
  5
38B
  8
DATA
  6
CONTINUOUS
 62
     7
 10
219.5
 20
340.5
 30
0.0
 40
1.0
 50
0.0
 51
90.0
  0
ARC
  5
38C
  8
DATA
  6
CONTINUOUS
 62
     7
 10
218.0
 20
315.0
 30
0.0
 40
1.0
 50
270.0
 51
0.0
  0
ARC
  5
38D
  8
DATA
  6
CONTINUOUS
 62
     7
 10
219.5
 20
313.5
 30
0.0
 40
1.0
 50
270.0
 51
0.0
  0
LINE
  5
38E
  8
DATA
  6
CONTINUOUS
 62
     7
 10
168.2041293320072
 20
332.33762391363922
 30
0.0
 11
168.2041293320072
 21
319.03762391363921
 31
0.0
  0
LINE
  5
38F
  8
DATA
  6
CONTINUOUS
 62
     7
 10
152.5041293320073
 20
332.33762391363922
 30
0.0
 11
152.5041293320073
 21
319.03762391363921
 31
0.0
  0
LINE
  5
390
  8
DATA
  6
CONTINUOUS
 62
     7
 10
152.5041293320073
 20
319.03762391363921
 30
0.0
 11
168.2041293320072
 21
319.03762391363921
 31
0.0
  0
LINE
  5
391
  8
DATA
  6
CONTINUOUS
 62
     7
 10
152.5041293320073
 20
332.33762391363922
 30
0.0
 11
168.2041293320072
 21
332.33762391363922
 31
0.0
  0
LINE
  5
392
  8
DATA
  6
CONTINUOUS
 62
     7
 10
154.2041293320072
 20
329.33762391363922
 30
0.0
 11
166.5041293320073
 21
329.33762391363922
 31
0.0
  0
LINE
  5
393
  8
DATA
  6
CONTINUOUS
 62
     7
 10
154.2041293320072
 20
329.33762391363922
 30
0.0
 11
154.2041293320072
 21
322.03762391363921
 31
0.0
  0
LINE
  5
394
  8
DATA
  6
CONTINUOUS
 62
     7
 10
166.5041293320073
 20
329.33762391363922
 30
0.0
 11
166.5041293320073
 21
322.03762391363921
 31
0.0
  0
LINE
  5
395
  8
DATA
  6
CONTINUOUS
 62
     7
 10
158.1291293320073
 20
319.03762391363921
 30
0.0
 11
158.1291293320073
 21
320.53762391363921
 31
0.0
  0
LINE
  5
396
  8
DATA
  6
CONTINUOUS
 62
     7
 10
162.5791293320072
 20
320.53762391363921
 30
0.0
 11
162.5791293320072
 21
319.03762391363921
 31
0.0
  0
LINE
  5
397
  8
DATA
  6
CONTINUOUS
 62
     7
 10
157.0041293320073
 20
320.53762391363921
 30
0.0
 11
158.1291293320073
 21
320.53762391363921
 31
0.0
  0
LINE
  5
398
  8
DATA
  6
CONTINUOUS
 62
     7
 10
162.5791293320072
 20
320.53762391363921
 30
0.0
 11
163.7041293320072
 21
320.53762391363921
 31
0.0
  0
LINE
  5
399
  8
DATA
  6
CONTINUOUS
 62
     7
 10
154.2041293320072
 20
322.03762391363921
 30
0.0
 11
157.0041293320073
 21
322.03762391363921
 31
0.0
  0
LINE
  5
39A
  8
DATA
  6
CONTINUOUS
 62
     7
 10
163.7041293320072
 20
322.03762391363921
 30
0.0
 11
166.5041293320073
 21
322.03762391363921
 31
0.0
  0
LINE
  5
39B
  8
DATA
  6
CONTINUOUS
 62
     7
 10
157.0041293320073
 20
320.53762391363921
 30
0.0
 11
157.0041293320073
 21
322.03762391363921
 31
0.0
  0
LINE
  5
39C
  8
DATA
  6
CONTINUOUS
 62
     7
 10
163.7041293320072
 20
322.03762391363921
 30
0.0
 11
163.7041293320072
 21
320.53762391363921
 31
0.0
  0
TEXT
  5
39D
  8
DATA
 62
     7
 10
163.17336130957699
 20
336.00365479608251
 30
0.0
 40
2.24780078125
  1
Link
 50
180.0
 41
0.7
 11
163.17336130957699
 21
333.75585401483249
 31
0.0
 73
     3
  0
LINE
  5
39E
  8
DATA
  6
CONTINUOUS
 62
     7
 10
269.99999999989927
 20
160.82922975049701
 30
0.0
 11
274.99999999989927
 21
160.82922975049701
 31
0.0
  0
LINE
  5
39F
  8
DATA
  6
CONTINUOUS
 62
     7
 10
274.99999999989927
 20
166.029229750497
 30
0.0
 11
269.99999999989927
 21
166.029229750497
 31
0.0
  0
LINE
  5
3A0
  8
DATA
  6
CONTINUOUS
 62
     7
 10
269.99999999989927
 20
159.429229750497
 30
0.0
 11
274.99999999989927
 21
159.429229750497
 31
0.0
  0
LINE
  5
3A1
  8
DATA
  6
CONTINUOUS
 62
     7
 10
274.99999999989927
 20
167.42922975049689
 30
0.0
 11
269.99999999989927
 21
167.42922975049689
 31
0.0
  0
LINE
  5
3A2
  8
DATA
  6
CONTINUOUS
 62
     7
 10
269.99999999989927
 20
167.42922975049689
 30
0.0
 11
269.99999999989927
 21
159.429229750497
 31
0.0
  0
LINE
  5
3A3
  8
DATA
  6
CONTINUOUS
 62
     7
 10
361.0
 20
159.19999999999999
 30
0.0
 11
361.0
 21
172.5
 31
0.0
  0
LINE
  5
3A4
  8
DATA
  6
CONTINUOUS
 62
     7
 10
360.0
 20
172.5
 30
0.0
 11
361.0
 21
172.5
 31
0.0
  0
LINE
  5
3A5
  8
DATA
  6
CONTINUOUS
 62
     7
 10
360.0
 20
159.19999999999999
 30
0.0
 11
361.0
 21
159.19999999999999
 31
0.0
  0
POLYLINE
  5
3A6
  8
DATA
  6
CONTINUOUS
 62
     7
 66
     1
 10
0.0
 20
0.0
 30
0.0
 70
     1
  0
VERTEX
  5
5B7
  8
DATA
  6
CONTINUOUS
 62
     7
 10
141.04849504809519
 20
168.50287685778659
 30
0.0
  0
VERTEX
  5
5B8
  8
DATA
  6
CONTINUOUS
 62
     7
 10
151.04849504809519
 20
168.50287685778659
 30
0.0
  0
VERTEX
  5
5B9
  8
DATA
  6
CONTINUOUS
 62
     7
 10
151.04849504809519
 20
158.50287685778659
 30
0.0
  0
VERTEX
  5
5BA
  8
DATA
  6
CONTINUOUS
 62
     7
 10
141.04849504809519
 20
158.50287685778659
 30
0.0
  0
SEQEND
  5
5BB
  8
DATA
  6
CONTINUOUS
 62
     7
  0
CIRCLE
  5
3AD
  8
DATA
  6
CONTINUOUS
 62
     7
 10
146.04849504809519
 20
163.50287685778659
 30
0.0
 40
1.699999999999988
  0
LINE
  5
3AE
  8
DATA
  6
CONTINUOUS
 62
     7
 10
142.5484950480953
 20
158.50287685778659
 30
0.0
 11
141.04849504809519
 21
160.00287685778659
 31
0.0
  0
TEXT
  5
3AF
  8
DATA
 62
     7
 10
144.28698911124411
 20
153.4147327221844
 30
0.0
 40
2.24780078125
  1
EQ
 41
0.7
 11
144.28698911124411
 21
155.66253350343439
 31
0.0
 73
     3
  0
LINE
  5
3B0
  8
DATA
  6
CONTINUOUS
 62
     7
 10
146.2984950480953
 20
165.18439402986871
 30
0.0
 11
146.2984950480953
 21
161.82135968570461
 31
0.0
  0
LINE
  5
3B1
  8
DATA
  6
CONTINUOUS
 62
     7
 10
145.7984950480953
 20
161.82135968570461
 30
0.0
 11
145.7984950480953
 21
165.18439402986871
 31
0.0
  0
TEXT
  5
3B2
  8
DATA
 62
     7
 10
145.68201343012331
 20
166.25365333942011
 30
0.0
 40
1.221630859375
  1
2
 41
0.7
 11
145.68201343012331
 21
167.47528419879521
 31
0.0
 73
     3
  0
TEXT
  5
3B3
  8
DATA
 62
     7
 10
146.47241007912891
 20
160.7368299634789
 30
0.0
 40
1.221630859375
  1
6
 50
180.0
 41
0.7
 11
146.47241007912891
 21
159.51519910410391
 31
0.0
 73
     3
  0
TEXT
  5
3B4
  8
DATA
 62
     7
 10
143.30703507912901
 20
163.11953188213411
 30
0.0
 40
1.221630859375
  1
0
 50
90.0
 41
0.7
 11
142.085404219754
 21
163.11953188213411
 31
0.0
 73
     3
  0
TEXT
  5
3B5
  8
DATA
 62
     7
 10
148.81081495130519
 20
163.89780179691809
 30
0.0
 40
1.221630859375
  1
4
 50
270.0
 41
0.7
 11
150.0324458106802
 21
163.89780179691809
 31
0.0
 73
     3
  0
TEXT
  5
3B6
  8
DATA
 62
     7
 10
143.80720551276249
 20
165.1637654281605
 30
0.0
 40
1.221630859375
  1
1
 50
45.0
 41
0.7
 11
142.94338204799169
 21
166.02758889293131
 31
0.0
 73
     3
  0
TEXT
  5
3B7
  8
DATA
 62
     7
 10
147.7307371154977
 20
165.7295649266691
 30
0.0
 40
1.221630859375
  1
3
 50
315.0
 41
0.7
 11
148.59456058026851
 21
166.59338839143979
 31
0.0
 73
     3
  0
TEXT
  5
3B8
  8
DATA
 62
     7
 10
148.27021648442209
 20
161.8302106495434
 30
0.0
 40
1.221630859375
  1
5
 50
225.0
 41
0.7
 11
149.1340399491929
 21
160.9663871847726
 31
0.0
 73
     3
  0
TEXT
  5
3B9
  8
DATA
 62
     7
 10
144.35173059922079
 20
161.31064855818579
 30
0.0
 40
1.221630859375
  1
7
 50
135.0
 41
0.7
 11
143.48790713445001
 21
160.44682509341499
 31
0.0
 73
     3
  0
LINE
  5
3BA
  8
DATA
  6
CONTINUOUS
 62
     7
 10
144.96567232007271
 20
163.296028089884
 30
0.0
 11
144.48567232007269
 21
163.5360280898841
 31
0.0
  0
LINE
  5
3BB
  8
DATA
  6
CONTINUOUS
 62
     7
 10
144.96567232007271
 20
163.77602808988411
 30
0.0
 11
144.48567232007269
 21
163.5360280898841
 31
0.0
  0
LINE
  5
3BC
  8
DATA
  6
CONTINUOUS
 62
     7
 10
144.96567232007271
 20
163.296028089884
 30
0.0
 11
144.96567232007271
 21
163.77602808988411
 31
0.0
  0
ARC
  5
3BD
  8
DATA
  6
CONTINUOUS
 62
     7
 10
274.9282208502969
 20
163.50107411326181
 30
0.0
 40
1.450000000000021
 50
87.162535252053004
 51
272.83746474794702
  0
LINE
  5
3BE
  8
DATA
  6
CONTINUOUS
 62
     7
 10
152.5041293320073
 20
292.25
 30
0.0
 11
152.5041293320073
 21
291.25
 31
0.0
  0
LINE
  5
3BF
  8
DATA
  6
CONTINUOUS
 62
     7
 10
168.2041293320072
 20
292.25
 30
0.0
 11
168.2041293320072
 21
291.25
 31
0.0
  0
LINE
  5
3C0
  8
DATA
  6
CONTINUOUS
 62
     7
 10
152.5041293320073
 20
292.25
 30
0.0
 11
168.2041293320072
 21
292.25
 31
0.0
  0
ENDSEC
  0
EOF
