  0
SECTION
  2
HEADER
  9
$ACADVER
  1
AC1009
  9
$INSBASE
 10
0.0
 20
0.0
 30
0.0
  9
$EXTMIN
 10
49.981691723202402
 20
11.90643626254314
 30
-0.0015258207003583
  9
$EXTMAX
 10
950.02899391114363
 20
1350.04120187373
 30
0.0000000349246037
  9
$LIMMIN
 10
0.0
 20
0.0
  9
$LIMMAX
 10
0.0
 20
0.0
  9
$ORTHOMODE
 70
     0
  9
$REGENMODE
 70
     1
  9
$FILLMODE
 70
     1
  9
$QTEXTMODE
 70
     0
  9
$MIRRTEXT
 70
     1
  9
$DRAGMODE
 70
     2
  9
$LTSCALE
 40
25.399999999999999
  9
$OSMODE
 70
   231
  9
$ATTMODE
 70
     1
  9
$TEXTSIZE
 40
0.0
  9
$TRACEWID
 40
1.0
  9
$TEXTSTYLE
  7
STANDARD
  9
$CLAYER
  8
DATA
  9
$CELTYPE
  6
BYLAYER
  9
$CECOLOR
 62
   256
  9
$DIMSCALE
 40
1.0
  9
$DIMASZ
 40
0.18
  9
$DIMEXO
 40
0.0625
  9
$DIMDLI
 40
0.38
  9
$DIMRND
 40
0.0
  9
$DIMDLE
 40
0.0
  9
$DIMEXE
 40
0.18
  9
$DIMTP
 40
0.0
  9
$DIMTM
 40
0.0
  9
$DIMTXT
 40
0.18
  9
$DIMCEN
 40
0.09
  9
$DIMTSZ
 40
0.0
  9
$DIMTOL
 70
     0
  9
$DIMLIM
 70
     0
  9
$DIMTIH
 70
     1
  9
$DIMTOH
 70
     1
  9
$DIMSE1
 70
     0
  9
$DIMSE2
 70
     0
  9
$DIMTAD
 70
     0
  9
$DIMZIN
 70
     0
  9
$DIMBLK
  1

  9
$DIMASO
 70
     1
  9
$DIMSHO
 70
     1
  9
$DIMPOST
  1

  9
$DIMAPOST
  1

  9
$DIMALT
 70
     0
  9
$DIMALTD
 70
     2
  9
$DIMALTF
 40
25.399999999999999
  9
$DIMLFAC
 40
1.0
  9
$DIMTOFL
 70
     0
  9
$DIMTVP
 40
0.0
  9
$DIMTIX
 70
     0
  9
$DIMSOXD
 70
     0
  9
$DIMSAH
 70
     0
  9
$DIMBLK1
  1

  9
$DIMBLK2
  1

  9
$DIMSTYLE
  2
STANDARD
  9
$DIMCLRD
 70
     0
  9
$DIMCLRE
 70
     0
  9
$DIMCLRT
 70
     0
  9
$DIMTFAC
 40
1.0
  9
$DIMGAP
 40
0.09
  9
$LUNITS
 70
     2
  9
$LUPREC
 70
     4
  9
$SKETCHINC
 40
0.1
  9
$FILLETRAD
 40
0.0
  9
$AUNITS
 70
     0
  9
$AUPREC
 70
     0
  9
$MENU
  1
acad
  9
$ELEVATION
 40
0.0
  9
$PELEVATION
 40
0.0
  9
$THICKNESS
 40
0.0
  9
$LIMCHECK
 70
     0
  9
$BLIPMODE
 70
     0
  9
$CHAMFERA
 40
0.0
  9
$CHAMFERB
 40
0.0
  9
$SKPOLY
 70
     0
  9
$TDCREATE
 40
2455202.652766204
  9
$TDUPDATE
 40
2455202.6627811459
  9
$TDINDWG
 40
0.0003164005
  9
$TDUSRTIMER
 40
0.0003162269
  9
$USRTIMER
 70
     1
  9
$ANGBASE
 50
0.0
  9
$ANGDIR
 70
     0
  9
$PDMODE
 70
     1
  9
$PDSIZE
 40
-2.0
  9
$PLINEWID
 40
0.0
  9
$COORDS
 70
     0
  9
$SPLFRAME
 70
     0
  9
$SPLINETYPE
 70
     6
  9
$SPLINESEGS
 70
     8
  9
$ATTDIA
 70
     0
  9
$ATTREQ
 70
     1
  9
$HANDLING
 70
     1
  9
$HANDSEED
  5
632
  9
$SURFTAB1
 70
     6
  9
$SURFTAB2
 70
     6
  9
$SURFTYPE
 70
     6
  9
$SURFU
 70
     6
  9
$SURFV
 70
     6
  9
$UCSNAME
  2

  9
$UCSORG
 10
0.0
 20
0.0
 30
0.0
  9
$UCSXDIR
 10
1.0
 20
0.0
 30
0.0
  9
$UCSYDIR
 10
0.0
 20
1.0
 30
0.0
  9
$PUCSNAME
  2

  9
$PUCSORG
 10
0.0
 20
0.0
 30
0.0
  9
$PUCSXDIR
 10
1.0
 20
0.0
 30
0.0
  9
$PUCSYDIR
 10
0.0
 20
1.0
 30
0.0
  9
$USERI1
 70
     0
  9
$USERI2
 70
     0
  9
$USERI3
 70
     0
  9
$USERI4
 70
     0
  9
$USERI5
 70
     0
  9
$USERR1
 40
0.0
  9
$USERR2
 40
0.0
  9
$USERR3
 40
0.0
  9
$USERR4
 40
0.0
  9
$USERR5
 40
0.0
  9
$WORLDVIEW
 70
     1
  9
$SHADEDGE
 70
     3
  9
$SHADEDIF
 70
    70
  9
$TILEMODE
 70
     1
  9
$MAXACTVP
 70
    64
  9
$PLIMCHECK
 70
     0
  9
$PEXTMIN
 10
1.0000000000000000E+020
 20
1.0000000000000000E+020
 30
1.0000000000000000E+020
  9
$PEXTMAX
 10
-1.0000000000000000E+020
 20
-1.0000000000000000E+020
 30
-1.0000000000000000E+020
  9
$PLIMMIN
 10
0.0
 20
0.0
  9
$PLIMMAX
 10
12.0
 20
9.0
  9
$UNITMODE
 70
     0
  9
$VISRETAIN
 70
     0
  9
$PLINEGEN
 70
     1
  9
$PSLTSCALE
 70
     0
  0
ENDSEC
  0
SECTION
  2
TABLES
  0
TABLE
  2
VPORT
 70
     1
  0
VPORT
  2
*ACTIVE
 70
     0
 10
0.0
 20
0.0
 11
1.0
 21
1.0
 12
500.00534281717307
 22
680.97381906813655
 13
0.0
 23
0.0
 14
1.0
 24
1.0
 15
0.0
 25
0.0
 16
0.0
 26
0.0
 36
1.0
 17
0.0
 27
0.0
 37
0.0
 40
1347.9981668319081
 41
1.964329643296433
 42
50.0
 43
0.0
 44
0.0
 50
0.0
 51
0.0
 71
     0
 72
  2000
 73
     1
 74
     1
 75
     0
 76
     0
 77
     0
 78
     0
  0
ENDTAB
  0
TABLE
  2
LTYPE
 70
    11
  0
LTYPE
  2
CONTINUOUS
 70
     0
  3
Solid line
 72
    65
 73
     0
 40
0.0
  0
ENDTAB
  0
TABLE
  2
LAYER
 70
     5
  0
LAYER
  2
0
 70
     0
 62
     7
  6
CONTINUOUS
  0
LAYER
  2
DATA
 70
     0
 62
     7
  6
CONTINUOUS
  0
LAYER
  2
HIBINO-BASE
 70
     0
 62
     7
  6
CONTINUOUS
  0
LAYER
  2
SPEC
 70
     0
 62
     7
  6
CONTINUOUS
  0
LAYER
  2
DIMNSIONS
 70
     0
 62
     7
  6
CONTINUOUS
  0
ENDTAB
  0
TABLE
  2
STYLE
 70
     3
  0
STYLE
  2
STANDARD
 70
     0
 40
0.0
 41
1.0
 50
0.0
 71
     0
 42
0.0
  3
txt
  4
BIGFONT.SHX
  0
ENDTAB
  0
TABLE
  2
VIEW
 70
     0
  0
ENDTAB
  0
TABLE
  2
UCS
 70
     0
  0
ENDTAB
  0
TABLE
  2
APPID
 70
     3
  0
APPID
  2
ACAD
 70
     0
  0
APPID
  2
ACADANNOTATIVE
 70
     0
  0
APPID
  2
ACAD_MLEADERVER
 70
     0
  0
ENDTAB
  0
TABLE
  2
DIMSTYLE
 70
     2
  0
DIMSTYLE
  2
STANDARD
 70
     0
  3

  4

  5

  6

  7

 40
1.0
 41
0.18
 42
0.0625
 43
0.38
 44
0.18
 45
0.0
 46
0.0
 47
0.0
 48
0.0
140
0.18
141
0.09
142
0.0
143
25.399999999999999
144
1.0
145
0.0
146
1.0
147
0.09
 71
     0
 72
     0
 73
     1
 74
     1
 75
     0
 76
     0
 77
     0
 78
     0
170
     0
171
     2
172
     0
173
     0
174
     0
175
     0
176
     0
177
     0
178
     0
  0
ENDTAB
  0
ENDSEC
  0
SECTION
  2
BLOCKS
  0
BLOCK
  8
0
  2
$MODEL_SPACE
 70
     0
 10
0.0
 20
0.0
 30
0.0
  3
$MODEL_SPACE
  1

  0
ENDBLK
  5
469
  8
0
  0
BLOCK
 67
     1
  8
0
  2
$PAPER_SPACE
 70
     0
 10
0.0
 20
0.0
 30
0.0
  3
$PAPER_SPACE
  1

  0
ENDBLK
  5
465
 67
     1
  8
0
  0
ENDSEC
  0
SECTION
  2
ENTITIES
  0
LINE
  5
2C
  8
HIBINO-BASE
  6
CONTINUOUS
 62
     7
 10
50.0
 20
1350.0
 30
0.0
 11
950.0
 21
1350.0
 31
0.0
  0
LINE
  5
2D
  8
HIBINO-BASE
  6
CONTINUOUS
 62
     7
 10
950.0
 20
50.0
 30
0.0
 11
50.0
 21
50.0
 31
0.0
  0
LINE
  5
2E
  8
HIBINO-BASE
  6
CONTINUOUS
 62
     7
 10
50.0
 20
50.0
 30
0.0
 11
50.0
 21
1350.0
 31
0.0
  0
TEXT
  5
2F
  8
HIBINO-BASE
 62
     7
 10
62.82012861104743
 20
17.956611000000098
 30
0.0
 40
18.00022089843749
  1
Hibino-Intersound Corporation
 41
0.7
 11
62.82012861104743
 21
35.956831898437599
 31
0.0
 73
     3
  0
LINE
  5
30
  8
HIBINO-BASE
  6
CONTINUOUS
 62
     7
 10
950.0
 20
1350.0
 30
0.0
 11
950.0
 21
50.0
 31
0.0
  0
LINE
  5
31
  8
HIBINO-BASE
  6
CONTINUOUS
 62
     7
 10
500.0
 20
162.50000000000011
 30
0.0
 11
950.0
 21
162.50000000000011
 31
0.0
  0
LINE
  5
32
  8
HIBINO-BASE
  6
CONTINUOUS
 62
     7
 10
500.0
 20
50.0
 30
0.0
 11
500.0
 21
162.50000000000011
 31
0.0
  0
TEXT
  5
33
  8
HIBINO-BASE
 62
     7
 10
504.49999999999989
 20
149.9565333333334
 30
0.0
 40
8.1442057291666661
  1
NOTE
 41
0.7
 11
504.49999999999989
 21
158.10073906250011
 31
0.0
 73
     3
  0
LINE
  5
34
  8
HIBINO-BASE
  6
CONTINUOUS
 62
     7
 10
675.0
 20
50.0
 30
0.0
 11
675.0
 21
162.50000000000011
 31
0.0
  0
TEXT
  5
35
  8
HIBINO-BASE
 62
     7
 10
679.49999999999989
 20
149.9565333333334
 30
0.0
 40
8.1442057291666661
  1
TITLE
 41
0.7
 11
679.49999999999989
 21
158.10073906250011
 31
0.0
 73
     3
  0
TEXT
  5
36
  8
HIBINO-BASE
 62
     7
 10
595.06609521503515
 20
16.861363937191111
 30
0.0
 40
18.00022089843749
  1
ヒビノインターサウンド株式会社
 41
0.7
 11
595.06609521503515
 21
34.861584835628598
 31
0.0
 73
     3
  0
LINE
  5
37
  8
HIBINO-BASE
  6
CONTINUOUS
 62
     7
 10
500.0
 20
100.0000000000001
 30
0.0
 11
950.0
 21
100.0000000000001
 31
0.0
  0
TEXT
  5
38
  8
HIBINO-BASE
 62
     7
 10
742.0
 20
87.738133333333465
 30
0.0
 40
8.1442057291666661
  1
DRAWN
 41
0.7
 11
742.0
 21
95.882339062500137
 31
0.0
 73
     3
  0
TEXT
  5
39
  8
HIBINO-BASE
 62
     7
 10
617.0
 20
87.738133333333465
 30
0.0
 40
8.1442057291666661
  1
DATE
 41
0.7
 11
617.0
 21
95.882339062500137
 31
0.0
 73
     3
  0
TEXT
  5
3A
  8
HIBINO-BASE
 62
     7
 10
567.0
 20
87.738133333333465
 30
0.0
 40
8.1442057291666661
  1
SCALE
 41
0.7
 11
567.0
 21
95.882339062500137
 31
0.0
 73
     3
  0
TEXT
  5
3B
  8
HIBINO-BASE
 62
     7
 10
679.49999999999989
 20
87.738133333333465
 30
0.0
 40
8.1442057291666661
  1
DESIGN
 41
0.7
 11
679.49999999999989
 21
95.882339062500137
 31
0.0
 73
     3
  0
TEXT
  5
3C
  8
HIBINO-BASE
 62
     7
 10
867.0
 20
87.738133333333465
 30
0.0
 40
8.1442057291666661
  1
DRAWING NO.
 41
0.7
 11
867.0
 21
95.882339062500137
 31
0.0
 73
     3
  0
TEXT
  5
3D
  8
HIBINO-BASE
 62
     7
 10
804.49999999999989
 20
87.738133333333465
 30
0.0
 40
8.1442057291666661
  1
CHECK
 41
0.7
 11
804.49999999999989
 21
95.882339062500137
 31
0.0
 73
     3
  0
LINE
  5
3E
  8
HIBINO-BASE
  6
CONTINUOUS
 62
     7
 10
571.87499999999989
 20
56.25
 30
0.0
 11
590.625
 21
75.000000000000099
 31
0.0
  0
TEXT
  5
3F
  8
HIBINO-BASE
 62
     7
 10
568.74999999999989
 20
69.455283333333384
 30
0.0
 40
8.1442057291666661
  1
1
 41
0.7
 11
568.74999999999989
 21
77.599489062500069
 31
0.0
 73
     3
  0
LINE
  5
40
  8
HIBINO-BASE
  6
CONTINUOUS
 62
     7
 10
562.49999999999989
 20
50.0
 30
0.0
 11
562.49999999999989
 21
100.0000000000001
 31
0.0
  0
LINE
  5
41
  8
HIBINO-BASE
  6
CONTINUOUS
 62
     7
 10
612.49999999999989
 20
50.0
 30
0.0
 11
612.49999999999989
 21
100.0000000000001
 31
0.0
  0
LINE
  5
42
  8
HIBINO-BASE
  6
CONTINUOUS
 62
     7
 10
737.5
 20
100.0000000000001
 30
0.0
 11
737.5
 21
50.0
 31
0.0
  0
LINE
  5
43
  8
HIBINO-BASE
  6
CONTINUOUS
 62
     7
 10
862.5
 20
100.0000000000001
 30
0.0
 11
862.5
 21
50.0
 31
0.0
  0
LINE
  5
44
  8
HIBINO-BASE
  6
CONTINUOUS
 62
     7
 10
800.0
 20
50.0
 30
0.0
 11
800.0
 21
100.0000000000001
 31
0.0
  0
TEXT
  5
45
  8
HIBINO-BASE
 62
     7
 10
616.78269999999986
 20
64.318233333333382
 30
0.0
 40
8.1442057291666661
  1
'09.06.
 41
0.7
 11
616.78269999999986
 21
72.462439062500053
 31
0.0
 73
     3
  0
TEXT
  5
46
  8
HIBINO-BASE
 62
     7
 10
587.5
 20
60.080283333333398
 30
0.0
 40
8.1442057291666661
  1
5
 41
0.7
 11
587.5
 21
68.224489062500069
 31
0.0
 73
     3
  0
TEXT
  5
47
  8
HIBINO-BASE
 62
     7
 10
746.98306333084508
 20
64.53534591951923
 30
0.0
 40
8.1442057291666661
  1
T.Ootake
 41
0.7
 11
746.98306333084508
 21
72.679551648685901
 31
0.0
 73
     3
  0
TEXT
  5
48
  8
HIBINO-BASE
 62
     7
 10
519.41666666666674
 20
59.880000000000031
 30
0.0
 40
16.288411458333329
  1
A4
 41
0.7
 11
519.41666666666674
 21
76.168411458333352
 31
0.0
 73
     3
  0
TEXT
  5
49
  8
HIBINO-BASE
 62
     7
 10
504.79166666666652
 20
86.902725000000103
 30
0.0
 40
8.1442057291666661
  1
PAPER SIZE
 41
0.7
 11
504.79166666666652
 21
95.046930729166775
 31
0.0
 73
     3
  0
LINE
  5
4A
  8
SPEC
  6
CONTINUOUS
 62
     7
 10
87.5
 20
1300.0
 30
0.0
 11
825.0
 21
1300.0
 31
0.0
  0
LINE
  5
4B
  8
SPEC
  6
CONTINUOUS
 62
     7
 10
87.5
 20
1281.25
 30
0.0
 11
825.0
 21
1281.25
 31
0.0
  0
LINE
  5
4C
  8
SPEC
  6
CONTINUOUS
 62
     7
 10
87.5
 20
1206.25
 30
0.0
 11
825.0
 21
1206.25
 31
0.0
  0
LINE
  5
4D
  8
SPEC
  6
CONTINUOUS
 62
     7
 10
87.5
 20
1225.0
 30
0.0
 11
825.0
 21
1225.0
 31
0.0
  0
LINE
  5
4E
  8
SPEC
  6
CONTINUOUS
 62
     7
 10
87.5
 20
1243.75
 30
0.0
 11
825.0
 21
1243.75
 31
0.0
  0
LINE
  5
4F
  8
SPEC
  6
CONTINUOUS
 62
     7
 10
87.5
 20
1187.5
 30
0.0
 11
825.0
 21
1187.5
 31
0.0
  0
LINE
  5
50
  8
SPEC
  6
CONTINUOUS
 62
     7
 10
87.5
 20
1150.0
 30
0.0
 11
825.0
 21
1150.0
 31
0.0
  0
LINE
  5
51
  8
SPEC
  6
CONTINUOUS
 62
     7
 10
87.5
 20
1168.75
 30
0.0
 11
825.0
 21
1168.75
 31
0.0
  0
LINE
  5
52
  8
SPEC
  6
CONTINUOUS
 62
     7
 10
87.5
 20
1131.25
 30
0.0
 11
825.0
 21
1131.25
 31
0.0
  0
LINE
  5
53
  8
SPEC
  6
CONTINUOUS
 62
     7
 10
87.5
 20
1112.5
 30
0.0
 11
825.0
 21
1112.5
 31
0.0
  0
LINE
  5
54
  8
SPEC
  6
CONTINUOUS
 62
     7
 10
87.5
 20
1262.5
 30
0.0
 11
825.0
 21
1262.5
 31
0.0
  0
TEXT
  5
55
  8
SPEC
 62
     7
 10
329.8534339127213
 20
1285.6720179617439
 30
0.0
 40
9.5015562499999984
  1
DVI延長機
 41
0.7
 11
329.8534339127213
 21
1295.1735742117439
 31
0.0
 73
     3
  0
TEXT
  5
56
  8
SPEC
 62
     7
 10
93.75
 20
1306.9663499999999
 30
0.0
 40
12.21630859375
  1
仕様
 41
0.7
 11
93.75
 21
1319.1826585937499
 31
0.0
 73
     3
  0
TEXT
  5
57
  8
SPEC
 62
     7
 10
92.047010587405794
 20
1285.962436925279
 30
0.0
 40
9.5015562499999984
  1
形式
 41
0.7
 11
92.047010587405794
 21
1295.463993175279
 31
0.0
 73
     3
  0
LINE
  5
58
  8
SPEC
  6
CONTINUOUS
 62
     7
 10
325.0
 20
1300.0
 30
0.0
 11
325.0
 21
1093.75
 31
0.0
  0
LINE
  5
59
  8
SPEC
  6
CONTINUOUS
 62
     7
 10
87.5
 20
1093.75
 30
0.0
 11
825.0
 21
1093.75
 31
0.0
  0
TEXT
  5
5A
  8
SPEC
 62
     7
 10
91.934494472668518
 20
1117.5137735355461
 30
0.0
 40
9.5015562499999984
  1
寸法
 41
0.7
 11
91.934494472668518
 21
1127.0153297855461
 31
0.0
 73
     3
  0
LINE
  5
5B
  8
SPEC
  6
CONTINUOUS
 62
     7
 10
825.0
 20
1300.0
 30
0.0
 11
825.0
 21
1093.75
 31
0.0
  0
TEXT
  5
5C
  8
SPEC
 62
     7
 10
92.090817906988775
 20
1099.06873768069
 30
0.0
 40
9.5015562499999984
  1
重量
 41
0.7
 11
92.090817906988775
 21
1108.57029393069
 31
0.0
 73
     3
  0
TEXT
  5
5D
  8
SPEC
 62
     7
 10
329.95673055180248
 20
1154.2264559589689
 30
0.0
 40
9.5015562499999984
  1
5V DC
 41
0.7
 11
329.95673055180248
 21
1163.7280122089689
 31
0.0
 73
     3
  0
LINE
  5
5E
  8
SPEC
  6
CONTINUOUS
 62
     7
 10
87.5
 20
1300.0
 30
0.0
 11
87.5
 21
1093.75
 31
0.0
  0
TEXT
  5
5F
  8
SPEC
 62
     7
 10
91.98021778834952
 20
1154.8699564979649
 30
0.0
 40
9.5015562499999984
  1
電源
 41
0.7
 11
91.98021778834952
 21
1164.371512747965
 31
0.0
 73
     3
  0
TEXT
  5
60
  8
SPEC
 62
     7
 10
90.162746714893956
 20
1267.2969880431731
 30
0.0
 40
9.5015562499999984
  1
ビデオアンプ帯域
 41
0.7
 11
90.162746714893956
 21
1276.7985442931731
 31
0.0
 73
     3
  0
TEXT
  5
61
  8
SPEC
 62
     7
 10
329.24863298614792
 20
1267.28670645896
 30
0.0
 40
9.5015562499999984
  1
165MHz
 41
0.7
 11
329.24863298614792
 21
1276.78826270896
 31
0.0
 73
     3
  0
TEXT
  5
62
  8
SPEC
 62
     7
 10
92.435013053286553
 20
1211.129035548769
 30
0.0
 40
9.5015733506944464
  1
DVI端子
 41
0.7
 11
92.435013053286553
 21
1220.6306088994641
 31
0.0
 73
     3
  0
TEXT
  5
63
  8
SPEC
 62
     7
 10
90.135631063461815
 20
1173.6093261785491
 30
0.0
 40
9.5015733506944464
  1
ビデオリンクコネクター
 41
0.7
 11
90.135631063461815
 21
1183.1108995292441
 31
0.0
 73
     3
  0
TEXT
  5
64
  8
SPEC
 62
     7
 10
92.358535401650997
 20
1192.534019785161
 30
0.0
 40
9.5015733506944464
  1
DDCリンクコネクタ ー
 41
0.7
 11
92.358535401650997
 21
1202.0355931358549
 31
0.0
 73
     3
  0
TEXT
  5
65
  8
SPEC
 62
     7
 10
92.169700517696995
 20
1248.534620351659
 30
0.0
 40
9.5015733506944464
  1
入力ビデオ信号
 41
0.7
 11
92.169700517696995
 21
1258.0361937023531
 31
0.0
 73
     3
  0
TEXT
  5
66
  8
SPEC
 62
     7
 10
329.91358231459822
 20
1211.4094346232121
 30
0.0
 40
9.5015733506944464
  1
DVI-D(19pin)メス
 41
0.7
 11
329.91358231459822
 21
1220.911007973906
 31
0.0
 73
     3
  0
TEXT
  5
67
  8
SPEC
 62
     7
 10
329.79450736884712
 20
1173.058156010909
 30
0.0
 40
9.5015733506944464
  1
LC
 41
0.7
 11
329.79450736884712
 21
1182.559729361604
 31
0.0
 73
     3
  0
TEXT
  5
68
  8
SPEC
 62
     7
 10
329.25992819037799
 20
1248.9381105663699
 30
0.0
 40
9.5015733506944464
  1
1.2Vp-p
 41
0.7
 11
329.25992819037799
 21
1258.439683917064
 31
0.0
 73
     3
  0
TEXT
  5
69
  8
SPEC
 62
     7
 10
329.8497806774173
 20
1192.263595204998
 30
0.0
 40
9.5015733506944464
  1
RJ-45
 41
0.7
 11
329.8497806774173
 21
1201.765168555693
 31
0.0
 73
     3
  0
TEXT
  5
6A
  8
SPEC
 62
     7
 10
92.20650125462457
 20
1229.915193162984
 30
0.0
 40
9.5015733506944464
  1
入力DDC信号
 41
0.7
 11
92.20650125462457
 21
1239.4167665136781
 31
0.0
 73
     3
  0
TEXT
  5
6B
  8
SPEC
 62
     7
 10
329.95527940756602
 20
1229.6898411256579
 30
0.0
 40
9.5015733506944464
  1
5Vp-p(TTL)
 41
0.7
 11
329.95527940756602
 21
1239.1914144763521
 31
0.0
 73
     3
  0
TEXT
  5
6C
  8
SPEC
 62
     7
 10
92.196878663139586
 20
1135.9299030416371
 30
0.0
 40
9.5015562499999984
  1
消費電力
 41
0.7
 11
92.196878663139586
 21
1145.4314592916371
 31
0.0
 73
     3
  0
TEXT
  5
6D
  8
SPEC
 62
     7
 10
329.9249685044287
 20
1136.0918310179991
 30
0.0
 40
9.5015562499999984
  1
36W(最大)
 41
0.7
 11
329.9249685044287
 21
1145.5933872679991
 31
0.0
 73
     3
  0
TEXT
  5
6E
  8
SPEC
 62
     7
 10
329.93702288393268
 20
1117.2336906228429
 30
0.0
 40
9.5015733506944464
  1
216(W)\U+00D744(H)\U+00D7112(D)mm(突起部含まず)、(センダー、レシーバー共に)
 41
0.7
 11
329.93702288393268
 21
1126.735263973537
 31
0.0
 73
     3
  0
TEXT
  5
6F
  8
SPEC
 62
     7
 10
329.71940382436452
 20
1098.7662234713971
 30
0.0
 40
9.5015733506944464
  1
約400g(センダー、レシーバー共に）
 41
0.7
 11
329.71940382436452
 21
1108.267796822091
 31
0.0
 73
     3
  0
TEXT
  5
70
  8
DIMNSIONS
 62
     7
 10
400.0
 20
111.34744999999999
 30
0.0
 40
12.21630859375
  1
(単位：mm)
 41
0.7
 11
400.0
 21
123.5637585937499
 31
0.0
 73
     3
  0
LINE
  5
71
  8
DIMNSIONS
  6
CONTINUOUS
 62
     7
 10
215.0
 20
700.0
 30
0.0
 11
177.5
 21
700.0
 31
0.0
  0
LINE
  5
72
  8
DIMNSIONS
  6
CONTINUOUS
 62
     7
 10
215.0
 20
744.0
 30
0.0
 11
177.5
 21
744.0
 31
0.0
  0
LINE
  5
73
  8
DIMNSIONS
  6
CONTINUOUS
 62
     7
 10
187.5
 20
700.0
 30
0.0
 11
187.5
 21
744.0
 31
0.0
  0
LINE
  5
74
  8
DIMNSIONS
  6
CONTINUOUS
 62
     7
 10
187.5
 20
700.0
 30
0.0
 11
184.1498010242488
 21
712.50311279296875
 31
0.0
  0
LINE
  5
75
  8
DIMNSIONS
  6
CONTINUOUS
 62
     7
 10
187.5
 20
700.0
 30
0.0
 11
190.8501989757512
 21
712.50311279296875
 31
0.0
  0
LINE
  5
76
  8
DIMNSIONS
  6
CONTINUOUS
 62
     7
 10
187.5
 20
744.0
 30
0.0
 11
190.8501989757512
 21
731.49688720703125
 31
0.0
  0
LINE
  5
77
  8
DIMNSIONS
  6
CONTINUOUS
 62
     7
 10
187.5
 20
744.0
 30
0.0
 11
184.1498010242488
 21
731.49688720703125
 31
0.0
  0
TEXT
  5
78
  8
DIMNSIONS
 62
     7
 10
182.53055555555551
 20
713.18055555555554
 30
0.0
 40
13.57367621527778
  1
44
 50
90.0
 41
0.7
 11
168.95687934027771
 21
713.18055555555554
 31
0.0
 73
     3
  0
LINE
  5
79
  8
DIMNSIONS
  6
CONTINUOUS
 62
     7
 10
215.0
 20
700.0
 30
0.0
 11
177.5
 21
700.0
 31
0.0
  0
LINE
  5
7A
  8
DIMNSIONS
  6
CONTINUOUS
 62
     7
 10
218.31957003464731
 20
697.0
 30
0.0
 11
177.5
 21
697.0
 31
0.0
  0
LINE
  5
7B
  8
DIMNSIONS
  6
CONTINUOUS
 62
     7
 10
187.5
 20
697.0
 30
0.0
 11
187.5
 21
700.0
 31
0.0
  0
LINE
  5
7C
  8
DIMNSIONS
  6
CONTINUOUS
 62
     7
 10
187.5
 20
700.0
 30
0.0
 11
187.5
 21
725.0
 31
0.0
  0
LINE
  5
7D
  8
DIMNSIONS
  6
CONTINUOUS
 62
     7
 10
187.5
 20
700.0
 30
0.0
 11
184.1498010242488
 21
712.50311279296875
 31
0.0
  0
LINE
  5
7E
  8
DIMNSIONS
  6
CONTINUOUS
 62
     7
 10
187.5
 20
700.0
 30
0.0
 11
190.8501989757512
 21
712.50311279296875
 31
0.0
  0
LINE
  5
7F
  8
DIMNSIONS
  6
CONTINUOUS
 62
     7
 10
187.5
 20
697.0
 30
0.0
 11
187.5
 21
666.18055555555554
 31
0.0
  0
LINE
  5
80
  8
DIMNSIONS
  6
CONTINUOUS
 62
     7
 10
187.5
 20
697.0
 30
0.0
 11
190.8501989757512
 21
684.49688720703125
 31
0.0
  0
LINE
  5
81
  8
DIMNSIONS
  6
CONTINUOUS
 62
     7
 10
187.5
 20
697.0
 30
0.0
 11
184.1498010242488
 21
684.49688720703125
 31
0.0
  0
TEXT
  5
82
  8
DIMNSIONS
 62
     7
 10
182.53055555555551
 20
666.18055555555554
 30
0.0
 40
13.57367621527778
  1
3
 50
90.0
 41
0.7
 11
168.95687934027771
 21
666.18055555555554
 31
0.0
 73
     3
  0
LINE
  5
83
  8
DIMNSIONS
  6
CONTINUOUS
 62
     7
 10
215.0
 20
287.5
 30
0.0
 11
177.5
 21
287.5
 31
0.0
  0
LINE
  5
84
  8
DIMNSIONS
  6
CONTINUOUS
 62
     7
 10
215.0
 20
331.5
 30
0.0
 11
177.5
 21
331.5
 31
0.0
  0
LINE
  5
85
  8
DIMNSIONS
  6
CONTINUOUS
 62
     7
 10
187.5
 20
287.5
 30
0.0
 11
187.5
 21
331.5
 31
0.0
  0
LINE
  5
86
  8
DIMNSIONS
  6
CONTINUOUS
 62
     7
 10
187.5
 20
287.5
 30
0.0
 11
184.1498010242488
 21
300.00311279296881
 31
0.0
  0
LINE
  5
87
  8
DIMNSIONS
  6
CONTINUOUS
 62
     7
 10
187.5
 20
287.5
 30
0.0
 11
190.8501989757512
 21
300.00311279296881
 31
0.0
  0
LINE
  5
88
  8
DIMNSIONS
  6
CONTINUOUS
 62
     7
 10
187.5
 20
331.5
 30
0.0
 11
190.8501989757512
 21
318.99688720703131
 31
0.0
  0
LINE
  5
89
  8
DIMNSIONS
  6
CONTINUOUS
 62
     7
 10
187.5
 20
331.5
 30
0.0
 11
184.1498010242488
 21
318.99688720703131
 31
0.0
  0
TEXT
  5
8A
  8
DIMNSIONS
 62
     7
 10
182.53055555555551
 20
300.6805555555556
 30
0.0
 40
13.57367621527778
  1
44
 50
90.0
 41
0.7
 11
168.95687934027771
 21
300.6805555555556
 31
0.0
 73
     3
  0
LINE
  5
8B
  8
DIMNSIONS
  6
CONTINUOUS
 62
     7
 10
215.0
 20
287.5
 30
0.0
 11
177.5
 21
287.5
 31
0.0
  0
LINE
  5
8C
  8
DIMNSIONS
  6
CONTINUOUS
 62
     7
 10
218.31957003464731
 20
284.5
 30
0.0
 11
177.5
 21
284.5
 31
0.0
  0
LINE
  5
8D
  8
DIMNSIONS
  6
CONTINUOUS
 62
     7
 10
187.5
 20
284.5
 30
0.0
 11
187.5
 21
287.5
 31
0.0
  0
LINE
  5
8E
  8
DIMNSIONS
  6
CONTINUOUS
 62
     7
 10
187.5
 20
287.5
 30
0.0
 11
187.5
 21
312.5
 31
0.0
  0
LINE
  5
8F
  8
DIMNSIONS
  6
CONTINUOUS
 62
     7
 10
187.5
 20
287.5
 30
0.0
 11
184.1498010242488
 21
300.00311279296881
 31
0.0
  0
LINE
  5
90
  8
DIMNSIONS
  6
CONTINUOUS
 62
     7
 10
187.5
 20
287.5
 30
0.0
 11
190.8501989757512
 21
300.00311279296881
 31
0.0
  0
LINE
  5
91
  8
DIMNSIONS
  6
CONTINUOUS
 62
     7
 10
187.5
 20
284.5
 30
0.0
 11
187.5
 21
253.6805555555556
 31
0.0
  0
LINE
  5
92
  8
DIMNSIONS
  6
CONTINUOUS
 62
     7
 10
187.5
 20
284.5
 30
0.0
 11
190.8501989757512
 21
271.99688720703131
 31
0.0
  0
LINE
  5
93
  8
DIMNSIONS
  6
CONTINUOUS
 62
     7
 10
187.5
 20
284.5
 30
0.0
 11
184.1498010242488
 21
271.99688720703131
 31
0.0
  0
TEXT
  5
94
  8
DIMNSIONS
 62
     7
 10
182.53055555555551
 20
253.6805555555556
 30
0.0
 40
13.57367621527778
  1
3
 50
90.0
 41
0.7
 11
168.95687934027771
 21
253.6805555555556
 31
0.0
 73
     3
  0
LINE
  5
95
  8
DIMNSIONS
  6
CONTINUOUS
 62
     7
 10
225.0
 20
690.0
 30
0.0
 11
225.0
 21
652.5
 31
0.0
  0
LINE
  5
96
  8
DIMNSIONS
  6
CONTINUOUS
 62
     7
 10
441.0
 20
690.0
 30
0.0
 11
441.0
 21
652.5
 31
0.0
  0
LINE
  5
97
  8
DIMNSIONS
  6
CONTINUOUS
 62
     7
 10
225.0
 20
662.5
 30
0.0
 11
441.0
 21
662.5
 31
0.0
  0
LINE
  5
98
  8
DIMNSIONS
  6
CONTINUOUS
 62
     7
 10
225.0
 20
662.5
 30
0.0
 11
237.50311279296869
 21
665.85019897575125
 31
0.0
  0
LINE
  5
99
  8
DIMNSIONS
  6
CONTINUOUS
 62
     7
 10
225.0
 20
662.5
 30
0.0
 11
237.50311279296869
 21
659.14980102424875
 31
0.0
  0
LINE
  5
9A
  8
DIMNSIONS
  6
CONTINUOUS
 62
     7
 10
441.0
 20
662.5
 30
0.0
 11
428.49688720703119
 21
659.14980102424875
 31
0.0
  0
LINE
  5
9B
  8
DIMNSIONS
  6
CONTINUOUS
 62
     7
 10
441.0
 20
662.5
 30
0.0
 11
428.49688720703119
 21
665.85019897575125
 31
0.0
  0
TEXT
  5
9C
  8
DIMNSIONS
 62
     7
 10
319.7708333333332
 20
667.46944444444455
 30
0.0
 40
13.57367621527778
  1
216
 41
0.7
 11
319.7708333333332
 21
681.04312065972238
 31
0.0
 73
     3
  0
LINE
  5
9D
  8
DIMNSIONS
  6
CONTINUOUS
 62
     7
 10
215.0
 20
775.0
 30
0.0
 11
177.5
 21
775.0
 31
0.0
  0
LINE
  5
9E
  8
DIMNSIONS
  6
CONTINUOUS
 62
     7
 10
215.0
 20
887.0
 30
0.0
 11
177.5
 21
887.0
 31
0.0
  0
LINE
  5
9F
  8
DIMNSIONS
  6
CONTINUOUS
 62
     7
 10
187.5
 20
775.0
 30
0.0
 11
187.5
 21
887.0
 31
0.0
  0
LINE
  5
A0
  8
DIMNSIONS
  6
CONTINUOUS
 62
     7
 10
187.5
 20
775.0
 30
0.0
 11
184.1498010242488
 21
787.50311279296864
 31
0.0
  0
LINE
  5
A1
  8
DIMNSIONS
  6
CONTINUOUS
 62
     7
 10
187.5
 20
775.0
 30
0.0
 11
190.8501989757512
 21
787.50311279296864
 31
0.0
  0
LINE
  5
A2
  8
DIMNSIONS
  6
CONTINUOUS
 62
     7
 10
187.5
 20
887.0
 30
0.0
 11
190.8501989757512
 21
874.49688720703125
 31
0.0
  0
LINE
  5
A3
  8
DIMNSIONS
  6
CONTINUOUS
 62
     7
 10
187.5
 20
887.0
 30
0.0
 11
184.1498010242488
 21
874.49688720703125
 31
0.0
  0
TEXT
  5
A4
  8
DIMNSIONS
 62
     7
 10
182.53055555555551
 20
817.77083333333326
 30
0.0
 40
13.57367621527778
  1
112
 50
90.0
 41
0.7
 11
168.95687934027771
 21
817.77083333333326
 31
0.0
 73
     3
  0
LINE
  5
A5
  8
DIMNSIONS
  6
CONTINUOUS
 62
     7
 10
215.0
 20
887.0
 30
0.0
 11
177.5
 21
887.0
 31
0.0
  0
LINE
  5
A6
  8
DIMNSIONS
  6
CONTINUOUS
 62
     7
 10
234.06311129012281
 20
893.0
 30
0.0
 11
177.5
 21
893.0
 31
0.0
  0
LINE
  5
A7
  8
DIMNSIONS
  6
CONTINUOUS
 62
     7
 10
187.5
 20
893.0
 30
0.0
 11
187.5
 21
887.0
 31
0.0
  0
LINE
  5
A8
  8
DIMNSIONS
  6
CONTINUOUS
 62
     7
 10
187.5
 20
887.0
 30
0.0
 11
187.5
 21
862.0
 31
0.0
  0
LINE
  5
A9
  8
DIMNSIONS
  6
CONTINUOUS
 62
     7
 10
187.5
 20
887.0
 30
0.0
 11
190.8501989757512
 21
874.49688720703125
 31
0.0
  0
LINE
  5
AA
  8
DIMNSIONS
  6
CONTINUOUS
 62
     7
 10
187.5
 20
887.0
 30
0.0
 11
184.1498010242488
 21
874.49688720703125
 31
0.0
  0
LINE
  5
AB
  8
DIMNSIONS
  6
CONTINUOUS
 62
     7
 10
187.5
 20
893.0
 30
0.0
 11
187.5
 21
921.31944444444446
 31
0.0
  0
LINE
  5
AC
  8
DIMNSIONS
  6
CONTINUOUS
 62
     7
 10
187.5
 20
893.0
 30
0.0
 11
184.1498010242488
 21
905.50311279296875
 31
0.0
  0
LINE
  5
AD
  8
DIMNSIONS
  6
CONTINUOUS
 62
     7
 10
187.5
 20
893.0
 30
0.0
 11
190.8501989757512
 21
905.50311279296875
 31
0.0
  0
TEXT
  5
AE
  8
DIMNSIONS
 62
     7
 10
182.53055555555551
 20
912.5
 30
0.0
 40
13.57367621527778
  1
6
 50
90.0
 41
0.7
 11
168.95687934027771
 21
912.5
 31
0.0
 73
     3
  0
LINE
  5
AF
  8
DIMNSIONS
  6
CONTINUOUS
 62
     7
 10
225.0
 20
277.5
 30
0.0
 11
225.0
 21
240.0
 31
0.0
  0
LINE
  5
B0
  8
DIMNSIONS
  6
CONTINUOUS
 62
     7
 10
441.0
 20
277.5
 30
0.0
 11
441.0
 21
240.0
 31
0.0
  0
LINE
  5
B1
  8
DIMNSIONS
  6
CONTINUOUS
 62
     7
 10
225.0
 20
250.0
 30
0.0
 11
441.0
 21
250.0
 31
0.0
  0
LINE
  5
B2
  8
DIMNSIONS
  6
CONTINUOUS
 62
     7
 10
225.0
 20
250.0
 30
0.0
 11
237.50311279296869
 21
253.3501989757512
 31
0.0
  0
LINE
  5
B3
  8
DIMNSIONS
  6
CONTINUOUS
 62
     7
 10
225.0
 20
250.0
 30
0.0
 11
237.50311279296869
 21
246.6498010242488
 31
0.0
  0
LINE
  5
B4
  8
DIMNSIONS
  6
CONTINUOUS
 62
     7
 10
441.0
 20
250.0
 30
0.0
 11
428.49688720703119
 21
246.6498010242488
 31
0.0
  0
LINE
  5
B5
  8
DIMNSIONS
  6
CONTINUOUS
 62
     7
 10
441.0
 20
250.0
 30
0.0
 11
428.49688720703119
 21
253.3501989757512
 31
0.0
  0
TEXT
  5
B6
  8
DIMNSIONS
 62
     7
 10
319.7708333333332
 20
254.96944444444449
 30
0.0
 40
13.57367621527778
  1
216
 41
0.7
 11
319.7708333333332
 21
268.54312065972232
 31
0.0
 73
     3
  0
LINE
  5
B7
  8
DIMNSIONS
  6
CONTINUOUS
 62
     7
 10
215.0
 20
362.5
 30
0.0
 11
177.5
 21
362.5
 31
0.0
  0
LINE
  5
B8
  8
DIMNSIONS
  6
CONTINUOUS
 62
     7
 10
215.0
 20
474.5
 30
0.0
 11
177.5
 21
474.5
 31
0.0
  0
LINE
  5
B9
  8
DIMNSIONS
  6
CONTINUOUS
 62
     7
 10
187.5
 20
362.5
 30
0.0
 11
187.5
 21
474.5
 31
0.0
  0
LINE
  5
BA
  8
DIMNSIONS
  6
CONTINUOUS
 62
     7
 10
187.5
 20
362.5
 30
0.0
 11
184.1498010242488
 21
375.00311279296881
 31
0.0
  0
LINE
  5
BB
  8
DIMNSIONS
  6
CONTINUOUS
 62
     7
 10
187.5
 20
362.5
 30
0.0
 11
190.8501989757512
 21
375.00311279296881
 31
0.0
  0
LINE
  5
BC
  8
DIMNSIONS
  6
CONTINUOUS
 62
     7
 10
187.5
 20
474.5
 30
0.0
 11
190.8501989757512
 21
461.99688720703119
 31
0.0
  0
LINE
  5
BD
  8
DIMNSIONS
  6
CONTINUOUS
 62
     7
 10
187.5
 20
474.5
 30
0.0
 11
184.1498010242488
 21
461.99688720703119
 31
0.0
  0
TEXT
  5
BE
  8
DIMNSIONS
 62
     7
 10
182.53055555555551
 20
405.2708333333332
 30
0.0
 40
13.57367621527778
  1
112
 50
90.0
 41
0.7
 11
168.95687934027771
 21
405.2708333333332
 31
0.0
 73
     3
  0
LINE
  5
BF
  8
DIMNSIONS
  6
CONTINUOUS
 62
     7
 10
215.0
 20
474.5
 30
0.0
 11
177.5
 21
474.5
 31
0.0
  0
LINE
  5
C0
  8
DIMNSIONS
  6
CONTINUOUS
 62
     7
 10
404.0986482040048
 20
480.49999999999989
 30
0.0
 11
177.5
 21
480.49999999999989
 31
0.0
  0
LINE
  5
C1
  8
DIMNSIONS
  6
CONTINUOUS
 62
     7
 10
187.5
 20
480.49999999999989
 30
0.0
 11
187.5
 21
474.5
 31
0.0
  0
LINE
  5
C2
  8
DIMNSIONS
  6
CONTINUOUS
 62
     7
 10
187.5
 20
474.5
 30
0.0
 11
187.5
 21
449.5
 31
0.0
  0
LINE
  5
C3
  8
DIMNSIONS
  6
CONTINUOUS
 62
     7
 10
187.5
 20
474.5
 30
0.0
 11
190.8501989757512
 21
461.99688720703119
 31
0.0
  0
LINE
  5
C4
  8
DIMNSIONS
  6
CONTINUOUS
 62
     7
 10
187.5
 20
474.5
 30
0.0
 11
184.1498010242488
 21
461.99688720703119
 31
0.0
  0
LINE
  5
C5
  8
DIMNSIONS
  6
CONTINUOUS
 62
     7
 10
187.5
 20
480.49999999999989
 30
0.0
 11
187.5
 21
508.81944444444451
 31
0.0
  0
LINE
  5
C6
  8
DIMNSIONS
  6
CONTINUOUS
 62
     7
 10
187.5
 20
480.49999999999989
 30
0.0
 11
184.1498010242488
 21
493.00311279296869
 31
0.0
  0
LINE
  5
C7
  8
DIMNSIONS
  6
CONTINUOUS
 62
     7
 10
187.5
 20
480.49999999999989
 30
0.0
 11
190.8501989757512
 21
493.00311279296869
 31
0.0
  0
TEXT
  5
C8
  8
DIMNSIONS
 62
     7
 10
182.53055555555551
 20
500.0
 30
0.0
 40
13.57367621527778
  1
6
 50
90.0
 41
0.7
 11
168.95687934027771
 21
500.0
 31
0.0
 73
     3
  0
TEXT
  5
C9
  8
DATA
 62
     7
 10
750.0
 20
105.65445
 30
0.0
 40
12.21630859375
  1
EXT-DVI-1500HD
 41
0.7
 11
750.0
 21
117.87075859375
 31
0.0
 73
     3
  0
TEXT
  5
CA
  8
DATA
 62
     7
 10
750.0
 20
141.90445
 30
0.0
 40
12.21630859375
  1
Gefen
 41
0.7
 11
750.0
 21
154.12075859375
 31
0.0
 73
     3
  0
TEXT
  5
CB
  8
DATA
 62
     7
 10
737.5
 20
124.51966899999999
 30
0.0
 40
8.1442185546874981
  1
DVI延長機
 41
0.7
 11
737.5
 21
132.66388755468751
 31
0.0
 73
     3
  0
TEXT
  5
CC
  8
DATA
 62
     7
 10
100.0
 20
71.190000000000111
 30
0.0
 40
8.1442057291666661
  1
仕様および外観は予告なく変更されることがありますので、ご了承ください。
 41
0.7
 11
100.0
 21
79.334205729166783
 31
0.0
 73
     3
  0
LINE
  5
CD
  8
DATA
  6
CONTINUOUS
 62
     7
 10
225.0
 20
700.0
 30
0.0
 11
225.0
 21
744.0
 31
0.0
  0
LINE
  5
CE
  8
DATA
  6
CONTINUOUS
 62
     7
 10
441.0
 20
700.0
 30
0.0
 11
225.0
 21
700.0
 31
0.0
  0
LINE
  5
CF
  8
DATA
  6
CONTINUOUS
 62
     7
 10
441.0
 20
775.0
 30
0.0
 11
225.0
 21
775.0
 31
0.0
  0
LINE
  5
D0
  8
DATA
  6
CONTINUOUS
 62
     7
 10
225.0
 20
969.0
 30
0.0
 11
441.0
 21
969.0
 31
0.0
  0
LINE
  5
D1
  8
DATA
  6
CONTINUOUS
 62
     7
 10
225.0
 20
925.0
 30
0.0
 11
225.0
 21
969.0
 31
0.0
  0
TEXT
  5
D2
  8
DATA
 62
     7
 10
253.474125707295
 20
966.01046334526313
 30
0.0
 40
3.121945529513888
  1
5 VDC
 50
180.0
 41
0.7
 11
253.474125707295
 21
962.88851781574897
 31
0.0
 73
     3
  0
LINE
  5
D3
  8
DATA
  6
CONTINUOUS
 62
     7
 10
441.0
 20
744.0
 30
0.0
 11
225.0
 21
744.0
 31
0.0
  0
LINE
  5
D4
  8
DATA
  6
CONTINUOUS
 62
     7
 10
225.0
 20
925.0
 30
0.0
 11
441.0
 21
925.0
 31
0.0
  0
LINE
  5
D5
  8
DATA
  6
CONTINUOUS
 62
     7
 10
228.31957003464731
 20
697.0
 30
0.0
 11
227.56957003464731
 21
700.0
 31
0.0
  0
LINE
  5
D6
  8
DATA
  6
CONTINUOUS
 62
     7
 10
235.06957003464879
 20
700.0
 30
0.0
 11
234.31957003464879
 21
697.0
 31
0.0
  0
LINE
  5
D7
  8
DATA
  6
CONTINUOUS
 62
     7
 10
228.31957003464731
 20
697.0
 30
0.0
 11
234.31957003464879
 21
697.0
 31
0.0
  0
LINE
  5
D8
  8
DATA
  6
CONTINUOUS
 62
     7
 10
441.0
 20
887.0
 30
0.0
 11
225.0
 21
887.0
 31
0.0
  0
LINE
  5
D9
  8
DATA
  6
CONTINUOUS
 62
     7
 10
441.0
 20
784.0
 30
0.0
 11
225.0
 21
784.0
 31
0.0
  0
LINE
  5
DA
  8
DATA
  6
CONTINUOUS
 62
     7
 10
228.31957003464731
 20
971.99999999961381
 30
0.0
 11
227.56957003474389
 21
969.0
 31
0.0
  0
LINE
  5
DB
  8
DATA
  6
CONTINUOUS
 62
     7
 10
235.0695700345521
 20
969.0
 30
0.0
 11
234.31957003464879
 21
971.99999999961381
 31
0.0
  0
LINE
  5
DC
  8
DATA
  6
CONTINUOUS
 62
     7
 10
228.31957003464731
 20
971.99999999961381
 30
0.0
 11
234.31957003464879
 21
971.99999999961381
 31
0.0
  0
LINE
  5
DD
  8
DATA
  6
CONTINUOUS
 62
     7
 10
225.0
 20
775.0
 30
0.0
 11
225.0
 21
887.0
 31
0.0
  0
LINE
  5
DE
  8
DATA
  6
CONTINUOUS
 62
     7
 10
272.12260069636977
 20
948.79462368547775
 30
0.0
 11
272.12260069636977
 21
962.09462368547815
 31
0.0
  0
LINE
  5
DF
  8
DATA
  6
CONTINUOUS
 62
     7
 10
287.82260069636959
 20
948.79462368547775
 30
0.0
 11
287.82260069636959
 21
962.09462368547815
 31
0.0
  0
LINE
  5
E0
  8
DATA
  6
CONTINUOUS
 62
     7
 10
286.12260069636972
 20
951.79462368547775
 30
0.0
 11
286.12260069636972
 21
959.09462368547793
 31
0.0
  0
LINE
  5
E1
  8
DATA
  6
CONTINUOUS
 62
     7
 10
273.82260069636982
 20
951.79462368547775
 30
0.0
 11
273.82260069636982
 21
959.09462368547793
 31
0.0
  0
LINE
  5
E2
  8
DATA
  6
CONTINUOUS
 62
     7
 10
286.12260069636972
 20
951.79462368547775
 30
0.0
 11
273.82260069636982
 21
951.79462368547775
 31
0.0
  0
LINE
  5
E3
  8
DATA
  6
CONTINUOUS
 62
     7
 10
282.1976006963697
 20
962.09462368547815
 30
0.0
 11
282.1976006963697
 21
960.59462368547804
 31
0.0
  0
LINE
  5
E4
  8
DATA
  6
CONTINUOUS
 62
     7
 10
277.74760069636972
 20
960.59462368547804
 30
0.0
 11
277.74760069636972
 21
962.09462368547815
 31
0.0
  0
LINE
  5
E5
  8
DATA
  6
CONTINUOUS
 62
     7
 10
283.32260069636959
 20
960.59462368547804
 30
0.0
 11
282.1976006963697
 21
960.59462368547804
 31
0.0
  0
LINE
  5
E6
  8
DATA
  6
CONTINUOUS
 62
     7
 10
277.74760069636972
 20
960.59462368547804
 30
0.0
 11
276.62260069636972
 21
960.59462368547804
 31
0.0
  0
LINE
  5
E7
  8
DATA
  6
CONTINUOUS
 62
     7
 10
286.12260069636972
 20
959.09462368547793
 30
0.0
 11
283.32260069636959
 21
959.09462368547793
 31
0.0
  0
LINE
  5
E8
  8
DATA
  6
CONTINUOUS
 62
     7
 10
276.62260069636972
 20
959.09462368547793
 30
0.0
 11
273.82260069636982
 21
959.09462368547793
 31
0.0
  0
LINE
  5
E9
  8
DATA
  6
CONTINUOUS
 62
     7
 10
283.32260069636959
 20
960.59462368547804
 30
0.0
 11
283.32260069636959
 21
959.09462368547793
 31
0.0
  0
LINE
  5
EA
  8
DATA
  6
CONTINUOUS
 62
     7
 10
276.62260069636972
 20
959.09462368547793
 30
0.0
 11
276.62260069636972
 21
960.59462368547804
 31
0.0
  0
CIRCLE
  5
EB
  8
DATA
  6
CONTINUOUS
 62
     7
 10
372.97354327175998
 20
953.3776636567377
 30
0.0
 40
1.175000000000096
  0
POLYLINE
  5
EC
  8
DATA
  6
CONTINUOUS
 62
     7
 66
     1
 10
0.0
 20
0.0
 30
0.0
 70
     1
  0
VERTEX
  5
495
  8
DATA
  6
CONTINUOUS
 62
     7
 10
372.97354327175998
 20
950.67766365673765
 30
0.0
  0
VERTEX
  5
496
  8
DATA
  6
CONTINUOUS
 62
     7
 10
375.31181186197801
 20
952.02766365673767
 30
0.0
  0
VERTEX
  5
497
  8
DATA
  6
CONTINUOUS
 62
     7
 10
375.31181186197801
 20
954.72766365673783
 30
0.0
  0
VERTEX
  5
498
  8
DATA
  6
CONTINUOUS
 62
     7
 10
372.97354327175998
 20
956.07766365673774
 30
0.0
  0
VERTEX
  5
499
  8
DATA
  6
CONTINUOUS
 62
     7
 10
370.63527468154177
 20
954.72766365673783
 30
0.0
  0
VERTEX
  5
49A
  8
DATA
  6
CONTINUOUS
 62
     7
 10
370.63527468154177
 20
952.02766365673767
 30
0.0
  0
SEQEND
  5
49B
  8
DATA
  6
CONTINUOUS
 62
     7
  0
CIRCLE
  5
F5
  8
DATA
  6
CONTINUOUS
 62
     7
 10
340.47354327175958
 20
953.3776636567377
 30
0.0
 40
1.175000000000068
  0
POLYLINE
  5
F6
  8
DATA
  6
CONTINUOUS
 62
     7
 66
     1
 10
0.0
 20
0.0
 30
0.0
 70
     1
  0
VERTEX
  5
49C
  8
DATA
  6
CONTINUOUS
 62
     7
 10
340.47354327175958
 20
950.67766365673765
 30
0.0
  0
VERTEX
  5
49D
  8
DATA
  6
CONTINUOUS
 62
     7
 10
342.8118118619775
 20
952.02766365673767
 30
0.0
  0
VERTEX
  5
49E
  8
DATA
  6
CONTINUOUS
 62
     7
 10
342.8118118619775
 20
954.72766365673783
 30
0.0
  0
VERTEX
  5
49F
  8
DATA
  6
CONTINUOUS
 62
     7
 10
340.47354327175958
 20
956.07766365673774
 30
0.0
  0
VERTEX
  5
4A0
  8
DATA
  6
CONTINUOUS
 62
     7
 10
338.13527468154149
 20
954.72766365673783
 30
0.0
  0
VERTEX
  5
4A1
  8
DATA
  6
CONTINUOUS
 62
     7
 10
338.13527468154149
 20
952.02766365673767
 30
0.0
  0
SEQEND
  5
4A2
  8
DATA
  6
CONTINUOUS
 62
     7
  0
LINE
  5
FF
  8
DATA
  6
CONTINUOUS
 62
     7
 10
367.67344815895132
 20
949.45266365673774
 30
0.0
 11
345.77363838456779
 21
949.45266365673774
 31
0.0
  0
LINE
  5
100
  8
DATA
  6
CONTINUOUS
 62
     7
 10
346.33255558202001
 20
957.30266365673765
 30
0.0
 11
367.1145309614991
 21
957.30266365673765
 31
0.0
  0
POLYLINE
  5
101
  8
DATA
  6
CONTINUOUS
 62
     7
 66
     1
 10
0.0
 20
0.0
 30
0.0
 70
     1
  0
VERTEX
  5
4A3
  8
DATA
  6
CONTINUOUS
 62
     7
 10
366.19360944293891
 20
954.14266365673768
 30
0.0
  0
VERTEX
  5
4A4
  8
DATA
  6
CONTINUOUS
 62
     7
 10
367.72360944293882
 20
954.14266365673768
 30
0.0
  0
VERTEX
  5
4A5
  8
DATA
  6
CONTINUOUS
 62
     7
 10
367.72360944293882
 20
952.61266365673782
 30
0.0
  0
VERTEX
  5
4A6
  8
DATA
  6
CONTINUOUS
 62
     7
 10
366.19360944293891
 20
952.61266365673782
 30
0.0
  0
SEQEND
  5
4A7
  8
DATA
  6
CONTINUOUS
 62
     7
  0
POLYLINE
  5
108
  8
DATA
  6
CONTINUOUS
 62
     7
 66
     1
 10
0.0
 20
0.0
 30
0.0
 70
     1
  0
VERTEX
  5
4A8
  8
DATA
  6
CONTINUOUS
 62
     7
 10
364.19360944293891
 20
954.14266365673768
 30
0.0
  0
VERTEX
  5
4A9
  8
DATA
  6
CONTINUOUS
 62
     7
 10
365.72360944293882
 20
954.14266365673768
 30
0.0
  0
VERTEX
  5
4AA
  8
DATA
  6
CONTINUOUS
 62
     7
 10
365.72360944293882
 20
952.61266365673782
 30
0.0
  0
VERTEX
  5
4AB
  8
DATA
  6
CONTINUOUS
 62
     7
 10
364.19360944293891
 20
952.61266365673782
 30
0.0
  0
SEQEND
  5
4AC
  8
DATA
  6
CONTINUOUS
 62
     7
  0
POLYLINE
  5
10F
  8
DATA
  6
CONTINUOUS
 62
     7
 66
     1
 10
0.0
 20
0.0
 30
0.0
 70
     1
  0
VERTEX
  5
4AD
  8
DATA
  6
CONTINUOUS
 62
     7
 10
362.19360944293891
 20
954.14266365673768
 30
0.0
  0
VERTEX
  5
4AE
  8
DATA
  6
CONTINUOUS
 62
     7
 10
363.72360944293882
 20
954.14266365673768
 30
0.0
  0
VERTEX
  5
4AF
  8
DATA
  6
CONTINUOUS
 62
     7
 10
363.72360944293882
 20
952.61266365673782
 30
0.0
  0
VERTEX
  5
4B0
  8
DATA
  6
CONTINUOUS
 62
     7
 10
362.19360944293891
 20
952.61266365673782
 30
0.0
  0
SEQEND
  5
4B1
  8
DATA
  6
CONTINUOUS
 62
     7
  0
POLYLINE
  5
116
  8
DATA
  6
CONTINUOUS
 62
     7
 66
     1
 10
0.0
 20
0.0
 30
0.0
 70
     1
  0
VERTEX
  5
4B2
  8
DATA
  6
CONTINUOUS
 62
     7
 10
360.19360944293891
 20
954.14266365673768
 30
0.0
  0
VERTEX
  5
4B3
  8
DATA
  6
CONTINUOUS
 62
     7
 10
361.72360944293882
 20
954.14266365673768
 30
0.0
  0
VERTEX
  5
4B4
  8
DATA
  6
CONTINUOUS
 62
     7
 10
361.72360944293882
 20
952.61266365673782
 30
0.0
  0
VERTEX
  5
4B5
  8
DATA
  6
CONTINUOUS
 62
     7
 10
360.19360944293891
 20
952.61266365673782
 30
0.0
  0
SEQEND
  5
4B6
  8
DATA
  6
CONTINUOUS
 62
     7
  0
POLYLINE
  5
11D
  8
DATA
  6
CONTINUOUS
 62
     7
 66
     1
 10
0.0
 20
0.0
 30
0.0
 70
     1
  0
VERTEX
  5
4B7
  8
DATA
  6
CONTINUOUS
 62
     7
 10
358.19360944293879
 20
954.14266365673768
 30
0.0
  0
VERTEX
  5
4B8
  8
DATA
  6
CONTINUOUS
 62
     7
 10
359.72360944293882
 20
954.14266365673768
 30
0.0
  0
VERTEX
  5
4B9
  8
DATA
  6
CONTINUOUS
 62
     7
 10
359.72360944293882
 20
952.61266365673782
 30
0.0
  0
VERTEX
  5
4BA
  8
DATA
  6
CONTINUOUS
 62
     7
 10
358.19360944293879
 20
952.61266365673782
 30
0.0
  0
SEQEND
  5
4BB
  8
DATA
  6
CONTINUOUS
 62
     7
  0
POLYLINE
  5
124
  8
DATA
  6
CONTINUOUS
 62
     7
 66
     1
 10
0.0
 20
0.0
 30
0.0
 70
     1
  0
VERTEX
  5
4BC
  8
DATA
  6
CONTINUOUS
 62
     7
 10
356.19360944293879
 20
954.14266365673768
 30
0.0
  0
VERTEX
  5
4BD
  8
DATA
  6
CONTINUOUS
 62
     7
 10
357.72360944293882
 20
954.14266365673768
 30
0.0
  0
VERTEX
  5
4BE
  8
DATA
  6
CONTINUOUS
 62
     7
 10
357.72360944293882
 20
952.61266365673782
 30
0.0
  0
VERTEX
  5
4BF
  8
DATA
  6
CONTINUOUS
 62
     7
 10
356.19360944293879
 20
952.61266365673782
 30
0.0
  0
SEQEND
  5
4C0
  8
DATA
  6
CONTINUOUS
 62
     7
  0
POLYLINE
  5
12B
  8
DATA
  6
CONTINUOUS
 62
     7
 66
     1
 10
0.0
 20
0.0
 30
0.0
 70
     1
  0
VERTEX
  5
4C1
  8
DATA
  6
CONTINUOUS
 62
     7
 10
354.19360944293879
 20
954.14266365673768
 30
0.0
  0
VERTEX
  5
4C2
  8
DATA
  6
CONTINUOUS
 62
     7
 10
355.72360944293882
 20
954.14266365673768
 30
0.0
  0
VERTEX
  5
4C3
  8
DATA
  6
CONTINUOUS
 62
     7
 10
355.72360944293882
 20
952.61266365673782
 30
0.0
  0
VERTEX
  5
4C4
  8
DATA
  6
CONTINUOUS
 62
     7
 10
354.19360944293879
 20
952.61266365673782
 30
0.0
  0
SEQEND
  5
4C5
  8
DATA
  6
CONTINUOUS
 62
     7
  0
POLYLINE
  5
132
  8
DATA
  6
CONTINUOUS
 62
     7
 66
     1
 10
0.0
 20
0.0
 30
0.0
 70
     1
  0
VERTEX
  5
4C6
  8
DATA
  6
CONTINUOUS
 62
     7
 10
352.19360944293879
 20
954.14266365673768
 30
0.0
  0
VERTEX
  5
4C7
  8
DATA
  6
CONTINUOUS
 62
     7
 10
353.72360944293882
 20
954.14266365673768
 30
0.0
  0
VERTEX
  5
4C8
  8
DATA
  6
CONTINUOUS
 62
     7
 10
353.72360944293882
 20
952.61266365673782
 30
0.0
  0
VERTEX
  5
4C9
  8
DATA
  6
CONTINUOUS
 62
     7
 10
352.19360944293879
 20
952.61266365673782
 30
0.0
  0
SEQEND
  5
4CA
  8
DATA
  6
CONTINUOUS
 62
     7
  0
POLYLINE
  5
139
  8
DATA
  6
CONTINUOUS
 62
     7
 66
     1
 10
0.0
 20
0.0
 30
0.0
 70
     1
  0
VERTEX
  5
4CB
  8
DATA
  6
CONTINUOUS
 62
     7
 10
366.19360944293891
 20
952.1426636567378
 30
0.0
  0
VERTEX
  5
4CC
  8
DATA
  6
CONTINUOUS
 62
     7
 10
367.72360944293882
 20
952.1426636567378
 30
0.0
  0
VERTEX
  5
4CD
  8
DATA
  6
CONTINUOUS
 62
     7
 10
367.72360944293882
 20
950.61266365673782
 30
0.0
  0
VERTEX
  5
4CE
  8
DATA
  6
CONTINUOUS
 62
     7
 10
366.19360944293891
 20
950.61266365673782
 30
0.0
  0
SEQEND
  5
4CF
  8
DATA
  6
CONTINUOUS
 62
     7
  0
POLYLINE
  5
140
  8
DATA
  6
CONTINUOUS
 62
     7
 66
     1
 10
0.0
 20
0.0
 30
0.0
 70
     1
  0
VERTEX
  5
4D0
  8
DATA
  6
CONTINUOUS
 62
     7
 10
364.19360944293891
 20
952.1426636567378
 30
0.0
  0
VERTEX
  5
4D1
  8
DATA
  6
CONTINUOUS
 62
     7
 10
365.72360944293882
 20
952.1426636567378
 30
0.0
  0
VERTEX
  5
4D2
  8
DATA
  6
CONTINUOUS
 62
     7
 10
365.72360944293882
 20
950.61266365673782
 30
0.0
  0
VERTEX
  5
4D3
  8
DATA
  6
CONTINUOUS
 62
     7
 10
364.19360944293891
 20
950.61266365673782
 30
0.0
  0
SEQEND
  5
4D4
  8
DATA
  6
CONTINUOUS
 62
     7
  0
POLYLINE
  5
147
  8
DATA
  6
CONTINUOUS
 62
     7
 66
     1
 10
0.0
 20
0.0
 30
0.0
 70
     1
  0
VERTEX
  5
4D5
  8
DATA
  6
CONTINUOUS
 62
     7
 10
362.19360944293891
 20
952.1426636567378
 30
0.0
  0
VERTEX
  5
4D6
  8
DATA
  6
CONTINUOUS
 62
     7
 10
363.72360944293882
 20
952.1426636567378
 30
0.0
  0
VERTEX
  5
4D7
  8
DATA
  6
CONTINUOUS
 62
     7
 10
363.72360944293882
 20
950.61266365673782
 30
0.0
  0
VERTEX
  5
4D8
  8
DATA
  6
CONTINUOUS
 62
     7
 10
362.19360944293891
 20
950.61266365673782
 30
0.0
  0
SEQEND
  5
4D9
  8
DATA
  6
CONTINUOUS
 62
     7
  0
POLYLINE
  5
14E
  8
DATA
  6
CONTINUOUS
 62
     7
 66
     1
 10
0.0
 20
0.0
 30
0.0
 70
     1
  0
VERTEX
  5
4DA
  8
DATA
  6
CONTINUOUS
 62
     7
 10
360.19360944293891
 20
952.1426636567378
 30
0.0
  0
VERTEX
  5
4DB
  8
DATA
  6
CONTINUOUS
 62
     7
 10
361.72360944293882
 20
952.1426636567378
 30
0.0
  0
VERTEX
  5
4DC
  8
DATA
  6
CONTINUOUS
 62
     7
 10
361.72360944293882
 20
950.61266365673782
 30
0.0
  0
VERTEX
  5
4DD
  8
DATA
  6
CONTINUOUS
 62
     7
 10
360.19360944293891
 20
950.61266365673782
 30
0.0
  0
SEQEND
  5
4DE
  8
DATA
  6
CONTINUOUS
 62
     7
  0
POLYLINE
  5
155
  8
DATA
  6
CONTINUOUS
 62
     7
 66
     1
 10
0.0
 20
0.0
 30
0.0
 70
     1
  0
VERTEX
  5
4DF
  8
DATA
  6
CONTINUOUS
 62
     7
 10
358.19360944293879
 20
952.1426636567378
 30
0.0
  0
VERTEX
  5
4E0
  8
DATA
  6
CONTINUOUS
 62
     7
 10
359.72360944293882
 20
952.1426636567378
 30
0.0
  0
VERTEX
  5
4E1
  8
DATA
  6
CONTINUOUS
 62
     7
 10
359.72360944293882
 20
950.61266365673782
 30
0.0
  0
VERTEX
  5
4E2
  8
DATA
  6
CONTINUOUS
 62
     7
 10
358.19360944293879
 20
950.61266365673782
 30
0.0
  0
SEQEND
  5
4E3
  8
DATA
  6
CONTINUOUS
 62
     7
  0
POLYLINE
  5
15C
  8
DATA
  6
CONTINUOUS
 62
     7
 66
     1
 10
0.0
 20
0.0
 30
0.0
 70
     1
  0
VERTEX
  5
4E4
  8
DATA
  6
CONTINUOUS
 62
     7
 10
356.19360944293879
 20
952.1426636567378
 30
0.0
  0
VERTEX
  5
4E5
  8
DATA
  6
CONTINUOUS
 62
     7
 10
357.72360944293882
 20
952.1426636567378
 30
0.0
  0
VERTEX
  5
4E6
  8
DATA
  6
CONTINUOUS
 62
     7
 10
357.72360944293882
 20
950.61266365673782
 30
0.0
  0
VERTEX
  5
4E7
  8
DATA
  6
CONTINUOUS
 62
     7
 10
356.19360944293879
 20
950.61266365673782
 30
0.0
  0
SEQEND
  5
4E8
  8
DATA
  6
CONTINUOUS
 62
     7
  0
POLYLINE
  5
163
  8
DATA
  6
CONTINUOUS
 62
     7
 66
     1
 10
0.0
 20
0.0
 30
0.0
 70
     1
  0
VERTEX
  5
4E9
  8
DATA
  6
CONTINUOUS
 62
     7
 10
354.19360944293879
 20
952.1426636567378
 30
0.0
  0
VERTEX
  5
4EA
  8
DATA
  6
CONTINUOUS
 62
     7
 10
355.72360944293882
 20
952.1426636567378
 30
0.0
  0
VERTEX
  5
4EB
  8
DATA
  6
CONTINUOUS
 62
     7
 10
355.72360944293882
 20
950.61266365673782
 30
0.0
  0
VERTEX
  5
4EC
  8
DATA
  6
CONTINUOUS
 62
     7
 10
354.19360944293879
 20
950.61266365673782
 30
0.0
  0
SEQEND
  5
4ED
  8
DATA
  6
CONTINUOUS
 62
     7
  0
POLYLINE
  5
16A
  8
DATA
  6
CONTINUOUS
 62
     7
 66
     1
 10
0.0
 20
0.0
 30
0.0
 70
     1
  0
VERTEX
  5
4EE
  8
DATA
  6
CONTINUOUS
 62
     7
 10
352.19360944293879
 20
952.1426636567378
 30
0.0
  0
VERTEX
  5
4EF
  8
DATA
  6
CONTINUOUS
 62
     7
 10
353.72360944293882
 20
952.1426636567378
 30
0.0
  0
VERTEX
  5
4F0
  8
DATA
  6
CONTINUOUS
 62
     7
 10
353.72360944293882
 20
950.61266365673782
 30
0.0
  0
VERTEX
  5
4F1
  8
DATA
  6
CONTINUOUS
 62
     7
 10
352.19360944293879
 20
950.61266365673782
 30
0.0
  0
SEQEND
  5
4F2
  8
DATA
  6
CONTINUOUS
 62
     7
  0
POLYLINE
  5
171
  8
DATA
  6
CONTINUOUS
 62
     7
 66
     1
 10
0.0
 20
0.0
 30
0.0
 70
     1
  0
VERTEX
  5
4F3
  8
DATA
  6
CONTINUOUS
 62
     7
 10
366.19360944293891
 20
956.14266365673768
 30
0.0
  0
VERTEX
  5
4F4
  8
DATA
  6
CONTINUOUS
 62
     7
 10
367.72360944293882
 20
956.14266365673768
 30
0.0
  0
VERTEX
  5
4F5
  8
DATA
  6
CONTINUOUS
 62
     7
 10
367.72360944293882
 20
954.61266365673771
 30
0.0
  0
VERTEX
  5
4F6
  8
DATA
  6
CONTINUOUS
 62
     7
 10
366.19360944293891
 20
954.61266365673771
 30
0.0
  0
SEQEND
  5
4F7
  8
DATA
  6
CONTINUOUS
 62
     7
  0
POLYLINE
  5
178
  8
DATA
  6
CONTINUOUS
 62
     7
 66
     1
 10
0.0
 20
0.0
 30
0.0
 70
     1
  0
VERTEX
  5
4F8
  8
DATA
  6
CONTINUOUS
 62
     7
 10
364.19360944293891
 20
956.14266365673768
 30
0.0
  0
VERTEX
  5
4F9
  8
DATA
  6
CONTINUOUS
 62
     7
 10
365.72360944293882
 20
956.14266365673768
 30
0.0
  0
VERTEX
  5
4FA
  8
DATA
  6
CONTINUOUS
 62
     7
 10
365.72360944293882
 20
954.61266365673771
 30
0.0
  0
VERTEX
  5
4FB
  8
DATA
  6
CONTINUOUS
 62
     7
 10
364.19360944293891
 20
954.61266365673771
 30
0.0
  0
SEQEND
  5
4FC
  8
DATA
  6
CONTINUOUS
 62
     7
  0
POLYLINE
  5
17F
  8
DATA
  6
CONTINUOUS
 62
     7
 66
     1
 10
0.0
 20
0.0
 30
0.0
 70
     1
  0
VERTEX
  5
4FD
  8
DATA
  6
CONTINUOUS
 62
     7
 10
362.19360944293891
 20
956.14266365673768
 30
0.0
  0
VERTEX
  5
4FE
  8
DATA
  6
CONTINUOUS
 62
     7
 10
363.72360944293882
 20
956.14266365673768
 30
0.0
  0
VERTEX
  5
4FF
  8
DATA
  6
CONTINUOUS
 62
     7
 10
363.72360944293882
 20
954.61266365673771
 30
0.0
  0
VERTEX
  5
500
  8
DATA
  6
CONTINUOUS
 62
     7
 10
362.19360944293891
 20
954.61266365673771
 30
0.0
  0
SEQEND
  5
501
  8
DATA
  6
CONTINUOUS
 62
     7
  0
POLYLINE
  5
186
  8
DATA
  6
CONTINUOUS
 62
     7
 66
     1
 10
0.0
 20
0.0
 30
0.0
 70
     1
  0
VERTEX
  5
502
  8
DATA
  6
CONTINUOUS
 62
     7
 10
360.19360944293891
 20
956.14266365673768
 30
0.0
  0
VERTEX
  5
503
  8
DATA
  6
CONTINUOUS
 62
     7
 10
361.72360944293882
 20
956.14266365673768
 30
0.0
  0
VERTEX
  5
504
  8
DATA
  6
CONTINUOUS
 62
     7
 10
361.72360944293882
 20
954.61266365673771
 30
0.0
  0
VERTEX
  5
505
  8
DATA
  6
CONTINUOUS
 62
     7
 10
360.19360944293891
 20
954.61266365673771
 30
0.0
  0
SEQEND
  5
506
  8
DATA
  6
CONTINUOUS
 62
     7
  0
POLYLINE
  5
18D
  8
DATA
  6
CONTINUOUS
 62
     7
 66
     1
 10
0.0
 20
0.0
 30
0.0
 70
     1
  0
VERTEX
  5
507
  8
DATA
  6
CONTINUOUS
 62
     7
 10
358.19360944293879
 20
956.14266365673768
 30
0.0
  0
VERTEX
  5
508
  8
DATA
  6
CONTINUOUS
 62
     7
 10
359.72360944293882
 20
956.14266365673768
 30
0.0
  0
VERTEX
  5
509
  8
DATA
  6
CONTINUOUS
 62
     7
 10
359.72360944293882
 20
954.61266365673771
 30
0.0
  0
VERTEX
  5
50A
  8
DATA
  6
CONTINUOUS
 62
     7
 10
358.19360944293879
 20
954.61266365673771
 30
0.0
  0
SEQEND
  5
50B
  8
DATA
  6
CONTINUOUS
 62
     7
  0
POLYLINE
  5
194
  8
DATA
  6
CONTINUOUS
 62
     7
 66
     1
 10
0.0
 20
0.0
 30
0.0
 70
     1
  0
VERTEX
  5
50C
  8
DATA
  6
CONTINUOUS
 62
     7
 10
356.19360944293879
 20
956.14266365673768
 30
0.0
  0
VERTEX
  5
50D
  8
DATA
  6
CONTINUOUS
 62
     7
 10
357.72360944293882
 20
956.14266365673768
 30
0.0
  0
VERTEX
  5
50E
  8
DATA
  6
CONTINUOUS
 62
     7
 10
357.72360944293882
 20
954.61266365673771
 30
0.0
  0
VERTEX
  5
50F
  8
DATA
  6
CONTINUOUS
 62
     7
 10
356.19360944293879
 20
954.61266365673771
 30
0.0
  0
SEQEND
  5
510
  8
DATA
  6
CONTINUOUS
 62
     7
  0
POLYLINE
  5
19B
  8
DATA
  6
CONTINUOUS
 62
     7
 66
     1
 10
0.0
 20
0.0
 30
0.0
 70
     1
  0
VERTEX
  5
511
  8
DATA
  6
CONTINUOUS
 62
     7
 10
354.19360944293879
 20
956.14266365673768
 30
0.0
  0
VERTEX
  5
512
  8
DATA
  6
CONTINUOUS
 62
     7
 10
355.72360944293882
 20
956.14266365673768
 30
0.0
  0
VERTEX
  5
513
  8
DATA
  6
CONTINUOUS
 62
     7
 10
355.72360944293882
 20
954.61266365673771
 30
0.0
  0
VERTEX
  5
514
  8
DATA
  6
CONTINUOUS
 62
     7
 10
354.19360944293879
 20
954.61266365673771
 30
0.0
  0
SEQEND
  5
515
  8
DATA
  6
CONTINUOUS
 62
     7
  0
POLYLINE
  5
1A2
  8
DATA
  6
CONTINUOUS
 62
     7
 66
     1
 10
0.0
 20
0.0
 30
0.0
 70
     1
  0
VERTEX
  5
516
  8
DATA
  6
CONTINUOUS
 62
     7
 10
352.19360944293879
 20
956.14266365673768
 30
0.0
  0
VERTEX
  5
517
  8
DATA
  6
CONTINUOUS
 62
     7
 10
353.72360944293882
 20
956.14266365673768
 30
0.0
  0
VERTEX
  5
518
  8
DATA
  6
CONTINUOUS
 62
     7
 10
353.72360944293882
 20
954.61266365673771
 30
0.0
  0
VERTEX
  5
519
  8
DATA
  6
CONTINUOUS
 62
     7
 10
352.19360944293879
 20
954.61266365673771
 30
0.0
  0
SEQEND
  5
51A
  8
DATA
  6
CONTINUOUS
 62
     7
  0
POLYLINE
  5
1A9
  8
DATA
  6
CONTINUOUS
 62
     7
 66
     1
 10
0.0
 20
0.0
 30
0.0
  0
VERTEX
  5
51B
  8
DATA
  6
CONTINUOUS
 62
     7
 10
348.1735432717594
 20
952.97766365673783
 30
0.0
  0
VERTEX
  5
51C
  8
DATA
  6
CONTINUOUS
 62
     7
 10
346.07354327175949
 20
952.97766365673783
 30
0.0
  0
VERTEX
  5
51D
  8
DATA
  6
CONTINUOUS
 62
     7
 10
346.07354327175949
 20
953.77766365673767
 30
0.0
  0
VERTEX
  5
51E
  8
DATA
  6
CONTINUOUS
 62
     7
 10
348.1735432717594
 20
953.77766365673767
 30
0.0
  0
SEQEND
  5
51F
  8
DATA
  6
CONTINUOUS
 62
     7
  0
POLYLINE
  5
1B0
  8
DATA
  6
CONTINUOUS
 62
     7
 66
     1
 10
0.0
 20
0.0
 30
0.0
  0
VERTEX
  5
520
  8
DATA
  6
CONTINUOUS
 62
     7
 10
348.97354327175952
 20
953.77766365673767
 30
0.0
  0
VERTEX
  5
521
  8
DATA
  6
CONTINUOUS
 62
     7
 10
351.07354327175949
 20
953.77766365673767
 30
0.0
  0
VERTEX
  5
522
  8
DATA
  6
CONTINUOUS
 62
     7
 10
351.07354327175949
 20
952.97766365673783
 30
0.0
  0
VERTEX
  5
523
  8
DATA
  6
CONTINUOUS
 62
     7
 10
348.97354327175952
 20
952.97766365673783
 30
0.0
  0
SEQEND
  5
524
  8
DATA
  6
CONTINUOUS
 62
     7
  0
POLYLINE
  5
1B7
  8
DATA
  6
CONTINUOUS
 62
     7
 66
     1
 10
0.0
 20
0.0
 30
0.0
  0
VERTEX
  5
525
  8
DATA
  6
CONTINUOUS
 62
     7
 10
348.1735432717594
 20
953.77766365673767
 30
0.0
  0
VERTEX
  5
526
  8
DATA
  6
CONTINUOUS
 62
     7
 10
348.1735432717594
 20
955.87766365673781
 30
0.0
  0
VERTEX
  5
527
  8
DATA
  6
CONTINUOUS
 62
     7
 10
348.97354327175952
 20
955.87766365673781
 30
0.0
  0
VERTEX
  5
528
  8
DATA
  6
CONTINUOUS
 62
     7
 10
348.97354327175952
 20
953.77766365673767
 30
0.0
  0
SEQEND
  5
529
  8
DATA
  6
CONTINUOUS
 62
     7
  0
POLYLINE
  5
1BE
  8
DATA
  6
CONTINUOUS
 62
     7
 66
     1
 10
0.0
 20
0.0
 30
0.0
  0
VERTEX
  5
52A
  8
DATA
  6
CONTINUOUS
 62
     7
 10
348.97354327175952
 20
952.97766365673783
 30
0.0
  0
VERTEX
  5
52B
  8
DATA
  6
CONTINUOUS
 62
     7
 10
348.97354327175952
 20
950.8776636567377
 30
0.0
  0
VERTEX
  5
52C
  8
DATA
  6
CONTINUOUS
 62
     7
 10
348.1735432717594
 20
950.8776636567377
 30
0.0
  0
VERTEX
  5
52D
  8
DATA
  6
CONTINUOUS
 62
     7
 10
348.1735432717594
 20
952.97766365673783
 30
0.0
  0
SEQEND
  5
52E
  8
DATA
  6
CONTINUOUS
 62
     7
  0
POLYLINE
  5
1C5
  8
DATA
  6
CONTINUOUS
 62
     7
 66
     1
 10
0.0
 20
0.0
 30
0.0
 70
     1
  0
VERTEX
  5
52F
  8
DATA
  6
CONTINUOUS
 62
     7
 10
349.43382770223121
 20
952.61823584608794
 30
0.0
  0
VERTEX
  5
530
  8
DATA
  6
CONTINUOUS
 62
     7
 10
350.43382770223121
 20
952.61823584608794
 30
0.0
  0
VERTEX
  5
531
  8
DATA
  6
CONTINUOUS
 62
     7
 10
350.43382770223121
 20
951.61823584608794
 30
0.0
  0
VERTEX
  5
532
  8
DATA
  6
CONTINUOUS
 62
     7
 10
349.43382770223121
 20
951.61823584608794
 30
0.0
  0
SEQEND
  5
533
  8
DATA
  6
CONTINUOUS
 62
     7
  0
POLYLINE
  5
1CC
  8
DATA
  6
CONTINUOUS
 62
     7
 66
     1
 10
0.0
 20
0.0
 30
0.0
 70
     1
  0
VERTEX
  5
534
  8
DATA
  6
CONTINUOUS
 62
     7
 10
346.71325884128771
 20
952.61823584608794
 30
0.0
  0
VERTEX
  5
535
  8
DATA
  6
CONTINUOUS
 62
     7
 10
347.71325884128771
 20
952.61823584608794
 30
0.0
  0
VERTEX
  5
536
  8
DATA
  6
CONTINUOUS
 62
     7
 10
347.71325884128771
 20
951.61823584608794
 30
0.0
  0
VERTEX
  5
537
  8
DATA
  6
CONTINUOUS
 62
     7
 10
346.71325884128771
 20
951.61823584608794
 30
0.0
  0
SEQEND
  5
538
  8
DATA
  6
CONTINUOUS
 62
     7
  0
POLYLINE
  5
1D3
  8
DATA
  6
CONTINUOUS
 62
     7
 66
     1
 10
0.0
 20
0.0
 30
0.0
 70
     1
  0
VERTEX
  5
539
  8
DATA
  6
CONTINUOUS
 62
     7
 10
349.43382770223121
 20
955.13709146738756
 30
0.0
  0
VERTEX
  5
53A
  8
DATA
  6
CONTINUOUS
 62
     7
 10
350.43382770223121
 20
955.13709146738756
 30
0.0
  0
VERTEX
  5
53B
  8
DATA
  6
CONTINUOUS
 62
     7
 10
350.43382770223121
 20
954.13709146738745
 30
0.0
  0
VERTEX
  5
53C
  8
DATA
  6
CONTINUOUS
 62
     7
 10
349.43382770223121
 20
954.13709146738745
 30
0.0
  0
SEQEND
  5
53D
  8
DATA
  6
CONTINUOUS
 62
     7
  0
POLYLINE
  5
1DA
  8
DATA
  6
CONTINUOUS
 62
     7
 66
     1
 10
0.0
 20
0.0
 30
0.0
 70
     1
  0
VERTEX
  5
53E
  8
DATA
  6
CONTINUOUS
 62
     7
 10
346.71325884128771
 20
955.13709146738756
 30
0.0
  0
VERTEX
  5
53F
  8
DATA
  6
CONTINUOUS
 62
     7
 10
347.71325884128771
 20
955.13709146738756
 30
0.0
  0
VERTEX
  5
540
  8
DATA
  6
CONTINUOUS
 62
     7
 10
347.71325884128771
 20
954.13709146738745
 30
0.0
  0
VERTEX
  5
541
  8
DATA
  6
CONTINUOUS
 62
     7
 10
346.71325884128771
 20
954.13709146738745
 30
0.0
  0
SEQEND
  5
542
  8
DATA
  6
CONTINUOUS
 62
     7
  0
LINE
  5
1E1
  8
DATA
  6
CONTINUOUS
 62
     7
 10
368.6689150897069
 20
950.54777196222392
 30
0.0
 11
368.10999789225451
 21
956.39777196222406
 31
0.0
  0
LINE
  5
1E2
  8
DATA
  6
CONTINUOUS
 62
     7
 10
344.77817145381238
 20
950.54777196222392
 30
0.0
 11
345.33708865126471
 21
956.39777196222406
 31
0.0
  0
ARC
  5
1E3
  8
DATA
  6
CONTINUOUS
 62
     7
 10
367.67344815895132
 20
950.45266365673763
 30
0.0
 40
0.9999999999999715
 50
270.0
 51
5.4575534851070966
  0
ARC
  5
1E4
  8
DATA
  6
CONTINUOUS
 62
     7
 10
345.77363838456779
 20
950.45266365673763
 30
0.0
 40
0.9999999999999729
 50
174.5424465148939
 51
270.00000000000159
  0
ARC
  5
1E5
  8
DATA
  6
CONTINUOUS
 62
     7
 10
367.11453096149887
 20
956.30266365673765
 30
0.0
 40
1.0000000000000879
 50
5.4575534851070913
 51
89.99999999999838
  0
ARC
  5
1E6
  8
DATA
  6
CONTINUOUS
 62
     7
 10
346.33255558202001
 20
956.30266365673765
 30
0.0
 40
1.0
 50
90.0
 51
174.54244651489569
  0
TEXT
  5
1E7
  8
DATA
 62
     7
 10
362.51541613477508
 20
965.86031176638062
 30
0.0
 40
3.121945529513888
  1
DVI In 
 50
180.0
 41
0.7
 11
362.51541613477508
 21
962.7383662368668
 31
0.0
 73
     3
  0
CIRCLE
  5
1E8
  8
DATA
  6
CONTINUOUS
 62
     7
 10
248.0000259785717
 20
954.00711851981646
 30
0.0
 40
3.9000000000000048
  0
CIRCLE
  5
1E9
  8
DATA
  6
CONTINUOUS
 62
     7
 10
248.0000259785717
 20
954.00711851981646
 30
0.0
 40
0.6500000000000057
  0
POLYLINE
  5
1EA
  8
DATA
  6
CONTINUOUS
 62
     7
 66
     1
 10
0.0
 20
0.0
 30
0.0
 70
     1
  0
VERTEX
  5
543
  8
DATA
  6
CONTINUOUS
 62
     7
 10
242.2173916645427
 20
956.63285150767865
 30
0.0
  0
VERTEX
  5
544
  8
DATA
  6
CONTINUOUS
 62
     7
 10
242.8347573505134
 20
950.31207679700287
 30
0.0
  0
VERTEX
  5
545
  8
DATA
  6
CONTINUOUS
 62
     7
 10
248.6173916645424
 20
947.68634380914045
 30
0.0
  0
VERTEX
  5
546
  8
DATA
  6
CONTINUOUS
 62
     7
 10
253.78266029260081
 20
951.38138553195381
 30
0.0
  0
VERTEX
  5
547
  8
DATA
  6
CONTINUOUS
 62
     7
 10
253.16529460663
 20
957.70216024263004
 30
0.0
  0
VERTEX
  5
548
  8
DATA
  6
CONTINUOUS
 62
     7
 10
247.38266029260089
 20
960.32789323049258
 30
0.0
  0
SEQEND
  5
549
  8
DATA
  6
CONTINUOUS
 62
     7
  0
LINE
  5
1F3
  8
DATA
  6
CONTINUOUS
 62
     7
 10
242.79784266206451
 20
888.79999999999984
 30
0.0
 11
242.79784266206451
 21
887.0
 31
0.0
  0
LINE
  5
1F4
  8
DATA
  6
CONTINUOUS
 62
     7
 10
253.74574560415221
 20
888.79999999999984
 30
0.0
 11
253.74574560415221
 21
887.0
 31
0.0
  0
LINE
  5
1F5
  8
DATA
  6
CONTINUOUS
 62
     7
 10
242.79784266206451
 20
888.79999999999984
 30
0.0
 11
253.74574560415221
 21
888.79999999999984
 31
0.0
  0
LINE
  5
1F6
  8
DATA
  6
CONTINUOUS
 62
     7
 10
248.58047697609391
 20
888.79999999999984
 30
0.0
 11
248.58047697609391
 21
887.0
 31
0.0
  0
LINE
  5
1F7
  8
DATA
  6
CONTINUOUS
 62
     7
 10
244.06311129012289
 20
893.0
 30
0.0
 11
244.06311129012289
 21
888.79999999999984
 31
0.0
  0
LINE
  5
1F8
  8
DATA
  6
CONTINUOUS
 62
     7
 10
251.8631112901231
 20
893.0
 30
0.0
 11
251.8631112901231
 21
888.79999999999984
 31
0.0
  0
LINE
  5
1F9
  8
DATA
  6
CONTINUOUS
 62
     7
 10
244.06311129012289
 20
893.0
 30
0.0
 11
251.8631112901231
 21
893.0
 31
0.0
  0
LINE
  5
1FA
  8
DATA
  6
CONTINUOUS
 62
     7
 10
338.17582369572273
 20
892.0
 30
0.0
 11
338.17582369572273
 21
887.0
 31
0.0
  0
LINE
  5
1FB
  8
DATA
  6
CONTINUOUS
 62
     7
 10
342.85236087615863
 20
892.0
 30
0.0
 11
342.85236087615863
 21
887.0
 31
0.0
  0
LINE
  5
1FC
  8
DATA
  6
CONTINUOUS
 62
     7
 10
344.81436523222732
 20
892.0
 30
0.0
 11
344.81436523222732
 21
887.0
 31
0.0
  0
LINE
  5
1FD
  8
DATA
  6
CONTINUOUS
 62
     7
 10
368.70129856670991
 20
892.0
 30
0.0
 11
368.70129856670991
 21
887.0
 31
0.0
  0
LINE
  5
1FE
  8
DATA
  6
CONTINUOUS
 62
     7
 10
370.6758236957229
 20
892.0
 30
0.0
 11
370.6758236957229
 21
887.0
 31
0.0
  0
LINE
  5
1FF
  8
DATA
  6
CONTINUOUS
 62
     7
 10
375.35236087615868
 20
892.0
 30
0.0
 11
375.35236087615868
 21
887.0
 31
0.0
  0
LINE
  5
200
  8
DATA
  6
CONTINUOUS
 62
     7
 10
375.35236087615868
 20
892.0
 30
0.0
 11
370.6758236957229
 21
892.0
 31
0.0
  0
LINE
  5
201
  8
DATA
  6
CONTINUOUS
 62
     7
 10
368.70129856670991
 20
892.0
 30
0.0
 11
344.81436523222732
 21
892.0
 31
0.0
  0
LINE
  5
202
  8
DATA
  6
CONTINUOUS
 62
     7
 10
342.85236087615863
 20
892.0
 30
0.0
 11
338.17582369572273
 21
892.0
 31
0.0
  0
TEXT
  5
203
  8
DATA
 62
     7
 10
247.3164438766664
 20
625.9633331146357
 30
0.0
 40
13.57367621527778
  1
DVI-1500S(センダー)
 41
0.7
 11
247.3164438766664
 21
639.53700932991353
 31
0.0
 73
     3
  0
LINE
  5
204
  8
DATA
  6
CONTINUOUS
 62
     7
 10
441.0
 20
969.0
 30
0.0
 11
441.0
 21
925.0
 31
0.0
  0
LINE
  5
205
  8
DATA
  6
CONTINUOUS
 62
     7
 10
441.0
 20
887.0
 30
0.0
 11
441.0
 21
775.0
 31
0.0
  0
LINE
  5
206
  8
DATA
  6
CONTINUOUS
 62
     7
 10
441.0
 20
744.0
 30
0.0
 11
441.0
 21
700.0
 31
0.0
  0
LINE
  5
207
  8
DATA
  6
CONTINUOUS
 62
     7
 10
287.82260069636959
 20
948.79462368547775
 30
0.0
 11
272.12260069636977
 21
948.79462368547775
 31
0.0
  0
LINE
  5
208
  8
DATA
  6
CONTINUOUS
 62
     7
 10
287.82260069636959
 20
962.09462368547815
 30
0.0
 11
272.12260069636977
 21
962.09462368547815
 31
0.0
  0
TEXT
  5
209
  8
DATA
 62
     7
 10
283.06960902546388
 20
966.01046334526313
 30
0.0
 40
3.121945529513888
  1
DDC
 50
180.0
 41
0.7
 11
283.06960902546388
 21
962.88851781574897
 31
0.0
 73
     3
  0
CIRCLE
  5
20A
  8
DATA
  6
CONTINUOUS
 62
     7
 10
232.0
 20
957.0
 30
0.0
 40
2.5
  0
LINE
  5
20B
  8
DATA
  6
CONTINUOUS
 62
     7
 10
231.0499999999999
 20
956.04999999999995
 30
0.0
 11
232.94999999999999
 21
957.95000000000005
 31
0.0
  0
LINE
  5
20C
  8
DATA
  6
CONTINUOUS
 62
     7
 10
232.94999999999999
 20
956.04999999999995
 30
0.0
 11
231.0499999999999
 21
957.95000000000005
 31
0.0
  0
CIRCLE
  5
20D
  8
DATA
  6
CONTINUOUS
 62
     7
 10
232.0
 20
937.0
 30
0.0
 40
2.5
  0
LINE
  5
20E
  8
DATA
  6
CONTINUOUS
 62
     7
 10
231.0499999999999
 20
936.04999999999995
 30
0.0
 11
232.94999999999999
 21
937.95000000000005
 31
0.0
  0
LINE
  5
20F
  8
DATA
  6
CONTINUOUS
 62
     7
 10
232.94999999999999
 20
936.04999999999995
 30
0.0
 11
231.0499999999999
 21
937.95000000000005
 31
0.0
  0
CIRCLE
  5
210
  8
DATA
  6
CONTINUOUS
 62
     7
 10
434.0
 20
957.0
 30
0.0
 40
2.5
  0
LINE
  5
211
  8
DATA
  6
CONTINUOUS
 62
     7
 10
433.0499999999999
 20
956.04999999999995
 30
0.0
 11
434.94999999999999
 21
957.95000000000005
 31
0.0
  0
LINE
  5
212
  8
DATA
  6
CONTINUOUS
 62
     7
 10
434.94999999999999
 20
956.04999999999995
 30
0.0
 11
433.0499999999999
 21
957.95000000000005
 31
0.0
  0
CIRCLE
  5
213
  8
DATA
  6
CONTINUOUS
 62
     7
 10
434.0
 20
937.0
 30
0.0
 40
2.5
  0
LINE
  5
214
  8
DATA
  6
CONTINUOUS
 62
     7
 10
433.0499999999999
 20
936.04999999999995
 30
0.0
 11
434.94999999999999
 21
937.95000000000005
 31
0.0
  0
LINE
  5
215
  8
DATA
  6
CONTINUOUS
 62
     7
 10
434.94999999999999
 20
936.04999999999995
 30
0.0
 11
433.0499999999999
 21
937.95000000000005
 31
0.0
  0
LINE
  5
216
  8
DATA
  6
CONTINUOUS
 62
     7
 10
416.0
 20
961.0
 30
0.0
 11
416.0
 21
952.0
 31
0.0
  0
LINE
  5
217
  8
DATA
  6
CONTINUOUS
 62
     7
 10
403.0
 20
961.0
 30
0.0
 11
403.0
 21
952.0
 31
0.0
  0
LINE
  5
218
  8
DATA
  6
CONTINUOUS
 62
     7
 10
416.0
 20
961.0
 30
0.0
 11
403.0
 21
961.0
 31
0.0
  0
LINE
  5
219
  8
DATA
  6
CONTINUOUS
 62
     7
 10
416.0
 20
952.0
 30
0.0
 11
403.0
 21
952.0
 31
0.0
  0
LINE
  5
21A
  8
DATA
  6
CONTINUOUS
 62
     7
 10
415.0
 20
960.0
 30
0.0
 11
410.2999999999999
 21
960.0
 31
0.0
  0
LINE
  5
21B
  8
DATA
  6
CONTINUOUS
 62
     7
 10
408.69999999999987
 20
960.0
 30
0.0
 11
404.0
 21
960.0
 31
0.0
  0
LINE
  5
21C
  8
DATA
  6
CONTINUOUS
 62
     7
 10
404.0
 20
960.0
 30
0.0
 11
404.0
 21
952.0
 31
0.0
  0
LINE
  5
21D
  8
DATA
  6
CONTINUOUS
 62
     7
 10
415.0
 20
960.0
 30
0.0
 11
415.0
 21
952.0
 31
0.0
  0
LINE
  5
21E
  8
DATA
  6
CONTINUOUS
 62
     7
 10
408.69999999999987
 20
952.0
 30
0.0
 11
408.69999999999987
 21
960.0
 31
0.0
  0
LINE
  5
21F
  8
DATA
  6
CONTINUOUS
 62
     7
 10
410.2999999999999
 20
960.0
 30
0.0
 11
410.2999999999999
 21
952.0
 31
0.0
  0
LINE
  5
220
  8
DATA
  6
CONTINUOUS
 62
     7
 10
400.0
 20
961.0
 30
0.0
 11
400.0
 21
952.0
 31
0.0
  0
LINE
  5
221
  8
DATA
  6
CONTINUOUS
 62
     7
 10
387.0
 20
961.0
 30
0.0
 11
387.0
 21
952.0
 31
0.0
  0
LINE
  5
222
  8
DATA
  6
CONTINUOUS
 62
     7
 10
400.0
 20
961.0
 30
0.0
 11
387.0
 21
961.0
 31
0.0
  0
LINE
  5
223
  8
DATA
  6
CONTINUOUS
 62
     7
 10
400.0
 20
952.0
 30
0.0
 11
387.0
 21
952.0
 31
0.0
  0
LINE
  5
224
  8
DATA
  6
CONTINUOUS
 62
     7
 10
399.0
 20
960.0
 30
0.0
 11
394.30000000000001
 21
960.0
 31
0.0
  0
LINE
  5
225
  8
DATA
  6
CONTINUOUS
 62
     7
 10
392.69999999999999
 20
960.0
 30
0.0
 11
388.0
 21
960.0
 31
0.0
  0
LINE
  5
226
  8
DATA
  6
CONTINUOUS
 62
     7
 10
388.0
 20
960.0
 30
0.0
 11
388.0
 21
952.0
 31
0.0
  0
LINE
  5
227
  8
DATA
  6
CONTINUOUS
 62
     7
 10
399.0
 20
960.0
 30
0.0
 11
399.0
 21
952.0
 31
0.0
  0
LINE
  5
228
  8
DATA
  6
CONTINUOUS
 62
     7
 10
392.69999999999999
 20
952.0
 30
0.0
 11
392.69999999999999
 21
960.0
 31
0.0
  0
LINE
  5
229
  8
DATA
  6
CONTINUOUS
 62
     7
 10
394.30000000000001
 20
960.0
 30
0.0
 11
394.30000000000001
 21
952.0
 31
0.0
  0
TEXT
  5
22A
  8
DATA
 62
     7
 10
413.79349883518307
 20
965.86031176638062
 30
0.0
 40
3.121945529513888
  1
C 
 50
180.0
 41
0.7
 11
413.79349883518307
 21
962.7383662368668
 31
0.0
 73
     3
  0
TEXT
  5
22B
  8
DATA
 62
     7
 10
407.27220633450639
 20
965.86031176638062
 30
0.0
 40
3.121945529513888
  1
R 
 50
180.0
 41
0.7
 11
407.27220633450639
 21
962.7383662368668
 31
0.0
 73
     3
  0
TEXT
  5
22C
  8
DATA
 62
     7
 10
397.93370549924322
 20
965.86031176638062
 30
0.0
 40
3.121945529513888
  1
G 
 50
180.0
 41
0.7
 11
397.93370549924322
 21
962.7383662368668
 31
0.0
 73
     3
  0
TEXT
  5
22D
  8
DATA
 62
     7
 10
391.41241299856659
 20
965.86031176638062
 30
0.0
 40
3.121945529513888
  1
B 
 50
180.0
 41
0.7
 11
391.41241299856659
 21
962.7383662368668
 31
0.0
 73
     3
  0
LINE
  5
22E
  8
DATA
  6
CONTINUOUS
 62
     7
 10
387.0
 20
887.19999999999993
 30
0.0
 11
387.0
 21
887.0
 31
0.0
  0
LINE
  5
22F
  8
DATA
  6
CONTINUOUS
 62
     7
 10
400.0
 20
887.19999999999993
 30
0.0
 11
400.0
 21
887.0
 31
0.0
  0
LINE
  5
230
  8
DATA
  6
CONTINUOUS
 62
     7
 10
403.0
 20
887.19999999999993
 30
0.0
 11
403.0
 21
887.0
 31
0.0
  0
LINE
  5
231
  8
DATA
  6
CONTINUOUS
 62
     7
 10
416.0
 20
887.19999999999993
 30
0.0
 11
416.0
 21
887.0
 31
0.0
  0
LINE
  5
232
  8
DATA
  6
CONTINUOUS
 62
     7
 10
387.0
 20
887.19999999999993
 30
0.0
 11
400.0
 21
887.19999999999993
 31
0.0
  0
LINE
  5
233
  8
DATA
  6
CONTINUOUS
 62
     7
 10
403.0
 20
887.19999999999993
 30
0.0
 11
416.0
 21
887.19999999999993
 31
0.0
  0
LINE
  5
234
  8
DATA
  6
CONTINUOUS
 62
     7
 10
437.68042996535269
 20
697.0
 30
0.0
 11
438.43042996535269
 21
700.0
 31
0.0
  0
LINE
  5
235
  8
DATA
  6
CONTINUOUS
 62
     7
 10
430.9304299653511
 20
700.0
 30
0.0
 11
431.68042996535121
 21
697.0
 31
0.0
  0
LINE
  5
236
  8
DATA
  6
CONTINUOUS
 62
     7
 10
437.68042996535269
 20
697.0
 30
0.0
 11
431.68042996535121
 21
697.0
 31
0.0
  0
LINE
  5
237
  8
DATA
  6
CONTINUOUS
 62
     7
 10
525.0
 20
744.0
 30
0.0
 11
637.0
 21
744.0
 31
0.0
  0
LINE
  5
238
  8
DATA
  6
CONTINUOUS
 62
     7
 10
525.0
 20
700.0
 30
0.0
 11
637.0
 21
700.0
 31
0.0
  0
LINE
  5
239
  8
DATA
  6
CONTINUOUS
 62
     7
 10
525.0
 20
700.0
 30
0.0
 11
525.0
 21
744.0
 31
0.0
  0
LINE
  5
23A
  8
DATA
  6
CONTINUOUS
 62
     7
 10
637.0
 20
700.0
 30
0.0
 11
637.0
 21
744.0
 31
0.0
  0
LINE
  5
23B
  8
DATA
  6
CONTINUOUS
 62
     7
 10
534.0
 20
700.0
 30
0.0
 11
534.0
 21
744.0
 31
0.0
  0
LINE
  5
23C
  8
DATA
  6
CONTINUOUS
 62
     7
 10
542.53552217282993
 20
697.0
 30
0.0
 11
543.28552217282993
 21
700.0
 31
0.0
  0
LINE
  5
23D
  8
DATA
  6
CONTINUOUS
 62
     7
 10
535.78552217282845
 20
700.0
 30
0.0
 11
536.53552217282845
 21
697.0
 31
0.0
  0
LINE
  5
23E
  8
DATA
  6
CONTINUOUS
 62
     7
 10
542.53552217282993
 20
697.0
 30
0.0
 11
536.53552217282845
 21
697.0
 31
0.0
  0
LINE
  5
23F
  8
DATA
  6
CONTINUOUS
 62
     7
 10
632.63498744199546
 20
697.0
 30
0.0
 11
633.38498744199546
 21
700.0
 31
0.0
  0
LINE
  5
240
  8
DATA
  6
CONTINUOUS
 62
     7
 10
625.88498744199421
 20
700.0
 30
0.0
 11
626.63498744199421
 21
697.0
 31
0.0
  0
LINE
  5
241
  8
DATA
  6
CONTINUOUS
 62
     7
 10
632.63498744199546
 20
697.0
 30
0.0
 11
626.63498744199421
 21
697.0
 31
0.0
  0
LINE
  5
242
  8
DATA
  6
CONTINUOUS
 62
     7
 10
642.0
 20
712.89999999999986
 30
0.0
 11
637.0
 21
712.89999999999986
 31
0.0
  0
LINE
  5
243
  8
DATA
  6
CONTINUOUS
 62
     7
 10
637.0
 20
718.10000000000002
 30
0.0
 11
642.0
 21
718.10000000000002
 31
0.0
  0
LINE
  5
244
  8
DATA
  6
CONTINUOUS
 62
     7
 10
642.0
 20
711.5
 30
0.0
 11
637.0
 21
711.5
 31
0.0
  0
LINE
  5
245
  8
DATA
  6
CONTINUOUS
 62
     7
 10
637.0
 20
719.5
 30
0.0
 11
642.0
 21
719.5
 31
0.0
  0
LINE
  5
246
  8
DATA
  6
CONTINUOUS
 62
     7
 10
642.0
 20
719.5
 30
0.0
 11
642.0
 21
711.5
 31
0.0
  0
LINE
  5
247
  8
DATA
  6
CONTINUOUS
 62
     7
 10
643.0
 20
711.10000000000002
 30
0.0
 11
643.0
 21
718.89999999999998
 31
0.0
  0
LINE
  5
248
  8
DATA
  6
CONTINUOUS
 62
     7
 10
643.0
 20
711.10000000000002
 30
0.0
 11
637.0
 21
711.10000000000002
 31
0.0
  0
LINE
  5
249
  8
DATA
  6
CONTINUOUS
 62
     7
 10
642.0
 20
718.89999999999998
 30
0.0
 11
643.0
 21
718.89999999999998
 31
0.0
  0
LINE
  5
24A
  8
DATA
  6
CONTINUOUS
 62
     7
 10
225.0
 20
287.5
 30
0.0
 11
225.0
 21
331.5
 31
0.0
  0
LINE
  5
24B
  8
DATA
  6
CONTINUOUS
 62
     7
 10
441.0
 20
287.5
 30
0.0
 11
225.0
 21
287.5
 31
0.0
  0
LINE
  5
24C
  8
DATA
  6
CONTINUOUS
 62
     7
 10
441.0
 20
362.5
 30
0.0
 11
225.0
 21
362.5
 31
0.0
  0
LINE
  5
24D
  8
DATA
  6
CONTINUOUS
 62
     7
 10
225.0
 20
556.5
 30
0.0
 11
441.0
 21
556.5
 31
0.0
  0
LINE
  5
24E
  8
DATA
  6
CONTINUOUS
 62
     7
 10
225.0
 20
512.5
 30
0.0
 11
225.0
 21
556.5
 31
0.0
  0
TEXT
  5
24F
  8
DATA
 62
     7
 10
423.47921589103242
 20
553.51046334526268
 30
0.0
 40
3.121945529513888
  1
5 VDC
 50
180.0
 41
0.7
 11
423.47921589103242
 21
550.38851781574886
 31
0.0
 73
     3
  0
LINE
  5
250
  8
DATA
  6
CONTINUOUS
 62
     7
 10
441.0
 20
331.5
 30
0.0
 11
225.0
 21
331.5
 31
0.0
  0
LINE
  5
251
  8
DATA
  6
CONTINUOUS
 62
     7
 10
225.0
 20
512.5
 30
0.0
 11
441.0
 21
512.5
 31
0.0
  0
LINE
  5
252
  8
DATA
  6
CONTINUOUS
 62
     7
 10
228.31957003464731
 20
284.5
 30
0.0
 11
227.56957003464731
 21
287.5
 31
0.0
  0
LINE
  5
253
  8
DATA
  6
CONTINUOUS
 62
     7
 10
235.06957003464879
 20
287.5
 30
0.0
 11
234.31957003464879
 21
284.5
 31
0.0
  0
LINE
  5
254
  8
DATA
  6
CONTINUOUS
 62
     7
 10
228.31957003464731
 20
284.5
 30
0.0
 11
234.31957003464879
 21
284.5
 31
0.0
  0
LINE
  5
255
  8
DATA
  6
CONTINUOUS
 62
     7
 10
441.0
 20
474.5
 30
0.0
 11
225.0
 21
474.5
 31
0.0
  0
LINE
  5
256
  8
DATA
  6
CONTINUOUS
 62
     7
 10
441.0
 20
371.5
 30
0.0
 11
225.0
 21
371.5
 31
0.0
  0
LINE
  5
257
  8
DATA
  6
CONTINUOUS
 62
     7
 10
228.31957003464731
 20
559.49999999961369
 30
0.0
 11
227.56957003474389
 21
556.5
 31
0.0
  0
LINE
  5
258
  8
DATA
  6
CONTINUOUS
 62
     7
 10
235.0695700345521
 20
556.5
 30
0.0
 11
234.31957003464879
 21
559.49999999961369
 31
0.0
  0
LINE
  5
259
  8
DATA
  6
CONTINUOUS
 62
     7
 10
228.31957003464731
 20
559.49999999961369
 30
0.0
 11
234.31957003464879
 21
559.49999999961369
 31
0.0
  0
LINE
  5
25A
  8
DATA
  6
CONTINUOUS
 62
     7
 10
225.0
 20
362.5
 30
0.0
 11
225.0
 21
474.5
 31
0.0
  0
LINE
  5
25B
  8
DATA
  6
CONTINUOUS
 62
     7
 10
379.00159854564453
 20
536.29462368547775
 30
0.0
 11
379.00159854564453
 21
549.59462368547793
 31
0.0
  0
LINE
  5
25C
  8
DATA
  6
CONTINUOUS
 62
     7
 10
394.70159854564429
 20
536.29462368547775
 30
0.0
 11
394.70159854564429
 21
549.59462368547793
 31
0.0
  0
LINE
  5
25D
  8
DATA
  6
CONTINUOUS
 62
     7
 10
393.00159854564441
 20
539.29462368547775
 30
0.0
 11
393.00159854564441
 21
546.59462368547793
 31
0.0
  0
LINE
  5
25E
  8
DATA
  6
CONTINUOUS
 62
     7
 10
380.70159854564452
 20
539.29462368547775
 30
0.0
 11
380.70159854564452
 21
546.59462368547793
 31
0.0
  0
LINE
  5
25F
  8
DATA
  6
CONTINUOUS
 62
     7
 10
393.00159854564441
 20
539.29462368547775
 30
0.0
 11
380.70159854564452
 21
539.29462368547775
 31
0.0
  0
LINE
  5
260
  8
DATA
  6
CONTINUOUS
 62
     7
 10
389.0765985456444
 20
549.59462368547793
 30
0.0
 11
389.0765985456444
 21
548.09462368547793
 31
0.0
  0
LINE
  5
261
  8
DATA
  6
CONTINUOUS
 62
     7
 10
384.62659854564453
 20
548.09462368547793
 30
0.0
 11
384.62659854564453
 21
549.59462368547793
 31
0.0
  0
LINE
  5
262
  8
DATA
  6
CONTINUOUS
 62
     7
 10
390.20159854564417
 20
548.09462368547793
 30
0.0
 11
389.0765985456444
 21
548.09462368547793
 31
0.0
  0
LINE
  5
263
  8
DATA
  6
CONTINUOUS
 62
     7
 10
384.62659854564453
 20
548.09462368547793
 30
0.0
 11
383.50159854564453
 21
548.09462368547793
 31
0.0
  0
LINE
  5
264
  8
DATA
  6
CONTINUOUS
 62
     7
 10
393.00159854564441
 20
546.59462368547793
 30
0.0
 11
390.20159854564417
 21
546.59462368547793
 31
0.0
  0
LINE
  5
265
  8
DATA
  6
CONTINUOUS
 62
     7
 10
383.50159854564453
 20
546.59462368547793
 30
0.0
 11
380.70159854564452
 21
546.59462368547793
 31
0.0
  0
LINE
  5
266
  8
DATA
  6
CONTINUOUS
 62
     7
 10
390.20159854564417
 20
548.09462368547793
 30
0.0
 11
390.20159854564417
 21
546.59462368547793
 31
0.0
  0
LINE
  5
267
  8
DATA
  6
CONTINUOUS
 62
     7
 10
383.50159854564453
 20
546.59462368547793
 30
0.0
 11
383.50159854564453
 21
548.09462368547793
 31
0.0
  0
CIRCLE
  5
268
  8
DATA
  6
CONTINUOUS
 62
     7
 10
326.83900694185883
 20
540.8776636567377
 30
0.0
 40
1.175000000000096
  0
POLYLINE
  5
269
  8
DATA
  6
CONTINUOUS
 62
     7
 66
     1
 10
0.0
 20
0.0
 30
0.0
 70
     1
  0
VERTEX
  5
54A
  8
DATA
  6
CONTINUOUS
 62
     7
 10
326.83900694185883
 20
538.17766365673765
 30
0.0
  0
VERTEX
  5
54B
  8
DATA
  6
CONTINUOUS
 62
     7
 10
329.17727553207669
 20
539.52766365673779
 30
0.0
  0
VERTEX
  5
54C
  8
DATA
  6
CONTINUOUS
 62
     7
 10
329.17727553207669
 20
542.22766365673772
 30
0.0
  0
VERTEX
  5
54D
  8
DATA
  6
CONTINUOUS
 62
     7
 10
326.83900694185883
 20
543.57766365673774
 30
0.0
  0
VERTEX
  5
54E
  8
DATA
  6
CONTINUOUS
 62
     7
 10
324.50073835164051
 20
542.22766365673772
 30
0.0
  0
VERTEX
  5
54F
  8
DATA
  6
CONTINUOUS
 62
     7
 10
324.50073835164051
 20
539.52766365673779
 30
0.0
  0
SEQEND
  5
550
  8
DATA
  6
CONTINUOUS
 62
     7
  0
CIRCLE
  5
272
  8
DATA
  6
CONTINUOUS
 62
     7
 10
294.33900694185832
 20
540.8776636567377
 30
0.0
 40
1.175000000000068
  0
POLYLINE
  5
273
  8
DATA
  6
CONTINUOUS
 62
     7
 66
     1
 10
0.0
 20
0.0
 30
0.0
 70
     1
  0
VERTEX
  5
551
  8
DATA
  6
CONTINUOUS
 62
     7
 10
294.33900694185832
 20
538.17766365673765
 30
0.0
  0
VERTEX
  5
552
  8
DATA
  6
CONTINUOUS
 62
     7
 10
296.67727553207629
 20
539.52766365673779
 30
0.0
  0
VERTEX
  5
553
  8
DATA
  6
CONTINUOUS
 62
     7
 10
296.67727553207629
 20
542.22766365673772
 30
0.0
  0
VERTEX
  5
554
  8
DATA
  6
CONTINUOUS
 62
     7
 10
294.33900694185832
 20
543.57766365673774
 30
0.0
  0
VERTEX
  5
555
  8
DATA
  6
CONTINUOUS
 62
     7
 10
292.00073835164022
 20
542.22766365673772
 30
0.0
  0
VERTEX
  5
556
  8
DATA
  6
CONTINUOUS
 62
     7
 10
292.00073835164022
 20
539.52766365673779
 30
0.0
  0
SEQEND
  5
557
  8
DATA
  6
CONTINUOUS
 62
     7
  0
LINE
  5
27C
  8
DATA
  6
CONTINUOUS
 62
     7
 10
321.53891182905011
 20
536.95266365673774
 30
0.0
 11
299.63910205466652
 21
536.95266365673774
 31
0.0
  0
LINE
  5
27D
  8
DATA
  6
CONTINUOUS
 62
     7
 10
300.1980192521188
 20
544.80266365673765
 30
0.0
 11
320.97999463159761
 21
544.80266365673765
 31
0.0
  0
POLYLINE
  5
27E
  8
DATA
  6
CONTINUOUS
 62
     7
 66
     1
 10
0.0
 20
0.0
 30
0.0
 70
     1
  0
VERTEX
  5
558
  8
DATA
  6
CONTINUOUS
 62
     7
 10
320.05907311303758
 20
541.64266365673768
 30
0.0
  0
VERTEX
  5
559
  8
DATA
  6
CONTINUOUS
 62
     7
 10
321.58907311303773
 20
541.64266365673768
 30
0.0
  0
VERTEX
  5
55A
  8
DATA
  6
CONTINUOUS
 62
     7
 10
321.58907311303773
 20
540.11266365673771
 30
0.0
  0
VERTEX
  5
55B
  8
DATA
  6
CONTINUOUS
 62
     7
 10
320.05907311303758
 20
540.11266365673771
 30
0.0
  0
SEQEND
  5
55C
  8
DATA
  6
CONTINUOUS
 62
     7
  0
POLYLINE
  5
285
  8
DATA
  6
CONTINUOUS
 62
     7
 66
     1
 10
0.0
 20
0.0
 30
0.0
 70
     1
  0
VERTEX
  5
55D
  8
DATA
  6
CONTINUOUS
 62
     7
 10
318.05907311303758
 20
541.64266365673768
 30
0.0
  0
VERTEX
  5
55E
  8
DATA
  6
CONTINUOUS
 62
     7
 10
319.58907311303773
 20
541.64266365673768
 30
0.0
  0
VERTEX
  5
55F
  8
DATA
  6
CONTINUOUS
 62
     7
 10
319.58907311303773
 20
540.11266365673771
 30
0.0
  0
VERTEX
  5
560
  8
DATA
  6
CONTINUOUS
 62
     7
 10
318.05907311303758
 20
540.11266365673771
 30
0.0
  0
SEQEND
  5
561
  8
DATA
  6
CONTINUOUS
 62
     7
  0
POLYLINE
  5
28C
  8
DATA
  6
CONTINUOUS
 62
     7
 66
     1
 10
0.0
 20
0.0
 30
0.0
 70
     1
  0
VERTEX
  5
562
  8
DATA
  6
CONTINUOUS
 62
     7
 10
316.0590731130377
 20
541.64266365673768
 30
0.0
  0
VERTEX
  5
563
  8
DATA
  6
CONTINUOUS
 62
     7
 10
317.58907311303773
 20
541.64266365673768
 30
0.0
  0
VERTEX
  5
564
  8
DATA
  6
CONTINUOUS
 62
     7
 10
317.58907311303773
 20
540.11266365673771
 30
0.0
  0
VERTEX
  5
565
  8
DATA
  6
CONTINUOUS
 62
     7
 10
316.0590731130377
 20
540.11266365673771
 30
0.0
  0
SEQEND
  5
566
  8
DATA
  6
CONTINUOUS
 62
     7
  0
POLYLINE
  5
293
  8
DATA
  6
CONTINUOUS
 62
     7
 66
     1
 10
0.0
 20
0.0
 30
0.0
 70
     1
  0
VERTEX
  5
567
  8
DATA
  6
CONTINUOUS
 62
     7
 10
314.0590731130377
 20
541.64266365673768
 30
0.0
  0
VERTEX
  5
568
  8
DATA
  6
CONTINUOUS
 62
     7
 10
315.58907311303773
 20
541.64266365673768
 30
0.0
  0
VERTEX
  5
569
  8
DATA
  6
CONTINUOUS
 62
     7
 10
315.58907311303773
 20
540.11266365673771
 30
0.0
  0
VERTEX
  5
56A
  8
DATA
  6
CONTINUOUS
 62
     7
 10
314.0590731130377
 20
540.11266365673771
 30
0.0
  0
SEQEND
  5
56B
  8
DATA
  6
CONTINUOUS
 62
     7
  0
POLYLINE
  5
29A
  8
DATA
  6
CONTINUOUS
 62
     7
 66
     1
 10
0.0
 20
0.0
 30
0.0
 70
     1
  0
VERTEX
  5
56C
  8
DATA
  6
CONTINUOUS
 62
     7
 10
312.0590731130377
 20
541.64266365673768
 30
0.0
  0
VERTEX
  5
56D
  8
DATA
  6
CONTINUOUS
 62
     7
 10
313.58907311303773
 20
541.64266365673768
 30
0.0
  0
VERTEX
  5
56E
  8
DATA
  6
CONTINUOUS
 62
     7
 10
313.58907311303773
 20
540.11266365673771
 30
0.0
  0
VERTEX
  5
56F
  8
DATA
  6
CONTINUOUS
 62
     7
 10
312.0590731130377
 20
540.11266365673771
 30
0.0
  0
SEQEND
  5
570
  8
DATA
  6
CONTINUOUS
 62
     7
  0
POLYLINE
  5
2A1
  8
DATA
  6
CONTINUOUS
 62
     7
 66
     1
 10
0.0
 20
0.0
 30
0.0
 70
     1
  0
VERTEX
  5
571
  8
DATA
  6
CONTINUOUS
 62
     7
 10
310.0590731130377
 20
541.64266365673768
 30
0.0
  0
VERTEX
  5
572
  8
DATA
  6
CONTINUOUS
 62
     7
 10
311.58907311303773
 20
541.64266365673768
 30
0.0
  0
VERTEX
  5
573
  8
DATA
  6
CONTINUOUS
 62
     7
 10
311.58907311303773
 20
540.11266365673771
 30
0.0
  0
VERTEX
  5
574
  8
DATA
  6
CONTINUOUS
 62
     7
 10
310.0590731130377
 20
540.11266365673771
 30
0.0
  0
SEQEND
  5
575
  8
DATA
  6
CONTINUOUS
 62
     7
  0
POLYLINE
  5
2A8
  8
DATA
  6
CONTINUOUS
 62
     7
 66
     1
 10
0.0
 20
0.0
 30
0.0
 70
     1
  0
VERTEX
  5
576
  8
DATA
  6
CONTINUOUS
 62
     7
 10
308.0590731130377
 20
541.64266365673768
 30
0.0
  0
VERTEX
  5
577
  8
DATA
  6
CONTINUOUS
 62
     7
 10
309.58907311303773
 20
541.64266365673768
 30
0.0
  0
VERTEX
  5
578
  8
DATA
  6
CONTINUOUS
 62
     7
 10
309.58907311303773
 20
540.11266365673771
 30
0.0
  0
VERTEX
  5
579
  8
DATA
  6
CONTINUOUS
 62
     7
 10
308.0590731130377
 20
540.11266365673771
 30
0.0
  0
SEQEND
  5
57A
  8
DATA
  6
CONTINUOUS
 62
     7
  0
POLYLINE
  5
2AF
  8
DATA
  6
CONTINUOUS
 62
     7
 66
     1
 10
0.0
 20
0.0
 30
0.0
 70
     1
  0
VERTEX
  5
57B
  8
DATA
  6
CONTINUOUS
 62
     7
 10
306.0590731130377
 20
541.64266365673768
 30
0.0
  0
VERTEX
  5
57C
  8
DATA
  6
CONTINUOUS
 62
     7
 10
307.58907311303773
 20
541.64266365673768
 30
0.0
  0
VERTEX
  5
57D
  8
DATA
  6
CONTINUOUS
 62
     7
 10
307.58907311303773
 20
540.11266365673771
 30
0.0
  0
VERTEX
  5
57E
  8
DATA
  6
CONTINUOUS
 62
     7
 10
306.0590731130377
 20
540.11266365673771
 30
0.0
  0
SEQEND
  5
57F
  8
DATA
  6
CONTINUOUS
 62
     7
  0
POLYLINE
  5
2B6
  8
DATA
  6
CONTINUOUS
 62
     7
 66
     1
 10
0.0
 20
0.0
 30
0.0
 70
     1
  0
VERTEX
  5
580
  8
DATA
  6
CONTINUOUS
 62
     7
 10
320.05907311303758
 20
539.6426636567378
 30
0.0
  0
VERTEX
  5
581
  8
DATA
  6
CONTINUOUS
 62
     7
 10
321.58907311303773
 20
539.6426636567378
 30
0.0
  0
VERTEX
  5
582
  8
DATA
  6
CONTINUOUS
 62
     7
 10
321.58907311303773
 20
538.11266365673771
 30
0.0
  0
VERTEX
  5
583
  8
DATA
  6
CONTINUOUS
 62
     7
 10
320.05907311303758
 20
538.11266365673771
 30
0.0
  0
SEQEND
  5
584
  8
DATA
  6
CONTINUOUS
 62
     7
  0
POLYLINE
  5
2BD
  8
DATA
  6
CONTINUOUS
 62
     7
 66
     1
 10
0.0
 20
0.0
 30
0.0
 70
     1
  0
VERTEX
  5
585
  8
DATA
  6
CONTINUOUS
 62
     7
 10
318.05907311303758
 20
539.6426636567378
 30
0.0
  0
VERTEX
  5
586
  8
DATA
  6
CONTINUOUS
 62
     7
 10
319.58907311303773
 20
539.6426636567378
 30
0.0
  0
VERTEX
  5
587
  8
DATA
  6
CONTINUOUS
 62
     7
 10
319.58907311303773
 20
538.11266365673771
 30
0.0
  0
VERTEX
  5
588
  8
DATA
  6
CONTINUOUS
 62
     7
 10
318.05907311303758
 20
538.11266365673771
 30
0.0
  0
SEQEND
  5
589
  8
DATA
  6
CONTINUOUS
 62
     7
  0
POLYLINE
  5
2C4
  8
DATA
  6
CONTINUOUS
 62
     7
 66
     1
 10
0.0
 20
0.0
 30
0.0
 70
     1
  0
VERTEX
  5
58A
  8
DATA
  6
CONTINUOUS
 62
     7
 10
316.0590731130377
 20
539.6426636567378
 30
0.0
  0
VERTEX
  5
58B
  8
DATA
  6
CONTINUOUS
 62
     7
 10
317.58907311303773
 20
539.6426636567378
 30
0.0
  0
VERTEX
  5
58C
  8
DATA
  6
CONTINUOUS
 62
     7
 10
317.58907311303773
 20
538.11266365673771
 30
0.0
  0
VERTEX
  5
58D
  8
DATA
  6
CONTINUOUS
 62
     7
 10
316.0590731130377
 20
538.11266365673771
 30
0.0
  0
SEQEND
  5
58E
  8
DATA
  6
CONTINUOUS
 62
     7
  0
POLYLINE
  5
2CB
  8
DATA
  6
CONTINUOUS
 62
     7
 66
     1
 10
0.0
 20
0.0
 30
0.0
 70
     1
  0
VERTEX
  5
58F
  8
DATA
  6
CONTINUOUS
 62
     7
 10
314.0590731130377
 20
539.6426636567378
 30
0.0
  0
VERTEX
  5
590
  8
DATA
  6
CONTINUOUS
 62
     7
 10
315.58907311303773
 20
539.6426636567378
 30
0.0
  0
VERTEX
  5
591
  8
DATA
  6
CONTINUOUS
 62
     7
 10
315.58907311303773
 20
538.11266365673771
 30
0.0
  0
VERTEX
  5
592
  8
DATA
  6
CONTINUOUS
 62
     7
 10
314.0590731130377
 20
538.11266365673771
 30
0.0
  0
SEQEND
  5
593
  8
DATA
  6
CONTINUOUS
 62
     7
  0
POLYLINE
  5
2D2
  8
DATA
  6
CONTINUOUS
 62
     7
 66
     1
 10
0.0
 20
0.0
 30
0.0
 70
     1
  0
VERTEX
  5
594
  8
DATA
  6
CONTINUOUS
 62
     7
 10
312.0590731130377
 20
539.6426636567378
 30
0.0
  0
VERTEX
  5
595
  8
DATA
  6
CONTINUOUS
 62
     7
 10
313.58907311303773
 20
539.6426636567378
 30
0.0
  0
VERTEX
  5
596
  8
DATA
  6
CONTINUOUS
 62
     7
 10
313.58907311303773
 20
538.11266365673771
 30
0.0
  0
VERTEX
  5
597
  8
DATA
  6
CONTINUOUS
 62
     7
 10
312.0590731130377
 20
538.11266365673771
 30
0.0
  0
SEQEND
  5
598
  8
DATA
  6
CONTINUOUS
 62
     7
  0
POLYLINE
  5
2D9
  8
DATA
  6
CONTINUOUS
 62
     7
 66
     1
 10
0.0
 20
0.0
 30
0.0
 70
     1
  0
VERTEX
  5
599
  8
DATA
  6
CONTINUOUS
 62
     7
 10
310.0590731130377
 20
539.6426636567378
 30
0.0
  0
VERTEX
  5
59A
  8
DATA
  6
CONTINUOUS
 62
     7
 10
311.58907311303773
 20
539.6426636567378
 30
0.0
  0
VERTEX
  5
59B
  8
DATA
  6
CONTINUOUS
 62
     7
 10
311.58907311303773
 20
538.11266365673771
 30
0.0
  0
VERTEX
  5
59C
  8
DATA
  6
CONTINUOUS
 62
     7
 10
310.0590731130377
 20
538.11266365673771
 30
0.0
  0
SEQEND
  5
59D
  8
DATA
  6
CONTINUOUS
 62
     7
  0
POLYLINE
  5
2E0
  8
DATA
  6
CONTINUOUS
 62
     7
 66
     1
 10
0.0
 20
0.0
 30
0.0
 70
     1
  0
VERTEX
  5
59E
  8
DATA
  6
CONTINUOUS
 62
     7
 10
308.0590731130377
 20
539.6426636567378
 30
0.0
  0
VERTEX
  5
59F
  8
DATA
  6
CONTINUOUS
 62
     7
 10
309.58907311303773
 20
539.6426636567378
 30
0.0
  0
VERTEX
  5
5A0
  8
DATA
  6
CONTINUOUS
 62
     7
 10
309.58907311303773
 20
538.11266365673771
 30
0.0
  0
VERTEX
  5
5A1
  8
DATA
  6
CONTINUOUS
 62
     7
 10
308.0590731130377
 20
538.11266365673771
 30
0.0
  0
SEQEND
  5
5A2
  8
DATA
  6
CONTINUOUS
 62
     7
  0
POLYLINE
  5
2E7
  8
DATA
  6
CONTINUOUS
 62
     7
 66
     1
 10
0.0
 20
0.0
 30
0.0
 70
     1
  0
VERTEX
  5
5A3
  8
DATA
  6
CONTINUOUS
 62
     7
 10
306.0590731130377
 20
539.6426636567378
 30
0.0
  0
VERTEX
  5
5A4
  8
DATA
  6
CONTINUOUS
 62
     7
 10
307.58907311303773
 20
539.6426636567378
 30
0.0
  0
VERTEX
  5
5A5
  8
DATA
  6
CONTINUOUS
 62
     7
 10
307.58907311303773
 20
538.11266365673771
 30
0.0
  0
VERTEX
  5
5A6
  8
DATA
  6
CONTINUOUS
 62
     7
 10
306.0590731130377
 20
538.11266365673771
 30
0.0
  0
SEQEND
  5
5A7
  8
DATA
  6
CONTINUOUS
 62
     7
  0
POLYLINE
  5
2EE
  8
DATA
  6
CONTINUOUS
 62
     7
 66
     1
 10
0.0
 20
0.0
 30
0.0
 70
     1
  0
VERTEX
  5
5A8
  8
DATA
  6
CONTINUOUS
 62
     7
 10
320.05907311303758
 20
543.6426636567378
 30
0.0
  0
VERTEX
  5
5A9
  8
DATA
  6
CONTINUOUS
 62
     7
 10
321.58907311303773
 20
543.6426636567378
 30
0.0
  0
VERTEX
  5
5AA
  8
DATA
  6
CONTINUOUS
 62
     7
 10
321.58907311303773
 20
542.11266365673771
 30
0.0
  0
VERTEX
  5
5AB
  8
DATA
  6
CONTINUOUS
 62
     7
 10
320.05907311303758
 20
542.11266365673771
 30
0.0
  0
SEQEND
  5
5AC
  8
DATA
  6
CONTINUOUS
 62
     7
  0
POLYLINE
  5
2F5
  8
DATA
  6
CONTINUOUS
 62
     7
 66
     1
 10
0.0
 20
0.0
 30
0.0
 70
     1
  0
VERTEX
  5
5AD
  8
DATA
  6
CONTINUOUS
 62
     7
 10
318.05907311303758
 20
543.6426636567378
 30
0.0
  0
VERTEX
  5
5AE
  8
DATA
  6
CONTINUOUS
 62
     7
 10
319.58907311303773
 20
543.6426636567378
 30
0.0
  0
VERTEX
  5
5AF
  8
DATA
  6
CONTINUOUS
 62
     7
 10
319.58907311303773
 20
542.11266365673771
 30
0.0
  0
VERTEX
  5
5B0
  8
DATA
  6
CONTINUOUS
 62
     7
 10
318.05907311303758
 20
542.11266365673771
 30
0.0
  0
SEQEND
  5
5B1
  8
DATA
  6
CONTINUOUS
 62
     7
  0
POLYLINE
  5
2FC
  8
DATA
  6
CONTINUOUS
 62
     7
 66
     1
 10
0.0
 20
0.0
 30
0.0
 70
     1
  0
VERTEX
  5
5B2
  8
DATA
  6
CONTINUOUS
 62
     7
 10
316.0590731130377
 20
543.6426636567378
 30
0.0
  0
VERTEX
  5
5B3
  8
DATA
  6
CONTINUOUS
 62
     7
 10
317.58907311303773
 20
543.6426636567378
 30
0.0
  0
VERTEX
  5
5B4
  8
DATA
  6
CONTINUOUS
 62
     7
 10
317.58907311303773
 20
542.11266365673771
 30
0.0
  0
VERTEX
  5
5B5
  8
DATA
  6
CONTINUOUS
 62
     7
 10
316.0590731130377
 20
542.11266365673771
 30
0.0
  0
SEQEND
  5
5B6
  8
DATA
  6
CONTINUOUS
 62
     7
  0
POLYLINE
  5
303
  8
DATA
  6
CONTINUOUS
 62
     7
 66
     1
 10
0.0
 20
0.0
 30
0.0
 70
     1
  0
VERTEX
  5
5B7
  8
DATA
  6
CONTINUOUS
 62
     7
 10
314.0590731130377
 20
543.6426636567378
 30
0.0
  0
VERTEX
  5
5B8
  8
DATA
  6
CONTINUOUS
 62
     7
 10
315.58907311303773
 20
543.6426636567378
 30
0.0
  0
VERTEX
  5
5B9
  8
DATA
  6
CONTINUOUS
 62
     7
 10
315.58907311303773
 20
542.11266365673771
 30
0.0
  0
VERTEX
  5
5BA
  8
DATA
  6
CONTINUOUS
 62
     7
 10
314.0590731130377
 20
542.11266365673771
 30
0.0
  0
SEQEND
  5
5BB
  8
DATA
  6
CONTINUOUS
 62
     7
  0
POLYLINE
  5
30A
  8
DATA
  6
CONTINUOUS
 62
     7
 66
     1
 10
0.0
 20
0.0
 30
0.0
 70
     1
  0
VERTEX
  5
5BC
  8
DATA
  6
CONTINUOUS
 62
     7
 10
312.0590731130377
 20
543.6426636567378
 30
0.0
  0
VERTEX
  5
5BD
  8
DATA
  6
CONTINUOUS
 62
     7
 10
313.58907311303773
 20
543.6426636567378
 30
0.0
  0
VERTEX
  5
5BE
  8
DATA
  6
CONTINUOUS
 62
     7
 10
313.58907311303773
 20
542.11266365673771
 30
0.0
  0
VERTEX
  5
5BF
  8
DATA
  6
CONTINUOUS
 62
     7
 10
312.0590731130377
 20
542.11266365673771
 30
0.0
  0
SEQEND
  5
5C0
  8
DATA
  6
CONTINUOUS
 62
     7
  0
POLYLINE
  5
311
  8
DATA
  6
CONTINUOUS
 62
     7
 66
     1
 10
0.0
 20
0.0
 30
0.0
 70
     1
  0
VERTEX
  5
5C1
  8
DATA
  6
CONTINUOUS
 62
     7
 10
310.0590731130377
 20
543.6426636567378
 30
0.0
  0
VERTEX
  5
5C2
  8
DATA
  6
CONTINUOUS
 62
     7
 10
311.58907311303773
 20
543.6426636567378
 30
0.0
  0
VERTEX
  5
5C3
  8
DATA
  6
CONTINUOUS
 62
     7
 10
311.58907311303773
 20
542.11266365673771
 30
0.0
  0
VERTEX
  5
5C4
  8
DATA
  6
CONTINUOUS
 62
     7
 10
310.0590731130377
 20
542.11266365673771
 30
0.0
  0
SEQEND
  5
5C5
  8
DATA
  6
CONTINUOUS
 62
     7
  0
POLYLINE
  5
318
  8
DATA
  6
CONTINUOUS
 62
     7
 66
     1
 10
0.0
 20
0.0
 30
0.0
 70
     1
  0
VERTEX
  5
5C6
  8
DATA
  6
CONTINUOUS
 62
     7
 10
308.0590731130377
 20
543.6426636567378
 30
0.0
  0
VERTEX
  5
5C7
  8
DATA
  6
CONTINUOUS
 62
     7
 10
309.58907311303773
 20
543.6426636567378
 30
0.0
  0
VERTEX
  5
5C8
  8
DATA
  6
CONTINUOUS
 62
     7
 10
309.58907311303773
 20
542.11266365673771
 30
0.0
  0
VERTEX
  5
5C9
  8
DATA
  6
CONTINUOUS
 62
     7
 10
308.0590731130377
 20
542.11266365673771
 30
0.0
  0
SEQEND
  5
5CA
  8
DATA
  6
CONTINUOUS
 62
     7
  0
POLYLINE
  5
31F
  8
DATA
  6
CONTINUOUS
 62
     7
 66
     1
 10
0.0
 20
0.0
 30
0.0
 70
     1
  0
VERTEX
  5
5CB
  8
DATA
  6
CONTINUOUS
 62
     7
 10
306.0590731130377
 20
543.6426636567378
 30
0.0
  0
VERTEX
  5
5CC
  8
DATA
  6
CONTINUOUS
 62
     7
 10
307.58907311303773
 20
543.6426636567378
 30
0.0
  0
VERTEX
  5
5CD
  8
DATA
  6
CONTINUOUS
 62
     7
 10
307.58907311303773
 20
542.11266365673771
 30
0.0
  0
VERTEX
  5
5CE
  8
DATA
  6
CONTINUOUS
 62
     7
 10
306.0590731130377
 20
542.11266365673771
 30
0.0
  0
SEQEND
  5
5CF
  8
DATA
  6
CONTINUOUS
 62
     7
  0
POLYLINE
  5
326
  8
DATA
  6
CONTINUOUS
 62
     7
 66
     1
 10
0.0
 20
0.0
 30
0.0
  0
VERTEX
  5
5D0
  8
DATA
  6
CONTINUOUS
 62
     7
 10
302.03900694185808
 20
540.47766365673772
 30
0.0
  0
VERTEX
  5
5D1
  8
DATA
  6
CONTINUOUS
 62
     7
 10
299.93900694185811
 20
540.47766365673772
 30
0.0
  0
VERTEX
  5
5D2
  8
DATA
  6
CONTINUOUS
 62
     7
 10
299.93900694185811
 20
541.27766365673779
 30
0.0
  0
VERTEX
  5
5D3
  8
DATA
  6
CONTINUOUS
 62
     7
 10
302.03900694185808
 20
541.27766365673779
 30
0.0
  0
SEQEND
  5
5D4
  8
DATA
  6
CONTINUOUS
 62
     7
  0
POLYLINE
  5
32D
  8
DATA
  6
CONTINUOUS
 62
     7
 66
     1
 10
0.0
 20
0.0
 30
0.0
  0
VERTEX
  5
5D5
  8
DATA
  6
CONTINUOUS
 62
     7
 10
302.8390069418582
 20
541.27766365673779
 30
0.0
  0
VERTEX
  5
5D6
  8
DATA
  6
CONTINUOUS
 62
     7
 10
304.93900694185822
 20
541.27766365673779
 30
0.0
  0
VERTEX
  5
5D7
  8
DATA
  6
CONTINUOUS
 62
     7
 10
304.93900694185822
 20
540.47766365673772
 30
0.0
  0
VERTEX
  5
5D8
  8
DATA
  6
CONTINUOUS
 62
     7
 10
302.8390069418582
 20
540.47766365673772
 30
0.0
  0
SEQEND
  5
5D9
  8
DATA
  6
CONTINUOUS
 62
     7
  0
POLYLINE
  5
334
  8
DATA
  6
CONTINUOUS
 62
     7
 66
     1
 10
0.0
 20
0.0
 30
0.0
  0
VERTEX
  5
5DA
  8
DATA
  6
CONTINUOUS
 62
     7
 10
302.03900694185808
 20
541.27766365673779
 30
0.0
  0
VERTEX
  5
5DB
  8
DATA
  6
CONTINUOUS
 62
     7
 10
302.03900694185808
 20
543.3776636567377
 30
0.0
  0
VERTEX
  5
5DC
  8
DATA
  6
CONTINUOUS
 62
     7
 10
302.8390069418582
 20
543.3776636567377
 30
0.0
  0
VERTEX
  5
5DD
  8
DATA
  6
CONTINUOUS
 62
     7
 10
302.8390069418582
 20
541.27766365673779
 30
0.0
  0
SEQEND
  5
5DE
  8
DATA
  6
CONTINUOUS
 62
     7
  0
POLYLINE
  5
33B
  8
DATA
  6
CONTINUOUS
 62
     7
 66
     1
 10
0.0
 20
0.0
 30
0.0
  0
VERTEX
  5
5DF
  8
DATA
  6
CONTINUOUS
 62
     7
 10
302.8390069418582
 20
540.47766365673772
 30
0.0
  0
VERTEX
  5
5E0
  8
DATA
  6
CONTINUOUS
 62
     7
 10
302.8390069418582
 20
538.37766365673758
 30
0.0
  0
VERTEX
  5
5E1
  8
DATA
  6
CONTINUOUS
 62
     7
 10
302.03900694185808
 20
538.37766365673758
 30
0.0
  0
VERTEX
  5
5E2
  8
DATA
  6
CONTINUOUS
 62
     7
 10
302.03900694185808
 20
540.47766365673772
 30
0.0
  0
SEQEND
  5
5E3
  8
DATA
  6
CONTINUOUS
 62
     7
  0
POLYLINE
  5
342
  8
DATA
  6
CONTINUOUS
 62
     7
 66
     1
 10
0.0
 20
0.0
 30
0.0
 70
     1
  0
VERTEX
  5
5E4
  8
DATA
  6
CONTINUOUS
 62
     7
 10
303.29929137232989
 20
540.11823584608783
 30
0.0
  0
VERTEX
  5
5E5
  8
DATA
  6
CONTINUOUS
 62
     7
 10
304.29929137232989
 20
540.11823584608783
 30
0.0
  0
VERTEX
  5
5E6
  8
DATA
  6
CONTINUOUS
 62
     7
 10
304.29929137232989
 20
539.11823584608783
 30
0.0
  0
VERTEX
  5
5E7
  8
DATA
  6
CONTINUOUS
 62
     7
 10
303.29929137232989
 20
539.11823584608783
 30
0.0
  0
SEQEND
  5
5E8
  8
DATA
  6
CONTINUOUS
 62
     7
  0
POLYLINE
  5
349
  8
DATA
  6
CONTINUOUS
 62
     7
 66
     1
 10
0.0
 20
0.0
 30
0.0
 70
     1
  0
VERTEX
  5
5E9
  8
DATA
  6
CONTINUOUS
 62
     7
 10
300.5787225113865
 20
540.11823584608783
 30
0.0
  0
VERTEX
  5
5EA
  8
DATA
  6
CONTINUOUS
 62
     7
 10
301.57872251138639
 20
540.11823584608783
 30
0.0
  0
VERTEX
  5
5EB
  8
DATA
  6
CONTINUOUS
 62
     7
 10
301.57872251138639
 20
539.11823584608783
 30
0.0
  0
VERTEX
  5
5EC
  8
DATA
  6
CONTINUOUS
 62
     7
 10
300.5787225113865
 20
539.11823584608783
 30
0.0
  0
SEQEND
  5
5ED
  8
DATA
  6
CONTINUOUS
 62
     7
  0
POLYLINE
  5
350
  8
DATA
  6
CONTINUOUS
 62
     7
 66
     1
 10
0.0
 20
0.0
 30
0.0
 70
     1
  0
VERTEX
  5
5EE
  8
DATA
  6
CONTINUOUS
 62
     7
 10
303.29929137232989
 20
542.63709146738756
 30
0.0
  0
VERTEX
  5
5EF
  8
DATA
  6
CONTINUOUS
 62
     7
 10
304.29929137232989
 20
542.63709146738756
 30
0.0
  0
VERTEX
  5
5F0
  8
DATA
  6
CONTINUOUS
 62
     7
 10
304.29929137232989
 20
541.63709146738756
 30
0.0
  0
VERTEX
  5
5F1
  8
DATA
  6
CONTINUOUS
 62
     7
 10
303.29929137232989
 20
541.63709146738756
 30
0.0
  0
SEQEND
  5
5F2
  8
DATA
  6
CONTINUOUS
 62
     7
  0
POLYLINE
  5
357
  8
DATA
  6
CONTINUOUS
 62
     7
 66
     1
 10
0.0
 20
0.0
 30
0.0
 70
     1
  0
VERTEX
  5
5F3
  8
DATA
  6
CONTINUOUS
 62
     7
 10
300.5787225113865
 20
542.63709146738756
 30
0.0
  0
VERTEX
  5
5F4
  8
DATA
  6
CONTINUOUS
 62
     7
 10
301.57872251138639
 20
542.63709146738756
 30
0.0
  0
VERTEX
  5
5F5
  8
DATA
  6
CONTINUOUS
 62
     7
 10
301.57872251138639
 20
541.63709146738756
 30
0.0
  0
VERTEX
  5
5F6
  8
DATA
  6
CONTINUOUS
 62
     7
 10
300.5787225113865
 20
541.63709146738756
 30
0.0
  0
SEQEND
  5
5F7
  8
DATA
  6
CONTINUOUS
 62
     7
  0
LINE
  5
35E
  8
DATA
  6
CONTINUOUS
 62
     7
 10
322.53437875980552
 20
538.04777196222392
 30
0.0
 11
321.97546156235319
 21
543.89777196222394
 31
0.0
  0
LINE
  5
35F
  8
DATA
  6
CONTINUOUS
 62
     7
 10
298.64363512391111
 20
538.04777196222392
 30
0.0
 11
299.20255232136338
 21
543.89777196222394
 31
0.0
  0
ARC
  5
360
  8
DATA
  6
CONTINUOUS
 62
     7
 10
321.53891182905011
 20
537.95266365673774
 30
0.0
 40
0.9999999999999715
 50
270.0
 51
5.4575534851070966
  0
ARC
  5
361
  8
DATA
  6
CONTINUOUS
 62
     7
 10
299.63910205466652
 20
537.95266365673774
 30
0.0
 40
0.9999999999999729
 50
174.5424465148939
 51
270.00000000000159
  0
ARC
  5
362
  8
DATA
  6
CONTINUOUS
 62
     7
 10
320.97999463159761
 20
543.80266365673776
 30
0.0
 40
1.0000000000000859
 50
5.4575534851054677
 51
89.99999999999838
  0
ARC
  5
363
  8
DATA
  6
CONTINUOUS
 62
     7
 10
300.1980192521188
 20
543.80266365673776
 30
0.0
 40
1.0
 50
90.0
 51
174.54244651489569
  0
TEXT
  5
364
  8
DATA
 62
     7
 10
316.38087980487381
 20
553.36031176638051
 30
0.0
 40
3.121945529513888
  1
DVI In 
 50
180.0
 41
0.7
 11
316.38087980487381
 21
550.23836623686645
 31
0.0
 73
     3
  0
CIRCLE
  5
365
  8
DATA
  6
CONTINUOUS
 62
     7
 10
418.00511616230921
 20
541.50711851981634
 30
0.0
 40
3.9000000000000048
  0
CIRCLE
  5
366
  8
DATA
  6
CONTINUOUS
 62
     7
 10
418.00511616230921
 20
541.50711851981634
 30
0.0
 40
0.6500000000000057
  0
POLYLINE
  5
367
  8
DATA
  6
CONTINUOUS
 62
     7
 66
     1
 10
0.0
 20
0.0
 30
0.0
 70
     1
  0
VERTEX
  5
5F8
  8
DATA
  6
CONTINUOUS
 62
     7
 10
412.2224818482801
 20
544.13285150767877
 30
0.0
  0
VERTEX
  5
5F9
  8
DATA
  6
CONTINUOUS
 62
     7
 10
412.83984753425102
 20
537.81207679700287
 30
0.0
  0
VERTEX
  5
5FA
  8
DATA
  6
CONTINUOUS
 62
     7
 10
418.6224818482799
 20
535.18634380914045
 30
0.0
  0
VERTEX
  5
5FB
  8
DATA
  6
CONTINUOUS
 62
     7
 10
423.78775047633837
 20
538.88138553195404
 30
0.0
  0
VERTEX
  5
5FC
  8
DATA
  6
CONTINUOUS
 62
     7
 10
423.17038479036728
 20
545.20216024262993
 30
0.0
  0
VERTEX
  5
5FD
  8
DATA
  6
CONTINUOUS
 62
     7
 10
417.38775047633828
 20
547.82789323049235
 30
0.0
  0
SEQEND
  5
5FE
  8
DATA
  6
CONTINUOUS
 62
     7
  0
LINE
  5
370
  8
DATA
  6
CONTINUOUS
 62
     7
 10
412.83337957594659
 20
476.2999999999999
 30
0.0
 11
412.83337957594659
 21
474.5
 31
0.0
  0
LINE
  5
371
  8
DATA
  6
CONTINUOUS
 62
     7
 10
423.78128251803417
 20
476.2999999999999
 30
0.0
 11
423.78128251803417
 21
474.5
 31
0.0
  0
LINE
  5
372
  8
DATA
  6
CONTINUOUS
 62
     7
 10
412.83337957594659
 20
476.2999999999999
 30
0.0
 11
423.78128251803417
 21
476.2999999999999
 31
0.0
  0
LINE
  5
373
  8
DATA
  6
CONTINUOUS
 62
     7
 10
418.61601388997599
 20
476.2999999999999
 30
0.0
 11
418.61601388997599
 21
474.5
 31
0.0
  0
LINE
  5
374
  8
DATA
  6
CONTINUOUS
 62
     7
 10
414.09864820400492
 20
480.49999999999989
 30
0.0
 11
414.09864820400492
 21
476.2999999999999
 31
0.0
  0
LINE
  5
375
  8
DATA
  6
CONTINUOUS
 62
     7
 10
421.89864820400521
 20
480.49999999999989
 30
0.0
 11
421.89864820400521
 21
476.2999999999999
 31
0.0
  0
LINE
  5
376
  8
DATA
  6
CONTINUOUS
 62
     7
 10
414.09864820400492
 20
480.49999999999989
 30
0.0
 11
421.89864820400521
 21
480.49999999999989
 31
0.0
  0
LINE
  5
377
  8
DATA
  6
CONTINUOUS
 62
     7
 10
291.99511431883582
 20
479.5
 30
0.0
 11
291.99511431883582
 21
474.5
 31
0.0
  0
LINE
  5
378
  8
DATA
  6
CONTINUOUS
 62
     7
 10
296.67165149927172
 20
479.5
 30
0.0
 11
296.67165149927172
 21
474.5
 31
0.0
  0
LINE
  5
379
  8
DATA
  6
CONTINUOUS
 62
     7
 10
298.63365585534041
 20
479.5
 30
0.0
 11
298.63365585534041
 21
474.5
 31
0.0
  0
LINE
  5
37A
  8
DATA
  6
CONTINUOUS
 62
     7
 10
322.520589189823
 20
479.5
 30
0.0
 11
322.520589189823
 21
474.5
 31
0.0
  0
LINE
  5
37B
  8
DATA
  6
CONTINUOUS
 62
     7
 10
324.4951143188361
 20
479.5
 30
0.0
 11
324.4951143188361
 21
474.5
 31
0.0
  0
LINE
  5
37C
  8
DATA
  6
CONTINUOUS
 62
     7
 10
329.17165149927189
 20
479.5
 30
0.0
 11
329.17165149927189
 21
474.5
 31
0.0
  0
LINE
  5
37D
  8
DATA
  6
CONTINUOUS
 62
     7
 10
329.17165149927189
 20
479.5
 30
0.0
 11
324.4951143188361
 21
479.5
 31
0.0
  0
LINE
  5
37E
  8
DATA
  6
CONTINUOUS
 62
     7
 10
322.520589189823
 20
479.5
 30
0.0
 11
298.63365585534041
 21
479.5
 31
0.0
  0
LINE
  5
37F
  8
DATA
  6
CONTINUOUS
 62
     7
 10
296.67165149927172
 20
479.5
 30
0.0
 11
291.99511431883582
 21
479.5
 31
0.0
  0
TEXT
  5
380
  8
DATA
 62
     7
 10
231.74316544432699
 20
213.7734534796453
 30
0.0
 40
13.57367621527778
  1
DVI-1500HDR(レシーバー)
 41
0.7
 11
231.74316544432699
 21
227.3471296949231
 31
0.0
 73
     3
  0
LINE
  5
381
  8
DATA
  6
CONTINUOUS
 62
     7
 10
441.0
 20
556.5
 30
0.0
 11
441.0
 21
512.5
 31
0.0
  0
LINE
  5
382
  8
DATA
  6
CONTINUOUS
 62
     7
 10
441.0
 20
474.5
 30
0.0
 11
441.0
 21
362.5
 31
0.0
  0
LINE
  5
383
  8
DATA
  6
CONTINUOUS
 62
     7
 10
441.0
 20
331.5
 30
0.0
 11
441.0
 21
287.5
 31
0.0
  0
LINE
  5
384
  8
DATA
  6
CONTINUOUS
 62
     7
 10
394.70159854564429
 20
536.29462368547775
 30
0.0
 11
379.00159854564453
 21
536.29462368547775
 31
0.0
  0
LINE
  5
385
  8
DATA
  6
CONTINUOUS
 62
     7
 10
394.70159854564429
 20
549.59462368547793
 30
0.0
 11
379.00159854564453
 21
549.59462368547793
 31
0.0
  0
TEXT
  5
386
  8
DATA
 62
     7
 10
389.94860687473852
 20
553.51046334526268
 30
0.0
 40
3.121945529513888
  1
DDC
 50
180.0
 41
0.7
 11
389.94860687473852
 21
550.38851781574886
 31
0.0
 73
     3
  0
CIRCLE
  5
387
  8
DATA
  6
CONTINUOUS
 62
     7
 10
232.0
 20
544.5
 30
0.0
 40
2.5
  0
LINE
  5
388
  8
DATA
  6
CONTINUOUS
 62
     7
 10
231.0499999999999
 20
543.54999999999995
 30
0.0
 11
232.94999999999999
 21
545.45000000000005
 31
0.0
  0
LINE
  5
389
  8
DATA
  6
CONTINUOUS
 62
     7
 10
232.94999999999999
 20
543.54999999999995
 30
0.0
 11
231.0499999999999
 21
545.45000000000005
 31
0.0
  0
CIRCLE
  5
38A
  8
DATA
  6
CONTINUOUS
 62
     7
 10
232.0
 20
524.5
 30
0.0
 40
2.5
  0
LINE
  5
38B
  8
DATA
  6
CONTINUOUS
 62
     7
 10
231.0499999999999
 20
523.54999999999995
 30
0.0
 11
232.94999999999999
 21
525.45000000000005
 31
0.0
  0
LINE
  5
38C
  8
DATA
  6
CONTINUOUS
 62
     7
 10
232.94999999999999
 20
523.54999999999995
 30
0.0
 11
231.0499999999999
 21
525.45000000000005
 31
0.0
  0
CIRCLE
  5
38D
  8
DATA
  6
CONTINUOUS
 62
     7
 10
434.0
 20
544.5
 30
0.0
 40
2.5
  0
LINE
  5
38E
  8
DATA
  6
CONTINUOUS
 62
     7
 10
433.0499999999999
 20
543.54999999999995
 30
0.0
 11
434.94999999999999
 21
545.45000000000005
 31
0.0
  0
LINE
  5
38F
  8
DATA
  6
CONTINUOUS
 62
     7
 10
434.94999999999999
 20
543.54999999999995
 30
0.0
 11
433.0499999999999
 21
545.45000000000005
 31
0.0
  0
CIRCLE
  5
390
  8
DATA
  6
CONTINUOUS
 62
     7
 10
434.0
 20
524.5
 30
0.0
 40
2.5
  0
LINE
  5
391
  8
DATA
  6
CONTINUOUS
 62
     7
 10
433.0499999999999
 20
523.54999999999995
 30
0.0
 11
434.94999999999999
 21
525.45000000000005
 31
0.0
  0
LINE
  5
392
  8
DATA
  6
CONTINUOUS
 62
     7
 10
434.94999999999999
 20
523.54999999999995
 30
0.0
 11
433.0499999999999
 21
525.45000000000005
 31
0.0
  0
LINE
  5
393
  8
DATA
  6
CONTINUOUS
 62
     7
 10
279.58064977803372
 20
548.5
 30
0.0
 11
279.58064977803372
 21
539.5
 31
0.0
  0
LINE
  5
394
  8
DATA
  6
CONTINUOUS
 62
     7
 10
266.58064977803372
 20
548.5
 30
0.0
 11
266.58064977803372
 21
539.5
 31
0.0
  0
LINE
  5
395
  8
DATA
  6
CONTINUOUS
 62
     7
 10
279.58064977803372
 20
548.5
 30
0.0
 11
266.58064977803372
 21
548.5
 31
0.0
  0
LINE
  5
396
  8
DATA
  6
CONTINUOUS
 62
     7
 10
279.58064977803372
 20
539.5
 30
0.0
 11
266.58064977803372
 21
539.5
 31
0.0
  0
LINE
  5
397
  8
DATA
  6
CONTINUOUS
 62
     7
 10
278.5806497780336
 20
547.5
 30
0.0
 11
273.88064977803373
 21
547.5
 31
0.0
  0
LINE
  5
398
  8
DATA
  6
CONTINUOUS
 62
     7
 10
272.28064977803382
 20
547.5
 30
0.0
 11
267.58064977803372
 21
547.5
 31
0.0
  0
LINE
  5
399
  8
DATA
  6
CONTINUOUS
 62
     7
 10
267.58064977803372
 20
547.5
 30
0.0
 11
267.58064977803372
 21
539.5
 31
0.0
  0
LINE
  5
39A
  8
DATA
  6
CONTINUOUS
 62
     7
 10
278.5806497780336
 20
547.5
 30
0.0
 11
278.5806497780336
 21
539.5
 31
0.0
  0
LINE
  5
39B
  8
DATA
  6
CONTINUOUS
 62
     7
 10
272.28064977803382
 20
539.5
 30
0.0
 11
272.28064977803382
 21
547.5
 31
0.0
  0
LINE
  5
39C
  8
DATA
  6
CONTINUOUS
 62
     7
 10
273.88064977803373
 20
547.5
 30
0.0
 11
273.88064977803373
 21
539.5
 31
0.0
  0
LINE
  5
39D
  8
DATA
  6
CONTINUOUS
 62
     7
 10
263.58064977803372
 20
548.5
 30
0.0
 11
263.58064977803372
 21
539.5
 31
0.0
  0
LINE
  5
39E
  8
DATA
  6
CONTINUOUS
 62
     7
 10
250.58064977803409
 20
548.5
 30
0.0
 11
250.58064977803409
 21
539.5
 31
0.0
  0
LINE
  5
39F
  8
DATA
  6
CONTINUOUS
 62
     7
 10
263.58064977803372
 20
548.5
 30
0.0
 11
250.58064977803409
 21
548.5
 31
0.0
  0
LINE
  5
3A0
  8
DATA
  6
CONTINUOUS
 62
     7
 10
263.58064977803372
 20
539.5
 30
0.0
 11
250.58064977803409
 21
539.5
 31
0.0
  0
LINE
  5
3A1
  8
DATA
  6
CONTINUOUS
 62
     7
 10
262.58064977803372
 20
547.5
 30
0.0
 11
257.88064977803373
 21
547.5
 31
0.0
  0
LINE
  5
3A2
  8
DATA
  6
CONTINUOUS
 62
     7
 10
256.28064977803371
 20
547.5
 30
0.0
 11
251.58064977803409
 21
547.5
 31
0.0
  0
LINE
  5
3A3
  8
DATA
  6
CONTINUOUS
 62
     7
 10
251.58064977803409
 20
547.5
 30
0.0
 11
251.58064977803409
 21
539.5
 31
0.0
  0
LINE
  5
3A4
  8
DATA
  6
CONTINUOUS
 62
     7
 10
262.58064977803372
 20
547.5
 30
0.0
 11
262.58064977803372
 21
539.5
 31
0.0
  0
LINE
  5
3A5
  8
DATA
  6
CONTINUOUS
 62
     7
 10
256.28064977803371
 20
539.5
 30
0.0
 11
256.28064977803371
 21
547.5
 31
0.0
  0
LINE
  5
3A6
  8
DATA
  6
CONTINUOUS
 62
     7
 10
257.88064977803373
 20
547.5
 30
0.0
 11
257.88064977803373
 21
539.5
 31
0.0
  0
TEXT
  5
3A7
  8
DATA
 62
     7
 10
277.3741486132169
 20
553.36031176638051
 30
0.0
 40
3.121945529513888
  1
C 
 50
180.0
 41
0.7
 11
277.3741486132169
 21
550.23836623686645
 31
0.0
 73
     3
  0
TEXT
  5
3A8
  8
DATA
 62
     7
 10
270.85285611254028
 20
553.36031176638051
 30
0.0
 40
3.121945529513888
  1
R 
 50
180.0
 41
0.7
 11
270.85285611254028
 21
550.23836623686645
 31
0.0
 73
     3
  0
TEXT
  5
3A9
  8
DATA
 62
     7
 10
261.51435527727688
 20
553.36031176638051
 30
0.0
 40
3.121945529513888
  1
G 
 50
180.0
 41
0.7
 11
261.51435527727688
 21
550.23836623686645
 31
0.0
 73
     3
  0
TEXT
  5
3AA
  8
DATA
 62
     7
 10
254.99306277660051
 20
553.36031176638051
 30
0.0
 40
3.121945529513888
  1
B 
 50
180.0
 41
0.7
 11
254.99306277660051
 21
550.23836623686645
 31
0.0
 73
     3
  0
LINE
  5
3AB
  8
DATA
  6
CONTINUOUS
 62
     7
 10
250.58743901545429
 20
474.69999999999987
 30
0.0
 11
250.58743901545429
 21
474.5
 31
0.0
  0
LINE
  5
3AC
  8
DATA
  6
CONTINUOUS
 62
     7
 10
263.58743901545432
 20
474.69999999999987
 30
0.0
 11
263.58743901545432
 21
474.5
 31
0.0
  0
LINE
  5
3AD
  8
DATA
  6
CONTINUOUS
 62
     7
 10
266.58743901545421
 20
474.69999999999987
 30
0.0
 11
266.58743901545421
 21
474.5
 31
0.0
  0
LINE
  5
3AE
  8
DATA
  6
CONTINUOUS
 62
     7
 10
279.58743901545432
 20
474.69999999999987
 30
0.0
 11
279.58743901545432
 21
474.5
 31
0.0
  0
LINE
  5
3AF
  8
DATA
  6
CONTINUOUS
 62
     7
 10
250.58743901545429
 20
474.69999999999987
 30
0.0
 11
263.58743901545432
 21
474.69999999999987
 31
0.0
  0
LINE
  5
3B0
  8
DATA
  6
CONTINUOUS
 62
     7
 10
266.58743901545421
 20
474.69999999999987
 30
0.0
 11
279.58743901545432
 21
474.69999999999987
 31
0.0
  0
LINE
  5
3B1
  8
DATA
  6
CONTINUOUS
 62
     7
 10
437.68042996535269
 20
284.5
 30
0.0
 11
438.43042996535269
 21
287.5
 31
0.0
  0
LINE
  5
3B2
  8
DATA
  6
CONTINUOUS
 62
     7
 10
430.9304299653511
 20
287.5
 30
0.0
 11
431.68042996535121
 21
284.5
 31
0.0
  0
LINE
  5
3B3
  8
DATA
  6
CONTINUOUS
 62
     7
 10
437.68042996535269
 20
284.5
 30
0.0
 11
431.68042996535121
 21
284.5
 31
0.0
  0
CIRCLE
  5
3B4
  8
DATA
  6
CONTINUOUS
 62
     7
 10
552.0
 20
711.0
 30
0.0
 40
2.5
  0
LINE
  5
3B5
  8
DATA
  6
CONTINUOUS
 62
     7
 10
551.04999999999995
 20
710.04999999999995
 30
0.0
 11
552.95000000000005
 21
711.95000000000016
 31
0.0
  0
LINE
  5
3B6
  8
DATA
  6
CONTINUOUS
 62
     7
 10
552.95000000000005
 20
710.04999999999995
 30
0.0
 11
551.04999999999995
 21
711.95000000000016
 31
0.0
  0
CIRCLE
  5
3B7
  8
DATA
  6
CONTINUOUS
 62
     7
 10
552.0
 20
733.0
 30
0.0
 40
2.5
  0
LINE
  5
3B8
  8
DATA
  6
CONTINUOUS
 62
     7
 10
551.04999999999995
 20
732.04999999999984
 30
0.0
 11
552.95000000000005
 21
733.95000000000005
 31
0.0
  0
LINE
  5
3B9
  8
DATA
  6
CONTINUOUS
 62
     7
 10
552.95000000000005
 20
732.04999999999984
 30
0.0
 11
551.04999999999995
 21
733.95000000000005
 31
0.0
  0
CIRCLE
  5
3BA
  8
DATA
  6
CONTINUOUS
 62
     7
 10
597.0
 20
733.0
 30
0.0
 40
2.5
  0
LINE
  5
3BB
  8
DATA
  6
CONTINUOUS
 62
     7
 10
596.04999999999995
 20
732.04999999999984
 30
0.0
 11
597.95000000000005
 21
733.95000000000005
 31
0.0
  0
LINE
  5
3BC
  8
DATA
  6
CONTINUOUS
 62
     7
 10
597.95000000000005
 20
732.04999999999984
 30
0.0
 11
596.04999999999995
 21
733.95000000000005
 31
0.0
  0
CIRCLE
  5
3BD
  8
DATA
  6
CONTINUOUS
 62
     7
 10
597.0
 20
711.0
 30
0.0
 40
2.5
  0
LINE
  5
3BE
  8
DATA
  6
CONTINUOUS
 62
     7
 10
596.04999999999995
 20
710.04999999999995
 30
0.0
 11
597.95000000000005
 21
711.95000000000016
 31
0.0
  0
LINE
  5
3BF
  8
DATA
  6
CONTINUOUS
 62
     7
 10
597.95000000000005
 20
710.04999999999995
 30
0.0
 11
596.04999999999995
 21
711.95000000000016
 31
0.0
  0
LINE
  5
3C0
  8
DATA
  6
CONTINUOUS
 62
     7
 10
525.0
 20
331.5
 30
0.0
 11
637.0
 21
331.5
 31
0.0
  0
LINE
  5
3C1
  8
DATA
  6
CONTINUOUS
 62
     7
 10
525.0
 20
287.5
 30
0.0
 11
637.0
 21
287.5
 31
0.0
  0
LINE
  5
3C2
  8
DATA
  6
CONTINUOUS
 62
     7
 10
525.0
 20
287.5
 30
0.0
 11
525.0
 21
331.5
 31
0.0
  0
LINE
  5
3C3
  8
DATA
  6
CONTINUOUS
 62
     7
 10
637.0
 20
287.5
 30
0.0
 11
637.0
 21
331.5
 31
0.0
  0
LINE
  5
3C4
  8
DATA
  6
CONTINUOUS
 62
     7
 10
534.0
 20
287.5
 30
0.0
 11
534.0
 21
331.5
 31
0.0
  0
LINE
  5
3C5
  8
DATA
  6
CONTINUOUS
 62
     7
 10
542.53552217282993
 20
284.5
 30
0.0
 11
543.28552217282993
 21
287.5
 31
0.0
  0
LINE
  5
3C6
  8
DATA
  6
CONTINUOUS
 62
     7
 10
535.78552217282845
 20
287.5
 30
0.0
 11
536.53552217282845
 21
284.5
 31
0.0
  0
LINE
  5
3C7
  8
DATA
  6
CONTINUOUS
 62
     7
 10
542.53552217282993
 20
284.5
 30
0.0
 11
536.53552217282845
 21
284.5
 31
0.0
  0
LINE
  5
3C8
  8
DATA
  6
CONTINUOUS
 62
     7
 10
632.63498744199546
 20
284.5
 30
0.0
 11
633.38498744199546
 21
287.5
 31
0.0
  0
LINE
  5
3C9
  8
DATA
  6
CONTINUOUS
 62
     7
 10
625.88498744199421
 20
287.5
 30
0.0
 11
626.63498744199421
 21
284.5
 31
0.0
  0
LINE
  5
3CA
  8
DATA
  6
CONTINUOUS
 62
     7
 10
632.63498744199546
 20
284.5
 30
0.0
 11
626.63498744199421
 21
284.5
 31
0.0
  0
LINE
  5
3CB
  8
DATA
  6
CONTINUOUS
 62
     7
 10
638.79999999999995
 20
307.0
 30
0.0
 11
642.0
 21
307.0
 31
0.0
  0
LINE
  5
3CC
  8
DATA
  6
CONTINUOUS
 62
     7
 10
642.0
 20
307.0
 30
0.0
 11
642.0
 21
306.39999999999998
 31
0.0
  0
LINE
  5
3CD
  8
DATA
  6
CONTINUOUS
 62
     7
 10
643.0
 20
298.60000000000002
 30
0.0
 11
643.0
 21
306.39999999999998
 31
0.0
  0
CIRCLE
  5
3CE
  8
DATA
  6
CONTINUOUS
 62
     7
 10
552.0
 20
298.5
 30
0.0
 40
2.5
  0
LINE
  5
3CF
  8
DATA
  6
CONTINUOUS
 62
     7
 10
551.04999999999995
 20
297.5499999999999
 30
0.0
 11
552.95000000000005
 21
299.4500000000001
 31
0.0
  0
LINE
  5
3D0
  8
DATA
  6
CONTINUOUS
 62
     7
 10
552.95000000000005
 20
297.5499999999999
 30
0.0
 11
551.04999999999995
 21
299.4500000000001
 31
0.0
  0
CIRCLE
  5
3D1
  8
DATA
  6
CONTINUOUS
 62
     7
 10
552.0
 20
320.5
 30
0.0
 40
2.5
  0
LINE
  5
3D2
  8
DATA
  6
CONTINUOUS
 62
     7
 10
551.04999999999995
 20
319.5499999999999
 30
0.0
 11
552.95000000000005
 21
321.4500000000001
 31
0.0
  0
LINE
  5
3D3
  8
DATA
  6
CONTINUOUS
 62
     7
 10
552.95000000000005
 20
319.5499999999999
 30
0.0
 11
551.04999999999995
 21
321.4500000000001
 31
0.0
  0
CIRCLE
  5
3D4
  8
DATA
  6
CONTINUOUS
 62
     7
 10
597.0
 20
320.5
 30
0.0
 40
2.5
  0
LINE
  5
3D5
  8
DATA
  6
CONTINUOUS
 62
     7
 10
596.04999999999995
 20
319.5499999999999
 30
0.0
 11
597.95000000000005
 21
321.4500000000001
 31
0.0
  0
LINE
  5
3D6
  8
DATA
  6
CONTINUOUS
 62
     7
 10
597.95000000000005
 20
319.5499999999999
 30
0.0
 11
596.04999999999995
 21
321.4500000000001
 31
0.0
  0
CIRCLE
  5
3D7
  8
DATA
  6
CONTINUOUS
 62
     7
 10
597.0
 20
298.5
 30
0.0
 40
2.5
  0
LINE
  5
3D8
  8
DATA
  6
CONTINUOUS
 62
     7
 10
596.04999999999995
 20
297.5499999999999
 30
0.0
 11
597.95000000000005
 21
299.4500000000001
 31
0.0
  0
LINE
  5
3D9
  8
DATA
  6
CONTINUOUS
 62
     7
 10
597.95000000000005
 20
297.5499999999999
 30
0.0
 11
596.04999999999995
 21
299.4500000000001
 31
0.0
  0
LINE
  5
3DA
  8
DATA
  6
CONTINUOUS
 62
     7
 10
431.67957003464721
 20
971.99999999961381
 30
0.0
 11
430.9295700347439
 21
969.0
 31
0.0
  0
LINE
  5
3DB
  8
DATA
  6
CONTINUOUS
 62
     7
 10
438.42957003455211
 20
969.0
 30
0.0
 11
437.67957003464869
 21
971.99999999961381
 31
0.0
  0
LINE
  5
3DC
  8
DATA
  6
CONTINUOUS
 62
     7
 10
431.67957003464721
 20
971.99999999961381
 30
0.0
 11
437.67957003464869
 21
971.99999999961381
 31
0.0
  0
LINE
  5
3DD
  8
DATA
  6
CONTINUOUS
 62
     7
 10
431.67957003464721
 20
559.49999999961369
 30
0.0
 11
430.9295700347439
 21
556.5
 31
0.0
  0
LINE
  5
3DE
  8
DATA
  6
CONTINUOUS
 62
     7
 10
438.42957003455211
 20
556.5
 30
0.0
 11
437.67957003464869
 21
559.49999999961369
 31
0.0
  0
LINE
  5
3DF
  8
DATA
  6
CONTINUOUS
 62
     7
 10
431.67957003464721
 20
559.49999999961369
 30
0.0
 11
437.67957003464869
 21
559.49999999961369
 31
0.0
  0
CIRCLE
  5
3E0
  8
DATA
  6
CONTINUOUS
 62
     7
 10
411.0
 20
710.0
 30
0.0
 40
1.5
  0
CIRCLE
  5
3E1
  8
DATA
  6
CONTINUOUS
 62
     7
 10
418.0
 20
710.0
 30
0.0
 40
1.5
  0
TEXT
  5
3E2
  8
DATA
 62
     7
 10
397.01187861544997
 20
708.83305812391507
 30
0.0
 40
3.121945529513888
  1
Power
 41
0.7
 11
397.01187861544997
 21
711.95500365342912
 31
0.0
 73
     3
  0
TEXT
  5
3E3
  8
DATA
 62
     7
 10
422.1062620515001
 20
708.64774502134026
 30
0.0
 40
3.121945529513888
  1
Status
 41
0.7
 11
422.1062620515001
 21
711.76969055085419
 31
0.0
 73
     3
  0
TEXT
  5
3E4
  8
DATA
 62
     7
 10
383.97730767366522
 20
718.64033993896965
 30
0.0
 40
9.5015733506944464
  1
DVI1500S
 41
0.7
 11
383.97730767366522
 21
728.14191328966399
 31
0.0
 73
     3
  0
CIRCLE
  5
3E5
  8
DATA
  6
CONTINUOUS
 62
     7
 10
247.1811888809998
 20
297.5
 30
0.0
 40
1.5
  0
CIRCLE
  5
3E6
  8
DATA
  6
CONTINUOUS
 62
     7
 10
254.1811888809998
 20
297.5
 30
0.0
 40
1.5
  0
TEXT
  5
3E7
  8
DATA
 62
     7
 10
260.77892919529057
 20
296.33305812391518
 30
0.0
 40
3.121945529513888
  1
Power
 41
0.7
 11
260.77892919529057
 21
299.45500365342912
 31
0.0
 73
     3
  0
TEXT
  5
3E8
  8
DATA
 62
     7
 10
230.09460117440571
 20
296.1477450213402
 30
0.0
 40
3.121945529513888
  1
Status
 41
0.7
 11
230.09460117440571
 21
299.26969055085408
 31
0.0
 73
     3
  0
TEXT
  5
3E9
  8
DATA
 62
     7
 10
383.97730767366522
 20
306.14033993896982
 30
0.0
 40
9.5015733506944464
  1
DVI1500R
 41
0.7
 11
383.97730767366522
 21
315.64191328966427
 31
0.0
 73
     3
  0
LINE
  5
3EA
  8
DATA
  6
CONTINUOUS
 62
     7
 10
643.0
 20
306.39999999999998
 30
0.0
 11
638.79999999999995
 21
306.39999999999998
 31
0.0
  0
LINE
  5
3EB
  8
DATA
  6
CONTINUOUS
 62
     7
 10
643.0
 20
298.60000000000002
 30
0.0
 11
638.79999999999995
 21
298.60000000000002
 31
0.0
  0
LINE
  5
3EC
  8
DATA
  6
CONTINUOUS
 62
     7
 10
638.79999999999995
 20
302.5
 30
0.0
 11
637.0
 21
302.5
 31
0.0
  0
LINE
  5
3ED
  8
DATA
  6
CONTINUOUS
 62
     7
 10
638.79999999999995
 20
297.0
 30
0.0
 11
638.79999999999995
 21
308.0
 31
0.0
  0
LINE
  5
3EE
  8
DATA
  6
CONTINUOUS
 62
     7
 10
638.79999999999995
 20
297.0
 30
0.0
 11
637.0
 21
297.0
 31
0.0
  0
LINE
  5
3EF
  8
DATA
  6
CONTINUOUS
 62
     7
 10
637.0
 20
308.0
 30
0.0
 11
638.79999999999995
 21
308.0
 31
0.0
  0
ENDSEC
  0
EOF
