  0
SECTION
  2
HEADER
  9
$ACADVER
  1
AC1009
  9
$INSBASE
 10
0.0
 20
0.0
 30
0.0
  9
$EXTMIN
 10
-80.010985489947416
 20
-131.67677505465531
 30
-0.0015258207003583
  9
$EXTMAX
 10
280.01098716632811
 20
403.54994963264153
 30
0.0000000349246037
  9
$LIMMIN
 10
0.0
 20
0.0
  9
$LIMMAX
 10
0.0
 20
0.0
  9
$ORTHOMODE
 70
     0
  9
$REGENMODE
 70
     1
  9
$FILLMODE
 70
     1
  9
$QTEXTMODE
 70
     0
  9
$MIRRTEXT
 70
     1
  9
$DRAGMODE
 70
     2
  9
$LTSCALE
 40
10.16
  9
$OSMODE
 70
   231
  9
$ATTMODE
 70
     1
  9
$TEXTSIZE
 40
0.0
  9
$TRACEWID
 40
1.0
  9
$TEXTSTYLE
  7
STANDARD
  9
$CLAYER
  8
DATA
  9
$CELTYPE
  6
BYLAYER
  9
$CECOLOR
 62
   256
  9
$DIMSCALE
 40
1.0
  9
$DIMASZ
 40
0.18
  9
$DIMEXO
 40
0.0625
  9
$DIMDLI
 40
0.38
  9
$DIMRND
 40
0.0
  9
$DIMDLE
 40
0.0
  9
$DIMEXE
 40
0.18
  9
$DIMTP
 40
0.0
  9
$DIMTM
 40
0.0
  9
$DIMTXT
 40
0.18
  9
$DIMCEN
 40
0.09
  9
$DIMTSZ
 40
0.0
  9
$DIMTOL
 70
     0
  9
$DIMLIM
 70
     0
  9
$DIMTIH
 70
     1
  9
$DIMTOH
 70
     1
  9
$DIMSE1
 70
     0
  9
$DIMSE2
 70
     0
  9
$DIMTAD
 70
     0
  9
$DIMZIN
 70
     0
  9
$DIMBLK
  1

  9
$DIMASO
 70
     1
  9
$DIMSHO
 70
     1
  9
$DIMPOST
  1

  9
$DIMAPOST
  1

  9
$DIMALT
 70
     0
  9
$DIMALTD
 70
     2
  9
$DIMALTF
 40
25.399999999999999
  9
$DIMLFAC
 40
1.0
  9
$DIMTOFL
 70
     0
  9
$DIMTVP
 40
0.0
  9
$DIMTIX
 70
     0
  9
$DIMSOXD
 70
     0
  9
$DIMSAH
 70
     0
  9
$DIMBLK1
  1

  9
$DIMBLK2
  1

  9
$DIMSTYLE
  2
STANDARD
  9
$DIMCLRD
 70
     0
  9
$DIMCLRE
 70
     0
  9
$DIMCLRT
 70
     0
  9
$DIMTFAC
 40
1.0
  9
$DIMGAP
 40
0.09
  9
$LUNITS
 70
     2
  9
$LUPREC
 70
     4
  9
$SKETCHINC
 40
0.1
  9
$FILLETRAD
 40
0.0
  9
$AUNITS
 70
     0
  9
$AUPREC
 70
     0
  9
$MENU
  1
acad
  9
$ELEVATION
 40
0.0
  9
$PELEVATION
 40
0.0
  9
$THICKNESS
 40
0.0
  9
$LIMCHECK
 70
     0
  9
$BLIPMODE
 70
     0
  9
$CHAMFERA
 40
0.0
  9
$CHAMFERB
 40
0.0
  9
$SKPOLY
 70
     0
  9
$TDCREATE
 40
2455583.7896180558
  9
$TDUPDATE
 40
2455583.7916512848
  9
$TDINDWG
 40
0.0003467477
  9
$TDUSRTIMER
 40
0.0003465625
  9
$USRTIMER
 70
     1
  9
$ANGBASE
 50
0.0
  9
$ANGDIR
 70
     0
  9
$PDMODE
 70
     1
  9
$PDSIZE
 40
-2.0
  9
$PLINEWID
 40
0.0
  9
$COORDS
 70
     0
  9
$SPLFRAME
 70
     0
  9
$SPLINETYPE
 70
     6
  9
$SPLINESEGS
 70
     8
  9
$ATTDIA
 70
     0
  9
$ATTREQ
 70
     1
  9
$HANDLING
 70
     1
  9
$HANDSEED
  5
6EE
  9
$SURFTAB1
 70
     6
  9
$SURFTAB2
 70
     6
  9
$SURFTYPE
 70
     6
  9
$SURFU
 70
     6
  9
$SURFV
 70
     6
  9
$UCSNAME
  2

  9
$UCSORG
 10
0.0
 20
0.0
 30
0.0
  9
$UCSXDIR
 10
1.0
 20
0.0
 30
0.0
  9
$UCSYDIR
 10
0.0
 20
1.0
 30
0.0
  9
$PUCSNAME
  2

  9
$PUCSORG
 10
0.0
 20
0.0
 30
0.0
  9
$PUCSXDIR
 10
1.0
 20
0.0
 30
0.0
  9
$PUCSYDIR
 10
0.0
 20
1.0
 30
0.0
  9
$USERI1
 70
     0
  9
$USERI2
 70
     0
  9
$USERI3
 70
     0
  9
$USERI4
 70
     0
  9
$USERI5
 70
     0
  9
$USERR1
 40
0.0
  9
$USERR2
 40
0.0
  9
$USERR3
 40
0.0
  9
$USERR4
 40
0.0
  9
$USERR5
 40
0.0
  9
$WORLDVIEW
 70
     1
  9
$SHADEDGE
 70
     3
  9
$SHADEDIF
 70
    70
  9
$TILEMODE
 70
     1
  9
$MAXACTVP
 70
    64
  9
$PLIMCHECK
 70
     0
  9
$PEXTMIN
 10
1.0000000000000000E+020
 20
1.0000000000000000E+020
 30
1.0000000000000000E+020
  9
$PEXTMAX
 10
-1.0000000000000000E+020
 20
-1.0000000000000000E+020
 30
-1.0000000000000000E+020
  9
$PLIMMIN
 10
0.0
 20
0.0
  9
$PLIMMAX
 10
12.0
 20
9.0
  9
$UNITMODE
 70
     0
  9
$VISRETAIN
 70
     0
  9
$PLINEGEN
 70
     1
  9
$PSLTSCALE
 70
     0
  0
ENDSEC
  0
SECTION
  2
TABLES
  0
TABLE
  2
VPORT
 70
     1
  0
VPORT
  2
*ACTIVE
 70
     0
 10
0.0
 20
0.0
 11
1.0
 21
1.0
 12
100.0000008381904
 22
135.93658728899311
 13
0.0
 23
0.0
 14
1.0
 24
1.0
 15
0.0
 25
0.0
 16
0.0
 26
0.0
 36
1.0
 17
0.0
 27
0.0
 37
0.0
 40
539.16704413284754
 41
1.9619164619164611
 42
50.0
 43
0.0
 44
0.0
 50
0.0
 51
0.0
 71
     0
 72
  2000
 73
     1
 74
     1
 75
     0
 76
     0
 77
     0
 78
     0
  0
ENDTAB
  0
TABLE
  2
LTYPE
 70
    11
  0
LTYPE
  2
CONTINUOUS
 70
     0
  3
Solid line
 72
    65
 73
     0
 40
0.0
  0
ENDTAB
  0
TABLE
  2
LAYER
 70
     6
  0
LAYER
  2
0
 70
     0
 62
     7
  6
CONTINUOUS
  0
LAYER
  2
DATA
 70
     0
 62
     7
  6
CONTINUOUS
  0
LAYER
  2
HIBINO-BASE
 70
     0
 62
     7
  6
CONTINUOUS
  0
LAYER
  2
SPEC
 70
     0
 62
     7
  6
CONTINUOUS
  0
LAYER
  2
DIMNSIONS
 70
     0
 62
     7
  6
CONTINUOUS
  0
ENDTAB
  0
TABLE
  2
STYLE
 70
     3
  0
STYLE
  2
STANDARD
 70
     0
 40
0.0
 41
1.0
 50
0.0
 71
     0
 42
0.0
  3
txt
  4
BIGFONT.SHX
  0
ENDTAB
  0
TABLE
  2
VIEW
 70
     0
  0
ENDTAB
  0
TABLE
  2
UCS
 70
     0
  0
ENDTAB
  0
TABLE
  2
APPID
 70
     3
  0
APPID
  2
ACAD
 70
     0
  0
APPID
  2
ACADANNOTATIVE
 70
     0
  0
APPID
  2
ACAD_MLEADERVER
 70
     0
  0
ENDTAB
  0
TABLE
  2
DIMSTYLE
 70
     2
  0
DIMSTYLE
  2
STANDARD
 70
     0
  3

  4

  5

  6

  7

 40
1.0
 41
0.18
 42
0.0625
 43
0.38
 44
0.18
 45
0.0
 46
0.0
 47
0.0
 48
0.0
140
0.18
141
0.09
142
0.0
143
25.399999999999999
144
1.0
145
0.0
146
1.0
147
0.09
 71
     0
 72
     0
 73
     1
 74
     1
 75
     0
 76
     0
 77
     0
 78
     0
170
     0
171
     2
172
     0
173
     0
174
     0
175
     0
176
     0
177
     0
178
     0
  0
ENDTAB
  0
ENDSEC
  0
SECTION
  2
BLOCKS
  0
BLOCK
  8
0
  2
$MODEL_SPACE
 70
     0
 10
0.0
 20
0.0
 30
0.0
  3
$MODEL_SPACE
  1

  0
ENDBLK
  5
47A
  8
0
  0
BLOCK
 67
     1
  8
0
  2
$PAPER_SPACE
 70
     0
 10
0.0
 20
0.0
 30
0.0
  3
$PAPER_SPACE
  1

  0
ENDBLK
  5
476
 67
     1
  8
0
  0
ENDSEC
  0
SECTION
  2
ENTITIES
  0
LINE
  5
2D
  8
HIBINO-BASE
  6
CONTINUOUS
 62
     7
 10
-79.999999999999986
 20
403.53364789486591
 30
0.0
 11
279.99999999999989
 21
403.53364789486591
 31
0.0
  0
LINE
  5
2E
  8
HIBINO-BASE
  6
CONTINUOUS
 62
     7
 10
279.99999999999989
 20
-116.46635210513411
 30
0.0
 11
-79.999999999999986
 21
-116.46635210513411
 31
0.0
  0
LINE
  5
2F
  8
HIBINO-BASE
  6
CONTINUOUS
 62
     7
 10
-79.999999999999986
 20
-116.46635210513411
 30
0.0
 11
-79.999999999999986
 21
403.53364789486591
 31
0.0
  0
LINE
  5
30
  8
HIBINO-BASE
  6
CONTINUOUS
 62
     7
 10
279.99999999999989
 20
403.53364789486591
 30
0.0
 11
279.99999999999989
 21
-116.46635210513411
 31
0.0
  0
LINE
  5
31
  8
HIBINO-BASE
  6
CONTINUOUS
 62
     7
 10
100.0
 20
-71.466352105134064
 30
0.0
 11
279.99999999999989
 21
-71.466352105134064
 31
0.0
  0
LINE
  5
32
  8
HIBINO-BASE
  6
CONTINUOUS
 62
     7
 10
100.0
 20
-116.46635210513411
 30
0.0
 11
100.0
 21
-71.466352105134064
 31
0.0
  0
TEXT
  5
33
  8
HIBINO-BASE
 62
     7
 10
101.8
 20
-76.483738771800731
 30
0.0
 40
3.2576822916666659
  1
NOTE
 41
0.75
 11
101.8
 21
-73.226056480134062
 31
0.0
 73
     3
  0
LINE
  5
34
  8
HIBINO-BASE
  6
CONTINUOUS
 62
     7
 10
170.0
 20
-116.46635210513411
 30
0.0
 11
170.0
 21
-71.466352105134064
 31
0.0
  0
TEXT
  5
35
  8
HIBINO-BASE
 62
     7
 10
171.7999999999999
 20
-76.483738771800731
 30
0.0
 40
3.2576822916666659
  1
TITLE
 41
0.75
 11
171.7999999999999
 21
-73.226056480134062
 31
0.0
 73
     3
  0
LINE
  5
36
  8
HIBINO-BASE
  6
CONTINUOUS
 62
     7
 10
100.0
 20
-96.466352105134064
 30
0.0
 11
279.99999999999989
 21
-96.466352105134064
 31
0.0
  0
TEXT
  5
37
  8
HIBINO-BASE
 62
     7
 10
196.80000000000001
 20
-101.3710987718007
 30
0.0
 40
3.2576822916666659
  1
DRAWN
 41
0.75
 11
196.80000000000001
 21
-98.113416480134106
 31
0.0
 73
     3
  0
TEXT
  5
38
  8
HIBINO-BASE
 62
     7
 10
146.7999999999999
 20
-101.3710987718007
 30
0.0
 40
3.2576822916666659
  1
DATE
 41
0.75
 11
146.7999999999999
 21
-98.113416480134106
 31
0.0
 73
     3
  0
TEXT
  5
39
  8
HIBINO-BASE
 62
     7
 10
126.8
 20
-101.3710987718007
 30
0.0
 40
3.2576822916666659
  1
SCALE
 41
0.75
 11
126.8
 21
-98.113416480134106
 31
0.0
 73
     3
  0
TEXT
  5
3A
  8
HIBINO-BASE
 62
     7
 10
171.7999999999999
 20
-101.3710987718007
 30
0.0
 40
3.2576822916666659
  1
DESIGN
 41
0.75
 11
171.7999999999999
 21
-98.113416480134106
 31
0.0
 73
     3
  0
TEXT
  5
3B
  8
HIBINO-BASE
 62
     7
 10
246.7999999999999
 20
-101.3710987718007
 30
0.0
 40
3.2576822916666659
  1
DRAWING NO.
 41
0.75
 11
246.7999999999999
 21
-98.113416480134106
 31
0.0
 73
     3
  0
TEXT
  5
3C
  8
HIBINO-BASE
 62
     7
 10
221.7999999999999
 20
-101.3710987718007
 30
0.0
 40
3.2576822916666659
  1
CHECK
 41
0.75
 11
221.7999999999999
 21
-98.113416480134106
 31
0.0
 73
     3
  0
LINE
  5
3D
  8
HIBINO-BASE
  6
CONTINUOUS
 62
     7
 10
128.74999999999989
 20
-113.96635210513411
 30
0.0
 11
136.25
 21
-106.46635210513401
 31
0.0
  0
TEXT
  5
3E
  8
HIBINO-BASE
 62
     7
 10
127.5
 20
-108.68423877180069
 30
0.0
 40
3.2576822916666659
  1
1
 41
0.75
 11
127.5
 21
-105.4265564801341
 31
0.0
 73
     3
  0
LINE
  5
3F
  8
HIBINO-BASE
  6
CONTINUOUS
 62
     7
 10
125.0
 20
-116.46635210513411
 30
0.0
 11
125.0
 21
-96.466352105134064
 31
0.0
  0
LINE
  5
40
  8
HIBINO-BASE
  6
CONTINUOUS
 62
     7
 10
145.0
 20
-116.46635210513411
 30
0.0
 11
145.0
 21
-96.466352105134064
 31
0.0
  0
LINE
  5
41
  8
HIBINO-BASE
  6
CONTINUOUS
 62
     7
 10
195.0
 20
-96.466352105134064
 30
0.0
 11
195.0
 21
-116.46635210513411
 31
0.0
  0
LINE
  5
42
  8
HIBINO-BASE
  6
CONTINUOUS
 62
     7
 10
245.0
 20
-96.466352105134064
 30
0.0
 11
245.0
 21
-116.46635210513411
 31
0.0
  0
LINE
  5
43
  8
HIBINO-BASE
  6
CONTINUOUS
 62
     7
 10
220.0
 20
-116.46635210513411
 30
0.0
 11
220.0
 21
-96.466352105134064
 31
0.0
  0
TEXT
  5
44
  8
HIBINO-BASE
 62
     7
 10
146.71307999999999
 20
-110.7390587718007
 30
0.0
 40
3.2576822916666659
  1
'11.01.
 41
0.75
 11
146.71307999999999
 21
-107.4813764801341
 31
0.0
 73
     3
  0
TEXT
  5
45
  8
HIBINO-BASE
 62
     7
 10
135.0
 20
-112.43423877180069
 30
0.0
 40
3.2576822916666659
  1
2
 41
0.75
 11
135.0
 21
-109.1765564801341
 31
0.0
 73
     3
  0
TEXT
  5
46
  8
HIBINO-BASE
 62
     7
 10
198.0116200220692
 20
-110.7390587718007
 30
0.0
 40
3.2576822916666659
  1
T.Ootake
 41
0.75
 11
198.0116200220692
 21
-107.4813764801341
 31
0.0
 73
     3
  0
TEXT
  5
47
  8
HIBINO-BASE
 62
     7
 10
107.76666666666659
 20
-112.51435210513399
 30
0.0
 40
6.5153645833333318
  1
A4
 41
0.75
 11
107.76666666666659
 21
-105.9989875218007
 31
0.0
 73
     3
  0
TEXT
  5
48
  8
HIBINO-BASE
 62
     7
 10
101.9166666666666
 20
-101.7052621051341
 30
0.0
 40
3.2576822916666659
  1
PAPER SIZE
 41
0.75
 11
101.9166666666666
 21
-98.447579813467414
 31
0.0
 73
     3
  0
TEXT
  5
49
  8
HIBINO-BASE
 62
     7
 10
-74.48072948621963
 20
-129.31683257348661
 30
0.0
 40
7.0583116319444441
  1
Hibino-Intersound Corporation
 41
0.75
 11
-74.48072948621963
 21
-122.2585209415421
 31
0.0
 73
     3
  0
TEXT
  5
4A
  8
HIBINO-BASE
 62
     7
 10
140.36121936042781
 20
-128.61465606690771
 30
0.0
 40
7.0583116319444441
  1
ヒビノインターサウンド株式会社
 41
0.75
 11
140.36121936042781
 21
-121.55634443496329
 31
0.0
 73
     3
  0
LINE
  5
4B
  8
SPEC
  6
CONTINUOUS
 62
     7
 10
-64.999999999999986
 20
383.53364789486602
 30
0.0
 11
230.0
 21
383.53364789486602
 31
0.0
  0
LINE
  5
4C
  8
SPEC
  6
CONTINUOUS
 62
     7
 10
-64.999999999999986
 20
376.03364789486591
 30
0.0
 11
230.0
 21
376.03364789486591
 31
0.0
  0
LINE
  5
4D
  8
SPEC
  6
CONTINUOUS
 62
     7
 10
-64.999999999999986
 20
361.03364789486602
 30
0.0
 11
230.0
 21
361.03364789486602
 31
0.0
  0
LINE
  5
4E
  8
SPEC
  6
CONTINUOUS
 62
     7
 10
-64.999999999999986
 20
368.53364789486602
 30
0.0
 11
230.0
 21
368.53364789486602
 31
0.0
  0
LINE
  5
4F
  8
SPEC
  6
CONTINUOUS
 62
     7
 10
-64.999999999999986
 20
383.53364789486602
 30
0.0
 11
-64.999999999999986
 21
316.03364789486602
 31
0.0
  0
TEXT
  5
50
  8
SPEC
 62
     7
 10
-62.5
 20
386.32018789486591
 30
0.0
 40
4.8865234375000002
  1
仕様
 41
0.75
 11
-62.5
 21
391.2067113323659
 31
0.0
 73
     3
  0
LINE
  5
51
  8
SPEC
  6
CONTINUOUS
 62
     7
 10
230.0
 20
383.53364789486602
 30
0.0
 11
230.0
 21
316.03364789486602
 31
0.0
  0
LINE
  5
52
  8
SPEC
  6
CONTINUOUS
 62
     7
 10
-64.999999999999986
 20
353.53364789486602
 30
0.0
 11
230.0
 21
353.53364789486602
 31
0.0
  0
LINE
  5
53
  8
SPEC
  6
CONTINUOUS
 62
     7
 10
-64.999999999999986
 20
346.03364789486602
 30
0.0
 11
230.0
 21
346.03364789486602
 31
0.0
  0
LINE
  5
54
  8
SPEC
  6
CONTINUOUS
 62
     7
 10
-64.999999999999986
 20
338.53364789486591
 30
0.0
 11
230.0
 21
338.53364789486591
 31
0.0
  0
LINE
  5
55
  8
SPEC
  6
CONTINUOUS
 62
     7
 10
-64.999999999999986
 20
331.03364789486602
 30
0.0
 11
230.0
 21
331.03364789486602
 31
0.0
  0
LINE
  5
56
  8
SPEC
  6
CONTINUOUS
 62
     7
 10
-64.999999999999986
 20
323.53364789486602
 30
0.0
 11
230.0
 21
323.53364789486602
 31
0.0
  0
LINE
  5
57
  8
SPEC
  6
CONTINUOUS
 62
     7
 10
-64.999999999999986
 20
316.03364789486602
 30
0.0
 11
230.0
 21
316.03364789486602
 31
0.0
  0
TEXT
  5
58
  8
SPEC
 62
     7
 10
-63.369800755580819
 20
325.47835974975641
 30
0.0
 40
3.8006293402777769
  1
寸法
 41
0.75
 11
-63.369800755580819
 21
329.27898909003432
 31
0.0
 73
     3
  0
TEXT
  5
59
  8
SPEC
 62
     7
 10
14.585488347097
 20
325.45454713388142
 30
0.0
 40
3.8006293402777769
  1
105(W)\U+00D729(H)\U+00D782(D)mm(突起部含まず）
 41
0.75
 11
14.585488347097
 21
329.25517647415921
 31
0.0
 73
     3
  0
TEXT
  5
5A
  8
SPEC
 62
     7
 10
14.72440043419158
 20
318.14569461509871
 30
0.0
 40
3.8006293402777769
  1
約180g
 41
0.75
 11
14.72440043419158
 21
321.9463239553765
 31
0.0
 73
     3
  0
TEXT
  5
5B
  8
SPEC
 62
     7
 10
-63.322600703317292
 20
318.18121008818702
 30
0.0
 40
3.8006293402777769
  1
重量
 41
0.75
 11
-63.322600703317292
 21
321.98183942846481
 31
0.0
 73
     3
  0
TEXT
  5
5C
  8
SPEC
 62
     7
 10
-63.353922136849853
 20
340.62036634970087
 30
0.0
 40
3.8006293402777769
  1
電源
 41
0.75
 11
-63.353922136849853
 21
344.42099568997872
 31
0.0
 73
     3
  0
TEXT
  5
5D
  8
SPEC
 62
     7
 10
14.839339442900791
 20
340.27169699418198
 30
0.0
 40
3.8006293402777769
  1
5V DC
 41
0.75
 11
14.839339442900791
 21
344.07232633445977
 31
0.0
 73
     3
  0
TEXT
  5
5E
  8
SPEC
 62
     7
 10
-63.286829618550243
 20
333.16833928819699
 30
0.0
 40
3.8006293402777769
  1
消費電力
 41
0.75
 11
-63.286829618550243
 21
336.96896862847478
 31
0.0
 73
     3
  0
TEXT
  5
5F
  8
SPEC
 62
     7
 10
14.77478296456294
 20
332.95625967463121
 30
0.0
 40
3.8006293402777769
  1
8.15W(最大)
 41
0.75
 11
14.77478296456294
 21
336.75688901490901
 31
0.0
 73
     3
  0
TEXT
  5
60
  8
SPEC
 62
     7
 10
-64.072836251293538
 20
377.653217481735
 30
0.0
 40
3.8006293402777769
  1
ビデオアンプ帯域
 41
0.75
 11
-64.072836251293538
 21
381.45384682201279
 31
0.0
 73
     3
  0
TEXT
  5
61
  8
SPEC
 62
     7
 10
14.55072032906817
 20
377.83205732561942
 30
0.0
 40
3.8006293402777769
  1
165MHz\U+00D72
 41
0.75
 11
14.55072032906817
 21
381.63268666589721
 31
0.0
 73
     3
  0
TEXT
  5
62
  8
SPEC
 62
     7
 10
-63.436736162271387
 20
370.3690272313159
 30
0.0
 40
3.8006293402777769
  1
デュアルリンク最大対応解像度
 41
0.75
 11
-63.436736162271387
 21
374.16965657159369
 31
0.0
 73
     3
  0
TEXT
  5
63
  8
SPEC
 62
     7
 10
14.508722496300461
 20
370.44037615973622
 30
0.0
 40
3.8006293402777769
  1
1080p、2k、3840\U+00D72400
 41
0.75
 11
14.508722496300461
 21
374.24100550001401
 31
0.0
 73
     3
  0
TEXT
  5
64
  8
SPEC
 62
     7
 10
-63.277400952967739
 20
362.7462266685248
 30
0.0
 40
3.8006293402777769
  1
入力DDC信号
 41
0.75
 11
-63.277400952967739
 21
366.54685600880259
 31
0.0
 73
     3
  0
TEXT
  5
65
  8
SPEC
 62
     7
 10
14.86735392893223
 20
362.94970147071569
 30
0.0
 40
3.8006293402777769
  1
5V p-p(TTL)
 41
0.75
 11
14.86735392893223
 21
366.75033081099349
 31
0.0
 73
     3
  0
TEXT
  5
66
  8
SPEC
 62
     7
 10
-63.236467432037358
 20
355.53249258480338
 30
0.0
 40
3.8006293402777769
  1
垂直周波数帯域
 41
0.75
 11
-63.236467432037358
 21
359.33312192508117
 31
0.0
 73
     3
  0
TEXT
  5
67
  8
SPEC
 62
     7
 10
14.84620074747567
 20
355.27401341355193
 30
0.0
 40
3.8006293402777769
  1
50-85Hz
 41
0.75
 11
14.84620074747567
 21
359.07464275382961
 31
0.0
 73
     3
  0
TEXT
  5
68
  8
SPEC
 62
     7
 10
-63.180422031095858
 20
348.09394353571003
 30
0.0
 40
3.8006293402777769
  1
DVI入出力コネクタ ー
 41
0.75
 11
-63.180422031095858
 21
351.89457287598782
 31
0.0
 73
     3
  0
TEXT
  5
69
  8
SPEC
 62
     7
 10
14.910873869662661
 20
347.93798679762119
 30
0.0
 40
3.8006293402777769
  1
DVI-I(29pin)female(digital only)
 41
0.75
 11
14.910873869662661
 21
351.73861613789887
 31
0.0
 73
     3
  0
LINE
  5
6A
  8
SPEC
  6
CONTINUOUS
 62
     7
 10
13.000000000000011
 20
383.53364789486602
 30
0.0
 11
13.000000000000011
 21
316.03364789486602
 31
0.0
  0
TEXT
  5
6B
  8
DIMNSIONS
 62
     7
 10
60.0
 20
-91.927372105134054
 30
0.0
 40
4.8865234375000002
  1
(単位：mm)
 41
0.75
 11
60.0
 21
-87.040848667634066
 31
0.0
 73
     3
  0
LINE
  5
6C
  8
DIMNSIONS
  6
CONTINUOUS
 62
     7
 10
-4.0000000000000142
 20
0.0
 30
0.0
 11
-22.750000000000011
 21
0.0
 31
0.0
  0
LINE
  5
6D
  8
DIMNSIONS
  6
CONTINUOUS
 62
     7
 10
-4.0000000000000142
 20
29.0
 30
0.0
 11
-22.750000000000011
 21
29.0
 31
0.0
  0
LINE
  5
6E
  8
DIMNSIONS
  6
CONTINUOUS
 62
     7
 10
-18.750000000000011
 20
0.0
 30
0.0
 11
-18.750000000000011
 21
29.0
 31
0.0
  0
LINE
  5
6F
  8
DIMNSIONS
  6
CONTINUOUS
 62
     7
 10
-18.750000000000011
 20
0.0
 30
0.0
 11
-20.090079590300501
 21
5.0012451171874943
 31
0.0
  0
LINE
  5
70
  8
DIMNSIONS
  6
CONTINUOUS
 62
     7
 10
-18.750000000000011
 20
0.0
 30
0.0
 11
-17.409920409699531
 21
5.0012451171874943
 31
0.0
  0
LINE
  5
71
  8
DIMNSIONS
  6
CONTINUOUS
 62
     7
 10
-18.750000000000011
 20
29.0
 30
0.0
 11
-17.409920409699531
 21
23.998754882812509
 31
0.0
  0
LINE
  5
72
  8
DIMNSIONS
  6
CONTINUOUS
 62
     7
 10
-18.750000000000011
 20
29.0
 30
0.0
 11
-20.090079590300501
 21
23.998754882812509
 31
0.0
  0
TEXT
  5
73
  8
DIMNSIONS
 62
     7
 10
-20.737777777777769
 20
10.97222222222222
 30
0.0
 40
5.4294704861111107
  1
29
 50
90.0
 41
0.75
 11
-26.16724826388889
 21
10.97222222222222
 31
0.0
 73
     3
  0
LINE
  5
74
  8
DIMNSIONS
  6
CONTINUOUS
 62
     7
 10
-0.0000000000000142
 20
-4.0
 30
0.0
 11
-0.0000000000000142
 21
-22.75
 31
0.0
  0
LINE
  5
75
  8
DIMNSIONS
  6
CONTINUOUS
 62
     7
 10
105.0
 20
-4.0
 30
0.0
 11
105.0
 21
-22.75
 31
0.0
  0
LINE
  5
76
  8
DIMNSIONS
  6
CONTINUOUS
 62
     7
 10
-0.0000000000000142
 20
-18.75
 30
0.0
 11
105.0
 21
-18.75
 31
0.0
  0
LINE
  5
77
  8
DIMNSIONS
  6
CONTINUOUS
 62
     7
 10
-0.0000000000000142
 20
-18.75
 30
0.0
 11
5.0012451171874801
 21
-17.409920409699499
 31
0.0
  0
LINE
  5
78
  8
DIMNSIONS
  6
CONTINUOUS
 62
     7
 10
-0.0000000000000142
 20
-18.75
 30
0.0
 11
5.0012451171874801
 21
-20.090079590300491
 31
0.0
  0
LINE
  5
79
  8
DIMNSIONS
  6
CONTINUOUS
 62
     7
 10
105.0
 20
-18.75
 30
0.0
 11
99.998754882812506
 21
-20.090079590300491
 31
0.0
  0
LINE
  5
7A
  8
DIMNSIONS
  6
CONTINUOUS
 62
     7
 10
105.0
 20
-18.75
 30
0.0
 11
99.998754882812506
 21
-17.409920409699499
 31
0.0
  0
TEXT
  5
7B
  8
DIMNSIONS
 62
     7
 10
47.208333333333329
 20
-16.762222222222238
 30
0.0
 40
5.4294704861111107
  1
105
 41
0.75
 11
47.208333333333329
 21
-11.332751736111129
 31
0.0
 73
     3
  0
LINE
  5
7C
  8
DIMNSIONS
  6
CONTINUOUS
 62
     7
 10
-0.5000000000000142
 20
-2.0
 30
0.0
 11
-22.750000000000011
 21
-2.0
 31
0.0
  0
LINE
  5
7D
  8
DIMNSIONS
  6
CONTINUOUS
 62
     7
 10
-2.0000000000000142
 20
0.0
 30
0.0
 11
-22.750000000000011
 21
0.0
 31
0.0
  0
LINE
  5
7E
  8
DIMNSIONS
  6
CONTINUOUS
 62
     7
 10
-18.750000000000011
 20
0.0
 30
0.0
 11
-18.750000000000011
 21
-2.0
 31
0.0
  0
LINE
  5
7F
  8
DIMNSIONS
  6
CONTINUOUS
 62
     7
 10
-18.750000000000011
 20
-2.0
 30
0.0
 11
-18.750000000000011
 21
-10.42777777777777
 31
0.0
  0
LINE
  5
80
  8
DIMNSIONS
  6
CONTINUOUS
 62
     7
 10
-18.750000000000011
 20
-2.0
 30
0.0
 11
-17.409920409699531
 21
-7.0012451171874943
 31
0.0
  0
LINE
  5
81
  8
DIMNSIONS
  6
CONTINUOUS
 62
     7
 10
-18.750000000000011
 20
-2.0
 30
0.0
 11
-20.090079590300501
 21
-7.0012451171874943
 31
0.0
  0
LINE
  5
82
  8
DIMNSIONS
  6
CONTINUOUS
 62
     7
 10
-18.750000000000011
 20
0.0
 30
0.0
 11
-18.750000000000011
 21
10.0
 31
0.0
  0
LINE
  5
83
  8
DIMNSIONS
  6
CONTINUOUS
 62
     7
 10
-18.750000000000011
 20
0.0
 30
0.0
 11
-20.090079590300501
 21
5.0012451171874943
 31
0.0
  0
LINE
  5
84
  8
DIMNSIONS
  6
CONTINUOUS
 62
     7
 10
-18.750000000000011
 20
0.0
 30
0.0
 11
-17.409920409699531
 21
5.0012451171874943
 31
0.0
  0
TEXT
  5
85
  8
DIMNSIONS
 62
     7
 10
-20.737777777777769
 20
-10.42777777777777
 30
0.0
 40
5.4294704861111107
  1
2
 50
90.0
 41
0.75
 11
-26.16724826388889
 21
-10.42777777777777
 31
0.0
 73
     3
  0
LINE
  5
86
  8
DIMNSIONS
  6
CONTINUOUS
 62
     7
 10
-4.0
 20
56.25
 30
0.0
 11
-22.750000000000011
 21
56.25
 31
0.0
  0
LINE
  5
87
  8
DIMNSIONS
  6
CONTINUOUS
 62
     7
 10
-4.0
 20
138.25
 30
0.0
 11
-22.750000000000011
 21
138.25
 31
0.0
  0
LINE
  5
88
  8
DIMNSIONS
  6
CONTINUOUS
 62
     7
 10
-18.750000000000011
 20
56.25
 30
0.0
 11
-18.750000000000011
 21
138.25
 31
0.0
  0
LINE
  5
89
  8
DIMNSIONS
  6
CONTINUOUS
 62
     7
 10
-18.750000000000011
 20
56.25
 30
0.0
 11
-20.090079590300501
 21
61.25124511718748
 31
0.0
  0
LINE
  5
8A
  8
DIMNSIONS
  6
CONTINUOUS
 62
     7
 10
-18.750000000000011
 20
56.25
 30
0.0
 11
-17.409920409699531
 21
61.25124511718748
 31
0.0
  0
LINE
  5
8B
  8
DIMNSIONS
  6
CONTINUOUS
 62
     7
 10
-18.750000000000011
 20
138.25
 30
0.0
 11
-17.409920409699531
 21
133.24875488281251
 31
0.0
  0
LINE
  5
8C
  8
DIMNSIONS
  6
CONTINUOUS
 62
     7
 10
-18.750000000000011
 20
138.25
 30
0.0
 11
-20.090079590300501
 21
133.24875488281251
 31
0.0
  0
TEXT
  5
8D
  8
DIMNSIONS
 62
     7
 10
-20.737777777777769
 20
93.722222222222229
 30
0.0
 40
5.4294704861111107
  1
82
 50
90.0
 41
0.75
 11
-26.16724826388889
 21
93.722222222222229
 31
0.0
 73
     3
  0
LINE
  5
8E
  8
DIMNSIONS
  6
CONTINUOUS
 62
     7
 10
29.155418074269392
 20
51.249999999673058
 30
0.0
 11
-22.750000000000011
 21
51.249999999673058
 31
0.0
  0
LINE
  5
8F
  8
DIMNSIONS
  6
CONTINUOUS
 62
     7
 10
-4.0
 20
56.25
 30
0.0
 11
-22.750000000000011
 21
56.25
 31
0.0
  0
LINE
  5
90
  8
DIMNSIONS
  6
CONTINUOUS
 62
     7
 10
-18.750000000000011
 20
56.25
 30
0.0
 11
-18.750000000000011
 21
51.249999999673058
 31
0.0
  0
LINE
  5
91
  8
DIMNSIONS
  6
CONTINUOUS
 62
     7
 10
-18.750000000000011
 20
51.249999999673058
 30
0.0
 11
-18.750000000000011
 21
41.67222222222221
 31
0.0
  0
LINE
  5
92
  8
DIMNSIONS
  6
CONTINUOUS
 62
     7
 10
-18.750000000000011
 20
51.249999999673058
 30
0.0
 11
-17.409920409699531
 21
46.248754882485571
 31
0.0
  0
LINE
  5
93
  8
DIMNSIONS
  6
CONTINUOUS
 62
     7
 10
-18.750000000000011
 20
51.249999999673058
 30
0.0
 11
-20.090079590300501
 21
46.248754882485571
 31
0.0
  0
LINE
  5
94
  8
DIMNSIONS
  6
CONTINUOUS
 62
     7
 10
-18.750000000000011
 20
56.25
 30
0.0
 11
-18.750000000000011
 21
66.25
 31
0.0
  0
LINE
  5
95
  8
DIMNSIONS
  6
CONTINUOUS
 62
     7
 10
-18.750000000000011
 20
56.25
 30
0.0
 11
-20.090079590300501
 21
61.25124511718748
 31
0.0
  0
LINE
  5
96
  8
DIMNSIONS
  6
CONTINUOUS
 62
     7
 10
-18.750000000000011
 20
56.25
 30
0.0
 11
-17.409920409699531
 21
61.25124511718748
 31
0.0
  0
TEXT
  5
97
  8
DIMNSIONS
 62
     7
 10
-20.737777777777769
 20
41.672222222222231
 30
0.0
 40
5.4294704861111107
  1
5
 50
90.0
 41
0.75
 11
-26.16724826388889
 21
41.672222222222231
 31
0.0
 73
     3
  0
LINE
  5
98
  8
DIMNSIONS
  6
CONTINUOUS
 62
     7
 10
-4.0
 20
138.25
 30
0.0
 11
-22.750000000000011
 21
138.25
 31
0.0
  0
LINE
  5
99
  8
DIMNSIONS
  6
CONTINUOUS
 62
     7
 10
7.290271113804307
 20
143.25000000032691
 30
0.0
 11
-22.750000000000011
 21
143.25000000032691
 31
0.0
  0
LINE
  5
9A
  8
DIMNSIONS
  6
CONTINUOUS
 62
     7
 10
-18.750000000000011
 20
143.25000000032691
 30
0.0
 11
-18.750000000000011
 21
138.25
 31
0.0
  0
LINE
  5
9B
  8
DIMNSIONS
  6
CONTINUOUS
 62
     7
 10
-18.750000000000011
 20
138.25
 30
0.0
 11
-18.750000000000011
 21
128.25
 31
0.0
  0
LINE
  5
9C
  8
DIMNSIONS
  6
CONTINUOUS
 62
     7
 10
-18.750000000000011
 20
138.25
 30
0.0
 11
-17.409920409699531
 21
133.24875488281251
 31
0.0
  0
LINE
  5
9D
  8
DIMNSIONS
  6
CONTINUOUS
 62
     7
 10
-18.750000000000011
 20
138.25
 30
0.0
 11
-20.090079590300501
 21
133.24875488281251
 31
0.0
  0
LINE
  5
9E
  8
DIMNSIONS
  6
CONTINUOUS
 62
     7
 10
-18.750000000000011
 20
143.25000000032691
 30
0.0
 11
-18.750000000000011
 21
152.52777777777769
 31
0.0
  0
LINE
  5
9F
  8
DIMNSIONS
  6
CONTINUOUS
 62
     7
 10
-18.750000000000011
 20
143.25000000032691
 30
0.0
 11
-20.090079590300501
 21
148.2512451175144
 31
0.0
  0
LINE
  5
A0
  8
DIMNSIONS
  6
CONTINUOUS
 62
     7
 10
-18.750000000000011
 20
143.25000000032691
 30
0.0
 11
-17.409920409699531
 21
148.2512451175144
 31
0.0
  0
TEXT
  5
A1
  8
DIMNSIONS
 62
     7
 10
-20.737777777777769
 20
149.0
 30
0.0
 40
5.4294704861111107
  1
5
 50
90.0
 41
0.75
 11
-26.16724826388889
 21
149.0
 31
0.0
 73
     3
  0
TEXT
  5
A2
  8
DATA
 62
     7
 10
200.0
 20
-94.590885151037554
 30
0.0
 40
4.8865234375000002
  1
EXT-DVI-142DL
 41
0.75
 11
200.0
 21
-89.704361713537565
 31
0.0
 73
     3
  0
TEXT
  5
A3
  8
DATA
 62
     7
 10
200.0
 20
-78.804611251066731
 30
0.0
 40
4.8865234375000002
  1
Gefen
 41
0.75
 11
200.0
 21
-73.918087813566714
 31
0.0
 73
     3
  0
TEXT
  5
A4
  8
DATA
 62
     7
 10
195.1146350206337
 20
-86.25943798300456
 30
0.0
 40
3.257687421875
  1
1:2 DVI分配機
 41
0.75
 11
195.1146350206337
 21
-83.001750561129555
 31
0.0
 73
     3
  0
TEXT
  5
A5
  8
DATA
 62
     7
 10
-60.0
 20
-107.99035210513409
 30
0.0
 40
3.2576822916666659
  1
仕様および外観は予告なく変更されることがありますので、ご了承ください。
 41
0.75
 11
-60.0
 21
-104.7326698134674
 31
0.0
 73
     3
  0
CIRCLE
  5
A6
  8
DATA
  6
CONTINUOUS
 62
     7
 10
35.487381985772608
 20
15.00992601410592
 30
0.0
 40
1.175000000000096
  0
POLYLINE
  5
A7
  8
DATA
  6
CONTINUOUS
 62
     7
 66
     1
 10
0.0
 20
0.0
 30
0.0
 70
     1
  0
VERTEX
  5
4A7
  8
DATA
  6
CONTINUOUS
 62
     7
 10
35.487381985772608
 20
17.709926014105921
 30
0.0
  0
VERTEX
  5
4A8
  8
DATA
  6
CONTINUOUS
 62
     7
 10
33.149113395554693
 20
16.35992601410593
 30
0.0
  0
VERTEX
  5
4A9
  8
DATA
  6
CONTINUOUS
 62
     7
 10
33.149113395554693
 20
13.659926014105929
 30
0.0
  0
VERTEX
  5
4AA
  8
DATA
  6
CONTINUOUS
 62
     7
 10
35.487381985772608
 20
12.30992601410596
 30
0.0
  0
VERTEX
  5
4AB
  8
DATA
  6
CONTINUOUS
 62
     7
 10
37.825650575990792
 20
13.659926014105929
 30
0.0
  0
VERTEX
  5
4AC
  8
DATA
  6
CONTINUOUS
 62
     7
 10
37.825650575990792
 20
16.35992601410593
 30
0.0
  0
SEQEND
  5
4AD
  8
DATA
  6
CONTINUOUS
 62
     7
  0
CIRCLE
  5
B0
  8
DATA
  6
CONTINUOUS
 62
     7
 10
67.987381985773027
 20
15.00992601410592
 30
0.0
 40
1.175000000000068
  0
POLYLINE
  5
B1
  8
DATA
  6
CONTINUOUS
 62
     7
 66
     1
 10
0.0
 20
0.0
 30
0.0
 70
     1
  0
VERTEX
  5
4AE
  8
DATA
  6
CONTINUOUS
 62
     7
 10
67.987381985773027
 20
17.709926014105921
 30
0.0
  0
VERTEX
  5
4AF
  8
DATA
  6
CONTINUOUS
 62
     7
 10
65.649113395555105
 20
16.35992601410593
 30
0.0
  0
VERTEX
  5
4B0
  8
DATA
  6
CONTINUOUS
 62
     7
 10
65.649113395555105
 20
13.659926014105929
 30
0.0
  0
VERTEX
  5
4B1
  8
DATA
  6
CONTINUOUS
 62
     7
 10
67.987381985773027
 20
12.30992601410596
 30
0.0
  0
VERTEX
  5
4B2
  8
DATA
  6
CONTINUOUS
 62
     7
 10
70.325650575991062
 20
13.659926014105929
 30
0.0
  0
VERTEX
  5
4B3
  8
DATA
  6
CONTINUOUS
 62
     7
 10
70.325650575991062
 20
16.35992601410593
 30
0.0
  0
SEQEND
  5
4B4
  8
DATA
  6
CONTINUOUS
 62
     7
  0
LINE
  5
BA
  8
DATA
  6
CONTINUOUS
 62
     7
 10
40.787477098581299
 20
18.93492601410594
 30
0.0
 11
62.68728687296484
 21
18.93492601410594
 31
0.0
  0
LINE
  5
BB
  8
DATA
  6
CONTINUOUS
 62
     7
 10
62.12836967551258
 20
11.084926014105941
 30
0.0
 11
41.346394296033601
 21
11.084926014105941
 31
0.0
  0
POLYLINE
  5
BC
  8
DATA
  6
CONTINUOUS
 62
     7
 66
     1
 10
0.0
 20
0.0
 30
0.0
 70
     1
  0
VERTEX
  5
4B5
  8
DATA
  6
CONTINUOUS
 62
     7
 10
40.737315814593792
 20
15.77492601410591
 30
0.0
  0
VERTEX
  5
4B6
  8
DATA
  6
CONTINUOUS
 62
     7
 10
42.267315814593822
 20
15.77492601410591
 30
0.0
  0
VERTEX
  5
4B7
  8
DATA
  6
CONTINUOUS
 62
     7
 10
42.267315814593822
 20
14.244926014105941
 30
0.0
  0
VERTEX
  5
4B8
  8
DATA
  6
CONTINUOUS
 62
     7
 10
40.737315814593792
 20
14.244926014105941
 30
0.0
  0
SEQEND
  5
4B9
  8
DATA
  6
CONTINUOUS
 62
     7
  0
POLYLINE
  5
C3
  8
DATA
  6
CONTINUOUS
 62
     7
 66
     1
 10
0.0
 20
0.0
 30
0.0
 70
     1
  0
VERTEX
  5
4BA
  8
DATA
  6
CONTINUOUS
 62
     7
 10
42.737315814593821
 20
15.77492601410591
 30
0.0
  0
VERTEX
  5
4BB
  8
DATA
  6
CONTINUOUS
 62
     7
 10
44.2673158145938
 20
15.77492601410591
 30
0.0
  0
VERTEX
  5
4BC
  8
DATA
  6
CONTINUOUS
 62
     7
 10
44.2673158145938
 20
14.244926014105941
 30
0.0
  0
VERTEX
  5
4BD
  8
DATA
  6
CONTINUOUS
 62
     7
 10
42.737315814593821
 20
14.244926014105941
 30
0.0
  0
SEQEND
  5
4BE
  8
DATA
  6
CONTINUOUS
 62
     7
  0
POLYLINE
  5
CA
  8
DATA
  6
CONTINUOUS
 62
     7
 66
     1
 10
0.0
 20
0.0
 30
0.0
 70
     1
  0
VERTEX
  5
4BF
  8
DATA
  6
CONTINUOUS
 62
     7
 10
44.737315814593799
 20
15.77492601410591
 30
0.0
  0
VERTEX
  5
4C0
  8
DATA
  6
CONTINUOUS
 62
     7
 10
46.2673158145938
 20
15.77492601410591
 30
0.0
  0
VERTEX
  5
4C1
  8
DATA
  6
CONTINUOUS
 62
     7
 10
46.2673158145938
 20
14.244926014105941
 30
0.0
  0
VERTEX
  5
4C2
  8
DATA
  6
CONTINUOUS
 62
     7
 10
44.737315814593799
 20
14.244926014105941
 30
0.0
  0
SEQEND
  5
4C3
  8
DATA
  6
CONTINUOUS
 62
     7
  0
POLYLINE
  5
D1
  8
DATA
  6
CONTINUOUS
 62
     7
 66
     1
 10
0.0
 20
0.0
 30
0.0
 70
     1
  0
VERTEX
  5
4C4
  8
DATA
  6
CONTINUOUS
 62
     7
 10
46.737315814593799
 20
15.77492601410591
 30
0.0
  0
VERTEX
  5
4C5
  8
DATA
  6
CONTINUOUS
 62
     7
 10
48.2673158145938
 20
15.77492601410591
 30
0.0
  0
VERTEX
  5
4C6
  8
DATA
  6
CONTINUOUS
 62
     7
 10
48.2673158145938
 20
14.244926014105941
 30
0.0
  0
VERTEX
  5
4C7
  8
DATA
  6
CONTINUOUS
 62
     7
 10
46.737315814593799
 20
14.244926014105941
 30
0.0
  0
SEQEND
  5
4C8
  8
DATA
  6
CONTINUOUS
 62
     7
  0
POLYLINE
  5
D8
  8
DATA
  6
CONTINUOUS
 62
     7
 66
     1
 10
0.0
 20
0.0
 30
0.0
 70
     1
  0
VERTEX
  5
4C9
  8
DATA
  6
CONTINUOUS
 62
     7
 10
48.737315814593799
 20
15.77492601410591
 30
0.0
  0
VERTEX
  5
4CA
  8
DATA
  6
CONTINUOUS
 62
     7
 10
50.2673158145938
 20
15.77492601410591
 30
0.0
  0
VERTEX
  5
4CB
  8
DATA
  6
CONTINUOUS
 62
     7
 10
50.2673158145938
 20
14.244926014105941
 30
0.0
  0
VERTEX
  5
4CC
  8
DATA
  6
CONTINUOUS
 62
     7
 10
48.737315814593799
 20
14.244926014105941
 30
0.0
  0
SEQEND
  5
4CD
  8
DATA
  6
CONTINUOUS
 62
     7
  0
POLYLINE
  5
DF
  8
DATA
  6
CONTINUOUS
 62
     7
 66
     1
 10
0.0
 20
0.0
 30
0.0
 70
     1
  0
VERTEX
  5
4CE
  8
DATA
  6
CONTINUOUS
 62
     7
 10
50.737315814593799
 20
15.77492601410591
 30
0.0
  0
VERTEX
  5
4CF
  8
DATA
  6
CONTINUOUS
 62
     7
 10
52.2673158145938
 20
15.77492601410591
 30
0.0
  0
VERTEX
  5
4D0
  8
DATA
  6
CONTINUOUS
 62
     7
 10
52.2673158145938
 20
14.244926014105941
 30
0.0
  0
VERTEX
  5
4D1
  8
DATA
  6
CONTINUOUS
 62
     7
 10
50.737315814593799
 20
14.244926014105941
 30
0.0
  0
SEQEND
  5
4D2
  8
DATA
  6
CONTINUOUS
 62
     7
  0
POLYLINE
  5
E6
  8
DATA
  6
CONTINUOUS
 62
     7
 66
     1
 10
0.0
 20
0.0
 30
0.0
 70
     1
  0
VERTEX
  5
4D3
  8
DATA
  6
CONTINUOUS
 62
     7
 10
52.737315814593792
 20
15.77492601410591
 30
0.0
  0
VERTEX
  5
4D4
  8
DATA
  6
CONTINUOUS
 62
     7
 10
54.2673158145938
 20
15.77492601410591
 30
0.0
  0
VERTEX
  5
4D5
  8
DATA
  6
CONTINUOUS
 62
     7
 10
54.2673158145938
 20
14.244926014105941
 30
0.0
  0
VERTEX
  5
4D6
  8
DATA
  6
CONTINUOUS
 62
     7
 10
52.737315814593792
 20
14.244926014105941
 30
0.0
  0
SEQEND
  5
4D7
  8
DATA
  6
CONTINUOUS
 62
     7
  0
POLYLINE
  5
ED
  8
DATA
  6
CONTINUOUS
 62
     7
 66
     1
 10
0.0
 20
0.0
 30
0.0
 70
     1
  0
VERTEX
  5
4D8
  8
DATA
  6
CONTINUOUS
 62
     7
 10
54.737315814593799
 20
15.77492601410591
 30
0.0
  0
VERTEX
  5
4D9
  8
DATA
  6
CONTINUOUS
 62
     7
 10
56.2673158145938
 20
15.77492601410591
 30
0.0
  0
VERTEX
  5
4DA
  8
DATA
  6
CONTINUOUS
 62
     7
 10
56.2673158145938
 20
14.244926014105941
 30
0.0
  0
VERTEX
  5
4DB
  8
DATA
  6
CONTINUOUS
 62
     7
 10
54.737315814593799
 20
14.244926014105941
 30
0.0
  0
SEQEND
  5
4DC
  8
DATA
  6
CONTINUOUS
 62
     7
  0
POLYLINE
  5
F4
  8
DATA
  6
CONTINUOUS
 62
     7
 66
     1
 10
0.0
 20
0.0
 30
0.0
 70
     1
  0
VERTEX
  5
4DD
  8
DATA
  6
CONTINUOUS
 62
     7
 10
40.737315814593792
 20
17.774926014105912
 30
0.0
  0
VERTEX
  5
4DE
  8
DATA
  6
CONTINUOUS
 62
     7
 10
42.267315814593822
 20
17.774926014105912
 30
0.0
  0
VERTEX
  5
4DF
  8
DATA
  6
CONTINUOUS
 62
     7
 10
42.267315814593822
 20
16.244926014105939
 30
0.0
  0
VERTEX
  5
4E0
  8
DATA
  6
CONTINUOUS
 62
     7
 10
40.737315814593792
 20
16.244926014105939
 30
0.0
  0
SEQEND
  5
4E1
  8
DATA
  6
CONTINUOUS
 62
     7
  0
POLYLINE
  5
FB
  8
DATA
  6
CONTINUOUS
 62
     7
 66
     1
 10
0.0
 20
0.0
 30
0.0
 70
     1
  0
VERTEX
  5
4E2
  8
DATA
  6
CONTINUOUS
 62
     7
 10
42.737315814593821
 20
17.774926014105912
 30
0.0
  0
VERTEX
  5
4E3
  8
DATA
  6
CONTINUOUS
 62
     7
 10
44.2673158145938
 20
17.774926014105912
 30
0.0
  0
VERTEX
  5
4E4
  8
DATA
  6
CONTINUOUS
 62
     7
 10
44.2673158145938
 20
16.244926014105939
 30
0.0
  0
VERTEX
  5
4E5
  8
DATA
  6
CONTINUOUS
 62
     7
 10
42.737315814593821
 20
16.244926014105939
 30
0.0
  0
SEQEND
  5
4E6
  8
DATA
  6
CONTINUOUS
 62
     7
  0
POLYLINE
  5
102
  8
DATA
  6
CONTINUOUS
 62
     7
 66
     1
 10
0.0
 20
0.0
 30
0.0
 70
     1
  0
VERTEX
  5
4E7
  8
DATA
  6
CONTINUOUS
 62
     7
 10
44.737315814593799
 20
17.774926014105912
 30
0.0
  0
VERTEX
  5
4E8
  8
DATA
  6
CONTINUOUS
 62
     7
 10
46.2673158145938
 20
17.774926014105912
 30
0.0
  0
VERTEX
  5
4E9
  8
DATA
  6
CONTINUOUS
 62
     7
 10
46.2673158145938
 20
16.244926014105939
 30
0.0
  0
VERTEX
  5
4EA
  8
DATA
  6
CONTINUOUS
 62
     7
 10
44.737315814593799
 20
16.244926014105939
 30
0.0
  0
SEQEND
  5
4EB
  8
DATA
  6
CONTINUOUS
 62
     7
  0
POLYLINE
  5
109
  8
DATA
  6
CONTINUOUS
 62
     7
 66
     1
 10
0.0
 20
0.0
 30
0.0
 70
     1
  0
VERTEX
  5
4EC
  8
DATA
  6
CONTINUOUS
 62
     7
 10
46.737315814593799
 20
17.774926014105912
 30
0.0
  0
VERTEX
  5
4ED
  8
DATA
  6
CONTINUOUS
 62
     7
 10
48.2673158145938
 20
17.774926014105912
 30
0.0
  0
VERTEX
  5
4EE
  8
DATA
  6
CONTINUOUS
 62
     7
 10
48.2673158145938
 20
16.244926014105939
 30
0.0
  0
VERTEX
  5
4EF
  8
DATA
  6
CONTINUOUS
 62
     7
 10
46.737315814593799
 20
16.244926014105939
 30
0.0
  0
SEQEND
  5
4F0
  8
DATA
  6
CONTINUOUS
 62
     7
  0
POLYLINE
  5
110
  8
DATA
  6
CONTINUOUS
 62
     7
 66
     1
 10
0.0
 20
0.0
 30
0.0
 70
     1
  0
VERTEX
  5
4F1
  8
DATA
  6
CONTINUOUS
 62
     7
 10
48.737315814593799
 20
17.774926014105912
 30
0.0
  0
VERTEX
  5
4F2
  8
DATA
  6
CONTINUOUS
 62
     7
 10
50.2673158145938
 20
17.774926014105912
 30
0.0
  0
VERTEX
  5
4F3
  8
DATA
  6
CONTINUOUS
 62
     7
 10
50.2673158145938
 20
16.244926014105939
 30
0.0
  0
VERTEX
  5
4F4
  8
DATA
  6
CONTINUOUS
 62
     7
 10
48.737315814593799
 20
16.244926014105939
 30
0.0
  0
SEQEND
  5
4F5
  8
DATA
  6
CONTINUOUS
 62
     7
  0
POLYLINE
  5
117
  8
DATA
  6
CONTINUOUS
 62
     7
 66
     1
 10
0.0
 20
0.0
 30
0.0
 70
     1
  0
VERTEX
  5
4F6
  8
DATA
  6
CONTINUOUS
 62
     7
 10
50.737315814593799
 20
17.774926014105912
 30
0.0
  0
VERTEX
  5
4F7
  8
DATA
  6
CONTINUOUS
 62
     7
 10
52.2673158145938
 20
17.774926014105912
 30
0.0
  0
VERTEX
  5
4F8
  8
DATA
  6
CONTINUOUS
 62
     7
 10
52.2673158145938
 20
16.244926014105939
 30
0.0
  0
VERTEX
  5
4F9
  8
DATA
  6
CONTINUOUS
 62
     7
 10
50.737315814593799
 20
16.244926014105939
 30
0.0
  0
SEQEND
  5
4FA
  8
DATA
  6
CONTINUOUS
 62
     7
  0
POLYLINE
  5
11E
  8
DATA
  6
CONTINUOUS
 62
     7
 66
     1
 10
0.0
 20
0.0
 30
0.0
 70
     1
  0
VERTEX
  5
4FB
  8
DATA
  6
CONTINUOUS
 62
     7
 10
52.737315814593792
 20
17.774926014105912
 30
0.0
  0
VERTEX
  5
4FC
  8
DATA
  6
CONTINUOUS
 62
     7
 10
54.2673158145938
 20
17.774926014105912
 30
0.0
  0
VERTEX
  5
4FD
  8
DATA
  6
CONTINUOUS
 62
     7
 10
54.2673158145938
 20
16.244926014105939
 30
0.0
  0
VERTEX
  5
4FE
  8
DATA
  6
CONTINUOUS
 62
     7
 10
52.737315814593792
 20
16.244926014105939
 30
0.0
  0
SEQEND
  5
4FF
  8
DATA
  6
CONTINUOUS
 62
     7
  0
POLYLINE
  5
125
  8
DATA
  6
CONTINUOUS
 62
     7
 66
     1
 10
0.0
 20
0.0
 30
0.0
 70
     1
  0
VERTEX
  5
500
  8
DATA
  6
CONTINUOUS
 62
     7
 10
54.737315814593799
 20
17.774926014105912
 30
0.0
  0
VERTEX
  5
501
  8
DATA
  6
CONTINUOUS
 62
     7
 10
56.2673158145938
 20
17.774926014105912
 30
0.0
  0
VERTEX
  5
502
  8
DATA
  6
CONTINUOUS
 62
     7
 10
56.2673158145938
 20
16.244926014105939
 30
0.0
  0
VERTEX
  5
503
  8
DATA
  6
CONTINUOUS
 62
     7
 10
54.737315814593799
 20
16.244926014105939
 30
0.0
  0
SEQEND
  5
504
  8
DATA
  6
CONTINUOUS
 62
     7
  0
POLYLINE
  5
12C
  8
DATA
  6
CONTINUOUS
 62
     7
 66
     1
 10
0.0
 20
0.0
 30
0.0
 70
     1
  0
VERTEX
  5
505
  8
DATA
  6
CONTINUOUS
 62
     7
 10
40.737315814593792
 20
13.77492601410591
 30
0.0
  0
VERTEX
  5
506
  8
DATA
  6
CONTINUOUS
 62
     7
 10
42.267315814593822
 20
13.77492601410591
 30
0.0
  0
VERTEX
  5
507
  8
DATA
  6
CONTINUOUS
 62
     7
 10
42.267315814593822
 20
12.244926014105911
 30
0.0
  0
VERTEX
  5
508
  8
DATA
  6
CONTINUOUS
 62
     7
 10
40.737315814593792
 20
12.244926014105911
 30
0.0
  0
SEQEND
  5
509
  8
DATA
  6
CONTINUOUS
 62
     7
  0
POLYLINE
  5
133
  8
DATA
  6
CONTINUOUS
 62
     7
 66
     1
 10
0.0
 20
0.0
 30
0.0
 70
     1
  0
VERTEX
  5
50A
  8
DATA
  6
CONTINUOUS
 62
     7
 10
42.737315814593821
 20
13.77492601410591
 30
0.0
  0
VERTEX
  5
50B
  8
DATA
  6
CONTINUOUS
 62
     7
 10
44.2673158145938
 20
13.77492601410591
 30
0.0
  0
VERTEX
  5
50C
  8
DATA
  6
CONTINUOUS
 62
     7
 10
44.2673158145938
 20
12.244926014105911
 30
0.0
  0
VERTEX
  5
50D
  8
DATA
  6
CONTINUOUS
 62
     7
 10
42.737315814593821
 20
12.244926014105911
 30
0.0
  0
SEQEND
  5
50E
  8
DATA
  6
CONTINUOUS
 62
     7
  0
POLYLINE
  5
13A
  8
DATA
  6
CONTINUOUS
 62
     7
 66
     1
 10
0.0
 20
0.0
 30
0.0
 70
     1
  0
VERTEX
  5
50F
  8
DATA
  6
CONTINUOUS
 62
     7
 10
44.737315814593799
 20
13.77492601410591
 30
0.0
  0
VERTEX
  5
510
  8
DATA
  6
CONTINUOUS
 62
     7
 10
46.2673158145938
 20
13.77492601410591
 30
0.0
  0
VERTEX
  5
511
  8
DATA
  6
CONTINUOUS
 62
     7
 10
46.2673158145938
 20
12.244926014105911
 30
0.0
  0
VERTEX
  5
512
  8
DATA
  6
CONTINUOUS
 62
     7
 10
44.737315814593799
 20
12.244926014105911
 30
0.0
  0
SEQEND
  5
513
  8
DATA
  6
CONTINUOUS
 62
     7
  0
POLYLINE
  5
141
  8
DATA
  6
CONTINUOUS
 62
     7
 66
     1
 10
0.0
 20
0.0
 30
0.0
 70
     1
  0
VERTEX
  5
514
  8
DATA
  6
CONTINUOUS
 62
     7
 10
46.737315814593799
 20
13.77492601410591
 30
0.0
  0
VERTEX
  5
515
  8
DATA
  6
CONTINUOUS
 62
     7
 10
48.2673158145938
 20
13.77492601410591
 30
0.0
  0
VERTEX
  5
516
  8
DATA
  6
CONTINUOUS
 62
     7
 10
48.2673158145938
 20
12.244926014105911
 30
0.0
  0
VERTEX
  5
517
  8
DATA
  6
CONTINUOUS
 62
     7
 10
46.737315814593799
 20
12.244926014105911
 30
0.0
  0
SEQEND
  5
518
  8
DATA
  6
CONTINUOUS
 62
     7
  0
POLYLINE
  5
148
  8
DATA
  6
CONTINUOUS
 62
     7
 66
     1
 10
0.0
 20
0.0
 30
0.0
 70
     1
  0
VERTEX
  5
519
  8
DATA
  6
CONTINUOUS
 62
     7
 10
48.737315814593799
 20
13.77492601410591
 30
0.0
  0
VERTEX
  5
51A
  8
DATA
  6
CONTINUOUS
 62
     7
 10
50.2673158145938
 20
13.77492601410591
 30
0.0
  0
VERTEX
  5
51B
  8
DATA
  6
CONTINUOUS
 62
     7
 10
50.2673158145938
 20
12.244926014105911
 30
0.0
  0
VERTEX
  5
51C
  8
DATA
  6
CONTINUOUS
 62
     7
 10
48.737315814593799
 20
12.244926014105911
 30
0.0
  0
SEQEND
  5
51D
  8
DATA
  6
CONTINUOUS
 62
     7
  0
POLYLINE
  5
14F
  8
DATA
  6
CONTINUOUS
 62
     7
 66
     1
 10
0.0
 20
0.0
 30
0.0
 70
     1
  0
VERTEX
  5
51E
  8
DATA
  6
CONTINUOUS
 62
     7
 10
50.737315814593799
 20
13.77492601410591
 30
0.0
  0
VERTEX
  5
51F
  8
DATA
  6
CONTINUOUS
 62
     7
 10
52.2673158145938
 20
13.77492601410591
 30
0.0
  0
VERTEX
  5
520
  8
DATA
  6
CONTINUOUS
 62
     7
 10
52.2673158145938
 20
12.244926014105911
 30
0.0
  0
VERTEX
  5
521
  8
DATA
  6
CONTINUOUS
 62
     7
 10
50.737315814593799
 20
12.244926014105911
 30
0.0
  0
SEQEND
  5
522
  8
DATA
  6
CONTINUOUS
 62
     7
  0
POLYLINE
  5
156
  8
DATA
  6
CONTINUOUS
 62
     7
 66
     1
 10
0.0
 20
0.0
 30
0.0
 70
     1
  0
VERTEX
  5
523
  8
DATA
  6
CONTINUOUS
 62
     7
 10
52.737315814593792
 20
13.77492601410591
 30
0.0
  0
VERTEX
  5
524
  8
DATA
  6
CONTINUOUS
 62
     7
 10
54.2673158145938
 20
13.77492601410591
 30
0.0
  0
VERTEX
  5
525
  8
DATA
  6
CONTINUOUS
 62
     7
 10
54.2673158145938
 20
12.244926014105911
 30
0.0
  0
VERTEX
  5
526
  8
DATA
  6
CONTINUOUS
 62
     7
 10
52.737315814593792
 20
12.244926014105911
 30
0.0
  0
SEQEND
  5
527
  8
DATA
  6
CONTINUOUS
 62
     7
  0
POLYLINE
  5
15D
  8
DATA
  6
CONTINUOUS
 62
     7
 66
     1
 10
0.0
 20
0.0
 30
0.0
 70
     1
  0
VERTEX
  5
528
  8
DATA
  6
CONTINUOUS
 62
     7
 10
54.737315814593799
 20
13.77492601410591
 30
0.0
  0
VERTEX
  5
529
  8
DATA
  6
CONTINUOUS
 62
     7
 10
56.2673158145938
 20
13.77492601410591
 30
0.0
  0
VERTEX
  5
52A
  8
DATA
  6
CONTINUOUS
 62
     7
 10
56.2673158145938
 20
12.244926014105911
 30
0.0
  0
VERTEX
  5
52B
  8
DATA
  6
CONTINUOUS
 62
     7
 10
54.737315814593799
 20
12.244926014105911
 30
0.0
  0
SEQEND
  5
52C
  8
DATA
  6
CONTINUOUS
 62
     7
  0
POLYLINE
  5
164
  8
DATA
  6
CONTINUOUS
 62
     7
 66
     1
 10
0.0
 20
0.0
 30
0.0
  0
VERTEX
  5
52D
  8
DATA
  6
CONTINUOUS
 62
     7
 10
60.287381985773202
 20
15.409926014105929
 30
0.0
  0
VERTEX
  5
52E
  8
DATA
  6
CONTINUOUS
 62
     7
 10
62.387381985773182
 20
15.409926014105929
 30
0.0
  0
VERTEX
  5
52F
  8
DATA
  6
CONTINUOUS
 62
     7
 10
62.387381985773182
 20
14.60992601410592
 30
0.0
  0
VERTEX
  5
530
  8
DATA
  6
CONTINUOUS
 62
     7
 10
60.287381985773202
 20
14.60992601410592
 30
0.0
  0
SEQEND
  5
531
  8
DATA
  6
CONTINUOUS
 62
     7
  0
POLYLINE
  5
16B
  8
DATA
  6
CONTINUOUS
 62
     7
 66
     1
 10
0.0
 20
0.0
 30
0.0
  0
VERTEX
  5
532
  8
DATA
  6
CONTINUOUS
 62
     7
 10
59.487381985773183
 20
14.60992601410592
 30
0.0
  0
VERTEX
  5
533
  8
DATA
  6
CONTINUOUS
 62
     7
 10
57.387381985773189
 20
14.60992601410592
 30
0.0
  0
VERTEX
  5
534
  8
DATA
  6
CONTINUOUS
 62
     7
 10
57.387381985773189
 20
15.409926014105929
 30
0.0
  0
VERTEX
  5
535
  8
DATA
  6
CONTINUOUS
 62
     7
 10
59.487381985773183
 20
15.409926014105929
 30
0.0
  0
SEQEND
  5
536
  8
DATA
  6
CONTINUOUS
 62
     7
  0
POLYLINE
  5
172
  8
DATA
  6
CONTINUOUS
 62
     7
 66
     1
 10
0.0
 20
0.0
 30
0.0
  0
VERTEX
  5
537
  8
DATA
  6
CONTINUOUS
 62
     7
 10
60.287381985773202
 20
14.60992601410592
 30
0.0
  0
VERTEX
  5
538
  8
DATA
  6
CONTINUOUS
 62
     7
 10
60.287381985773202
 20
12.50992601410592
 30
0.0
  0
VERTEX
  5
539
  8
DATA
  6
CONTINUOUS
 62
     7
 10
59.487381985773183
 20
12.50992601410592
 30
0.0
  0
VERTEX
  5
53A
  8
DATA
  6
CONTINUOUS
 62
     7
 10
59.487381985773183
 20
14.60992601410592
 30
0.0
  0
SEQEND
  5
53B
  8
DATA
  6
CONTINUOUS
 62
     7
  0
POLYLINE
  5
179
  8
DATA
  6
CONTINUOUS
 62
     7
 66
     1
 10
0.0
 20
0.0
 30
0.0
  0
VERTEX
  5
53C
  8
DATA
  6
CONTINUOUS
 62
     7
 10
59.487381985773183
 20
15.409926014105929
 30
0.0
  0
VERTEX
  5
53D
  8
DATA
  6
CONTINUOUS
 62
     7
 10
59.487381985773183
 20
17.509926014105929
 30
0.0
  0
VERTEX
  5
53E
  8
DATA
  6
CONTINUOUS
 62
     7
 10
60.287381985773202
 20
17.509926014105929
 30
0.0
  0
VERTEX
  5
53F
  8
DATA
  6
CONTINUOUS
 62
     7
 10
60.287381985773202
 20
15.409926014105929
 30
0.0
  0
SEQEND
  5
540
  8
DATA
  6
CONTINUOUS
 62
     7
  0
POLYLINE
  5
180
  8
DATA
  6
CONTINUOUS
 62
     7
 66
     1
 10
0.0
 20
0.0
 30
0.0
 70
     1
  0
VERTEX
  5
541
  8
DATA
  6
CONTINUOUS
 62
     7
 10
58.027097555301459
 20
16.76935382475585
 30
0.0
  0
VERTEX
  5
542
  8
DATA
  6
CONTINUOUS
 62
     7
 10
59.027097555301459
 20
16.76935382475585
 30
0.0
  0
VERTEX
  5
543
  8
DATA
  6
CONTINUOUS
 62
     7
 10
59.027097555301459
 20
15.76935382475585
 30
0.0
  0
VERTEX
  5
544
  8
DATA
  6
CONTINUOUS
 62
     7
 10
58.027097555301459
 20
15.76935382475585
 30
0.0
  0
SEQEND
  5
545
  8
DATA
  6
CONTINUOUS
 62
     7
  0
POLYLINE
  5
187
  8
DATA
  6
CONTINUOUS
 62
     7
 66
     1
 10
0.0
 20
0.0
 30
0.0
 70
     1
  0
VERTEX
  5
546
  8
DATA
  6
CONTINUOUS
 62
     7
 10
60.747666416244897
 20
16.76935382475585
 30
0.0
  0
VERTEX
  5
547
  8
DATA
  6
CONTINUOUS
 62
     7
 10
61.747666416244897
 20
16.76935382475585
 30
0.0
  0
VERTEX
  5
548
  8
DATA
  6
CONTINUOUS
 62
     7
 10
61.747666416244897
 20
15.76935382475585
 30
0.0
  0
VERTEX
  5
549
  8
DATA
  6
CONTINUOUS
 62
     7
 10
60.747666416244897
 20
15.76935382475585
 30
0.0
  0
SEQEND
  5
54A
  8
DATA
  6
CONTINUOUS
 62
     7
  0
POLYLINE
  5
18E
  8
DATA
  6
CONTINUOUS
 62
     7
 66
     1
 10
0.0
 20
0.0
 30
0.0
 70
     1
  0
VERTEX
  5
54B
  8
DATA
  6
CONTINUOUS
 62
     7
 10
58.027097555301459
 20
14.250498203456001
 30
0.0
  0
VERTEX
  5
54C
  8
DATA
  6
CONTINUOUS
 62
     7
 10
59.027097555301459
 20
14.250498203456001
 30
0.0
  0
VERTEX
  5
54D
  8
DATA
  6
CONTINUOUS
 62
     7
 10
59.027097555301459
 20
13.250498203456001
 30
0.0
  0
VERTEX
  5
54E
  8
DATA
  6
CONTINUOUS
 62
     7
 10
58.027097555301459
 20
13.250498203456001
 30
0.0
  0
SEQEND
  5
54F
  8
DATA
  6
CONTINUOUS
 62
     7
  0
POLYLINE
  5
195
  8
DATA
  6
CONTINUOUS
 62
     7
 66
     1
 10
0.0
 20
0.0
 30
0.0
 70
     1
  0
VERTEX
  5
550
  8
DATA
  6
CONTINUOUS
 62
     7
 10
60.747666416244897
 20
14.250498203456001
 30
0.0
  0
VERTEX
  5
551
  8
DATA
  6
CONTINUOUS
 62
     7
 10
61.747666416244897
 20
14.250498203456001
 30
0.0
  0
VERTEX
  5
552
  8
DATA
  6
CONTINUOUS
 62
     7
 10
61.747666416244897
 20
13.250498203456001
 30
0.0
  0
VERTEX
  5
553
  8
DATA
  6
CONTINUOUS
 62
     7
 10
60.747666416244897
 20
13.250498203456001
 30
0.0
  0
SEQEND
  5
554
  8
DATA
  6
CONTINUOUS
 62
     7
  0
LINE
  5
19C
  8
DATA
  6
CONTINUOUS
 62
     7
 10
39.792010167825843
 20
17.83981770861973
 30
0.0
 11
40.350927365278167
 21
11.989817708619711
 31
0.0
  0
LINE
  5
19D
  8
DATA
  6
CONTINUOUS
 62
     7
 10
63.682753803720253
 20
17.83981770861973
 30
0.0
 11
63.123836606267957
 21
11.989817708619769
 31
0.0
  0
ARC
  5
19E
  8
DATA
  6
CONTINUOUS
 62
     7
 10
40.787477098581299
 20
17.934926014105969
 30
0.0
 40
0.9999999999999715
 50
90.0
 51
185.45755348510701
  0
ARC
  5
19F
  8
DATA
  6
CONTINUOUS
 62
     7
 10
62.687286872964869
 20
17.93492601410594
 30
0.0
 40
0.9999999999999729
 50
354.54244651489398
 51
90.000000000001606
  0
ARC
  5
1A0
  8
DATA
  6
CONTINUOUS
 62
     7
 10
41.34639429603363
 20
12.084926014105941
 30
0.0
 40
1.0000000000000879
 50
185.45755348510701
 51
269.99999999999841
  0
ARC
  5
1A1
  8
DATA
  6
CONTINUOUS
 62
     7
 10
62.12836967551258
 20
12.084926014105941
 30
0.0
 40
1.0
 50
270.0
 51
354.54244651489569
  0
TEXT
  5
1A2
  8
DATA
 62
     7
 10
47.036174522014853
 20
3.4131059493241578
 30
0.0
 40
2.185361870659722
  1
DVI In 
 41
0.75
 11
47.036174522014853
 21
5.5984678199838811
 31
0.0
 73
     3
  0
LINE
  5
1A3
  8
DATA
  6
CONTINUOUS
 62
     7
 10
-0.0000000000000142
 20
2.0
 30
0.0
 11
-0.0000000000000142
 21
27.0
 31
0.0
  0
LINE
  5
1A4
  8
DATA
  6
CONTINUOUS
 62
     7
 10
103.0
 20
0.0
 30
0.0
 11
93.0
 21
0.0
 31
0.0
  0
LINE
  5
1A5
  8
DATA
  6
CONTINUOUS
 62
     7
 10
12.0
 20
0.0
 30
0.0
 11
1.9999999999999849
 21
0.0
 31
0.0
  0
LINE
  5
1A6
  8
DATA
  6
CONTINUOUS
 62
     7
 10
105.0
 20
27.0
 30
0.0
 11
105.0
 21
2.0
 31
0.0
  0
LINE
  5
1A7
  8
DATA
  6
CONTINUOUS
 62
     7
 10
1.9999999999999849
 20
29.0
 30
0.0
 11
103.0
 21
29.0
 31
0.0
  0
LINE
  5
1A8
  8
DATA
  6
CONTINUOUS
 62
     7
 10
1.9999999999999849
 20
2.0
 30
0.0
 11
103.0
 21
2.0
 31
0.0
  0
LINE
  5
1A9
  8
DATA
  6
CONTINUOUS
 62
     7
 10
12.0
 20
0.0
 30
0.0
 11
12.0
 21
2.0
 31
0.0
  0
LINE
  5
1AA
  8
DATA
  6
CONTINUOUS
 62
     7
 10
93.0
 20
0.0
 30
0.0
 11
93.0
 21
2.0
 31
0.0
  0
LINE
  5
1AB
  8
DATA
  6
CONTINUOUS
 62
     7
 10
3.9999999999999849
 20
27.0
 30
0.0
 11
101.0
 21
27.0
 31
0.0
  0
LINE
  5
1AC
  8
DATA
  6
CONTINUOUS
 62
     7
 10
1.9999999999999849
 20
2.0
 30
0.0
 11
1.9999999999999849
 21
25.0
 31
0.0
  0
LINE
  5
1AD
  8
DATA
  6
CONTINUOUS
 62
     7
 10
103.0
 20
25.0
 30
0.0
 11
103.0
 21
2.0
 31
0.0
  0
ARC
  5
1AE
  8
DATA
  6
CONTINUOUS
 62
     7
 10
3.9999999999999849
 20
25.0
 30
0.0
 40
2.0
 50
90.0
 51
180.0
  0
ARC
  5
1AF
  8
DATA
  6
CONTINUOUS
 62
     7
 10
1.9999999999999849
 20
27.0
 30
0.0
 40
2.0
 50
90.0
 51
180.0
  0
ARC
  5
1B0
  8
DATA
  6
CONTINUOUS
 62
     7
 10
1.9999999999999849
 20
2.0
 30
0.0
 40
2.0
 50
180.0
 51
270.0
  0
ARC
  5
1B1
  8
DATA
  6
CONTINUOUS
 62
     7
 10
101.0
 20
25.0
 30
0.0
 40
2.0
 50
0.0
 51
90.0
  0
ARC
  5
1B2
  8
DATA
  6
CONTINUOUS
 62
     7
 10
103.0
 20
27.0
 30
0.0
 40
2.0
 50
0.0
 51
90.0
  0
ARC
  5
1B3
  8
DATA
  6
CONTINUOUS
 62
     7
 10
103.0
 20
2.0
 30
0.0
 40
2.0
 50
270.0
 51
0.0
  0
LINE
  5
1B4
  8
DATA
  6
CONTINUOUS
 62
     7
 10
3.4999999999999849
 20
-2.0
 30
0.0
 11
9.499999999999984
 21
-2.0
 31
0.0
  0
LINE
  5
1B5
  8
DATA
  6
CONTINUOUS
 62
     7
 10
3.4999999999999849
 20
-2.0
 30
0.0
 11
2.7999999999999821
 21
0.0
 31
0.0
  0
LINE
  5
1B6
  8
DATA
  6
CONTINUOUS
 62
     7
 10
9.499999999999984
 20
-2.0
 30
0.0
 11
10.199999999999971
 21
0.0
 31
0.0
  0
LINE
  5
1B7
  8
DATA
  6
CONTINUOUS
 62
     7
 10
101.5
 20
-2.0
 30
0.0
 11
95.499999999999986
 21
-2.0
 31
0.0
  0
LINE
  5
1B8
  8
DATA
  6
CONTINUOUS
 62
     7
 10
101.5
 20
-2.0
 30
0.0
 11
102.2
 21
0.0
 31
0.0
  0
LINE
  5
1B9
  8
DATA
  6
CONTINUOUS
 62
     7
 10
95.499999999999986
 20
-2.0
 30
0.0
 11
94.799999999999997
 21
0.0
 31
0.0
  0
CIRCLE
  5
1BA
  8
DATA
  6
CONTINUOUS
 62
     7
 10
12.49999999999998
 20
16.5
 30
0.0
 40
3.25
  0
CIRCLE
  5
1BB
  8
DATA
  6
CONTINUOUS
 62
     7
 10
12.49999999999998
 20
16.5
 30
0.0
 40
0.6500000000000057
  0
TEXT
  5
1BC
  8
DATA
 62
     7
 10
8.3795711383142333
 20
3.4131059493241578
 30
0.0
 40
2.185361870659722
  1
5V DC 
 41
0.75
 11
8.3795711383142333
 21
5.5984678199838811
 31
0.0
 73
     3
  0
CIRCLE
  5
1BD
  8
DATA
  6
CONTINUOUS
 62
     7
 10
22.999999999999979
 20
14.482699530433869
 30
0.0
 40
2.0
  0
TEXT
  5
1BE
  8
DATA
 62
     7
 10
21.49316843794081
 20
3.4131059493241578
 30
0.0
 40
2.185361870659722
  1
EQ 
 41
0.75
 11
21.49316843794081
 21
5.5984678199838811
 31
0.0
 73
     3
  0
LINE
  5
1BF
  8
DATA
  6
CONTINUOUS
 62
     7
 10
21.749999999999979
 20
14.482699530433869
 30
0.0
 11
24.249999999999989
 21
14.482699530433869
 31
0.0
  0
LINE
  5
1C0
  8
DATA
  6
CONTINUOUS
 62
     7
 10
22.999999999999979
 20
13.232699530433869
 30
0.0
 11
22.999999999999979
 21
15.732699530433869
 31
0.0
  0
CIRCLE
  5
1C1
  8
DATA
  6
CONTINUOUS
 62
     7
 10
95.0
 20
15.00992601410592
 30
0.0
 40
1.3999999999999979
  0
CIRCLE
  5
1C2
  8
DATA
  6
CONTINUOUS
 62
     7
 10
79.0
 20
15.00992601410592
 30
0.0
 40
1.600000000000001
  0
CIRCLE
  5
1C3
  8
DATA
  6
CONTINUOUS
 62
     7
 10
85.0
 20
15.00992601410592
 30
0.0
 40
1.600000000000001
  0
TEXT
  5
1C4
  8
DATA
 62
     7
 10
78.249652392185695
 20
3.4131059493241578
 30
0.0
 40
2.185361870659722
  1
1 
 41
0.75
 11
78.249652392185695
 21
5.5984678199838811
 31
0.0
 73
     3
  0
TEXT
  5
1C5
  8
DATA
 62
     7
 10
84.734665745108074
 20
3.4131059493241578
 30
0.0
 40
2.185361870659722
  1
2 
 41
0.75
 11
84.734665745108074
 21
5.5984678199838811
 31
0.0
 73
     3
  0
TEXT
  5
1C6
  8
DATA
 62
     7
 10
92.377611691286219
 20
3.4131059493241578
 30
0.0
 40
2.185361870659722
  1
Power 
 41
0.75
 11
92.377611691286219
 21
5.5984678199838811
 31
0.0
 73
     3
  0
LINE
  5
1C7
  8
DATA
  6
CONTINUOUS
 62
     7
 10
0.0
 20
56.25
 30
0.0
 11
105.0
 21
56.25
 31
0.0
  0
LINE
  5
1C8
  8
DATA
  6
CONTINUOUS
 62
     7
 10
0.0
 20
138.25
 30
0.0
 11
105.0
 21
138.25
 31
0.0
  0
LINE
  5
1C9
  8
DATA
  6
CONTINUOUS
 62
     7
 10
0.0
 20
56.25
 30
0.0
 11
0.0
 21
138.25
 31
0.0
  0
LINE
  5
1CA
  8
DATA
  6
CONTINUOUS
 62
     7
 10
105.0
 20
56.25
 30
0.0
 11
105.0
 21
138.25
 31
0.0
  0
ARC
  5
1CB
  8
DATA
  6
CONTINUOUS
 62
     7
 10
95.0
 20
56.355962720502248
 30
0.0
 40
1.399999999999999
 50
184.3407344869245
 51
355.65926551307552
  0
LINE
  5
1CC
  8
DATA
  6
CONTINUOUS
 62
     7
 10
70.331955254705349
 20
51.249999999673058
 30
0.0
 11
70.331955254705349
 21
56.249999999673058
 31
0.0
  0
LINE
  5
1CD
  8
DATA
  6
CONTINUOUS
 62
     7
 10
65.655418074269377
 20
51.249999999673058
 30
0.0
 11
65.655418074269377
 21
56.249999999673058
 31
0.0
  0
LINE
  5
1CE
  8
DATA
  6
CONTINUOUS
 62
     7
 10
63.693413718200731
 20
51.249999999673058
 30
0.0
 11
63.693413718200731
 21
56.249999999673058
 31
0.0
  0
LINE
  5
1CF
  8
DATA
  6
CONTINUOUS
 62
     7
 10
39.806480383718323
 20
51.249999999673058
 30
0.0
 11
39.806480383718323
 21
56.249999999673058
 31
0.0
  0
LINE
  5
1D0
  8
DATA
  6
CONTINUOUS
 62
     7
 10
37.83195525470525
 20
51.249999999673058
 30
0.0
 11
37.83195525470525
 21
56.249999999673058
 31
0.0
  0
LINE
  5
1D1
  8
DATA
  6
CONTINUOUS
 62
     7
 10
33.155418074269392
 20
51.249999999673058
 30
0.0
 11
33.155418074269392
 21
56.249999999673058
 31
0.0
  0
LINE
  5
1D2
  8
DATA
  6
CONTINUOUS
 62
     7
 10
33.155418074269392
 20
51.249999999673058
 30
0.0
 11
37.83195525470525
 21
51.249999999673058
 31
0.0
  0
LINE
  5
1D3
  8
DATA
  6
CONTINUOUS
 62
     7
 10
39.806480383718323
 20
51.249999999673058
 30
0.0
 11
63.693413718200731
 21
51.249999999673058
 31
0.0
  0
LINE
  5
1D4
  8
DATA
  6
CONTINUOUS
 62
     7
 10
65.655418074269377
 20
51.249999999673058
 30
0.0
 11
70.331955254705349
 21
51.249999999673058
 31
0.0
  0
LINE
  5
1D5
  8
DATA
  6
CONTINUOUS
 62
     7
 10
48.466808294240238
 20
143.25000000032691
 30
0.0
 11
48.466808294240238
 21
138.25000000032691
 31
0.0
  0
LINE
  5
1D6
  8
DATA
  6
CONTINUOUS
 62
     7
 10
43.790271113804287
 20
143.25000000032691
 30
0.0
 11
43.790271113804287
 21
138.25000000032691
 31
0.0
  0
LINE
  5
1D7
  8
DATA
  6
CONTINUOUS
 62
     7
 10
41.828266757735662
 20
143.25000000032691
 30
0.0
 11
41.828266757735662
 21
138.25000000032691
 31
0.0
  0
LINE
  5
1D8
  8
DATA
  6
CONTINUOUS
 62
     7
 10
17.941333423253241
 20
143.25000000032691
 30
0.0
 11
17.941333423253241
 21
138.25000000032691
 31
0.0
  0
LINE
  5
1D9
  8
DATA
  6
CONTINUOUS
 62
     7
 10
15.96680829424016
 20
143.25000000032691
 30
0.0
 11
15.96680829424016
 21
138.25000000032691
 31
0.0
  0
LINE
  5
1DA
  8
DATA
  6
CONTINUOUS
 62
     7
 10
11.2902711138043
 20
143.25000000032691
 30
0.0
 11
11.2902711138043
 21
138.25000000032691
 31
0.0
  0
LINE
  5
1DB
  8
DATA
  6
CONTINUOUS
 62
     7
 10
11.2902711138043
 20
143.25000000032691
 30
0.0
 11
15.96680829424016
 21
143.25000000032691
 31
0.0
  0
LINE
  5
1DC
  8
DATA
  6
CONTINUOUS
 62
     7
 10
17.941333423253241
 20
143.25000000032691
 30
0.0
 11
41.828266757735662
 21
143.25000000032691
 31
0.0
  0
LINE
  5
1DD
  8
DATA
  6
CONTINUOUS
 62
     7
 10
43.790271113804287
 20
143.25000000032691
 30
0.0
 11
48.466808294240238
 21
143.25000000032691
 31
0.0
  0
LINE
  5
1DE
  8
DATA
  6
CONTINUOUS
 62
     7
 10
56.495374773801998
 20
143.25000000032691
 30
0.0
 11
56.495374773801998
 21
138.25000000032691
 31
0.0
  0
LINE
  5
1DF
  8
DATA
  6
CONTINUOUS
 62
     7
 10
61.171911954237963
 20
143.25000000032691
 30
0.0
 11
61.171911954237963
 21
138.25000000032691
 31
0.0
  0
LINE
  5
1E0
  8
DATA
  6
CONTINUOUS
 62
     7
 10
63.133916310306603
 20
143.25000000032691
 30
0.0
 11
63.133916310306603
 21
138.25000000032691
 31
0.0
  0
LINE
  5
1E1
  8
DATA
  6
CONTINUOUS
 62
     7
 10
87.020849644789067
 20
143.25000000032691
 30
0.0
 11
87.020849644789067
 21
138.25000000032691
 31
0.0
  0
LINE
  5
1E2
  8
DATA
  6
CONTINUOUS
 62
     7
 10
88.995374773802141
 20
143.25000000032691
 30
0.0
 11
88.995374773802141
 21
138.25000000032691
 31
0.0
  0
LINE
  5
1E3
  8
DATA
  6
CONTINUOUS
 62
     7
 10
93.671911954238055
 20
143.25000000032691
 30
0.0
 11
93.671911954238055
 21
138.25000000032691
 31
0.0
  0
LINE
  5
1E4
  8
DATA
  6
CONTINUOUS
 62
     7
 10
93.671911954238055
 20
143.25000000032691
 30
0.0
 11
88.995374773802141
 21
143.25000000032691
 31
0.0
  0
LINE
  5
1E5
  8
DATA
  6
CONTINUOUS
 62
     7
 10
87.020849644789067
 20
143.25000000032691
 30
0.0
 11
63.133916310306603
 21
143.25000000032691
 31
0.0
  0
LINE
  5
1E6
  8
DATA
  6
CONTINUOUS
 62
     7
 10
61.171911954237963
 20
143.25000000032691
 30
0.0
 11
56.495374773801998
 21
143.25000000032691
 31
0.0
  0
TEXT
  5
1E7
  8
DATA
 62
     7
 10
53.200000000000003
 20
67.050866381898459
 30
0.0
 40
5.4294704861111107
  1
1:2 DVIDL
 41
0.75
 11
53.200000000000003
 21
72.480336868009573
 31
0.0
 73
     3
  0
TEXT
  5
1E8
  8
DATA
 62
     7
 10
44.129829407782807
 20
62.557719444444459
 30
0.0
 40
2.185361870659722
  1
Dual Link DVI Distribution Amplifier 
 41
0.75
 11
44.129829407782807
 21
64.743081315104178
 31
0.0
 73
     3
  0
CIRCLE
  5
1E9
  8
DATA
  6
CONTINUOUS
 62
     7
 10
13.60046584573524
 20
188.9900739858941
 30
0.0
 40
1.175000000000096
  0
POLYLINE
  5
1EA
  8
DATA
  6
CONTINUOUS
 62
     7
 66
     1
 10
0.0
 20
0.0
 30
0.0
 70
     1
  0
VERTEX
  5
555
  8
DATA
  6
CONTINUOUS
 62
     7
 10
13.60046584573524
 20
186.29007398589411
 30
0.0
  0
VERTEX
  5
556
  8
DATA
  6
CONTINUOUS
 62
     7
 10
11.26219725551732
 20
187.64007398589399
 30
0.0
  0
VERTEX
  5
557
  8
DATA
  6
CONTINUOUS
 62
     7
 10
11.26219725551732
 20
190.34007398589409
 30
0.0
  0
VERTEX
  5
558
  8
DATA
  6
CONTINUOUS
 62
     7
 10
13.60046584573524
 20
191.690073985894
 30
0.0
  0
VERTEX
  5
559
  8
DATA
  6
CONTINUOUS
 62
     7
 10
15.938734435953419
 20
190.34007398589409
 30
0.0
  0
VERTEX
  5
55A
  8
DATA
  6
CONTINUOUS
 62
     7
 10
15.938734435953419
 20
187.64007398589399
 30
0.0
  0
SEQEND
  5
55B
  8
DATA
  6
CONTINUOUS
 62
     7
  0
CIRCLE
  5
1F3
  8
DATA
  6
CONTINUOUS
 62
     7
 10
46.10046584573567
 20
188.9900739858941
 30
0.0
 40
1.175000000000068
  0
POLYLINE
  5
1F4
  8
DATA
  6
CONTINUOUS
 62
     7
 66
     1
 10
0.0
 20
0.0
 30
0.0
 70
     1
  0
VERTEX
  5
55C
  8
DATA
  6
CONTINUOUS
 62
     7
 10
46.10046584573567
 20
186.29007398589411
 30
0.0
  0
VERTEX
  5
55D
  8
DATA
  6
CONTINUOUS
 62
     7
 10
43.762197255517741
 20
187.64007398589399
 30
0.0
  0
VERTEX
  5
55E
  8
DATA
  6
CONTINUOUS
 62
     7
 10
43.762197255517741
 20
190.34007398589409
 30
0.0
  0
VERTEX
  5
55F
  8
DATA
  6
CONTINUOUS
 62
     7
 10
46.10046584573567
 20
191.690073985894
 30
0.0
  0
VERTEX
  5
560
  8
DATA
  6
CONTINUOUS
 62
     7
 10
48.438734435953698
 20
190.34007398589409
 30
0.0
  0
VERTEX
  5
561
  8
DATA
  6
CONTINUOUS
 62
     7
 10
48.438734435953698
 20
187.64007398589399
 30
0.0
  0
SEQEND
  5
562
  8
DATA
  6
CONTINUOUS
 62
     7
  0
LINE
  5
1FD
  8
DATA
  6
CONTINUOUS
 62
     7
 10
18.900560958543931
 20
185.06507398589409
 30
0.0
 11
40.80037073292749
 21
185.06507398589409
 31
0.0
  0
LINE
  5
1FE
  8
DATA
  6
CONTINUOUS
 62
     7
 10
40.241453535475223
 20
192.915073985894
 30
0.0
 11
19.459478155996241
 21
192.915073985894
 31
0.0
  0
POLYLINE
  5
1FF
  8
DATA
  6
CONTINUOUS
 62
     7
 66
     1
 10
0.0
 20
0.0
 30
0.0
 70
     1
  0
VERTEX
  5
563
  8
DATA
  6
CONTINUOUS
 62
     7
 10
18.850399674556421
 20
189.75507398589409
 30
0.0
  0
VERTEX
  5
564
  8
DATA
  6
CONTINUOUS
 62
     7
 10
20.38039967455645
 20
189.75507398589409
 30
0.0
  0
VERTEX
  5
565
  8
DATA
  6
CONTINUOUS
 62
     7
 10
20.38039967455645
 20
188.22507398589411
 30
0.0
  0
VERTEX
  5
566
  8
DATA
  6
CONTINUOUS
 62
     7
 10
18.850399674556421
 20
188.22507398589411
 30
0.0
  0
SEQEND
  5
567
  8
DATA
  6
CONTINUOUS
 62
     7
  0
POLYLINE
  5
206
  8
DATA
  6
CONTINUOUS
 62
     7
 66
     1
 10
0.0
 20
0.0
 30
0.0
 70
     1
  0
VERTEX
  5
568
  8
DATA
  6
CONTINUOUS
 62
     7
 10
20.850399674556449
 20
189.75507398589409
 30
0.0
  0
VERTEX
  5
569
  8
DATA
  6
CONTINUOUS
 62
     7
 10
22.380399674556429
 20
189.75507398589409
 30
0.0
  0
VERTEX
  5
56A
  8
DATA
  6
CONTINUOUS
 62
     7
 10
22.380399674556429
 20
188.22507398589411
 30
0.0
  0
VERTEX
  5
56B
  8
DATA
  6
CONTINUOUS
 62
     7
 10
20.850399674556449
 20
188.22507398589411
 30
0.0
  0
SEQEND
  5
56C
  8
DATA
  6
CONTINUOUS
 62
     7
  0
POLYLINE
  5
20D
  8
DATA
  6
CONTINUOUS
 62
     7
 66
     1
 10
0.0
 20
0.0
 30
0.0
 70
     1
  0
VERTEX
  5
56D
  8
DATA
  6
CONTINUOUS
 62
     7
 10
22.850399674556432
 20
189.75507398589409
 30
0.0
  0
VERTEX
  5
56E
  8
DATA
  6
CONTINUOUS
 62
     7
 10
24.380399674556429
 20
189.75507398589409
 30
0.0
  0
VERTEX
  5
56F
  8
DATA
  6
CONTINUOUS
 62
     7
 10
24.380399674556429
 20
188.22507398589411
 30
0.0
  0
VERTEX
  5
570
  8
DATA
  6
CONTINUOUS
 62
     7
 10
22.850399674556432
 20
188.22507398589411
 30
0.0
  0
SEQEND
  5
571
  8
DATA
  6
CONTINUOUS
 62
     7
  0
POLYLINE
  5
214
  8
DATA
  6
CONTINUOUS
 62
     7
 66
     1
 10
0.0
 20
0.0
 30
0.0
 70
     1
  0
VERTEX
  5
572
  8
DATA
  6
CONTINUOUS
 62
     7
 10
24.850399674556432
 20
189.75507398589409
 30
0.0
  0
VERTEX
  5
573
  8
DATA
  6
CONTINUOUS
 62
     7
 10
26.38039967455644
 20
189.75507398589409
 30
0.0
  0
VERTEX
  5
574
  8
DATA
  6
CONTINUOUS
 62
     7
 10
26.38039967455644
 20
188.22507398589411
 30
0.0
  0
VERTEX
  5
575
  8
DATA
  6
CONTINUOUS
 62
     7
 10
24.850399674556432
 20
188.22507398589411
 30
0.0
  0
SEQEND
  5
576
  8
DATA
  6
CONTINUOUS
 62
     7
  0
POLYLINE
  5
21B
  8
DATA
  6
CONTINUOUS
 62
     7
 66
     1
 10
0.0
 20
0.0
 30
0.0
 70
     1
  0
VERTEX
  5
577
  8
DATA
  6
CONTINUOUS
 62
     7
 10
26.850399674556432
 20
189.75507398589409
 30
0.0
  0
VERTEX
  5
578
  8
DATA
  6
CONTINUOUS
 62
     7
 10
28.380399674556429
 20
189.75507398589409
 30
0.0
  0
VERTEX
  5
579
  8
DATA
  6
CONTINUOUS
 62
     7
 10
28.380399674556429
 20
188.22507398589411
 30
0.0
  0
VERTEX
  5
57A
  8
DATA
  6
CONTINUOUS
 62
     7
 10
26.850399674556432
 20
188.22507398589411
 30
0.0
  0
SEQEND
  5
57B
  8
DATA
  6
CONTINUOUS
 62
     7
  0
POLYLINE
  5
222
  8
DATA
  6
CONTINUOUS
 62
     7
 66
     1
 10
0.0
 20
0.0
 30
0.0
 70
     1
  0
VERTEX
  5
57C
  8
DATA
  6
CONTINUOUS
 62
     7
 10
28.850399674556432
 20
189.75507398589409
 30
0.0
  0
VERTEX
  5
57D
  8
DATA
  6
CONTINUOUS
 62
     7
 10
30.380399674556429
 20
189.75507398589409
 30
0.0
  0
VERTEX
  5
57E
  8
DATA
  6
CONTINUOUS
 62
     7
 10
30.380399674556429
 20
188.22507398589411
 30
0.0
  0
VERTEX
  5
57F
  8
DATA
  6
CONTINUOUS
 62
     7
 10
28.850399674556432
 20
188.22507398589411
 30
0.0
  0
SEQEND
  5
580
  8
DATA
  6
CONTINUOUS
 62
     7
  0
POLYLINE
  5
229
  8
DATA
  6
CONTINUOUS
 62
     7
 66
     1
 10
0.0
 20
0.0
 30
0.0
 70
     1
  0
VERTEX
  5
581
  8
DATA
  6
CONTINUOUS
 62
     7
 10
30.850399674556432
 20
189.75507398589409
 30
0.0
  0
VERTEX
  5
582
  8
DATA
  6
CONTINUOUS
 62
     7
 10
32.380399674556429
 20
189.75507398589409
 30
0.0
  0
VERTEX
  5
583
  8
DATA
  6
CONTINUOUS
 62
     7
 10
32.380399674556429
 20
188.22507398589411
 30
0.0
  0
VERTEX
  5
584
  8
DATA
  6
CONTINUOUS
 62
     7
 10
30.850399674556432
 20
188.22507398589411
 30
0.0
  0
SEQEND
  5
585
  8
DATA
  6
CONTINUOUS
 62
     7
  0
POLYLINE
  5
230
  8
DATA
  6
CONTINUOUS
 62
     7
 66
     1
 10
0.0
 20
0.0
 30
0.0
 70
     1
  0
VERTEX
  5
586
  8
DATA
  6
CONTINUOUS
 62
     7
 10
32.850399674556442
 20
189.75507398589409
 30
0.0
  0
VERTEX
  5
587
  8
DATA
  6
CONTINUOUS
 62
     7
 10
34.380399674556429
 20
189.75507398589409
 30
0.0
  0
VERTEX
  5
588
  8
DATA
  6
CONTINUOUS
 62
     7
 10
34.380399674556429
 20
188.22507398589411
 30
0.0
  0
VERTEX
  5
589
  8
DATA
  6
CONTINUOUS
 62
     7
 10
32.850399674556442
 20
188.22507398589411
 30
0.0
  0
SEQEND
  5
58A
  8
DATA
  6
CONTINUOUS
 62
     7
  0
POLYLINE
  5
237
  8
DATA
  6
CONTINUOUS
 62
     7
 66
     1
 10
0.0
 20
0.0
 30
0.0
 70
     1
  0
VERTEX
  5
58B
  8
DATA
  6
CONTINUOUS
 62
     7
 10
18.850399674556421
 20
187.75507398589409
 30
0.0
  0
VERTEX
  5
58C
  8
DATA
  6
CONTINUOUS
 62
     7
 10
20.38039967455645
 20
187.75507398589409
 30
0.0
  0
VERTEX
  5
58D
  8
DATA
  6
CONTINUOUS
 62
     7
 10
20.38039967455645
 20
186.22507398589411
 30
0.0
  0
VERTEX
  5
58E
  8
DATA
  6
CONTINUOUS
 62
     7
 10
18.850399674556421
 20
186.22507398589411
 30
0.0
  0
SEQEND
  5
58F
  8
DATA
  6
CONTINUOUS
 62
     7
  0
POLYLINE
  5
23E
  8
DATA
  6
CONTINUOUS
 62
     7
 66
     1
 10
0.0
 20
0.0
 30
0.0
 70
     1
  0
VERTEX
  5
590
  8
DATA
  6
CONTINUOUS
 62
     7
 10
20.850399674556449
 20
187.75507398589409
 30
0.0
  0
VERTEX
  5
591
  8
DATA
  6
CONTINUOUS
 62
     7
 10
22.380399674556429
 20
187.75507398589409
 30
0.0
  0
VERTEX
  5
592
  8
DATA
  6
CONTINUOUS
 62
     7
 10
22.380399674556429
 20
186.22507398589411
 30
0.0
  0
VERTEX
  5
593
  8
DATA
  6
CONTINUOUS
 62
     7
 10
20.850399674556449
 20
186.22507398589411
 30
0.0
  0
SEQEND
  5
594
  8
DATA
  6
CONTINUOUS
 62
     7
  0
POLYLINE
  5
245
  8
DATA
  6
CONTINUOUS
 62
     7
 66
     1
 10
0.0
 20
0.0
 30
0.0
 70
     1
  0
VERTEX
  5
595
  8
DATA
  6
CONTINUOUS
 62
     7
 10
22.850399674556432
 20
187.75507398589409
 30
0.0
  0
VERTEX
  5
596
  8
DATA
  6
CONTINUOUS
 62
     7
 10
24.380399674556429
 20
187.75507398589409
 30
0.0
  0
VERTEX
  5
597
  8
DATA
  6
CONTINUOUS
 62
     7
 10
24.380399674556429
 20
186.22507398589411
 30
0.0
  0
VERTEX
  5
598
  8
DATA
  6
CONTINUOUS
 62
     7
 10
22.850399674556432
 20
186.22507398589411
 30
0.0
  0
SEQEND
  5
599
  8
DATA
  6
CONTINUOUS
 62
     7
  0
POLYLINE
  5
24C
  8
DATA
  6
CONTINUOUS
 62
     7
 66
     1
 10
0.0
 20
0.0
 30
0.0
 70
     1
  0
VERTEX
  5
59A
  8
DATA
  6
CONTINUOUS
 62
     7
 10
24.850399674556432
 20
187.75507398589409
 30
0.0
  0
VERTEX
  5
59B
  8
DATA
  6
CONTINUOUS
 62
     7
 10
26.38039967455644
 20
187.75507398589409
 30
0.0
  0
VERTEX
  5
59C
  8
DATA
  6
CONTINUOUS
 62
     7
 10
26.38039967455644
 20
186.22507398589411
 30
0.0
  0
VERTEX
  5
59D
  8
DATA
  6
CONTINUOUS
 62
     7
 10
24.850399674556432
 20
186.22507398589411
 30
0.0
  0
SEQEND
  5
59E
  8
DATA
  6
CONTINUOUS
 62
     7
  0
POLYLINE
  5
253
  8
DATA
  6
CONTINUOUS
 62
     7
 66
     1
 10
0.0
 20
0.0
 30
0.0
 70
     1
  0
VERTEX
  5
59F
  8
DATA
  6
CONTINUOUS
 62
     7
 10
26.850399674556432
 20
187.75507398589409
 30
0.0
  0
VERTEX
  5
5A0
  8
DATA
  6
CONTINUOUS
 62
     7
 10
28.380399674556429
 20
187.75507398589409
 30
0.0
  0
VERTEX
  5
5A1
  8
DATA
  6
CONTINUOUS
 62
     7
 10
28.380399674556429
 20
186.22507398589411
 30
0.0
  0
VERTEX
  5
5A2
  8
DATA
  6
CONTINUOUS
 62
     7
 10
26.850399674556432
 20
186.22507398589411
 30
0.0
  0
SEQEND
  5
5A3
  8
DATA
  6
CONTINUOUS
 62
     7
  0
POLYLINE
  5
25A
  8
DATA
  6
CONTINUOUS
 62
     7
 66
     1
 10
0.0
 20
0.0
 30
0.0
 70
     1
  0
VERTEX
  5
5A4
  8
DATA
  6
CONTINUOUS
 62
     7
 10
28.850399674556432
 20
187.75507398589409
 30
0.0
  0
VERTEX
  5
5A5
  8
DATA
  6
CONTINUOUS
 62
     7
 10
30.380399674556429
 20
187.75507398589409
 30
0.0
  0
VERTEX
  5
5A6
  8
DATA
  6
CONTINUOUS
 62
     7
 10
30.380399674556429
 20
186.22507398589411
 30
0.0
  0
VERTEX
  5
5A7
  8
DATA
  6
CONTINUOUS
 62
     7
 10
28.850399674556432
 20
186.22507398589411
 30
0.0
  0
SEQEND
  5
5A8
  8
DATA
  6
CONTINUOUS
 62
     7
  0
POLYLINE
  5
261
  8
DATA
  6
CONTINUOUS
 62
     7
 66
     1
 10
0.0
 20
0.0
 30
0.0
 70
     1
  0
VERTEX
  5
5A9
  8
DATA
  6
CONTINUOUS
 62
     7
 10
30.850399674556432
 20
187.75507398589409
 30
0.0
  0
VERTEX
  5
5AA
  8
DATA
  6
CONTINUOUS
 62
     7
 10
32.380399674556429
 20
187.75507398589409
 30
0.0
  0
VERTEX
  5
5AB
  8
DATA
  6
CONTINUOUS
 62
     7
 10
32.380399674556429
 20
186.22507398589411
 30
0.0
  0
VERTEX
  5
5AC
  8
DATA
  6
CONTINUOUS
 62
     7
 10
30.850399674556432
 20
186.22507398589411
 30
0.0
  0
SEQEND
  5
5AD
  8
DATA
  6
CONTINUOUS
 62
     7
  0
POLYLINE
  5
268
  8
DATA
  6
CONTINUOUS
 62
     7
 66
     1
 10
0.0
 20
0.0
 30
0.0
 70
     1
  0
VERTEX
  5
5AE
  8
DATA
  6
CONTINUOUS
 62
     7
 10
32.850399674556442
 20
187.75507398589409
 30
0.0
  0
VERTEX
  5
5AF
  8
DATA
  6
CONTINUOUS
 62
     7
 10
34.380399674556429
 20
187.75507398589409
 30
0.0
  0
VERTEX
  5
5B0
  8
DATA
  6
CONTINUOUS
 62
     7
 10
34.380399674556429
 20
186.22507398589411
 30
0.0
  0
VERTEX
  5
5B1
  8
DATA
  6
CONTINUOUS
 62
     7
 10
32.850399674556442
 20
186.22507398589411
 30
0.0
  0
SEQEND
  5
5B2
  8
DATA
  6
CONTINUOUS
 62
     7
  0
POLYLINE
  5
26F
  8
DATA
  6
CONTINUOUS
 62
     7
 66
     1
 10
0.0
 20
0.0
 30
0.0
 70
     1
  0
VERTEX
  5
5B3
  8
DATA
  6
CONTINUOUS
 62
     7
 10
18.850399674556421
 20
191.75507398589409
 30
0.0
  0
VERTEX
  5
5B4
  8
DATA
  6
CONTINUOUS
 62
     7
 10
20.38039967455645
 20
191.75507398589409
 30
0.0
  0
VERTEX
  5
5B5
  8
DATA
  6
CONTINUOUS
 62
     7
 10
20.38039967455645
 20
190.225073985894
 30
0.0
  0
VERTEX
  5
5B6
  8
DATA
  6
CONTINUOUS
 62
     7
 10
18.850399674556421
 20
190.225073985894
 30
0.0
  0
SEQEND
  5
5B7
  8
DATA
  6
CONTINUOUS
 62
     7
  0
POLYLINE
  5
276
  8
DATA
  6
CONTINUOUS
 62
     7
 66
     1
 10
0.0
 20
0.0
 30
0.0
 70
     1
  0
VERTEX
  5
5B8
  8
DATA
  6
CONTINUOUS
 62
     7
 10
20.850399674556449
 20
191.75507398589409
 30
0.0
  0
VERTEX
  5
5B9
  8
DATA
  6
CONTINUOUS
 62
     7
 10
22.380399674556429
 20
191.75507398589409
 30
0.0
  0
VERTEX
  5
5BA
  8
DATA
  6
CONTINUOUS
 62
     7
 10
22.380399674556429
 20
190.225073985894
 30
0.0
  0
VERTEX
  5
5BB
  8
DATA
  6
CONTINUOUS
 62
     7
 10
20.850399674556449
 20
190.225073985894
 30
0.0
  0
SEQEND
  5
5BC
  8
DATA
  6
CONTINUOUS
 62
     7
  0
POLYLINE
  5
27D
  8
DATA
  6
CONTINUOUS
 62
     7
 66
     1
 10
0.0
 20
0.0
 30
0.0
 70
     1
  0
VERTEX
  5
5BD
  8
DATA
  6
CONTINUOUS
 62
     7
 10
22.850399674556432
 20
191.75507398589409
 30
0.0
  0
VERTEX
  5
5BE
  8
DATA
  6
CONTINUOUS
 62
     7
 10
24.380399674556429
 20
191.75507398589409
 30
0.0
  0
VERTEX
  5
5BF
  8
DATA
  6
CONTINUOUS
 62
     7
 10
24.380399674556429
 20
190.225073985894
 30
0.0
  0
VERTEX
  5
5C0
  8
DATA
  6
CONTINUOUS
 62
     7
 10
22.850399674556432
 20
190.225073985894
 30
0.0
  0
SEQEND
  5
5C1
  8
DATA
  6
CONTINUOUS
 62
     7
  0
POLYLINE
  5
284
  8
DATA
  6
CONTINUOUS
 62
     7
 66
     1
 10
0.0
 20
0.0
 30
0.0
 70
     1
  0
VERTEX
  5
5C2
  8
DATA
  6
CONTINUOUS
 62
     7
 10
24.850399674556432
 20
191.75507398589409
 30
0.0
  0
VERTEX
  5
5C3
  8
DATA
  6
CONTINUOUS
 62
     7
 10
26.38039967455644
 20
191.75507398589409
 30
0.0
  0
VERTEX
  5
5C4
  8
DATA
  6
CONTINUOUS
 62
     7
 10
26.38039967455644
 20
190.225073985894
 30
0.0
  0
VERTEX
  5
5C5
  8
DATA
  6
CONTINUOUS
 62
     7
 10
24.850399674556432
 20
190.225073985894
 30
0.0
  0
SEQEND
  5
5C6
  8
DATA
  6
CONTINUOUS
 62
     7
  0
POLYLINE
  5
28B
  8
DATA
  6
CONTINUOUS
 62
     7
 66
     1
 10
0.0
 20
0.0
 30
0.0
 70
     1
  0
VERTEX
  5
5C7
  8
DATA
  6
CONTINUOUS
 62
     7
 10
26.850399674556432
 20
191.75507398589409
 30
0.0
  0
VERTEX
  5
5C8
  8
DATA
  6
CONTINUOUS
 62
     7
 10
28.380399674556429
 20
191.75507398589409
 30
0.0
  0
VERTEX
  5
5C9
  8
DATA
  6
CONTINUOUS
 62
     7
 10
28.380399674556429
 20
190.225073985894
 30
0.0
  0
VERTEX
  5
5CA
  8
DATA
  6
CONTINUOUS
 62
     7
 10
26.850399674556432
 20
190.225073985894
 30
0.0
  0
SEQEND
  5
5CB
  8
DATA
  6
CONTINUOUS
 62
     7
  0
POLYLINE
  5
292
  8
DATA
  6
CONTINUOUS
 62
     7
 66
     1
 10
0.0
 20
0.0
 30
0.0
 70
     1
  0
VERTEX
  5
5CC
  8
DATA
  6
CONTINUOUS
 62
     7
 10
28.850399674556432
 20
191.75507398589409
 30
0.0
  0
VERTEX
  5
5CD
  8
DATA
  6
CONTINUOUS
 62
     7
 10
30.380399674556429
 20
191.75507398589409
 30
0.0
  0
VERTEX
  5
5CE
  8
DATA
  6
CONTINUOUS
 62
     7
 10
30.380399674556429
 20
190.225073985894
 30
0.0
  0
VERTEX
  5
5CF
  8
DATA
  6
CONTINUOUS
 62
     7
 10
28.850399674556432
 20
190.225073985894
 30
0.0
  0
SEQEND
  5
5D0
  8
DATA
  6
CONTINUOUS
 62
     7
  0
POLYLINE
  5
299
  8
DATA
  6
CONTINUOUS
 62
     7
 66
     1
 10
0.0
 20
0.0
 30
0.0
 70
     1
  0
VERTEX
  5
5D1
  8
DATA
  6
CONTINUOUS
 62
     7
 10
30.850399674556432
 20
191.75507398589409
 30
0.0
  0
VERTEX
  5
5D2
  8
DATA
  6
CONTINUOUS
 62
     7
 10
32.380399674556429
 20
191.75507398589409
 30
0.0
  0
VERTEX
  5
5D3
  8
DATA
  6
CONTINUOUS
 62
     7
 10
32.380399674556429
 20
190.225073985894
 30
0.0
  0
VERTEX
  5
5D4
  8
DATA
  6
CONTINUOUS
 62
     7
 10
30.850399674556432
 20
190.225073985894
 30
0.0
  0
SEQEND
  5
5D5
  8
DATA
  6
CONTINUOUS
 62
     7
  0
POLYLINE
  5
2A0
  8
DATA
  6
CONTINUOUS
 62
     7
 66
     1
 10
0.0
 20
0.0
 30
0.0
 70
     1
  0
VERTEX
  5
5D6
  8
DATA
  6
CONTINUOUS
 62
     7
 10
32.850399674556442
 20
191.75507398589409
 30
0.0
  0
VERTEX
  5
5D7
  8
DATA
  6
CONTINUOUS
 62
     7
 10
34.380399674556429
 20
191.75507398589409
 30
0.0
  0
VERTEX
  5
5D8
  8
DATA
  6
CONTINUOUS
 62
     7
 10
34.380399674556429
 20
190.225073985894
 30
0.0
  0
VERTEX
  5
5D9
  8
DATA
  6
CONTINUOUS
 62
     7
 10
32.850399674556442
 20
190.225073985894
 30
0.0
  0
SEQEND
  5
5DA
  8
DATA
  6
CONTINUOUS
 62
     7
  0
POLYLINE
  5
2A7
  8
DATA
  6
CONTINUOUS
 62
     7
 66
     1
 10
0.0
 20
0.0
 30
0.0
  0
VERTEX
  5
5DB
  8
DATA
  6
CONTINUOUS
 62
     7
 10
38.40046584573583
 20
188.59007398589409
 30
0.0
  0
VERTEX
  5
5DC
  8
DATA
  6
CONTINUOUS
 62
     7
 10
40.50046584573581
 20
188.59007398589409
 30
0.0
  0
VERTEX
  5
5DD
  8
DATA
  6
CONTINUOUS
 62
     7
 10
40.50046584573581
 20
189.39007398589399
 30
0.0
  0
VERTEX
  5
5DE
  8
DATA
  6
CONTINUOUS
 62
     7
 10
38.40046584573583
 20
189.39007398589399
 30
0.0
  0
SEQEND
  5
5DF
  8
DATA
  6
CONTINUOUS
 62
     7
  0
POLYLINE
  5
2AE
  8
DATA
  6
CONTINUOUS
 62
     7
 66
     1
 10
0.0
 20
0.0
 30
0.0
  0
VERTEX
  5
5E0
  8
DATA
  6
CONTINUOUS
 62
     7
 10
37.600465845735812
 20
189.39007398589399
 30
0.0
  0
VERTEX
  5
5E1
  8
DATA
  6
CONTINUOUS
 62
     7
 10
35.50046584573581
 20
189.39007398589399
 30
0.0
  0
VERTEX
  5
5E2
  8
DATA
  6
CONTINUOUS
 62
     7
 10
35.50046584573581
 20
188.59007398589409
 30
0.0
  0
VERTEX
  5
5E3
  8
DATA
  6
CONTINUOUS
 62
     7
 10
37.600465845735812
 20
188.59007398589409
 30
0.0
  0
SEQEND
  5
5E4
  8
DATA
  6
CONTINUOUS
 62
     7
  0
POLYLINE
  5
2B5
  8
DATA
  6
CONTINUOUS
 62
     7
 66
     1
 10
0.0
 20
0.0
 30
0.0
  0
VERTEX
  5
5E5
  8
DATA
  6
CONTINUOUS
 62
     7
 10
38.40046584573583
 20
189.39007398589399
 30
0.0
  0
VERTEX
  5
5E6
  8
DATA
  6
CONTINUOUS
 62
     7
 10
38.40046584573583
 20
191.4900739858941
 30
0.0
  0
VERTEX
  5
5E7
  8
DATA
  6
CONTINUOUS
 62
     7
 10
37.600465845735812
 20
191.4900739858941
 30
0.0
  0
VERTEX
  5
5E8
  8
DATA
  6
CONTINUOUS
 62
     7
 10
37.600465845735812
 20
189.39007398589399
 30
0.0
  0
SEQEND
  5
5E9
  8
DATA
  6
CONTINUOUS
 62
     7
  0
POLYLINE
  5
2BC
  8
DATA
  6
CONTINUOUS
 62
     7
 66
     1
 10
0.0
 20
0.0
 30
0.0
  0
VERTEX
  5
5EA
  8
DATA
  6
CONTINUOUS
 62
     7
 10
37.600465845735812
 20
188.59007398589409
 30
0.0
  0
VERTEX
  5
5EB
  8
DATA
  6
CONTINUOUS
 62
     7
 10
37.600465845735812
 20
186.4900739858941
 30
0.0
  0
VERTEX
  5
5EC
  8
DATA
  6
CONTINUOUS
 62
     7
 10
38.40046584573583
 20
186.4900739858941
 30
0.0
  0
VERTEX
  5
5ED
  8
DATA
  6
CONTINUOUS
 62
     7
 10
38.40046584573583
 20
188.59007398589409
 30
0.0
  0
SEQEND
  5
5EE
  8
DATA
  6
CONTINUOUS
 62
     7
  0
POLYLINE
  5
2C3
  8
DATA
  6
CONTINUOUS
 62
     7
 66
     1
 10
0.0
 20
0.0
 30
0.0
 70
     1
  0
VERTEX
  5
5EF
  8
DATA
  6
CONTINUOUS
 62
     7
 10
36.140181415264088
 20
188.23064617524409
 30
0.0
  0
VERTEX
  5
5F0
  8
DATA
  6
CONTINUOUS
 62
     7
 10
37.140181415264088
 20
188.23064617524409
 30
0.0
  0
VERTEX
  5
5F1
  8
DATA
  6
CONTINUOUS
 62
     7
 10
37.140181415264088
 20
187.23064617524409
 30
0.0
  0
VERTEX
  5
5F2
  8
DATA
  6
CONTINUOUS
 62
     7
 10
36.140181415264088
 20
187.23064617524409
 30
0.0
  0
SEQEND
  5
5F3
  8
DATA
  6
CONTINUOUS
 62
     7
  0
POLYLINE
  5
2CA
  8
DATA
  6
CONTINUOUS
 62
     7
 66
     1
 10
0.0
 20
0.0
 30
0.0
 70
     1
  0
VERTEX
  5
5F4
  8
DATA
  6
CONTINUOUS
 62
     7
 10
38.86075027620754
 20
188.23064617524409
 30
0.0
  0
VERTEX
  5
5F5
  8
DATA
  6
CONTINUOUS
 62
     7
 10
39.86075027620754
 20
188.23064617524409
 30
0.0
  0
VERTEX
  5
5F6
  8
DATA
  6
CONTINUOUS
 62
     7
 10
39.86075027620754
 20
187.23064617524409
 30
0.0
  0
VERTEX
  5
5F7
  8
DATA
  6
CONTINUOUS
 62
     7
 10
38.86075027620754
 20
187.23064617524409
 30
0.0
  0
SEQEND
  5
5F8
  8
DATA
  6
CONTINUOUS
 62
     7
  0
POLYLINE
  5
2D1
  8
DATA
  6
CONTINUOUS
 62
     7
 66
     1
 10
0.0
 20
0.0
 30
0.0
 70
     1
  0
VERTEX
  5
5F9
  8
DATA
  6
CONTINUOUS
 62
     7
 10
36.140181415264088
 20
190.749501796544
 30
0.0
  0
VERTEX
  5
5FA
  8
DATA
  6
CONTINUOUS
 62
     7
 10
37.140181415264088
 20
190.749501796544
 30
0.0
  0
VERTEX
  5
5FB
  8
DATA
  6
CONTINUOUS
 62
     7
 10
37.140181415264088
 20
189.749501796544
 30
0.0
  0
VERTEX
  5
5FC
  8
DATA
  6
CONTINUOUS
 62
     7
 10
36.140181415264088
 20
189.749501796544
 30
0.0
  0
SEQEND
  5
5FD
  8
DATA
  6
CONTINUOUS
 62
     7
  0
POLYLINE
  5
2D8
  8
DATA
  6
CONTINUOUS
 62
     7
 66
     1
 10
0.0
 20
0.0
 30
0.0
 70
     1
  0
VERTEX
  5
5FE
  8
DATA
  6
CONTINUOUS
 62
     7
 10
38.86075027620754
 20
190.749501796544
 30
0.0
  0
VERTEX
  5
5FF
  8
DATA
  6
CONTINUOUS
 62
     7
 10
39.86075027620754
 20
190.749501796544
 30
0.0
  0
VERTEX
  5
600
  8
DATA
  6
CONTINUOUS
 62
     7
 10
39.86075027620754
 20
189.749501796544
 30
0.0
  0
VERTEX
  5
601
  8
DATA
  6
CONTINUOUS
 62
     7
 10
38.86075027620754
 20
189.749501796544
 30
0.0
  0
SEQEND
  5
602
  8
DATA
  6
CONTINUOUS
 62
     7
  0
LINE
  5
2DF
  8
DATA
  6
CONTINUOUS
 62
     7
 10
17.905094027788461
 20
186.16018229138021
 30
0.0
 11
18.4640112252408
 21
192.0101822913802
 31
0.0
  0
LINE
  5
2E0
  8
DATA
  6
CONTINUOUS
 62
     7
 10
41.795837663682867
 20
186.16018229138021
 30
0.0
 11
41.2369204662306
 21
192.0101822913802
 31
0.0
  0
ARC
  5
2E1
  8
DATA
  6
CONTINUOUS
 62
     7
 10
18.900560958543931
 20
186.065073985894
 30
0.0
 40
1.0000000000000879
 50
174.5424465148929
 51
270.0
  0
ARC
  5
2E2
  8
DATA
  6
CONTINUOUS
 62
     7
 10
40.800370732927533
 20
186.06507398589409
 30
0.0
 40
1.0
 50
269.99999999999841
 51
5.4575534851060761
  0
ARC
  5
2E3
  8
DATA
  6
CONTINUOUS
 62
     7
 10
19.459478155996258
 20
191.915073985894
 30
0.0
 40
1.0
 50
90.000000000001606
 51
174.5424465148929
  0
ARC
  5
2E4
  8
DATA
  6
CONTINUOUS
 62
     7
 10
40.241453535475223
 20
191.915073985894
 30
0.0
 40
0.9999999999999985
 50
5.457553485104313
 51
90.0
  0
LINE
  5
2E5
  8
DATA
  6
CONTINUOUS
 62
     7
 10
-0.0000000000000142
 20
202.0
 30
0.0
 11
-0.0000000000000142
 21
177.0
 31
0.0
  0
LINE
  5
2E6
  8
DATA
  6
CONTINUOUS
 62
     7
 10
103.0
 20
204.0
 30
0.0
 11
93.0
 21
204.0
 31
0.0
  0
LINE
  5
2E7
  8
DATA
  6
CONTINUOUS
 62
     7
 10
12.0
 20
204.0
 30
0.0
 11
1.9999999999999849
 21
204.0
 31
0.0
  0
LINE
  5
2E8
  8
DATA
  6
CONTINUOUS
 62
     7
 10
105.0
 20
177.0
 30
0.0
 11
105.0
 21
202.0
 31
0.0
  0
LINE
  5
2E9
  8
DATA
  6
CONTINUOUS
 62
     7
 10
1.9999999999999849
 20
175.0
 30
0.0
 11
103.0
 21
175.0
 31
0.0
  0
LINE
  5
2EA
  8
DATA
  6
CONTINUOUS
 62
     7
 10
1.9999999999999849
 20
202.0
 30
0.0
 11
103.0
 21
202.0
 31
0.0
  0
LINE
  5
2EB
  8
DATA
  6
CONTINUOUS
 62
     7
 10
12.0
 20
204.0
 30
0.0
 11
12.0
 21
202.0
 31
0.0
  0
LINE
  5
2EC
  8
DATA
  6
CONTINUOUS
 62
     7
 10
93.0
 20
204.0
 30
0.0
 11
93.0
 21
202.0
 31
0.0
  0
LINE
  5
2ED
  8
DATA
  6
CONTINUOUS
 62
     7
 10
1.9999999999999849
 20
202.0
 30
0.0
 11
1.9999999999999849
 21
177.0
 31
0.0
  0
LINE
  5
2EE
  8
DATA
  6
CONTINUOUS
 62
     7
 10
103.0
 20
177.0
 30
0.0
 11
103.0
 21
202.0
 31
0.0
  0
ARC
  5
2EF
  8
DATA
  6
CONTINUOUS
 62
     7
 10
1.9999999999999849
 20
177.0
 30
0.0
 40
2.0
 50
180.0
 51
270.0
  0
ARC
  5
2F0
  8
DATA
  6
CONTINUOUS
 62
     7
 10
1.9999999999999849
 20
202.0
 30
0.0
 40
2.0
 50
90.0
 51
180.0
  0
ARC
  5
2F1
  8
DATA
  6
CONTINUOUS
 62
     7
 10
103.0
 20
177.0
 30
0.0
 40
2.0
 50
270.0
 51
0.0
  0
ARC
  5
2F2
  8
DATA
  6
CONTINUOUS
 62
     7
 10
103.0
 20
202.0
 30
0.0
 40
2.0
 50
0.0
 51
90.0
  0
LINE
  5
2F3
  8
DATA
  6
CONTINUOUS
 62
     7
 10
3.4999999999999849
 20
206.0
 30
0.0
 11
9.499999999999984
 21
206.0
 31
0.0
  0
LINE
  5
2F4
  8
DATA
  6
CONTINUOUS
 62
     7
 10
3.4999999999999849
 20
206.0
 30
0.0
 11
2.7999999999999821
 21
204.0
 31
0.0
  0
LINE
  5
2F5
  8
DATA
  6
CONTINUOUS
 62
     7
 10
9.499999999999984
 20
206.0
 30
0.0
 11
10.199999999999971
 21
204.0
 31
0.0
  0
LINE
  5
2F6
  8
DATA
  6
CONTINUOUS
 62
     7
 10
101.5
 20
206.0
 30
0.0
 11
95.499999999999986
 21
206.0
 31
0.0
  0
LINE
  5
2F7
  8
DATA
  6
CONTINUOUS
 62
     7
 10
101.5
 20
206.0
 30
0.0
 11
102.2
 21
204.0
 31
0.0
  0
LINE
  5
2F8
  8
DATA
  6
CONTINUOUS
 62
     7
 10
95.499999999999986
 20
206.0
 30
0.0
 11
94.799999999999997
 21
204.0
 31
0.0
  0
CIRCLE
  5
2F9
  8
DATA
  6
CONTINUOUS
 62
     7
 10
58.678307697804421
 20
188.9900739858941
 30
0.0
 40
1.175000000000153
  0
POLYLINE
  5
2FA
  8
DATA
  6
CONTINUOUS
 62
     7
 66
     1
 10
0.0
 20
0.0
 30
0.0
 70
     1
  0
VERTEX
  5
603
  8
DATA
  6
CONTINUOUS
 62
     7
 10
58.678307697804421
 20
186.29007398589411
 30
0.0
  0
VERTEX
  5
604
  8
DATA
  6
CONTINUOUS
 62
     7
 10
56.340039107586357
 20
187.64007398589399
 30
0.0
  0
VERTEX
  5
605
  8
DATA
  6
CONTINUOUS
 62
     7
 10
56.340039107586357
 20
190.34007398589409
 30
0.0
  0
VERTEX
  5
606
  8
DATA
  6
CONTINUOUS
 62
     7
 10
58.678307697804421
 20
191.690073985894
 30
0.0
  0
VERTEX
  5
607
  8
DATA
  6
CONTINUOUS
 62
     7
 10
61.016576288022712
 20
190.34007398589409
 30
0.0
  0
VERTEX
  5
608
  8
DATA
  6
CONTINUOUS
 62
     7
 10
61.016576288022712
 20
187.64007398589399
 30
0.0
  0
SEQEND
  5
609
  8
DATA
  6
CONTINUOUS
 62
     7
  0
CIRCLE
  5
303
  8
DATA
  6
CONTINUOUS
 62
     7
 10
91.178307697804954
 20
188.9900739858941
 30
0.0
 40
1.175000000000068
  0
POLYLINE
  5
304
  8
DATA
  6
CONTINUOUS
 62
     7
 66
     1
 10
0.0
 20
0.0
 30
0.0
 70
     1
  0
VERTEX
  5
60A
  8
DATA
  6
CONTINUOUS
 62
     7
 10
91.178307697804954
 20
186.29007398589411
 30
0.0
  0
VERTEX
  5
60B
  8
DATA
  6
CONTINUOUS
 62
     7
 10
88.840039107587046
 20
187.64007398589399
 30
0.0
  0
VERTEX
  5
60C
  8
DATA
  6
CONTINUOUS
 62
     7
 10
88.840039107587046
 20
190.34007398589409
 30
0.0
  0
VERTEX
  5
60D
  8
DATA
  6
CONTINUOUS
 62
     7
 10
91.178307697804954
 20
191.690073985894
 30
0.0
  0
VERTEX
  5
60E
  8
DATA
  6
CONTINUOUS
 62
     7
 10
93.516576288022975
 20
190.34007398589409
 30
0.0
  0
VERTEX
  5
60F
  8
DATA
  6
CONTINUOUS
 62
     7
 10
93.516576288022975
 20
187.64007398589399
 30
0.0
  0
SEQEND
  5
610
  8
DATA
  6
CONTINUOUS
 62
     7
  0
LINE
  5
30D
  8
DATA
  6
CONTINUOUS
 62
     7
 10
63.978402810613233
 20
185.06507398589409
 30
0.0
 11
85.878212584996803
 21
185.06507398589409
 31
0.0
  0
LINE
  5
30E
  8
DATA
  6
CONTINUOUS
 62
     7
 10
85.319295387544514
 20
192.915073985894
 30
0.0
 11
64.537320008065535
 21
192.915073985894
 31
0.0
  0
POLYLINE
  5
30F
  8
DATA
  6
CONTINUOUS
 62
     7
 66
     1
 10
0.0
 20
0.0
 30
0.0
 70
     1
  0
VERTEX
  5
611
  8
DATA
  6
CONTINUOUS
 62
     7
 10
63.928241526625733
 20
189.75507398589409
 30
0.0
  0
VERTEX
  5
612
  8
DATA
  6
CONTINUOUS
 62
     7
 10
65.458241526625756
 20
189.75507398589409
 30
0.0
  0
VERTEX
  5
613
  8
DATA
  6
CONTINUOUS
 62
     7
 10
65.458241526625756
 20
188.22507398589411
 30
0.0
  0
VERTEX
  5
614
  8
DATA
  6
CONTINUOUS
 62
     7
 10
63.928241526625733
 20
188.22507398589411
 30
0.0
  0
SEQEND
  5
615
  8
DATA
  6
CONTINUOUS
 62
     7
  0
POLYLINE
  5
316
  8
DATA
  6
CONTINUOUS
 62
     7
 66
     1
 10
0.0
 20
0.0
 30
0.0
 70
     1
  0
VERTEX
  5
616
  8
DATA
  6
CONTINUOUS
 62
     7
 10
65.928241526625754
 20
189.75507398589409
 30
0.0
  0
VERTEX
  5
617
  8
DATA
  6
CONTINUOUS
 62
     7
 10
67.458241526625727
 20
189.75507398589409
 30
0.0
  0
VERTEX
  5
618
  8
DATA
  6
CONTINUOUS
 62
     7
 10
67.458241526625727
 20
188.22507398589411
 30
0.0
  0
VERTEX
  5
619
  8
DATA
  6
CONTINUOUS
 62
     7
 10
65.928241526625754
 20
188.22507398589411
 30
0.0
  0
SEQEND
  5
61A
  8
DATA
  6
CONTINUOUS
 62
     7
  0
POLYLINE
  5
31D
  8
DATA
  6
CONTINUOUS
 62
     7
 66
     1
 10
0.0
 20
0.0
 30
0.0
 70
     1
  0
VERTEX
  5
61B
  8
DATA
  6
CONTINUOUS
 62
     7
 10
67.928241526625726
 20
189.75507398589409
 30
0.0
  0
VERTEX
  5
61C
  8
DATA
  6
CONTINUOUS
 62
     7
 10
69.458241526625727
 20
189.75507398589409
 30
0.0
  0
VERTEX
  5
61D
  8
DATA
  6
CONTINUOUS
 62
     7
 10
69.458241526625727
 20
188.22507398589411
 30
0.0
  0
VERTEX
  5
61E
  8
DATA
  6
CONTINUOUS
 62
     7
 10
67.928241526625726
 20
188.22507398589411
 30
0.0
  0
SEQEND
  5
61F
  8
DATA
  6
CONTINUOUS
 62
     7
  0
POLYLINE
  5
324
  8
DATA
  6
CONTINUOUS
 62
     7
 66
     1
 10
0.0
 20
0.0
 30
0.0
 70
     1
  0
VERTEX
  5
620
  8
DATA
  6
CONTINUOUS
 62
     7
 10
69.928241526625726
 20
189.75507398589409
 30
0.0
  0
VERTEX
  5
621
  8
DATA
  6
CONTINUOUS
 62
     7
 10
71.458241526625741
 20
189.75507398589409
 30
0.0
  0
VERTEX
  5
622
  8
DATA
  6
CONTINUOUS
 62
     7
 10
71.458241526625741
 20
188.22507398589411
 30
0.0
  0
VERTEX
  5
623
  8
DATA
  6
CONTINUOUS
 62
     7
 10
69.928241526625726
 20
188.22507398589411
 30
0.0
  0
SEQEND
  5
624
  8
DATA
  6
CONTINUOUS
 62
     7
  0
POLYLINE
  5
32B
  8
DATA
  6
CONTINUOUS
 62
     7
 66
     1
 10
0.0
 20
0.0
 30
0.0
 70
     1
  0
VERTEX
  5
625
  8
DATA
  6
CONTINUOUS
 62
     7
 10
71.92824152662574
 20
189.75507398589409
 30
0.0
  0
VERTEX
  5
626
  8
DATA
  6
CONTINUOUS
 62
     7
 10
73.458241526625741
 20
189.75507398589409
 30
0.0
  0
VERTEX
  5
627
  8
DATA
  6
CONTINUOUS
 62
     7
 10
73.458241526625741
 20
188.22507398589411
 30
0.0
  0
VERTEX
  5
628
  8
DATA
  6
CONTINUOUS
 62
     7
 10
71.92824152662574
 20
188.22507398589411
 30
0.0
  0
SEQEND
  5
629
  8
DATA
  6
CONTINUOUS
 62
     7
  0
POLYLINE
  5
332
  8
DATA
  6
CONTINUOUS
 62
     7
 66
     1
 10
0.0
 20
0.0
 30
0.0
 70
     1
  0
VERTEX
  5
62A
  8
DATA
  6
CONTINUOUS
 62
     7
 10
73.92824152662574
 20
189.75507398589409
 30
0.0
  0
VERTEX
  5
62B
  8
DATA
  6
CONTINUOUS
 62
     7
 10
75.458241526625741
 20
189.75507398589409
 30
0.0
  0
VERTEX
  5
62C
  8
DATA
  6
CONTINUOUS
 62
     7
 10
75.458241526625741
 20
188.22507398589411
 30
0.0
  0
VERTEX
  5
62D
  8
DATA
  6
CONTINUOUS
 62
     7
 10
73.92824152662574
 20
188.22507398589411
 30
0.0
  0
SEQEND
  5
62E
  8
DATA
  6
CONTINUOUS
 62
     7
  0
POLYLINE
  5
339
  8
DATA
  6
CONTINUOUS
 62
     7
 66
     1
 10
0.0
 20
0.0
 30
0.0
 70
     1
  0
VERTEX
  5
62F
  8
DATA
  6
CONTINUOUS
 62
     7
 10
75.92824152662574
 20
189.75507398589409
 30
0.0
  0
VERTEX
  5
630
  8
DATA
  6
CONTINUOUS
 62
     7
 10
77.458241526625741
 20
189.75507398589409
 30
0.0
  0
VERTEX
  5
631
  8
DATA
  6
CONTINUOUS
 62
     7
 10
77.458241526625741
 20
188.22507398589411
 30
0.0
  0
VERTEX
  5
632
  8
DATA
  6
CONTINUOUS
 62
     7
 10
75.92824152662574
 20
188.22507398589411
 30
0.0
  0
SEQEND
  5
633
  8
DATA
  6
CONTINUOUS
 62
     7
  0
POLYLINE
  5
340
  8
DATA
  6
CONTINUOUS
 62
     7
 66
     1
 10
0.0
 20
0.0
 30
0.0
 70
     1
  0
VERTEX
  5
634
  8
DATA
  6
CONTINUOUS
 62
     7
 10
77.92824152662574
 20
189.75507398589409
 30
0.0
  0
VERTEX
  5
635
  8
DATA
  6
CONTINUOUS
 62
     7
 10
79.458241526625741
 20
189.75507398589409
 30
0.0
  0
VERTEX
  5
636
  8
DATA
  6
CONTINUOUS
 62
     7
 10
79.458241526625741
 20
188.22507398589411
 30
0.0
  0
VERTEX
  5
637
  8
DATA
  6
CONTINUOUS
 62
     7
 10
77.92824152662574
 20
188.22507398589411
 30
0.0
  0
SEQEND
  5
638
  8
DATA
  6
CONTINUOUS
 62
     7
  0
POLYLINE
  5
347
  8
DATA
  6
CONTINUOUS
 62
     7
 66
     1
 10
0.0
 20
0.0
 30
0.0
 70
     1
  0
VERTEX
  5
639
  8
DATA
  6
CONTINUOUS
 62
     7
 10
63.928241526625733
 20
187.75507398589409
 30
0.0
  0
VERTEX
  5
63A
  8
DATA
  6
CONTINUOUS
 62
     7
 10
65.458241526625756
 20
187.75507398589409
 30
0.0
  0
VERTEX
  5
63B
  8
DATA
  6
CONTINUOUS
 62
     7
 10
65.458241526625756
 20
186.22507398589411
 30
0.0
  0
VERTEX
  5
63C
  8
DATA
  6
CONTINUOUS
 62
     7
 10
63.928241526625733
 20
186.22507398589411
 30
0.0
  0
SEQEND
  5
63D
  8
DATA
  6
CONTINUOUS
 62
     7
  0
POLYLINE
  5
34E
  8
DATA
  6
CONTINUOUS
 62
     7
 66
     1
 10
0.0
 20
0.0
 30
0.0
 70
     1
  0
VERTEX
  5
63E
  8
DATA
  6
CONTINUOUS
 62
     7
 10
65.928241526625754
 20
187.75507398589409
 30
0.0
  0
VERTEX
  5
63F
  8
DATA
  6
CONTINUOUS
 62
     7
 10
67.458241526625727
 20
187.75507398589409
 30
0.0
  0
VERTEX
  5
640
  8
DATA
  6
CONTINUOUS
 62
     7
 10
67.458241526625727
 20
186.22507398589411
 30
0.0
  0
VERTEX
  5
641
  8
DATA
  6
CONTINUOUS
 62
     7
 10
65.928241526625754
 20
186.22507398589411
 30
0.0
  0
SEQEND
  5
642
  8
DATA
  6
CONTINUOUS
 62
     7
  0
POLYLINE
  5
355
  8
DATA
  6
CONTINUOUS
 62
     7
 66
     1
 10
0.0
 20
0.0
 30
0.0
 70
     1
  0
VERTEX
  5
643
  8
DATA
  6
CONTINUOUS
 62
     7
 10
67.928241526625726
 20
187.75507398589409
 30
0.0
  0
VERTEX
  5
644
  8
DATA
  6
CONTINUOUS
 62
     7
 10
69.458241526625727
 20
187.75507398589409
 30
0.0
  0
VERTEX
  5
645
  8
DATA
  6
CONTINUOUS
 62
     7
 10
69.458241526625727
 20
186.22507398589411
 30
0.0
  0
VERTEX
  5
646
  8
DATA
  6
CONTINUOUS
 62
     7
 10
67.928241526625726
 20
186.22507398589411
 30
0.0
  0
SEQEND
  5
647
  8
DATA
  6
CONTINUOUS
 62
     7
  0
POLYLINE
  5
35C
  8
DATA
  6
CONTINUOUS
 62
     7
 66
     1
 10
0.0
 20
0.0
 30
0.0
 70
     1
  0
VERTEX
  5
648
  8
DATA
  6
CONTINUOUS
 62
     7
 10
69.928241526625726
 20
187.75507398589409
 30
0.0
  0
VERTEX
  5
649
  8
DATA
  6
CONTINUOUS
 62
     7
 10
71.458241526625741
 20
187.75507398589409
 30
0.0
  0
VERTEX
  5
64A
  8
DATA
  6
CONTINUOUS
 62
     7
 10
71.458241526625741
 20
186.22507398589411
 30
0.0
  0
VERTEX
  5
64B
  8
DATA
  6
CONTINUOUS
 62
     7
 10
69.928241526625726
 20
186.22507398589411
 30
0.0
  0
SEQEND
  5
64C
  8
DATA
  6
CONTINUOUS
 62
     7
  0
POLYLINE
  5
363
  8
DATA
  6
CONTINUOUS
 62
     7
 66
     1
 10
0.0
 20
0.0
 30
0.0
 70
     1
  0
VERTEX
  5
64D
  8
DATA
  6
CONTINUOUS
 62
     7
 10
71.92824152662574
 20
187.75507398589409
 30
0.0
  0
VERTEX
  5
64E
  8
DATA
  6
CONTINUOUS
 62
     7
 10
73.458241526625741
 20
187.75507398589409
 30
0.0
  0
VERTEX
  5
64F
  8
DATA
  6
CONTINUOUS
 62
     7
 10
73.458241526625741
 20
186.22507398589411
 30
0.0
  0
VERTEX
  5
650
  8
DATA
  6
CONTINUOUS
 62
     7
 10
71.92824152662574
 20
186.22507398589411
 30
0.0
  0
SEQEND
  5
651
  8
DATA
  6
CONTINUOUS
 62
     7
  0
POLYLINE
  5
36A
  8
DATA
  6
CONTINUOUS
 62
     7
 66
     1
 10
0.0
 20
0.0
 30
0.0
 70
     1
  0
VERTEX
  5
652
  8
DATA
  6
CONTINUOUS
 62
     7
 10
73.92824152662574
 20
187.75507398589409
 30
0.0
  0
VERTEX
  5
653
  8
DATA
  6
CONTINUOUS
 62
     7
 10
75.458241526625741
 20
187.75507398589409
 30
0.0
  0
VERTEX
  5
654
  8
DATA
  6
CONTINUOUS
 62
     7
 10
75.458241526625741
 20
186.22507398589411
 30
0.0
  0
VERTEX
  5
655
  8
DATA
  6
CONTINUOUS
 62
     7
 10
73.92824152662574
 20
186.22507398589411
 30
0.0
  0
SEQEND
  5
656
  8
DATA
  6
CONTINUOUS
 62
     7
  0
POLYLINE
  5
371
  8
DATA
  6
CONTINUOUS
 62
     7
 66
     1
 10
0.0
 20
0.0
 30
0.0
 70
     1
  0
VERTEX
  5
657
  8
DATA
  6
CONTINUOUS
 62
     7
 10
75.92824152662574
 20
187.75507398589409
 30
0.0
  0
VERTEX
  5
658
  8
DATA
  6
CONTINUOUS
 62
     7
 10
77.458241526625741
 20
187.75507398589409
 30
0.0
  0
VERTEX
  5
659
  8
DATA
  6
CONTINUOUS
 62
     7
 10
77.458241526625741
 20
186.22507398589411
 30
0.0
  0
VERTEX
  5
65A
  8
DATA
  6
CONTINUOUS
 62
     7
 10
75.92824152662574
 20
186.22507398589411
 30
0.0
  0
SEQEND
  5
65B
  8
DATA
  6
CONTINUOUS
 62
     7
  0
POLYLINE
  5
378
  8
DATA
  6
CONTINUOUS
 62
     7
 66
     1
 10
0.0
 20
0.0
 30
0.0
 70
     1
  0
VERTEX
  5
65C
  8
DATA
  6
CONTINUOUS
 62
     7
 10
77.92824152662574
 20
187.75507398589409
 30
0.0
  0
VERTEX
  5
65D
  8
DATA
  6
CONTINUOUS
 62
     7
 10
79.458241526625741
 20
187.75507398589409
 30
0.0
  0
VERTEX
  5
65E
  8
DATA
  6
CONTINUOUS
 62
     7
 10
79.458241526625741
 20
186.22507398589411
 30
0.0
  0
VERTEX
  5
65F
  8
DATA
  6
CONTINUOUS
 62
     7
 10
77.92824152662574
 20
186.22507398589411
 30
0.0
  0
SEQEND
  5
660
  8
DATA
  6
CONTINUOUS
 62
     7
  0
POLYLINE
  5
37F
  8
DATA
  6
CONTINUOUS
 62
     7
 66
     1
 10
0.0
 20
0.0
 30
0.0
 70
     1
  0
VERTEX
  5
661
  8
DATA
  6
CONTINUOUS
 62
     7
 10
63.928241526625733
 20
191.75507398589409
 30
0.0
  0
VERTEX
  5
662
  8
DATA
  6
CONTINUOUS
 62
     7
 10
65.458241526625756
 20
191.75507398589409
 30
0.0
  0
VERTEX
  5
663
  8
DATA
  6
CONTINUOUS
 62
     7
 10
65.458241526625756
 20
190.225073985894
 30
0.0
  0
VERTEX
  5
664
  8
DATA
  6
CONTINUOUS
 62
     7
 10
63.928241526625733
 20
190.225073985894
 30
0.0
  0
SEQEND
  5
665
  8
DATA
  6
CONTINUOUS
 62
     7
  0
POLYLINE
  5
386
  8
DATA
  6
CONTINUOUS
 62
     7
 66
     1
 10
0.0
 20
0.0
 30
0.0
 70
     1
  0
VERTEX
  5
666
  8
DATA
  6
CONTINUOUS
 62
     7
 10
65.928241526625754
 20
191.75507398589409
 30
0.0
  0
VERTEX
  5
667
  8
DATA
  6
CONTINUOUS
 62
     7
 10
67.458241526625727
 20
191.75507398589409
 30
0.0
  0
VERTEX
  5
668
  8
DATA
  6
CONTINUOUS
 62
     7
 10
67.458241526625727
 20
190.225073985894
 30
0.0
  0
VERTEX
  5
669
  8
DATA
  6
CONTINUOUS
 62
     7
 10
65.928241526625754
 20
190.225073985894
 30
0.0
  0
SEQEND
  5
66A
  8
DATA
  6
CONTINUOUS
 62
     7
  0
POLYLINE
  5
38D
  8
DATA
  6
CONTINUOUS
 62
     7
 66
     1
 10
0.0
 20
0.0
 30
0.0
 70
     1
  0
VERTEX
  5
66B
  8
DATA
  6
CONTINUOUS
 62
     7
 10
67.928241526625726
 20
191.75507398589409
 30
0.0
  0
VERTEX
  5
66C
  8
DATA
  6
CONTINUOUS
 62
     7
 10
69.458241526625727
 20
191.75507398589409
 30
0.0
  0
VERTEX
  5
66D
  8
DATA
  6
CONTINUOUS
 62
     7
 10
69.458241526625727
 20
190.225073985894
 30
0.0
  0
VERTEX
  5
66E
  8
DATA
  6
CONTINUOUS
 62
     7
 10
67.928241526625726
 20
190.225073985894
 30
0.0
  0
SEQEND
  5
66F
  8
DATA
  6
CONTINUOUS
 62
     7
  0
POLYLINE
  5
394
  8
DATA
  6
CONTINUOUS
 62
     7
 66
     1
 10
0.0
 20
0.0
 30
0.0
 70
     1
  0
VERTEX
  5
670
  8
DATA
  6
CONTINUOUS
 62
     7
 10
69.928241526625726
 20
191.75507398589409
 30
0.0
  0
VERTEX
  5
671
  8
DATA
  6
CONTINUOUS
 62
     7
 10
71.458241526625741
 20
191.75507398589409
 30
0.0
  0
VERTEX
  5
672
  8
DATA
  6
CONTINUOUS
 62
     7
 10
71.458241526625741
 20
190.225073985894
 30
0.0
  0
VERTEX
  5
673
  8
DATA
  6
CONTINUOUS
 62
     7
 10
69.928241526625726
 20
190.225073985894
 30
0.0
  0
SEQEND
  5
674
  8
DATA
  6
CONTINUOUS
 62
     7
  0
POLYLINE
  5
39B
  8
DATA
  6
CONTINUOUS
 62
     7
 66
     1
 10
0.0
 20
0.0
 30
0.0
 70
     1
  0
VERTEX
  5
675
  8
DATA
  6
CONTINUOUS
 62
     7
 10
71.92824152662574
 20
191.75507398589409
 30
0.0
  0
VERTEX
  5
676
  8
DATA
  6
CONTINUOUS
 62
     7
 10
73.458241526625741
 20
191.75507398589409
 30
0.0
  0
VERTEX
  5
677
  8
DATA
  6
CONTINUOUS
 62
     7
 10
73.458241526625741
 20
190.225073985894
 30
0.0
  0
VERTEX
  5
678
  8
DATA
  6
CONTINUOUS
 62
     7
 10
71.92824152662574
 20
190.225073985894
 30
0.0
  0
SEQEND
  5
679
  8
DATA
  6
CONTINUOUS
 62
     7
  0
POLYLINE
  5
3A2
  8
DATA
  6
CONTINUOUS
 62
     7
 66
     1
 10
0.0
 20
0.0
 30
0.0
 70
     1
  0
VERTEX
  5
67A
  8
DATA
  6
CONTINUOUS
 62
     7
 10
73.92824152662574
 20
191.75507398589409
 30
0.0
  0
VERTEX
  5
67B
  8
DATA
  6
CONTINUOUS
 62
     7
 10
75.458241526625741
 20
191.75507398589409
 30
0.0
  0
VERTEX
  5
67C
  8
DATA
  6
CONTINUOUS
 62
     7
 10
75.458241526625741
 20
190.225073985894
 30
0.0
  0
VERTEX
  5
67D
  8
DATA
  6
CONTINUOUS
 62
     7
 10
73.92824152662574
 20
190.225073985894
 30
0.0
  0
SEQEND
  5
67E
  8
DATA
  6
CONTINUOUS
 62
     7
  0
POLYLINE
  5
3A9
  8
DATA
  6
CONTINUOUS
 62
     7
 66
     1
 10
0.0
 20
0.0
 30
0.0
 70
     1
  0
VERTEX
  5
67F
  8
DATA
  6
CONTINUOUS
 62
     7
 10
75.92824152662574
 20
191.75507398589409
 30
0.0
  0
VERTEX
  5
680
  8
DATA
  6
CONTINUOUS
 62
     7
 10
77.458241526625741
 20
191.75507398589409
 30
0.0
  0
VERTEX
  5
681
  8
DATA
  6
CONTINUOUS
 62
     7
 10
77.458241526625741
 20
190.225073985894
 30
0.0
  0
VERTEX
  5
682
  8
DATA
  6
CONTINUOUS
 62
     7
 10
75.92824152662574
 20
190.225073985894
 30
0.0
  0
SEQEND
  5
683
  8
DATA
  6
CONTINUOUS
 62
     7
  0
POLYLINE
  5
3B0
  8
DATA
  6
CONTINUOUS
 62
     7
 66
     1
 10
0.0
 20
0.0
 30
0.0
 70
     1
  0
VERTEX
  5
684
  8
DATA
  6
CONTINUOUS
 62
     7
 10
77.92824152662574
 20
191.75507398589409
 30
0.0
  0
VERTEX
  5
685
  8
DATA
  6
CONTINUOUS
 62
     7
 10
79.458241526625741
 20
191.75507398589409
 30
0.0
  0
VERTEX
  5
686
  8
DATA
  6
CONTINUOUS
 62
     7
 10
79.458241526625741
 20
190.225073985894
 30
0.0
  0
VERTEX
  5
687
  8
DATA
  6
CONTINUOUS
 62
     7
 10
77.92824152662574
 20
190.225073985894
 30
0.0
  0
SEQEND
  5
688
  8
DATA
  6
CONTINUOUS
 62
     7
  0
POLYLINE
  5
3B7
  8
DATA
  6
CONTINUOUS
 62
     7
 66
     1
 10
0.0
 20
0.0
 30
0.0
  0
VERTEX
  5
689
  8
DATA
  6
CONTINUOUS
 62
     7
 10
83.478307697805135
 20
188.59007398589409
 30
0.0
  0
VERTEX
  5
68A
  8
DATA
  6
CONTINUOUS
 62
     7
 10
85.578307697805073
 20
188.59007398589409
 30
0.0
  0
VERTEX
  5
68B
  8
DATA
  6
CONTINUOUS
 62
     7
 10
85.578307697805073
 20
189.39007398589399
 30
0.0
  0
VERTEX
  5
68C
  8
DATA
  6
CONTINUOUS
 62
     7
 10
83.478307697805135
 20
189.39007398589399
 30
0.0
  0
SEQEND
  5
68D
  8
DATA
  6
CONTINUOUS
 62
     7
  0
POLYLINE
  5
3BE
  8
DATA
  6
CONTINUOUS
 62
     7
 66
     1
 10
0.0
 20
0.0
 30
0.0
  0
VERTEX
  5
68E
  8
DATA
  6
CONTINUOUS
 62
     7
 10
82.67830769780511
 20
189.39007398589399
 30
0.0
  0
VERTEX
  5
68F
  8
DATA
  6
CONTINUOUS
 62
     7
 10
80.578307697805073
 20
189.39007398589399
 30
0.0
  0
VERTEX
  5
690
  8
DATA
  6
CONTINUOUS
 62
     7
 10
80.578307697805073
 20
188.59007398589409
 30
0.0
  0
VERTEX
  5
691
  8
DATA
  6
CONTINUOUS
 62
     7
 10
82.67830769780511
 20
188.59007398589409
 30
0.0
  0
SEQEND
  5
692
  8
DATA
  6
CONTINUOUS
 62
     7
  0
POLYLINE
  5
3C5
  8
DATA
  6
CONTINUOUS
 62
     7
 66
     1
 10
0.0
 20
0.0
 30
0.0
  0
VERTEX
  5
693
  8
DATA
  6
CONTINUOUS
 62
     7
 10
83.478307697805135
 20
189.39007398589399
 30
0.0
  0
VERTEX
  5
694
  8
DATA
  6
CONTINUOUS
 62
     7
 10
83.478307697805135
 20
191.4900739858941
 30
0.0
  0
VERTEX
  5
695
  8
DATA
  6
CONTINUOUS
 62
     7
 10
82.67830769780511
 20
191.4900739858941
 30
0.0
  0
VERTEX
  5
696
  8
DATA
  6
CONTINUOUS
 62
     7
 10
82.67830769780511
 20
189.39007398589399
 30
0.0
  0
SEQEND
  5
697
  8
DATA
  6
CONTINUOUS
 62
     7
  0
POLYLINE
  5
3CC
  8
DATA
  6
CONTINUOUS
 62
     7
 66
     1
 10
0.0
 20
0.0
 30
0.0
  0
VERTEX
  5
698
  8
DATA
  6
CONTINUOUS
 62
     7
 10
82.67830769780511
 20
188.59007398589409
 30
0.0
  0
VERTEX
  5
699
  8
DATA
  6
CONTINUOUS
 62
     7
 10
82.67830769780511
 20
186.4900739858941
 30
0.0
  0
VERTEX
  5
69A
  8
DATA
  6
CONTINUOUS
 62
     7
 10
83.478307697805135
 20
186.4900739858941
 30
0.0
  0
VERTEX
  5
69B
  8
DATA
  6
CONTINUOUS
 62
     7
 10
83.478307697805135
 20
188.59007398589409
 30
0.0
  0
SEQEND
  5
69C
  8
DATA
  6
CONTINUOUS
 62
     7
  0
POLYLINE
  5
3D3
  8
DATA
  6
CONTINUOUS
 62
     7
 66
     1
 10
0.0
 20
0.0
 30
0.0
 70
     1
  0
VERTEX
  5
69D
  8
DATA
  6
CONTINUOUS
 62
     7
 10
81.218023267333393
 20
188.23064617524409
 30
0.0
  0
VERTEX
  5
69E
  8
DATA
  6
CONTINUOUS
 62
     7
 10
82.218023267333393
 20
188.23064617524409
 30
0.0
  0
VERTEX
  5
69F
  8
DATA
  6
CONTINUOUS
 62
     7
 10
82.218023267333393
 20
187.23064617524409
 30
0.0
  0
VERTEX
  5
6A0
  8
DATA
  6
CONTINUOUS
 62
     7
 10
81.218023267333393
 20
187.23064617524409
 30
0.0
  0
SEQEND
  5
6A1
  8
DATA
  6
CONTINUOUS
 62
     7
  0
POLYLINE
  5
3DA
  8
DATA
  6
CONTINUOUS
 62
     7
 66
     1
 10
0.0
 20
0.0
 30
0.0
 70
     1
  0
VERTEX
  5
6A2
  8
DATA
  6
CONTINUOUS
 62
     7
 10
83.938592128276824
 20
188.23064617524409
 30
0.0
  0
VERTEX
  5
6A3
  8
DATA
  6
CONTINUOUS
 62
     7
 10
84.938592128276824
 20
188.23064617524409
 30
0.0
  0
VERTEX
  5
6A4
  8
DATA
  6
CONTINUOUS
 62
     7
 10
84.938592128276824
 20
187.23064617524409
 30
0.0
  0
VERTEX
  5
6A5
  8
DATA
  6
CONTINUOUS
 62
     7
 10
83.938592128276824
 20
187.23064617524409
 30
0.0
  0
SEQEND
  5
6A6
  8
DATA
  6
CONTINUOUS
 62
     7
  0
POLYLINE
  5
3E1
  8
DATA
  6
CONTINUOUS
 62
     7
 66
     1
 10
0.0
 20
0.0
 30
0.0
 70
     1
  0
VERTEX
  5
6A7
  8
DATA
  6
CONTINUOUS
 62
     7
 10
81.218023267333393
 20
190.749501796544
 30
0.0
  0
VERTEX
  5
6A8
  8
DATA
  6
CONTINUOUS
 62
     7
 10
82.218023267333393
 20
190.749501796544
 30
0.0
  0
VERTEX
  5
6A9
  8
DATA
  6
CONTINUOUS
 62
     7
 10
82.218023267333393
 20
189.749501796544
 30
0.0
  0
VERTEX
  5
6AA
  8
DATA
  6
CONTINUOUS
 62
     7
 10
81.218023267333393
 20
189.749501796544
 30
0.0
  0
SEQEND
  5
6AB
  8
DATA
  6
CONTINUOUS
 62
     7
  0
POLYLINE
  5
3E8
  8
DATA
  6
CONTINUOUS
 62
     7
 66
     1
 10
0.0
 20
0.0
 30
0.0
 70
     1
  0
VERTEX
  5
6AC
  8
DATA
  6
CONTINUOUS
 62
     7
 10
83.938592128276824
 20
190.749501796544
 30
0.0
  0
VERTEX
  5
6AD
  8
DATA
  6
CONTINUOUS
 62
     7
 10
84.938592128276824
 20
190.749501796544
 30
0.0
  0
VERTEX
  5
6AE
  8
DATA
  6
CONTINUOUS
 62
     7
 10
84.938592128276824
 20
189.749501796544
 30
0.0
  0
VERTEX
  5
6AF
  8
DATA
  6
CONTINUOUS
 62
     7
 10
83.938592128276824
 20
189.749501796544
 30
0.0
  0
SEQEND
  5
6B0
  8
DATA
  6
CONTINUOUS
 62
     7
  0
LINE
  5
3EF
  8
DATA
  6
CONTINUOUS
 62
     7
 10
62.982935879857763
 20
186.16018229138021
 30
0.0
 11
63.541853077310101
 21
192.0101822913802
 31
0.0
  0
LINE
  5
3F0
  8
DATA
  6
CONTINUOUS
 62
     7
 10
86.873679515752187
 20
186.16018229138021
 30
0.0
 11
86.314762318299898
 21
192.0101822913802
 31
0.0
  0
ARC
  5
3F1
  8
DATA
  6
CONTINUOUS
 62
     7
 10
63.978402810613233
 20
186.065073985894
 30
0.0
 40
1.0000000000000879
 50
174.5424465148929
 51
270.0
  0
ARC
  5
3F2
  8
DATA
  6
CONTINUOUS
 62
     7
 10
85.878212584996817
 20
186.06507398589409
 30
0.0
 40
1.0
 50
269.99999999999841
 51
5.4575534851060761
  0
ARC
  5
3F3
  8
DATA
  6
CONTINUOUS
 62
     7
 10
64.537320008065564
 20
191.915073985894
 30
0.0
 40
1.0
 50
90.000000000001606
 51
174.5424465148929
  0
ARC
  5
3F4
  8
DATA
  6
CONTINUOUS
 62
     7
 10
85.319295387544514
 20
191.915073985894
 30
0.0
 40
0.9999999999999985
 50
5.457553485104313
 51
90.0
  0
TEXT
  5
3F5
  8
DATA
 62
     7
 10
36.635658094562331
 20
199.48235381862841
 30
0.0
 40
2.185361870659722
  1
DVI Out 2 
 50
180.0
 41
0.75
 11
36.635658094562331
 21
197.29699194796871
 31
0.0
 73
     3
  0
TEXT
  5
3F6
  8
DATA
 62
     7
 10
80.774194768432992
 20
199.48235381862841
 30
0.0
 40
2.185361870659722
  1
DVI Out 1
 50
180.0
 41
0.75
 11
80.774194768432992
 21
197.29699194796871
 31
0.0
 73
     3
  0
LINE
  5
3F7
  8
DATA
  6
CONTINUOUS
 62
     7
 10
150.0
 20
0.0
 30
0.0
 11
150.0
 21
29.0
 31
0.0
  0
LINE
  5
3F8
  8
DATA
  6
CONTINUOUS
 62
     7
 10
232.0
 20
0.0
 30
0.0
 11
232.0
 21
29.0
 31
0.0
  0
LINE
  5
3F9
  8
DATA
  6
CONTINUOUS
 62
     7
 10
150.0
 20
29.0
 30
0.0
 11
232.0
 21
29.0
 31
0.0
  0
LINE
  5
3FA
  8
DATA
  6
CONTINUOUS
 62
     7
 10
150.0
 20
0.0
 30
0.0
 11
232.0
 21
0.0
 31
0.0
  0
LINE
  5
3FB
  8
DATA
  6
CONTINUOUS
 62
     7
 10
164.85629535577229
 20
-2.0
 30
0.0
 11
158.85629535577229
 21
-2.0
 31
0.0
  0
LINE
  5
3FC
  8
DATA
  6
CONTINUOUS
 62
     7
 10
164.85629535577229
 20
-2.0
 30
0.0
 11
165.55629535577239
 21
0.0
 31
0.0
  0
LINE
  5
3FD
  8
DATA
  6
CONTINUOUS
 62
     7
 10
158.85629535577229
 20
-2.0
 30
0.0
 11
158.15629535577239
 21
0.0
 31
0.0
  0
LINE
  5
3FE
  8
DATA
  6
CONTINUOUS
 62
     7
 10
222.99853126224079
 20
-2.0
 30
0.0
 11
216.99853126224079
 21
-2.0
 31
0.0
  0
LINE
  5
3FF
  8
DATA
  6
CONTINUOUS
 62
     7
 10
222.99853126224079
 20
-2.0
 30
0.0
 11
223.69853126224081
 21
0.0
 31
0.0
  0
LINE
  5
400
  8
DATA
  6
CONTINUOUS
 62
     7
 10
216.99853126224079
 20
-2.0
 30
0.0
 11
216.2985312622408
 21
0.0
 31
0.0
  0
ARC
  5
401
  8
DATA
  6
CONTINUOUS
 62
     7
 10
150.1570607050154
 20
15.00992601410592
 30
0.0
 40
1.3999999999999879
 50
96.441356847697193
 51
263.55864315230281
  0
LINE
  5
402
  8
DATA
  6
CONTINUOUS
 62
     7
 10
145.0
 20
18.93492601410594
 30
0.0
 11
150.0
 21
18.93492601410594
 31
0.0
  0
LINE
  5
403
  8
DATA
  6
CONTINUOUS
 62
     7
 10
145.0
 20
11.084926014105941
 30
0.0
 11
150.0
 21
11.084926014105941
 31
0.0
  0
LINE
  5
404
  8
DATA
  6
CONTINUOUS
 62
     7
 10
145.0
 20
11.084926014105941
 30
0.0
 11
145.0
 21
18.93492601410594
 31
0.0
  0
LINE
  5
405
  8
DATA
  6
CONTINUOUS
 62
     7
 10
145.0
 20
17.709926014105921
 30
0.0
 11
150.0
 21
17.709926014105921
 31
0.0
  0
LINE
  5
406
  8
DATA
  6
CONTINUOUS
 62
     7
 10
145.0
 20
12.30992601410596
 30
0.0
 11
150.0
 21
12.30992601410596
 31
0.0
  0
LINE
  5
407
  8
DATA
  6
CONTINUOUS
 62
     7
 10
237.0
 20
11.084926014105941
 30
0.0
 11
237.0
 21
18.93492601410594
 31
0.0
  0
LINE
  5
408
  8
DATA
  6
CONTINUOUS
 62
     7
 10
232.0
 20
18.93492601410594
 30
0.0
 11
237.0
 21
18.93492601410594
 31
0.0
  0
LINE
  5
409
  8
DATA
  6
CONTINUOUS
 62
     7
 10
232.0
 20
11.084926014105941
 30
0.0
 11
237.0
 21
11.084926014105941
 31
0.0
  0
LINE
  5
40A
  8
DATA
  6
CONTINUOUS
 62
     7
 10
232.0
 20
17.709926014105921
 30
0.0
 11
237.0
 21
17.709926014105921
 31
0.0
  0
LINE
  5
40B
  8
DATA
  6
CONTINUOUS
 62
     7
 10
232.0
 20
12.30992601410596
 30
0.0
 11
237.0
 21
12.30992601410596
 31
0.0
  0
ENDSEC
  0
EOF
