  0
SECTION
  2
HEADER
  9
$ACADVER
  1
AC1009
  9
$INSBASE
 10
0.0
 20
0.0
 30
0.0
  9
$EXTMIN
 10
-170.0164782349211
 20
-265.74833863455001
 30
-0.0015258207003583
  9
$EXTMAX
 10
370.0164807494923
 20
537.09174839639525
 30
0.0000000349246037
  9
$LIMMIN
 10
0.0
 20
0.0
  9
$LIMMAX
 10
0.0
 20
0.0
  9
$ORTHOMODE
 70
     0
  9
$REGENMODE
 70
     1
  9
$FILLMODE
 70
     1
  9
$QTEXTMODE
 70
     0
  9
$MIRRTEXT
 70
     1
  9
$DRAGMODE
 70
     2
  9
$LTSCALE
 40
15.24
  9
$OSMODE
 70
   231
  9
$ATTMODE
 70
     1
  9
$TEXTSIZE
 40
0.0
  9
$TRACEWID
 40
1.0
  9
$TEXTSTYLE
  7
STANDARD
  9
$CLAYER
  8
DATA
  9
$CELTYPE
  6
BYLAYER
  9
$CECOLOR
 62
   256
  9
$DIMSCALE
 40
1.0
  9
$DIMASZ
 40
0.18
  9
$DIMEXO
 40
0.0625
  9
$DIMDLI
 40
0.38
  9
$DIMRND
 40
0.0
  9
$DIMDLE
 40
0.0
  9
$DIMEXE
 40
0.18
  9
$DIMTP
 40
0.0
  9
$DIMTM
 40
0.0
  9
$DIMTXT
 40
0.18
  9
$DIMCEN
 40
0.09
  9
$DIMTSZ
 40
0.0
  9
$DIMTOL
 70
     0
  9
$DIMLIM
 70
     0
  9
$DIMTIH
 70
     1
  9
$DIMTOH
 70
     1
  9
$DIMSE1
 70
     0
  9
$DIMSE2
 70
     0
  9
$DIMTAD
 70
     0
  9
$DIMZIN
 70
     0
  9
$DIMBLK
  1

  9
$DIMASO
 70
     1
  9
$DIMSHO
 70
     1
  9
$DIMPOST
  1

  9
$DIMAPOST
  1

  9
$DIMALT
 70
     0
  9
$DIMALTD
 70
     2
  9
$DIMALTF
 40
25.399999999999999
  9
$DIMLFAC
 40
1.0
  9
$DIMTOFL
 70
     0
  9
$DIMTVP
 40
0.0
  9
$DIMTIX
 70
     0
  9
$DIMSOXD
 70
     0
  9
$DIMSAH
 70
     0
  9
$DIMBLK1
  1

  9
$DIMBLK2
  1

  9
$DIMSTYLE
  2
STANDARD
  9
$DIMCLRD
 70
     0
  9
$DIMCLRE
 70
     0
  9
$DIMCLRT
 70
     0
  9
$DIMTFAC
 40
1.0
  9
$DIMGAP
 40
0.09
  9
$LUNITS
 70
     2
  9
$LUPREC
 70
     4
  9
$SKETCHINC
 40
0.1
  9
$FILLETRAD
 40
0.0
  9
$AUNITS
 70
     0
  9
$AUPREC
 70
     0
  9
$MENU
  1
acad
  9
$ELEVATION
 40
0.0
  9
$PELEVATION
 40
0.0
  9
$THICKNESS
 40
0.0
  9
$LIMCHECK
 70
     0
  9
$BLIPMODE
 70
     0
  9
$CHAMFERA
 40
0.0
  9
$CHAMFERB
 40
0.0
  9
$SKPOLY
 70
     0
  9
$TDCREATE
 40
2455834.571122685
  9
$TDUPDATE
 40
2455834.5717374999
  9
$TDINDWG
 40
0.0003475116
  9
$TDUSRTIMER
 40
0.000347338
  9
$USRTIMER
 70
     1
  9
$ANGBASE
 50
0.0
  9
$ANGDIR
 70
     0
  9
$PDMODE
 70
     1
  9
$PDSIZE
 40
-2.0
  9
$PLINEWID
 40
0.0
  9
$COORDS
 70
     1
  9
$SPLFRAME
 70
     0
  9
$SPLINETYPE
 70
     6
  9
$SPLINESEGS
 70
     8
  9
$ATTDIA
 70
     0
  9
$ATTREQ
 70
     1
  9
$HANDLING
 70
     1
  9
$HANDSEED
  5
7A9
  9
$SURFTAB1
 70
     6
  9
$SURFTAB2
 70
     6
  9
$SURFTYPE
 70
     6
  9
$SURFU
 70
     6
  9
$SURFV
 70
     6
  9
$UCSNAME
  2

  9
$UCSORG
 10
0.0
 20
0.0
 30
0.0
  9
$UCSXDIR
 10
1.0
 20
0.0
 30
0.0
  9
$UCSYDIR
 10
0.0
 20
1.0
 30
0.0
  9
$PUCSNAME
  2

  9
$PUCSORG
 10
0.0
 20
0.0
 30
0.0
  9
$PUCSXDIR
 10
1.0
 20
0.0
 30
0.0
  9
$PUCSYDIR
 10
0.0
 20
1.0
 30
0.0
  9
$USERI1
 70
     0
  9
$USERI2
 70
     0
  9
$USERI3
 70
     0
  9
$USERI4
 70
     0
  9
$USERI5
 70
     0
  9
$USERR1
 40
0.0
  9
$USERR2
 40
0.0
  9
$USERR3
 40
0.0
  9
$USERR4
 40
0.0
  9
$USERR5
 40
0.0
  9
$WORLDVIEW
 70
     1
  9
$SHADEDGE
 70
     3
  9
$SHADEDIF
 70
    70
  9
$TILEMODE
 70
     1
  9
$MAXACTVP
 70
    64
  9
$PLIMCHECK
 70
     0
  9
$PEXTMIN
 10
1.0000000000000000E+020
 20
1.0000000000000000E+020
 30
1.0000000000000000E+020
  9
$PEXTMAX
 10
-1.0000000000000000E+020
 20
-1.0000000000000000E+020
 30
-1.0000000000000000E+020
  9
$PLIMMIN
 10
0.0
 20
0.0
  9
$PLIMMAX
 10
12.0
 20
9.0
  9
$UNITMODE
 70
     0
  9
$VISRETAIN
 70
     0
  9
$PLINEGEN
 70
     1
  9
$PSLTSCALE
 70
     0
  0
ENDSEC
  0
SECTION
  2
TABLES
  0
TABLE
  2
VPORT
 70
     1
  0
VPORT
  2
*ACTIVE
 70
     0
 10
0.0
 20
0.0
 11
1.0
 21
1.0
 12
100.0000012572856
 22
135.6717048809227
 13
0.0
 23
0.0
 14
1.0
 24
1.0
 15
0.0
 25
0.0
 16
0.0
 26
0.0
 36
1.0
 17
0.0
 27
0.0
 37
0.0
 40
808.75056619927125
 41
1.9619164619164611
 42
50.0
 43
0.0
 44
0.0
 50
0.0
 51
0.0
 71
     0
 72
  2000
 73
     1
 74
     1
 75
     0
 76
     0
 77
     0
 78
     0
  0
ENDTAB
  0
TABLE
  2
LTYPE
 70
    11
  0
LTYPE
  2
CONTINUOUS
 70
     0
  3
Solid line
 72
    65
 73
     0
 40
0.0
  0
ENDTAB
  0
TABLE
  2
LAYER
 70
     5
  0
LAYER
  2
0
 70
     0
 62
     7
  6
CONTINUOUS
  0
LAYER
  2
DATA
 70
     0
 62
     7
  6
CONTINUOUS
  0
LAYER
  2
HIBINO-BASE
 70
     0
 62
     7
  6
CONTINUOUS
  0
LAYER
  2
SPEC
 70
     0
 62
     7
  6
CONTINUOUS
  0
LAYER
  2
DIMNSIONS
 70
     0
 62
     7
  6
CONTINUOUS
  0
ENDTAB
  0
TABLE
  2
STYLE
 70
     3
  0
STYLE
  2
STANDARD
 70
     0
 40
0.0
 41
1.0
 50
0.0
 71
     0
 42
0.0
  3
txt
  4
BIGFONT.SHX
  0
ENDTAB
  0
TABLE
  2
VIEW
 70
     0
  0
ENDTAB
  0
TABLE
  2
UCS
 70
     0
  0
ENDTAB
  0
TABLE
  2
APPID
 70
     4
  0
APPID
  2
ACAD
 70
     0
  0
APPID
  2
ACADANNOTATIVE
 70
     0
  0
APPID
  2
ACAD_NAV_VCDISPLAY
 70
     0
  0
APPID
  2
ACAD_MLEADERVER
 70
     0
  0
ENDTAB
  0
TABLE
  2
DIMSTYLE
 70
     2
  0
DIMSTYLE
  2
STANDARD
 70
     0
  3

  4

  5

  6

  7

 40
1.0
 41
0.18
 42
0.0625
 43
0.38
 44
0.18
 45
0.0
 46
0.0
 47
0.0
 48
0.0
140
0.18
141
0.09
142
0.0
143
25.399999999999999
144
1.0
145
0.0
146
1.0
147
0.09
 71
     0
 72
     0
 73
     1
 74
     1
 75
     0
 76
     0
 77
     0
 78
     0
170
     0
171
     2
172
     0
173
     0
174
     0
175
     0
176
     0
177
     0
178
     0
  0
ENDTAB
  0
ENDSEC
  0
SECTION
  2
BLOCKS
  0
BLOCK
  8
0
  2
$MODEL_SPACE
 70
     0
 10
0.0
 20
0.0
 30
0.0
  3
$MODEL_SPACE
  1

  0
ENDBLK
  5
5A4
  8
0
  0
BLOCK
 67
     1
  8
0
  2
$PAPER_SPACE
 70
     0
 10
0.0
 20
0.0
 30
0.0
  3
$PAPER_SPACE
  1

  0
ENDBLK
  5
5A0
 67
     1
  8
0
  0
ENDSEC
  0
SECTION
  2
ENTITIES
  0
LINE
  5
2C
  8
HIBINO-BASE
  6
CONTINUOUS
 62
     7
 10
-169.99999999999989
 20
537.06729578973182
 30
0.0
 11
370.0
 21
537.06729578973182
 31
0.0
  0
LINE
  5
2D
  8
HIBINO-BASE
  6
CONTINUOUS
 62
     7
 10
370.0
 20
-242.93270421026821
 30
0.0
 11
-169.99999999999989
 21
-242.93270421026821
 31
0.0
  0
LINE
  5
2E
  8
HIBINO-BASE
  6
CONTINUOUS
 62
     7
 10
-169.99999999999989
 20
-242.93270421026821
 30
0.0
 11
-169.99999999999989
 21
537.06729578973182
 31
0.0
  0
LINE
  5
2F
  8
HIBINO-BASE
  6
CONTINUOUS
 62
     7
 10
370.0
 20
537.06729578973182
 30
0.0
 11
370.0
 21
-242.93270421026821
 31
0.0
  0
LINE
  5
30
  8
HIBINO-BASE
  6
CONTINUOUS
 62
     7
 10
100.0
 20
-175.4327042102681
 30
0.0
 11
370.0
 21
-175.4327042102681
 31
0.0
  0
LINE
  5
31
  8
HIBINO-BASE
  6
CONTINUOUS
 62
     7
 10
100.0
 20
-242.93270421026821
 30
0.0
 11
100.0
 21
-175.4327042102681
 31
0.0
  0
TEXT
  5
32
  8
HIBINO-BASE
 62
     7
 10
102.7
 20
-182.95878421026811
 30
0.0
 40
4.8865234374999993
  1
NOTE
 41
0.7
 11
102.7
 21
-178.0722607727682
 31
0.0
 73
     3
  0
LINE
  5
33
  8
HIBINO-BASE
  6
CONTINUOUS
 62
     7
 10
205.0
 20
-242.93270421026821
 30
0.0
 11
205.0
 21
-175.4327042102681
 31
0.0
  0
TEXT
  5
34
  8
HIBINO-BASE
 62
     7
 10
207.69999999999999
 20
-182.95878421026811
 30
0.0
 40
4.8865234374999993
  1
TITLE
 41
0.7
 11
207.69999999999999
 21
-178.0722607727682
 31
0.0
 73
     3
  0
LINE
  5
35
  8
HIBINO-BASE
  6
CONTINUOUS
 62
     7
 10
100.0
 20
-212.9327042102681
 30
0.0
 11
370.0
 21
-212.9327042102681
 31
0.0
  0
TEXT
  5
36
  8
HIBINO-BASE
 62
     7
 10
245.19999999999999
 20
-220.28982421026819
 30
0.0
 40
4.8865234374999993
  1
DRAWN
 41
0.7
 11
245.19999999999999
 21
-215.4033007727682
 31
0.0
 73
     3
  0
TEXT
  5
37
  8
HIBINO-BASE
 62
     7
 10
170.19999999999999
 20
-220.28982421026819
 30
0.0
 40
4.8865234374999993
  1
DATE
 41
0.7
 11
170.19999999999999
 21
-215.4033007727682
 31
0.0
 73
     3
  0
TEXT
  5
38
  8
HIBINO-BASE
 62
     7
 10
140.19999999999999
 20
-220.28982421026819
 30
0.0
 40
4.8865234374999993
  1
SCALE
 41
0.7
 11
140.19999999999999
 21
-215.4033007727682
 31
0.0
 73
     3
  0
TEXT
  5
39
  8
HIBINO-BASE
 62
     7
 10
207.69999999999999
 20
-220.28982421026819
 30
0.0
 40
4.8865234374999993
  1
DESIGN
 41
0.7
 11
207.69999999999999
 21
-215.4033007727682
 31
0.0
 73
     3
  0
TEXT
  5
3A
  8
HIBINO-BASE
 62
     7
 10
320.19999999999999
 20
-220.28982421026819
 30
0.0
 40
4.8865234374999993
  1
DRAWING NO.
 41
0.7
 11
320.19999999999999
 21
-215.4033007727682
 31
0.0
 73
     3
  0
TEXT
  5
3B
  8
HIBINO-BASE
 62
     7
 10
282.69999999999999
 20
-220.28982421026819
 30
0.0
 40
4.8865234374999993
  1
CHECK
 41
0.7
 11
282.69999999999999
 21
-215.4033007727682
 31
0.0
 73
     3
  0
LINE
  5
3C
  8
HIBINO-BASE
  6
CONTINUOUS
 62
     7
 10
143.12499999999989
 20
-239.18270421026821
 30
0.0
 11
154.375
 21
-227.9327042102681
 31
0.0
  0
TEXT
  5
3D
  8
HIBINO-BASE
 62
     7
 10
141.24999999999989
 20
-231.25953421026821
 30
0.0
 40
4.8865234374999993
  1
1
 41
0.7
 11
141.24999999999989
 21
-226.3730107727682
 31
0.0
 73
     3
  0
LINE
  5
3E
  8
HIBINO-BASE
  6
CONTINUOUS
 62
     7
 10
137.5
 20
-242.93270421026821
 30
0.0
 11
137.5
 21
-212.9327042102681
 31
0.0
  0
LINE
  5
3F
  8
HIBINO-BASE
  6
CONTINUOUS
 62
     7
 10
167.5
 20
-242.93270421026821
 30
0.0
 11
167.5
 21
-212.9327042102681
 31
0.0
  0
LINE
  5
40
  8
HIBINO-BASE
  6
CONTINUOUS
 62
     7
 10
242.5
 20
-212.9327042102681
 30
0.0
 11
242.5
 21
-242.93270421026821
 31
0.0
  0
LINE
  5
41
  8
HIBINO-BASE
  6
CONTINUOUS
 62
     7
 10
317.5
 20
-212.9327042102681
 30
0.0
 11
317.5
 21
-242.93270421026821
 31
0.0
  0
LINE
  5
42
  8
HIBINO-BASE
  6
CONTINUOUS
 62
     7
 10
279.99999999999989
 20
-242.93270421026821
 30
0.0
 11
279.99999999999989
 21
-212.9327042102681
 31
0.0
  0
TEXT
  5
43
  8
HIBINO-BASE
 62
     7
 10
170.06961999999999
 20
-234.3417642102682
 30
0.0
 40
4.8865234374999993
  1
'11.09.
 41
0.7
 11
170.06961999999999
 21
-229.45524077276821
 31
0.0
 73
     3
  0
TEXT
  5
44
  8
HIBINO-BASE
 62
     7
 10
152.5
 20
-236.88453421026821
 30
0.0
 40
4.8865234374999993
  1
3
 41
0.7
 11
152.5
 21
-231.9980107727682
 31
0.0
 73
     3
  0
TEXT
  5
45
  8
HIBINO-BASE
 62
     7
 10
247.01743003310389
 20
-234.3417642102682
 30
0.0
 40
4.8865234374999993
  1
T.Ootake
 41
0.7
 11
247.01743003310389
 21
-229.45524077276821
 31
0.0
 73
     3
  0
TEXT
  5
46
  8
HIBINO-BASE
 62
     7
 10
111.65000000000001
 20
-237.0047042102681
 30
0.0
 40
9.7730468749999986
  1
A4
 41
0.7
 11
111.65000000000001
 21
-227.2316573352681
 31
0.0
 73
     3
  0
TEXT
  5
47
  8
HIBINO-BASE
 62
     7
 10
102.875
 20
-220.79106921026809
 30
0.0
 40
4.8865234374999993
  1
PAPER SIZE
 41
0.7
 11
102.875
 21
-215.9045457727681
 31
0.0
 73
     3
  0
TEXT
  5
48
  8
HIBINO-BASE
 62
     7
 10
-161.7210942293294
 20
-262.20842491279689
 30
0.0
 40
10.58746744791666
  1
Hibino-Intersound Corporation
 41
0.7
 11
-161.7210942293294
 21
-251.62095746488029
 31
0.0
 73
     3
  0
TEXT
  5
49
  8
HIBINO-BASE
 62
     7
 10
160.54182904064169
 20
-261.15516015292872
 30
0.0
 40
10.58746744791666
  1
ヒビノインターサウンド株式会社
 41
0.7
 11
160.54182904064169
 21
-250.56769270501201
 31
0.0
 73
     3
  0
LINE
  5
4A
  8
SPEC
  6
CONTINUOUS
 62
     7
 10
-147.49999999999989
 20
507.0672957897317
 30
0.0
 11
295.0
 21
507.0672957897317
 31
0.0
  0
LINE
  5
4B
  8
SPEC
  6
CONTINUOUS
 62
     7
 10
-147.49999999999989
 20
495.8172957897317
 30
0.0
 11
295.0
 21
495.8172957897317
 31
0.0
  0
LINE
  5
4C
  8
SPEC
  6
CONTINUOUS
 62
     7
 10
-147.49999999999989
 20
473.3172957897317
 30
0.0
 11
295.0
 21
473.3172957897317
 31
0.0
  0
LINE
  5
4D
  8
SPEC
  6
CONTINUOUS
 62
     7
 10
-147.49999999999989
 20
484.5672957897317
 30
0.0
 11
295.0
 21
484.5672957897317
 31
0.0
  0
LINE
  5
4E
  8
SPEC
  6
CONTINUOUS
 62
     7
 10
-147.49999999999989
 20
507.0672957897317
 30
0.0
 11
-147.49999999999989
 21
338.3172957897317
 31
0.0
  0
TEXT
  5
4F
  8
SPEC
 62
     7
 10
-143.74999999999989
 20
511.24710578973179
 30
0.0
 40
7.3297851562499989
  1
仕様
 41
0.7
 11
-143.74999999999989
 21
518.57689094598175
 31
0.0
 73
     3
  0
LINE
  5
50
  8
SPEC
  6
CONTINUOUS
 62
     7
 10
-19.999999999999979
 20
507.0672957897317
 30
0.0
 11
-20.0
 21
338.3172957897317
 31
0.0
  0
LINE
  5
51
  8
SPEC
  6
CONTINUOUS
 62
     7
 10
295.0
 20
507.0672957897317
 30
0.0
 11
295.0
 21
338.3172957897317
 31
0.0
  0
LINE
  5
52
  8
SPEC
  6
CONTINUOUS
 62
     7
 10
-147.49999999999989
 20
462.0672957897317
 30
0.0
 11
295.0
 21
462.0672957897317
 31
0.0
  0
LINE
  5
53
  8
SPEC
  6
CONTINUOUS
 62
     7
 10
-147.49999999999989
 20
450.8172957897317
 30
0.0
 11
295.0
 21
450.8172957897317
 31
0.0
  0
LINE
  5
54
  8
SPEC
  6
CONTINUOUS
 62
     7
 10
-147.49999999999989
 20
439.5672957897317
 30
0.0
 11
295.0
 21
439.5672957897317
 31
0.0
  0
LINE
  5
55
  8
SPEC
  6
CONTINUOUS
 62
     7
 10
-147.49999999999989
 20
428.3172957897317
 30
0.0
 11
295.0
 21
428.3172957897317
 31
0.0
  0
LINE
  5
56
  8
SPEC
  6
CONTINUOUS
 62
     7
 10
-147.49999999999989
 20
417.0672957897317
 30
0.0
 11
295.0
 21
417.0672957897317
 31
0.0
  0
LINE
  5
57
  8
SPEC
  6
CONTINUOUS
 62
     7
 10
-147.49999999999989
 20
405.8172957897317
 30
0.0
 11
295.0
 21
405.8172957897317
 31
0.0
  0
LINE
  5
58
  8
SPEC
  6
CONTINUOUS
 62
     7
 10
-147.49999999999989
 20
394.5672957897317
 30
0.0
 11
295.0
 21
394.5672957897317
 31
0.0
  0
LINE
  5
59
  8
SPEC
  6
CONTINUOUS
 62
     7
 10
-147.49999999999989
 20
383.31729578973182
 30
0.0
 11
295.0
 21
383.31729578973182
 31
0.0
  0
LINE
  5
5A
  8
SPEC
  6
CONTINUOUS
 62
     7
 10
-147.49999999999989
 20
372.0672957897317
 30
0.0
 11
295.0
 21
372.0672957897317
 31
0.0
  0
LINE
  5
5B
  8
SPEC
  6
CONTINUOUS
 62
     7
 10
-147.49999999999989
 20
360.81729578973182
 30
0.0
 11
295.0
 21
360.81729578973182
 31
0.0
  0
TEXT
  5
5C
  8
SPEC
 62
     7
 10
-145.02081458527931
 20
352.65303403945808
 30
0.0
 40
5.7009440104166673
  1
寸法
 41
0.7
 11
-145.02081458527931
 21
358.35397804987468
 31
0.0
 73
     3
  0
TEXT
  5
5D
  8
SPEC
 62
     7
 10
-17.633813966356609
 20
352.6801276179512
 30
0.0
 40
5.7009440104166673
  1
125(W)\U+00D730(H)\U+00D785(D)mm(突起部含まず）、(センダー、レシーバー共)
 41
0.7
 11
-17.633813966356609
 21
358.38107162836792
 31
0.0
 73
     3
  0
TEXT
  5
5E
  8
SPEC
 62
     7
 10
-17.394101328026512
 20
341.84039103800239
 30
0.0
 40
5.7009440104166673
  1
約220g、(センダー、レシーバー共)
 41
0.7
 11
-17.394101328026512
 21
347.54133504841911
 31
0.0
 73
     3
  0
TEXT
  5
5F
  8
SPEC
 62
     7
 10
-144.95681057983501
 20
341.53637978525109
 30
0.0
 40
5.7009440104166673
  1
重量
 41
0.7
 11
-144.95681057983501
 21
347.23732379566781
 31
0.0
 73
     3
  0
TEXT
  5
60
  8
SPEC
 62
     7
 10
-144.92839051479021
 20
375.13947526852701
 30
0.0
 40
5.7009440104166673
  1
電源
 41
0.7
 11
-144.92839051479021
 21
380.84041927894361
 31
0.0
 73
     3
  0
TEXT
  5
61
  8
SPEC
 62
     7
 10
-17.251400144768819
 20
374.7426722751037
 30
0.0
 40
5.7009440104166673
  1
5V DC
 41
0.7
 11
-17.251400144768819
 21
380.44361628552031
 31
0.0
 73
     3
  0
TEXT
  5
62
  8
SPEC
 62
     7
 10
-145.03103368762831
 20
363.68700459651251
 30
0.0
 40
5.7009440104166673
  1
消費電力
 41
0.7
 11
-145.03103368762831
 21
369.38794860692923
 31
0.0
 73
     3
  0
TEXT
  5
63
  8
SPEC
 62
     7
 10
-17.235742252667819
 20
363.46378777260389
 30
0.0
 40
5.7009440104166673
  1
10W(最大)
 41
0.7
 11
-17.235742252667819
 21
369.16473178302061
 31
0.0
 73
     3
  0
TEXT
  5
64
  8
SPEC
 62
     7
 10
-144.84004955428651
 20
386.44520829663531
 30
0.0
 40
5.7009440104166673
  1
動作温度
 41
0.7
 11
-144.84004955428651
 21
392.14615230705198
 31
0.0
 73
     3
  0
TEXT
  5
65
  8
SPEC
 62
     7
 10
-17.23599143906187
 20
385.99733937244503
 30
0.0
 40
5.7009440104166673
  1
0～40℃
 41
0.7
 11
-17.23599143906187
 21
391.69828338286158
 31
0.0
 73
     3
  0
TEXT
  5
66
  8
SPEC
 62
     7
 10
-144.88492023051811
 20
397.75471493334328
 30
0.0
 40
5.7009440104166673
  1
ボーレート
 41
0.7
 11
-144.88492023051811
 21
403.45565894375989
 31
0.0
 73
     3
  0
TEXT
  5
67
  8
SPEC
 62
     7
 10
-17.653963347048471
 20
397.48612325816811
 30
0.0
 40
5.7009440104166673
  1
19200bps
 41
0.7
 11
-17.653963347048471
 21
403.18706726858471
 31
0.0
 73
     3
  0
TEXT
  5
68
  8
SPEC
 62
     7
 10
-144.8534445789978
 20
431.1386903681813
 30
0.0
 40
5.7009440104166673
  1
パケット転送方式
 41
0.7
 11
-144.8534445789978
 21
436.83963437859791
 31
0.0
 73
     3
  0
TEXT
  5
69
  8
SPEC
 62
     7
 10
-17.3474589304322
 20
431.43839524279559
 30
0.0
 40
5.7009440104166673
  1
Full Duplex
 41
0.7
 11
-17.3474589304322
 21
437.1393392532122
 31
0.0
 73
     3
  0
TEXT
  5
6A
  8
SPEC
 62
     7
 10
-145.24137636676031
 20
442.75414896267989
 30
0.0
 40
5.7009440104166673
  1
インサーネット転送レート(最大)
 41
0.7
 11
-145.24137636676031
 21
448.4550929730965
 31
0.0
 73
     3
  0
TEXT
  5
6B
  8
SPEC
 62
     7
 10
-17.686688013822859
 20
442.76540122663368
 30
0.0
 40
5.7009440104166673
  1
100Mpps
 41
0.7
 11
-17.686688013822859
 21
448.4663452370504
 31
0.0
 73
     3
  0
TEXT
  5
6C
  8
SPEC
 62
     7
 10
-144.74011741935061
 20
453.7643724054667
 30
0.0
 40
5.7009440104166673
  1
DVI入出力端子
 41
0.7
 11
-144.74011741935061
 21
459.46531641588348
 31
0.0
 73
     3
  0
TEXT
  5
6D
  8
SPEC
 62
     7
 10
-17.30395942710901
 20
453.77652347476902
 30
0.0
 40
5.7009440104166673
  1
DVI-I(29pin)female(Digital Only)
 41
0.7
 11
-17.30395942710901
 21
459.47746748518563
 31
0.0
 73
     3
  0
TEXT
  5
6E
  8
SPEC
 62
     7
 10
-146.18223947634431
 20
465.20516172570552
 30
0.0
 40
5.7009440104166673
  1
ビデオ最大対応解像度
 41
0.7
 11
-146.18223947634431
 21
470.90610573612207
 31
0.0
 73
     3
  0
TEXT
  5
6F
  8
SPEC
 62
     7
 10
-17.678169678297419
 20
464.98612325816811
 30
0.0
 40
5.7009440104166673
  1
1080p、1920\U+00D71200
 41
0.7
 11
-17.678169678297419
 21
470.68706726858471
 31
0.0
 73
     3
  0
TEXT
  5
70
  8
SPEC
 62
     7
 10
-144.89238021377309
 20
476.26178675975581
 30
0.0
 40
5.7009440104166673
  1
入力ビデオ信号
 41
0.7
 11
-144.89238021377309
 21
481.96273077017253
 31
0.0
 73
     3
  0
TEXT
  5
71
  8
SPEC
 62
     7
 10
-17.71820972059189
 20
476.23612325816811
 30
0.0
 40
5.7009440104166673
  1
1.2Vp-p
 41
0.7
 11
-17.71820972059189
 21
481.93706726858471
 31
0.0
 73
     3
  0
TEXT
  5
72
  8
SPEC
 62
     7
 10
-144.89238021377309
 20
487.41536597820351
 30
0.0
 40
5.7009440104166673
  1
入力DDC信号
 41
0.7
 11
-144.89238021377309
 21
493.11630998862017
 31
0.0
 73
     3
  0
TEXT
  5
73
  8
SPEC
 62
     7
 10
-17.235128682435171
 20
487.18107658014111
 30
0.0
 40
5.7009440104166673
  1
5Vp-p(TTL)
 41
0.7
 11
-17.235128682435171
 21
492.88202059055772
 31
0.0
 73
     3
  0
TEXT
  5
74
  8
SPEC
 62
     7
 10
-145.70039063862109
 20
498.63154341134452
 30
0.0
 40
5.7009440104166673
  1
ピクセルクロック
 41
0.7
 11
-145.70039063862109
 21
504.33248742176119
 31
0.0
 73
     3
  0
TEXT
  5
75
  8
SPEC
 62
     7
 10
-17.679615224140228
 20
498.37006724453568
 30
0.0
 40
5.7009440104166673
  1
165MHz
 41
0.7
 11
-17.679615224140228
 21
504.0710112549524
 31
0.0
 73
     3
  0
TEXT
  5
76
  8
SPEC
 62
     7
 10
-144.8534445789978
 20
419.88869036818119
 30
0.0
 40
5.7009440104166673
  1
RS-232端子(送信機)
 41
0.7
 11
-144.8534445789978
 21
425.58963437859802
 31
0.0
 73
     3
  0
TEXT
  5
77
  8
SPEC
 62
     7
 10
-17.3474589304322
 20
420.18839524279548
 30
0.0
 40
5.7009440104166673
  1
DP9 serialメス
 41
0.7
 11
-17.3474589304322
 21
425.8893392532122
 31
0.0
 73
     3
  0
TEXT
  5
78
  8
SPEC
 62
     7
 10
-144.8534445789978
 20
408.6386903681813
 30
0.0
 40
5.7009440104166673
  1
RS-232端子(受信機)
 41
0.7
 11
-144.8534445789978
 21
414.33963437859791
 31
0.0
 73
     3
  0
TEXT
  5
79
  8
SPEC
 62
     7
 10
-17.3474589304322
 20
408.93839524279548
 30
0.0
 40
5.7009440104166673
  1
DP9 serialオス
 41
0.7
 11
-17.3474589304322
 21
414.63933925321231
 31
0.0
 73
     3
  0
LINE
  5
7A
  8
SPEC
  6
CONTINUOUS
 62
     7
 10
-147.49999999999989
 20
349.56729578973182
 30
0.0
 11
295.0
 21
349.56729578973182
 31
0.0
  0
LINE
  5
7B
  8
SPEC
  6
CONTINUOUS
 62
     7
 10
-147.49999999999989
 20
338.3172957897317
 30
0.0
 11
295.0
 21
338.3172957897317
 31
0.0
  0
TEXT
  5
7C
  8
DIMNSIONS
 62
     7
 10
40.0
 20
-206.12423421026821
 30
0.0
 40
7.3297851562499989
  1
(単位：mm)
 41
0.7
 11
40.0
 21
-198.79444905401809
 31
0.0
 73
     3
  0
LINE
  5
7D
  8
DIMNSIONS
  6
CONTINUOUS
 62
     7
 10
-81.250000000000014
 20
175.25
 30
0.0
 11
-81.250000000000014
 21
150.25
 31
0.0
  0
LINE
  5
7E
  8
DIMNSIONS
  6
CONTINUOUS
 62
     7
 10
43.749999999999993
 20
175.25
 30
0.0
 11
43.749999999999993
 21
150.25
 31
0.0
  0
LINE
  5
7F
  8
DIMNSIONS
  6
CONTINUOUS
 62
     7
 10
-81.250000000000014
 20
156.25
 30
0.0
 11
43.749999999999993
 21
156.25
 31
0.0
  0
LINE
  5
80
  8
DIMNSIONS
  6
CONTINUOUS
 62
     7
 10
-81.250000000000014
 20
156.25
 30
0.0
 11
-73.748132324218773
 21
158.26011938545071
 31
0.0
  0
LINE
  5
81
  8
DIMNSIONS
  6
CONTINUOUS
 62
     7
 10
-81.250000000000014
 20
156.25
 30
0.0
 11
-73.748132324218773
 21
154.23988061454921
 31
0.0
  0
LINE
  5
82
  8
DIMNSIONS
  6
CONTINUOUS
 62
     7
 10
43.749999999999993
 20
156.25
 30
0.0
 11
36.248132324218737
 21
154.23988061454921
 31
0.0
  0
LINE
  5
83
  8
DIMNSIONS
  6
CONTINUOUS
 62
     7
 10
43.749999999999993
 20
156.25
 30
0.0
 11
36.248132324218737
 21
158.26011938545071
 31
0.0
  0
TEXT
  5
84
  8
DIMNSIONS
 62
     7
 10
-26.687500000000011
 20
159.23166666666671
 30
0.0
 40
8.1442057291666661
  1
125
 41
0.7
 11
-26.687500000000011
 21
167.37587239583331
 31
0.0
 73
     3
  0
LINE
  5
85
  8
DIMNSIONS
  6
CONTINUOUS
 62
     7
 10
-97.75
 20
106.25
 30
0.0
 11
-116.5
 21
106.25
 31
0.0
  0
LINE
  5
86
  8
DIMNSIONS
  6
CONTINUOUS
 62
     7
 10
-85.250000000000014
 20
136.25
 30
0.0
 11
-116.5
 21
136.25
 31
0.0
  0
LINE
  5
87
  8
DIMNSIONS
  6
CONTINUOUS
 62
     7
 10
-110.5
 20
106.25
 30
0.0
 11
-110.5
 21
136.25
 31
0.0
  0
LINE
  5
88
  8
DIMNSIONS
  6
CONTINUOUS
 62
     7
 10
-110.5
 20
106.25
 30
0.0
 11
-112.51011938545069
 21
113.7518676757812
 31
0.0
  0
LINE
  5
89
  8
DIMNSIONS
  6
CONTINUOUS
 62
     7
 10
-110.5
 20
106.25
 30
0.0
 11
-108.48988061454919
 21
113.7518676757812
 31
0.0
  0
LINE
  5
8A
  8
DIMNSIONS
  6
CONTINUOUS
 62
     7
 10
-110.5
 20
136.25
 30
0.0
 11
-108.48988061454919
 21
128.74813232421869
 31
0.0
  0
LINE
  5
8B
  8
DIMNSIONS
  6
CONTINUOUS
 62
     7
 10
-110.5
 20
136.25
 30
0.0
 11
-112.51011938545069
 21
128.74813232421869
 31
0.0
  0
TEXT
  5
8C
  8
DIMNSIONS
 62
     7
 10
-113.4816666666666
 20
115.9583333333333
 30
0.0
 40
8.1442057291666661
  1
30
 50
90.0
 41
0.7
 11
-121.6258723958333
 21
115.9583333333333
 31
0.0
 73
     3
  0
LINE
  5
8D
  8
DIMNSIONS
  6
CONTINUOUS
 62
     7
 10
-79.750000000000014
 20
103.25
 30
0.0
 11
-116.5
 21
103.25
 31
0.0
  0
LINE
  5
8E
  8
DIMNSIONS
  6
CONTINUOUS
 62
     7
 10
-97.75
 20
106.25
 30
0.0
 11
-116.5
 21
106.25
 31
0.0
  0
LINE
  5
8F
  8
DIMNSIONS
  6
CONTINUOUS
 62
     7
 10
-110.5
 20
106.25
 30
0.0
 11
-110.5
 21
103.25
 31
0.0
  0
LINE
  5
90
  8
DIMNSIONS
  6
CONTINUOUS
 62
     7
 10
-110.5
 20
103.25
 30
0.0
 11
-110.5
 21
89.558333333333323
 31
0.0
  0
LINE
  5
91
  8
DIMNSIONS
  6
CONTINUOUS
 62
     7
 10
-110.5
 20
103.25
 30
0.0
 11
-108.48988061454919
 21
95.748132324218716
 31
0.0
  0
LINE
  5
92
  8
DIMNSIONS
  6
CONTINUOUS
 62
     7
 10
-110.5
 20
103.25
 30
0.0
 11
-112.51011938545069
 21
95.748132324218716
 31
0.0
  0
LINE
  5
93
  8
DIMNSIONS
  6
CONTINUOUS
 62
     7
 10
-110.5
 20
106.25
 30
0.0
 11
-110.5
 21
121.25
 31
0.0
  0
LINE
  5
94
  8
DIMNSIONS
  6
CONTINUOUS
 62
     7
 10
-110.5
 20
106.25
 30
0.0
 11
-112.51011938545069
 21
113.7518676757812
 31
0.0
  0
LINE
  5
95
  8
DIMNSIONS
  6
CONTINUOUS
 62
     7
 10
-110.5
 20
106.25
 30
0.0
 11
-108.48988061454919
 21
113.7518676757812
 31
0.0
  0
TEXT
  5
96
  8
DIMNSIONS
 62
     7
 10
-113.4816666666667
 20
89.558333333333323
 30
0.0
 40
8.1442057291666661
  1
3
 50
90.0
 41
0.7
 11
-121.6258723958333
 21
89.558333333333323
 31
0.0
 73
     3
  0
LINE
  5
97
  8
DIMNSIONS
  6
CONTINUOUS
 62
     7
 10
-87.250000000000014
 20
181.25
 30
0.0
 11
-112.25
 21
181.25
 31
0.0
  0
LINE
  5
98
  8
DIMNSIONS
  6
CONTINUOUS
 62
     7
 10
-87.250000000000014
 20
266.25
 30
0.0
 11
-112.25
 21
266.25
 31
0.0
  0
LINE
  5
99
  8
DIMNSIONS
  6
CONTINUOUS
 62
     7
 10
-106.25
 20
181.25
 30
0.0
 11
-106.25
 21
266.25
 31
0.0
  0
LINE
  5
9A
  8
DIMNSIONS
  6
CONTINUOUS
 62
     7
 10
-106.25
 20
181.25
 30
0.0
 11
-108.26011938545069
 21
188.75186767578131
 31
0.0
  0
LINE
  5
9B
  8
DIMNSIONS
  6
CONTINUOUS
 62
     7
 10
-106.25
 20
181.25
 30
0.0
 11
-104.23988061454919
 21
188.75186767578131
 31
0.0
  0
LINE
  5
9C
  8
DIMNSIONS
  6
CONTINUOUS
 62
     7
 10
-106.25
 20
266.25
 30
0.0
 11
-104.23988061454919
 21
258.74813232421877
 31
0.0
  0
LINE
  5
9D
  8
DIMNSIONS
  6
CONTINUOUS
 62
     7
 10
-106.25
 20
266.25
 30
0.0
 11
-108.26011938545069
 21
258.74813232421877
 31
0.0
  0
TEXT
  5
9E
  8
DIMNSIONS
 62
     7
 10
-109.2316666666666
 20
218.45833333333329
 30
0.0
 40
8.1442057291666661
  1
85
 50
90.0
 41
0.7
 11
-117.3758723958333
 21
218.45833333333329
 31
0.0
 73
     3
  0
LINE
  5
9F
  8
DIMNSIONS
  6
CONTINUOUS
 62
     7
 10
-81.250000000000014
 20
-81.0
 30
0.0
 11
-81.250000000000014
 21
-106.0
 31
0.0
  0
LINE
  5
A0
  8
DIMNSIONS
  6
CONTINUOUS
 62
     7
 10
43.749999999999993
 20
-81.0
 30
0.0
 11
43.749999999999993
 21
-106.0
 31
0.0
  0
LINE
  5
A1
  8
DIMNSIONS
  6
CONTINUOUS
 62
     7
 10
-81.250000000000014
 20
-100.0
 30
0.0
 11
43.749999999999993
 21
-100.0
 31
0.0
  0
LINE
  5
A2
  8
DIMNSIONS
  6
CONTINUOUS
 62
     7
 10
-81.250000000000014
 20
-100.0
 30
0.0
 11
-73.748132324218773
 21
-97.989880614549264
 31
0.0
  0
LINE
  5
A3
  8
DIMNSIONS
  6
CONTINUOUS
 62
     7
 10
-81.250000000000014
 20
-100.0
 30
0.0
 11
-73.748132324218773
 21
-102.01011938545069
 31
0.0
  0
LINE
  5
A4
  8
DIMNSIONS
  6
CONTINUOUS
 62
     7
 10
43.749999999999993
 20
-100.0
 30
0.0
 11
36.248132324218737
 21
-102.01011938545069
 31
0.0
  0
LINE
  5
A5
  8
DIMNSIONS
  6
CONTINUOUS
 62
     7
 10
43.749999999999993
 20
-100.0
 30
0.0
 11
36.248132324218737
 21
-97.989880614549264
 31
0.0
  0
TEXT
  5
A6
  8
DIMNSIONS
 62
     7
 10
-26.687500000000011
 20
-97.018333333333345
 30
0.0
 40
8.1442057291666661
  1
125
 41
0.7
 11
-26.687500000000011
 21
-88.874127604166674
 31
0.0
 73
     3
  0
LINE
  5
A7
  8
DIMNSIONS
  6
CONTINUOUS
 62
     7
 10
-97.75
 20
-150.0
 30
0.0
 11
-112.25
 21
-150.0
 31
0.0
  0
LINE
  5
A8
  8
DIMNSIONS
  6
CONTINUOUS
 62
     7
 10
-85.250000000000014
 20
-120.0
 30
0.0
 11
-112.25
 21
-120.0
 31
0.0
  0
LINE
  5
A9
  8
DIMNSIONS
  6
CONTINUOUS
 62
     7
 10
-106.25
 20
-150.0
 30
0.0
 11
-106.25
 21
-120.0
 31
0.0
  0
LINE
  5
AA
  8
DIMNSIONS
  6
CONTINUOUS
 62
     7
 10
-106.25
 20
-150.0
 30
0.0
 11
-108.26011938545069
 21
-142.49813232421869
 31
0.0
  0
LINE
  5
AB
  8
DIMNSIONS
  6
CONTINUOUS
 62
     7
 10
-106.25
 20
-150.0
 30
0.0
 11
-104.23988061454919
 21
-142.49813232421869
 31
0.0
  0
LINE
  5
AC
  8
DIMNSIONS
  6
CONTINUOUS
 62
     7
 10
-106.25
 20
-120.0
 30
0.0
 11
-104.23988061454919
 21
-127.5018676757812
 31
0.0
  0
LINE
  5
AD
  8
DIMNSIONS
  6
CONTINUOUS
 62
     7
 10
-106.25
 20
-120.0
 30
0.0
 11
-108.26011938545069
 21
-127.5018676757812
 31
0.0
  0
TEXT
  5
AE
  8
DIMNSIONS
 62
     7
 10
-109.2316666666666
 20
-140.29166666666671
 30
0.0
 40
8.1442057291666661
  1
30
 50
90.0
 41
0.7
 11
-117.3758723958333
 21
-140.29166666666671
 31
0.0
 73
     3
  0
LINE
  5
AF
  8
DIMNSIONS
  6
CONTINUOUS
 62
     7
 10
-79.750000000000014
 20
-153.0
 30
0.0
 11
-112.25
 21
-153.0
 31
0.0
  0
LINE
  5
B0
  8
DIMNSIONS
  6
CONTINUOUS
 62
     7
 10
-97.75
 20
-150.0
 30
0.0
 11
-112.25
 21
-150.0
 31
0.0
  0
LINE
  5
B1
  8
DIMNSIONS
  6
CONTINUOUS
 62
     7
 10
-106.25
 20
-150.0
 30
0.0
 11
-106.25
 21
-153.0
 31
0.0
  0
LINE
  5
B2
  8
DIMNSIONS
  6
CONTINUOUS
 62
     7
 10
-106.25
 20
-153.0
 30
0.0
 11
-106.25
 21
-166.69166666666661
 31
0.0
  0
LINE
  5
B3
  8
DIMNSIONS
  6
CONTINUOUS
 62
     7
 10
-106.25
 20
-153.0
 30
0.0
 11
-104.23988061454919
 21
-160.5018676757812
 31
0.0
  0
LINE
  5
B4
  8
DIMNSIONS
  6
CONTINUOUS
 62
     7
 10
-106.25
 20
-153.0
 30
0.0
 11
-108.26011938545069
 21
-160.5018676757812
 31
0.0
  0
LINE
  5
B5
  8
DIMNSIONS
  6
CONTINUOUS
 62
     7
 10
-106.25
 20
-150.0
 30
0.0
 11
-106.25
 21
-135.0
 31
0.0
  0
LINE
  5
B6
  8
DIMNSIONS
  6
CONTINUOUS
 62
     7
 10
-106.25
 20
-150.0
 30
0.0
 11
-108.26011938545069
 21
-142.49813232421869
 31
0.0
  0
LINE
  5
B7
  8
DIMNSIONS
  6
CONTINUOUS
 62
     7
 10
-106.25
 20
-150.0
 30
0.0
 11
-104.23988061454919
 21
-142.49813232421869
 31
0.0
  0
TEXT
  5
B8
  8
DIMNSIONS
 62
     7
 10
-109.2316666666667
 20
-166.69166666666669
 30
0.0
 40
8.1442057291666661
  1
3
 50
90.0
 41
0.7
 11
-117.3758723958333
 21
-166.69166666666669
 31
0.0
 73
     3
  0
LINE
  5
B9
  8
DIMNSIONS
  6
CONTINUOUS
 62
     7
 10
-87.250000000000014
 20
-75.0
 30
0.0
 11
-112.25
 21
-75.0
 31
0.0
  0
LINE
  5
BA
  8
DIMNSIONS
  6
CONTINUOUS
 62
     7
 10
-87.250000000000014
 20
10.0
 30
0.0
 11
-112.25
 21
10.0
 31
0.0
  0
LINE
  5
BB
  8
DIMNSIONS
  6
CONTINUOUS
 62
     7
 10
-106.25
 20
-75.0
 30
0.0
 11
-106.25
 21
10.0
 31
0.0
  0
LINE
  5
BC
  8
DIMNSIONS
  6
CONTINUOUS
 62
     7
 10
-106.25
 20
-75.0
 30
0.0
 11
-108.26011938545069
 21
-67.498132324218744
 31
0.0
  0
LINE
  5
BD
  8
DIMNSIONS
  6
CONTINUOUS
 62
     7
 10
-106.25
 20
-75.0
 30
0.0
 11
-104.23988061454919
 21
-67.498132324218744
 31
0.0
  0
LINE
  5
BE
  8
DIMNSIONS
  6
CONTINUOUS
 62
     7
 10
-106.25
 20
10.0
 30
0.0
 11
-104.23988061454919
 21
2.4981323242187439
 31
0.0
  0
LINE
  5
BF
  8
DIMNSIONS
  6
CONTINUOUS
 62
     7
 10
-106.25
 20
10.0
 30
0.0
 11
-108.26011938545069
 21
2.4981323242187439
 31
0.0
  0
TEXT
  5
C0
  8
DIMNSIONS
 62
     7
 10
-109.2316666666666
 20
-37.791666666666657
 30
0.0
 40
8.1442057291666661
  1
85
 50
90.0
 41
0.7
 11
-117.3758723958333
 21
-37.791666666666657
 31
0.0
 73
     3
  0
TEXT
  5
C1
  8
DATA
 62
     7
 10
250.0
 20
-210.288246439261
 30
0.0
 40
7.3297851562499989
  1
EXT-DVI-CAT5-ELR
 41
0.7
 11
250.0
 21
-202.95846128301099
 31
0.0
 73
     3
  0
TEXT
  5
C2
  8
DATA
 62
     7
 10
250.0
 20
-187.7900342102682
 30
0.0
 40
7.3297851562499989
  1
Gefen
 41
0.7
 11
250.0
 21
-180.46024905401811
 31
0.0
 73
     3
  0
TEXT
  5
C3
  8
DATA
 62
     7
 10
246.35385236077229
 20
-197.62233302707381
 30
0.0
 40
4.8865311328124994
  1
DVI-RS232延長機
 41
0.7
 11
246.35385236077229
 21
-192.7358018942613
 31
0.0
 73
     3
  0
TEXT
  5
C4
  8
DATA
 62
     7
 10
-139.99999999999989
 20
-230.21870421026821
 30
0.0
 40
4.8865234374999993
  1
仕様および外観は予告なく変更されることがありますので、ご了承ください。
 41
0.7
 11
-139.99999999999989
 21
-225.3321807727682
 31
0.0
 73
     3
  0
LINE
  5
C5
  8
DATA
  6
CONTINUOUS
 62
     7
 10
43.749999999999993
 20
181.25
 30
0.0
 11
-81.250000000000014
 21
181.25
 31
0.0
  0
LINE
  5
C6
  8
DATA
  6
CONTINUOUS
 62
     7
 10
-81.250000000000014
 20
266.25
 30
0.0
 11
43.749999999999993
 21
266.25
 31
0.0
  0
LINE
  5
C7
  8
DATA
  6
CONTINUOUS
 62
     7
 10
-79.250000000000014
 20
136.25
 30
0.0
 11
41.749999999999993
 21
136.25
 31
0.0
  0
LINE
  5
C8
  8
DATA
  6
CONTINUOUS
 62
     7
 10
-81.250000000000014
 20
181.25
 30
0.0
 11
-81.250000000000014
 21
266.25
 31
0.0
  0
LINE
  5
C9
  8
DATA
  6
CONTINUOUS
 62
     7
 10
43.749999999999993
 20
181.25
 30
0.0
 11
43.749999999999993
 21
266.25
 31
0.0
  0
LINE
  5
CA
  8
DATA
  6
CONTINUOUS
 62
     7
 10
68.75
 20
181.25
 30
0.0
 11
68.75
 21
264.25
 31
0.0
  0
LINE
  5
CB
  8
DATA
  6
CONTINUOUS
 62
     7
 10
98.75
 20
183.25
 30
0.0
 11
98.75
 21
264.25
 31
0.0
  0
LINE
  5
CC
  8
DATA
  6
CONTINUOUS
 62
     7
 10
68.75
 20
181.25
 30
0.0
 11
96.75
 21
181.25
 31
0.0
  0
LINE
  5
CD
  8
DATA
  6
CONTINUOUS
 62
     7
 10
70.75
 20
266.25
 30
0.0
 11
96.75
 21
266.25
 31
0.0
  0
LINE
  5
CE
  8
DATA
  6
CONTINUOUS
 62
     7
 10
-81.250000000000014
 20
134.25
 30
0.0
 11
-81.250000000000014
 21
106.25
 31
0.0
  0
LINE
  5
CF
  8
DATA
  6
CONTINUOUS
 62
     7
 10
43.749999999999993
 20
134.25
 30
0.0
 11
43.749999999999993
 21
106.25
 31
0.0
  0
LINE
  5
D0
  8
DATA
  6
CONTINUOUS
 62
     7
 10
-79.250000000000014
 20
132.25
 30
0.0
 11
-79.250000000000014
 21
108.25
 31
0.0
  0
LINE
  5
D1
  8
DATA
  6
CONTINUOUS
 62
     7
 10
41.749999999999993
 20
132.25
 30
0.0
 11
41.749999999999993
 21
108.25
 31
0.0
  0
LINE
  5
D2
  8
DATA
  6
CONTINUOUS
 62
     7
 10
-77.250000000000014
 20
134.25
 30
0.0
 11
39.75
 21
134.25
 31
0.0
  0
ARC
  5
D3
  8
DATA
  6
CONTINUOUS
 62
     7
 10
-79.250000000000014
 20
134.25
 30
0.0
 40
2.0
 50
90.0
 51
180.0
  0
ARC
  5
D4
  8
DATA
  6
CONTINUOUS
 62
     7
 10
-77.250000000000014
 20
132.25
 30
0.0
 40
2.0
 50
90.0
 51
180.0
  0
ARC
  5
D5
  8
DATA
  6
CONTINUOUS
 62
     7
 10
41.749999999999993
 20
134.25
 30
0.0
 40
2.0
 50
0.0
 51
90.0
  0
ARC
  5
D6
  8
DATA
  6
CONTINUOUS
 62
     7
 10
39.75
 20
132.25
 30
0.0
 40
2.0
 50
0.0
 51
90.0
  0
LINE
  5
D7
  8
DATA
  6
CONTINUOUS
 62
     7
 10
-79.250000000000014
 20
108.25
 30
0.0
 11
-79.250000000000014
 21
106.25
 31
0.0
  0
LINE
  5
D8
  8
DATA
  6
CONTINUOUS
 62
     7
 10
41.749999999999993
 20
108.25
 30
0.0
 11
41.749999999999993
 21
106.25
 31
0.0
  0
LINE
  5
D9
  8
DATA
  6
CONTINUOUS
 62
     7
 10
-81.250000000000014
 20
106.25
 30
0.0
 11
43.749999999999993
 21
106.25
 31
0.0
  0
CIRCLE
  5
DA
  8
DATA
  6
CONTINUOUS
 62
     7
 10
-37.297382904438379
 20
119.22428435533121
 30
0.0
 40
1.175000000000096
  0
POLYLINE
  5
DB
  8
DATA
  6
CONTINUOUS
 62
     7
 66
     1
 10
0.0
 20
0.0
 30
0.0
 70
     1
  0
VERTEX
  5
5D2
  8
DATA
  6
CONTINUOUS
 62
     7
 10
-37.297382904438379
 20
121.9242843553312
 30
0.0
  0
VERTEX
  5
5D3
  8
DATA
  6
CONTINUOUS
 62
     7
 10
-39.635651494656308
 20
120.5742843553312
 30
0.0
  0
VERTEX
  5
5D4
  8
DATA
  6
CONTINUOUS
 62
     7
 10
-39.635651494656308
 20
117.8742843553312
 30
0.0
  0
VERTEX
  5
5D5
  8
DATA
  6
CONTINUOUS
 62
     7
 10
-37.297382904438379
 20
116.5242843553313
 30
0.0
  0
VERTEX
  5
5D6
  8
DATA
  6
CONTINUOUS
 62
     7
 10
-34.959114314220201
 20
117.8742843553312
 30
0.0
  0
VERTEX
  5
5D7
  8
DATA
  6
CONTINUOUS
 62
     7
 10
-34.959114314220201
 20
120.5742843553312
 30
0.0
  0
SEQEND
  5
5D8
  8
DATA
  6
CONTINUOUS
 62
     7
  0
CIRCLE
  5
E4
  8
DATA
  6
CONTINUOUS
 62
     7
 10
-4.797382904438634
 20
119.22428435533121
 30
0.0
 40
1.175000000000068
  0
POLYLINE
  5
E5
  8
DATA
  6
CONTINUOUS
 62
     7
 66
     1
 10
0.0
 20
0.0
 30
0.0
 70
     1
  0
VERTEX
  5
5D9
  8
DATA
  6
CONTINUOUS
 62
     7
 10
-4.797382904438634
 20
121.9242843553312
 30
0.0
  0
VERTEX
  5
5DA
  8
DATA
  6
CONTINUOUS
 62
     7
 10
-7.1356514946565559
 20
120.5742843553312
 30
0.0
  0
VERTEX
  5
5DB
  8
DATA
  6
CONTINUOUS
 62
     7
 10
-7.1356514946565559
 20
117.8742843553312
 30
0.0
  0
VERTEX
  5
5DC
  8
DATA
  6
CONTINUOUS
 62
     7
 10
-4.797382904438634
 20
116.5242843553313
 30
0.0
  0
VERTEX
  5
5DD
  8
DATA
  6
CONTINUOUS
 62
     7
 10
-2.4591143142205989
 20
117.8742843553312
 30
0.0
  0
VERTEX
  5
5DE
  8
DATA
  6
CONTINUOUS
 62
     7
 10
-2.4591143142205989
 20
120.5742843553312
 30
0.0
  0
SEQEND
  5
5DF
  8
DATA
  6
CONTINUOUS
 62
     7
  0
LINE
  5
EE
  8
DATA
  6
CONTINUOUS
 62
     7
 10
-31.997287791629692
 20
123.1492843553312
 30
0.0
 11
-10.09747801724683
 21
123.1492843553312
 31
0.0
  0
LINE
  5
EF
  8
DATA
  6
CONTINUOUS
 62
     7
 10
-10.656395214699099
 20
115.2992843553312
 30
0.0
 11
-31.438370594177389
 21
115.2992843553312
 31
0.0
  0
POLYLINE
  5
F0
  8
DATA
  6
CONTINUOUS
 62
     7
 66
     1
 10
0.0
 20
0.0
 30
0.0
 70
     1
  0
VERTEX
  5
5E0
  8
DATA
  6
CONTINUOUS
 62
     7
 10
-32.047449075617202
 20
119.98928435533119
 30
0.0
  0
VERTEX
  5
5E1
  8
DATA
  6
CONTINUOUS
 62
     7
 10
-30.517449075617169
 20
119.98928435533119
 30
0.0
  0
VERTEX
  5
5E2
  8
DATA
  6
CONTINUOUS
 62
     7
 10
-30.517449075617169
 20
118.45928435533131
 30
0.0
  0
VERTEX
  5
5E3
  8
DATA
  6
CONTINUOUS
 62
     7
 10
-32.047449075617202
 20
118.45928435533131
 30
0.0
  0
SEQEND
  5
5E4
  8
DATA
  6
CONTINUOUS
 62
     7
  0
POLYLINE
  5
F7
  8
DATA
  6
CONTINUOUS
 62
     7
 66
     1
 10
0.0
 20
0.0
 30
0.0
 70
     1
  0
VERTEX
  5
5E5
  8
DATA
  6
CONTINUOUS
 62
     7
 10
-30.04744907561717
 20
119.98928435533119
 30
0.0
  0
VERTEX
  5
5E6
  8
DATA
  6
CONTINUOUS
 62
     7
 10
-28.517449075617229
 20
119.98928435533119
 30
0.0
  0
VERTEX
  5
5E7
  8
DATA
  6
CONTINUOUS
 62
     7
 10
-28.517449075617229
 20
118.45928435533131
 30
0.0
  0
VERTEX
  5
5E8
  8
DATA
  6
CONTINUOUS
 62
     7
 10
-30.04744907561717
 20
118.45928435533131
 30
0.0
  0
SEQEND
  5
5E9
  8
DATA
  6
CONTINUOUS
 62
     7
  0
POLYLINE
  5
FE
  8
DATA
  6
CONTINUOUS
 62
     7
 66
     1
 10
0.0
 20
0.0
 30
0.0
 70
     1
  0
VERTEX
  5
5EA
  8
DATA
  6
CONTINUOUS
 62
     7
 10
-28.047449075617362
 20
119.98928435533119
 30
0.0
  0
VERTEX
  5
5EB
  8
DATA
  6
CONTINUOUS
 62
     7
 10
-26.51744907561779
 20
119.98928435533119
 30
0.0
  0
VERTEX
  5
5EC
  8
DATA
  6
CONTINUOUS
 62
     7
 10
-26.51744907561779
 20
118.45928435533131
 30
0.0
  0
VERTEX
  5
5ED
  8
DATA
  6
CONTINUOUS
 62
     7
 10
-28.047449075617362
 20
118.45928435533131
 30
0.0
  0
SEQEND
  5
5EE
  8
DATA
  6
CONTINUOUS
 62
     7
  0
POLYLINE
  5
105
  8
DATA
  6
CONTINUOUS
 62
     7
 66
     1
 10
0.0
 20
0.0
 30
0.0
 70
     1
  0
VERTEX
  5
5EF
  8
DATA
  6
CONTINUOUS
 62
     7
 10
-26.047449075617909
 20
119.98928435533119
 30
0.0
  0
VERTEX
  5
5F0
  8
DATA
  6
CONTINUOUS
 62
     7
 10
-24.517449075617922
 20
119.98928435533119
 30
0.0
  0
VERTEX
  5
5F1
  8
DATA
  6
CONTINUOUS
 62
     7
 10
-24.517449075617922
 20
118.45928435533131
 30
0.0
  0
VERTEX
  5
5F2
  8
DATA
  6
CONTINUOUS
 62
     7
 10
-26.047449075617909
 20
118.45928435533131
 30
0.0
  0
SEQEND
  5
5F3
  8
DATA
  6
CONTINUOUS
 62
     7
  0
POLYLINE
  5
10C
  8
DATA
  6
CONTINUOUS
 62
     7
 66
     1
 10
0.0
 20
0.0
 30
0.0
 70
     1
  0
VERTEX
  5
5F4
  8
DATA
  6
CONTINUOUS
 62
     7
 10
-24.047449075617919
 20
119.98928435533119
 30
0.0
  0
VERTEX
  5
5F5
  8
DATA
  6
CONTINUOUS
 62
     7
 10
-22.517449075617929
 20
119.98928435533119
 30
0.0
  0
VERTEX
  5
5F6
  8
DATA
  6
CONTINUOUS
 62
     7
 10
-22.517449075617929
 20
118.45928435533131
 30
0.0
  0
VERTEX
  5
5F7
  8
DATA
  6
CONTINUOUS
 62
     7
 10
-24.047449075617919
 20
118.45928435533131
 30
0.0
  0
SEQEND
  5
5F8
  8
DATA
  6
CONTINUOUS
 62
     7
  0
POLYLINE
  5
113
  8
DATA
  6
CONTINUOUS
 62
     7
 66
     1
 10
0.0
 20
0.0
 30
0.0
 70
     1
  0
VERTEX
  5
5F9
  8
DATA
  6
CONTINUOUS
 62
     7
 10
-22.047449075617919
 20
119.98928435533119
 30
0.0
  0
VERTEX
  5
5FA
  8
DATA
  6
CONTINUOUS
 62
     7
 10
-20.517449075617922
 20
119.98928435533119
 30
0.0
  0
VERTEX
  5
5FB
  8
DATA
  6
CONTINUOUS
 62
     7
 10
-20.517449075617922
 20
118.45928435533131
 30
0.0
  0
VERTEX
  5
5FC
  8
DATA
  6
CONTINUOUS
 62
     7
 10
-22.047449075617919
 20
118.45928435533131
 30
0.0
  0
SEQEND
  5
5FD
  8
DATA
  6
CONTINUOUS
 62
     7
  0
POLYLINE
  5
11A
  8
DATA
  6
CONTINUOUS
 62
     7
 66
     1
 10
0.0
 20
0.0
 30
0.0
 70
     1
  0
VERTEX
  5
5FE
  8
DATA
  6
CONTINUOUS
 62
     7
 10
-20.047449075617919
 20
119.98928435533119
 30
0.0
  0
VERTEX
  5
5FF
  8
DATA
  6
CONTINUOUS
 62
     7
 10
-18.517449075617922
 20
119.98928435533119
 30
0.0
  0
VERTEX
  5
600
  8
DATA
  6
CONTINUOUS
 62
     7
 10
-18.517449075617922
 20
118.45928435533131
 30
0.0
  0
VERTEX
  5
601
  8
DATA
  6
CONTINUOUS
 62
     7
 10
-20.047449075617919
 20
118.45928435533131
 30
0.0
  0
SEQEND
  5
602
  8
DATA
  6
CONTINUOUS
 62
     7
  0
POLYLINE
  5
121
  8
DATA
  6
CONTINUOUS
 62
     7
 66
     1
 10
0.0
 20
0.0
 30
0.0
 70
     1
  0
VERTEX
  5
603
  8
DATA
  6
CONTINUOUS
 62
     7
 10
-18.047449075617919
 20
119.98928435533119
 30
0.0
  0
VERTEX
  5
604
  8
DATA
  6
CONTINUOUS
 62
     7
 10
-16.517449075617911
 20
119.98928435533119
 30
0.0
  0
VERTEX
  5
605
  8
DATA
  6
CONTINUOUS
 62
     7
 10
-16.517449075617911
 20
118.45928435533131
 30
0.0
  0
VERTEX
  5
606
  8
DATA
  6
CONTINUOUS
 62
     7
 10
-18.047449075617919
 20
118.45928435533131
 30
0.0
  0
SEQEND
  5
607
  8
DATA
  6
CONTINUOUS
 62
     7
  0
POLYLINE
  5
128
  8
DATA
  6
CONTINUOUS
 62
     7
 66
     1
 10
0.0
 20
0.0
 30
0.0
 70
     1
  0
VERTEX
  5
608
  8
DATA
  6
CONTINUOUS
 62
     7
 10
-32.047449075617202
 20
121.98928435533119
 30
0.0
  0
VERTEX
  5
609
  8
DATA
  6
CONTINUOUS
 62
     7
 10
-30.517449075617169
 20
121.98928435533119
 30
0.0
  0
VERTEX
  5
60A
  8
DATA
  6
CONTINUOUS
 62
     7
 10
-30.517449075617169
 20
120.45928435533131
 30
0.0
  0
VERTEX
  5
60B
  8
DATA
  6
CONTINUOUS
 62
     7
 10
-32.047449075617202
 20
120.45928435533131
 30
0.0
  0
SEQEND
  5
60C
  8
DATA
  6
CONTINUOUS
 62
     7
  0
POLYLINE
  5
12F
  8
DATA
  6
CONTINUOUS
 62
     7
 66
     1
 10
0.0
 20
0.0
 30
0.0
 70
     1
  0
VERTEX
  5
60D
  8
DATA
  6
CONTINUOUS
 62
     7
 10
-30.04744907561717
 20
121.98928435533119
 30
0.0
  0
VERTEX
  5
60E
  8
DATA
  6
CONTINUOUS
 62
     7
 10
-28.517449075617229
 20
121.98928435533119
 30
0.0
  0
VERTEX
  5
60F
  8
DATA
  6
CONTINUOUS
 62
     7
 10
-28.517449075617229
 20
120.45928435533131
 30
0.0
  0
VERTEX
  5
610
  8
DATA
  6
CONTINUOUS
 62
     7
 10
-30.04744907561717
 20
120.45928435533131
 30
0.0
  0
SEQEND
  5
611
  8
DATA
  6
CONTINUOUS
 62
     7
  0
POLYLINE
  5
136
  8
DATA
  6
CONTINUOUS
 62
     7
 66
     1
 10
0.0
 20
0.0
 30
0.0
 70
     1
  0
VERTEX
  5
612
  8
DATA
  6
CONTINUOUS
 62
     7
 10
-28.047449075617362
 20
121.98928435533119
 30
0.0
  0
VERTEX
  5
613
  8
DATA
  6
CONTINUOUS
 62
     7
 10
-26.51744907561779
 20
121.98928435533119
 30
0.0
  0
VERTEX
  5
614
  8
DATA
  6
CONTINUOUS
 62
     7
 10
-26.51744907561779
 20
120.45928435533131
 30
0.0
  0
VERTEX
  5
615
  8
DATA
  6
CONTINUOUS
 62
     7
 10
-28.047449075617362
 20
120.45928435533131
 30
0.0
  0
SEQEND
  5
616
  8
DATA
  6
CONTINUOUS
 62
     7
  0
POLYLINE
  5
13D
  8
DATA
  6
CONTINUOUS
 62
     7
 66
     1
 10
0.0
 20
0.0
 30
0.0
 70
     1
  0
VERTEX
  5
617
  8
DATA
  6
CONTINUOUS
 62
     7
 10
-26.047449075617909
 20
121.98928435533119
 30
0.0
  0
VERTEX
  5
618
  8
DATA
  6
CONTINUOUS
 62
     7
 10
-24.517449075617922
 20
121.98928435533119
 30
0.0
  0
VERTEX
  5
619
  8
DATA
  6
CONTINUOUS
 62
     7
 10
-24.517449075617922
 20
120.45928435533131
 30
0.0
  0
VERTEX
  5
61A
  8
DATA
  6
CONTINUOUS
 62
     7
 10
-26.047449075617909
 20
120.45928435533131
 30
0.0
  0
SEQEND
  5
61B
  8
DATA
  6
CONTINUOUS
 62
     7
  0
POLYLINE
  5
144
  8
DATA
  6
CONTINUOUS
 62
     7
 66
     1
 10
0.0
 20
0.0
 30
0.0
 70
     1
  0
VERTEX
  5
61C
  8
DATA
  6
CONTINUOUS
 62
     7
 10
-24.047449075617919
 20
121.98928435533119
 30
0.0
  0
VERTEX
  5
61D
  8
DATA
  6
CONTINUOUS
 62
     7
 10
-22.517449075617929
 20
121.98928435533119
 30
0.0
  0
VERTEX
  5
61E
  8
DATA
  6
CONTINUOUS
 62
     7
 10
-22.517449075617929
 20
120.45928435533131
 30
0.0
  0
VERTEX
  5
61F
  8
DATA
  6
CONTINUOUS
 62
     7
 10
-24.047449075617919
 20
120.45928435533131
 30
0.0
  0
SEQEND
  5
620
  8
DATA
  6
CONTINUOUS
 62
     7
  0
POLYLINE
  5
14B
  8
DATA
  6
CONTINUOUS
 62
     7
 66
     1
 10
0.0
 20
0.0
 30
0.0
 70
     1
  0
VERTEX
  5
621
  8
DATA
  6
CONTINUOUS
 62
     7
 10
-22.047449075617919
 20
121.98928435533119
 30
0.0
  0
VERTEX
  5
622
  8
DATA
  6
CONTINUOUS
 62
     7
 10
-20.517449075617922
 20
121.98928435533119
 30
0.0
  0
VERTEX
  5
623
  8
DATA
  6
CONTINUOUS
 62
     7
 10
-20.517449075617922
 20
120.45928435533131
 30
0.0
  0
VERTEX
  5
624
  8
DATA
  6
CONTINUOUS
 62
     7
 10
-22.047449075617919
 20
120.45928435533131
 30
0.0
  0
SEQEND
  5
625
  8
DATA
  6
CONTINUOUS
 62
     7
  0
POLYLINE
  5
152
  8
DATA
  6
CONTINUOUS
 62
     7
 66
     1
 10
0.0
 20
0.0
 30
0.0
 70
     1
  0
VERTEX
  5
626
  8
DATA
  6
CONTINUOUS
 62
     7
 10
-20.047449075617919
 20
121.98928435533119
 30
0.0
  0
VERTEX
  5
627
  8
DATA
  6
CONTINUOUS
 62
     7
 10
-18.517449075617922
 20
121.98928435533119
 30
0.0
  0
VERTEX
  5
628
  8
DATA
  6
CONTINUOUS
 62
     7
 10
-18.517449075617922
 20
120.45928435533131
 30
0.0
  0
VERTEX
  5
629
  8
DATA
  6
CONTINUOUS
 62
     7
 10
-20.047449075617919
 20
120.45928435533131
 30
0.0
  0
SEQEND
  5
62A
  8
DATA
  6
CONTINUOUS
 62
     7
  0
POLYLINE
  5
159
  8
DATA
  6
CONTINUOUS
 62
     7
 66
     1
 10
0.0
 20
0.0
 30
0.0
 70
     1
  0
VERTEX
  5
62B
  8
DATA
  6
CONTINUOUS
 62
     7
 10
-18.047449075617919
 20
121.98928435533119
 30
0.0
  0
VERTEX
  5
62C
  8
DATA
  6
CONTINUOUS
 62
     7
 10
-16.517449075617911
 20
121.98928435533119
 30
0.0
  0
VERTEX
  5
62D
  8
DATA
  6
CONTINUOUS
 62
     7
 10
-16.517449075617911
 20
120.45928435533131
 30
0.0
  0
VERTEX
  5
62E
  8
DATA
  6
CONTINUOUS
 62
     7
 10
-18.047449075617919
 20
120.45928435533131
 30
0.0
  0
SEQEND
  5
62F
  8
DATA
  6
CONTINUOUS
 62
     7
  0
POLYLINE
  5
160
  8
DATA
  6
CONTINUOUS
 62
     7
 66
     1
 10
0.0
 20
0.0
 30
0.0
 70
     1
  0
VERTEX
  5
630
  8
DATA
  6
CONTINUOUS
 62
     7
 10
-32.047449075617202
 20
117.98928435533119
 30
0.0
  0
VERTEX
  5
631
  8
DATA
  6
CONTINUOUS
 62
     7
 10
-30.517449075617169
 20
117.98928435533119
 30
0.0
  0
VERTEX
  5
632
  8
DATA
  6
CONTINUOUS
 62
     7
 10
-30.517449075617169
 20
116.45928435533121
 30
0.0
  0
VERTEX
  5
633
  8
DATA
  6
CONTINUOUS
 62
     7
 10
-32.047449075617202
 20
116.45928435533121
 30
0.0
  0
SEQEND
  5
634
  8
DATA
  6
CONTINUOUS
 62
     7
  0
POLYLINE
  5
167
  8
DATA
  6
CONTINUOUS
 62
     7
 66
     1
 10
0.0
 20
0.0
 30
0.0
 70
     1
  0
VERTEX
  5
635
  8
DATA
  6
CONTINUOUS
 62
     7
 10
-30.04744907561717
 20
117.98928435533119
 30
0.0
  0
VERTEX
  5
636
  8
DATA
  6
CONTINUOUS
 62
     7
 10
-28.517449075617229
 20
117.98928435533119
 30
0.0
  0
VERTEX
  5
637
  8
DATA
  6
CONTINUOUS
 62
     7
 10
-28.517449075617229
 20
116.45928435533121
 30
0.0
  0
VERTEX
  5
638
  8
DATA
  6
CONTINUOUS
 62
     7
 10
-30.04744907561717
 20
116.45928435533121
 30
0.0
  0
SEQEND
  5
639
  8
DATA
  6
CONTINUOUS
 62
     7
  0
POLYLINE
  5
16E
  8
DATA
  6
CONTINUOUS
 62
     7
 66
     1
 10
0.0
 20
0.0
 30
0.0
 70
     1
  0
VERTEX
  5
63A
  8
DATA
  6
CONTINUOUS
 62
     7
 10
-28.047449075617362
 20
117.98928435533119
 30
0.0
  0
VERTEX
  5
63B
  8
DATA
  6
CONTINUOUS
 62
     7
 10
-26.51744907561779
 20
117.98928435533119
 30
0.0
  0
VERTEX
  5
63C
  8
DATA
  6
CONTINUOUS
 62
     7
 10
-26.51744907561779
 20
116.45928435533121
 30
0.0
  0
VERTEX
  5
63D
  8
DATA
  6
CONTINUOUS
 62
     7
 10
-28.047449075617362
 20
116.45928435533121
 30
0.0
  0
SEQEND
  5
63E
  8
DATA
  6
CONTINUOUS
 62
     7
  0
POLYLINE
  5
175
  8
DATA
  6
CONTINUOUS
 62
     7
 66
     1
 10
0.0
 20
0.0
 30
0.0
 70
     1
  0
VERTEX
  5
63F
  8
DATA
  6
CONTINUOUS
 62
     7
 10
-26.047449075617909
 20
117.98928435533119
 30
0.0
  0
VERTEX
  5
640
  8
DATA
  6
CONTINUOUS
 62
     7
 10
-24.517449075617922
 20
117.98928435533119
 30
0.0
  0
VERTEX
  5
641
  8
DATA
  6
CONTINUOUS
 62
     7
 10
-24.517449075617922
 20
116.45928435533121
 30
0.0
  0
VERTEX
  5
642
  8
DATA
  6
CONTINUOUS
 62
     7
 10
-26.047449075617909
 20
116.45928435533121
 30
0.0
  0
SEQEND
  5
643
  8
DATA
  6
CONTINUOUS
 62
     7
  0
POLYLINE
  5
17C
  8
DATA
  6
CONTINUOUS
 62
     7
 66
     1
 10
0.0
 20
0.0
 30
0.0
 70
     1
  0
VERTEX
  5
644
  8
DATA
  6
CONTINUOUS
 62
     7
 10
-24.047449075617919
 20
117.98928435533119
 30
0.0
  0
VERTEX
  5
645
  8
DATA
  6
CONTINUOUS
 62
     7
 10
-22.517449075617929
 20
117.98928435533119
 30
0.0
  0
VERTEX
  5
646
  8
DATA
  6
CONTINUOUS
 62
     7
 10
-22.517449075617929
 20
116.45928435533121
 30
0.0
  0
VERTEX
  5
647
  8
DATA
  6
CONTINUOUS
 62
     7
 10
-24.047449075617919
 20
116.45928435533121
 30
0.0
  0
SEQEND
  5
648
  8
DATA
  6
CONTINUOUS
 62
     7
  0
POLYLINE
  5
183
  8
DATA
  6
CONTINUOUS
 62
     7
 66
     1
 10
0.0
 20
0.0
 30
0.0
 70
     1
  0
VERTEX
  5
649
  8
DATA
  6
CONTINUOUS
 62
     7
 10
-22.047449075617919
 20
117.98928435533119
 30
0.0
  0
VERTEX
  5
64A
  8
DATA
  6
CONTINUOUS
 62
     7
 10
-20.517449075617922
 20
117.98928435533119
 30
0.0
  0
VERTEX
  5
64B
  8
DATA
  6
CONTINUOUS
 62
     7
 10
-20.517449075617922
 20
116.45928435533121
 30
0.0
  0
VERTEX
  5
64C
  8
DATA
  6
CONTINUOUS
 62
     7
 10
-22.047449075617919
 20
116.45928435533121
 30
0.0
  0
SEQEND
  5
64D
  8
DATA
  6
CONTINUOUS
 62
     7
  0
POLYLINE
  5
18A
  8
DATA
  6
CONTINUOUS
 62
     7
 66
     1
 10
0.0
 20
0.0
 30
0.0
 70
     1
  0
VERTEX
  5
64E
  8
DATA
  6
CONTINUOUS
 62
     7
 10
-20.047449075617919
 20
117.98928435533119
 30
0.0
  0
VERTEX
  5
64F
  8
DATA
  6
CONTINUOUS
 62
     7
 10
-18.517449075617922
 20
117.98928435533119
 30
0.0
  0
VERTEX
  5
650
  8
DATA
  6
CONTINUOUS
 62
     7
 10
-18.517449075617922
 20
116.45928435533121
 30
0.0
  0
VERTEX
  5
651
  8
DATA
  6
CONTINUOUS
 62
     7
 10
-20.047449075617919
 20
116.45928435533121
 30
0.0
  0
SEQEND
  5
652
  8
DATA
  6
CONTINUOUS
 62
     7
  0
POLYLINE
  5
191
  8
DATA
  6
CONTINUOUS
 62
     7
 66
     1
 10
0.0
 20
0.0
 30
0.0
 70
     1
  0
VERTEX
  5
653
  8
DATA
  6
CONTINUOUS
 62
     7
 10
-18.047449075617919
 20
117.98928435533119
 30
0.0
  0
VERTEX
  5
654
  8
DATA
  6
CONTINUOUS
 62
     7
 10
-16.517449075617911
 20
117.98928435533119
 30
0.0
  0
VERTEX
  5
655
  8
DATA
  6
CONTINUOUS
 62
     7
 10
-16.517449075617911
 20
116.45928435533121
 30
0.0
  0
VERTEX
  5
656
  8
DATA
  6
CONTINUOUS
 62
     7
 10
-18.047449075617919
 20
116.45928435533121
 30
0.0
  0
SEQEND
  5
657
  8
DATA
  6
CONTINUOUS
 62
     7
  0
POLYLINE
  5
198
  8
DATA
  6
CONTINUOUS
 62
     7
 66
     1
 10
0.0
 20
0.0
 30
0.0
  0
VERTEX
  5
658
  8
DATA
  6
CONTINUOUS
 62
     7
 10
-12.49738290443849
 20
119.6242843553312
 30
0.0
  0
VERTEX
  5
659
  8
DATA
  6
CONTINUOUS
 62
     7
 10
-10.3973829044385
 20
119.6242843553312
 30
0.0
  0
VERTEX
  5
65A
  8
DATA
  6
CONTINUOUS
 62
     7
 10
-10.3973829044385
 20
118.8242843553312
 30
0.0
  0
VERTEX
  5
65B
  8
DATA
  6
CONTINUOUS
 62
     7
 10
-12.49738290443849
 20
118.8242843553312
 30
0.0
  0
SEQEND
  5
65C
  8
DATA
  6
CONTINUOUS
 62
     7
  0
POLYLINE
  5
19F
  8
DATA
  6
CONTINUOUS
 62
     7
 66
     1
 10
0.0
 20
0.0
 30
0.0
  0
VERTEX
  5
65D
  8
DATA
  6
CONTINUOUS
 62
     7
 10
-13.297382904438511
 20
118.8242843553312
 30
0.0
  0
VERTEX
  5
65E
  8
DATA
  6
CONTINUOUS
 62
     7
 10
-15.3973829044385
 20
118.8242843553312
 30
0.0
  0
VERTEX
  5
65F
  8
DATA
  6
CONTINUOUS
 62
     7
 10
-15.3973829044385
 20
119.6242843553312
 30
0.0
  0
VERTEX
  5
660
  8
DATA
  6
CONTINUOUS
 62
     7
 10
-13.297382904438511
 20
119.6242843553312
 30
0.0
  0
SEQEND
  5
661
  8
DATA
  6
CONTINUOUS
 62
     7
  0
POLYLINE
  5
1A6
  8
DATA
  6
CONTINUOUS
 62
     7
 66
     1
 10
0.0
 20
0.0
 30
0.0
  0
VERTEX
  5
662
  8
DATA
  6
CONTINUOUS
 62
     7
 10
-12.49738290443849
 20
118.8242843553312
 30
0.0
  0
VERTEX
  5
663
  8
DATA
  6
CONTINUOUS
 62
     7
 10
-12.49738290443849
 20
116.72428435533121
 30
0.0
  0
VERTEX
  5
664
  8
DATA
  6
CONTINUOUS
 62
     7
 10
-13.297382904438511
 20
116.72428435533121
 30
0.0
  0
VERTEX
  5
665
  8
DATA
  6
CONTINUOUS
 62
     7
 10
-13.297382904438511
 20
118.8242843553312
 30
0.0
  0
SEQEND
  5
666
  8
DATA
  6
CONTINUOUS
 62
     7
  0
POLYLINE
  5
1AD
  8
DATA
  6
CONTINUOUS
 62
     7
 66
     1
 10
0.0
 20
0.0
 30
0.0
  0
VERTEX
  5
667
  8
DATA
  6
CONTINUOUS
 62
     7
 10
-13.297382904438511
 20
119.6242843553312
 30
0.0
  0
VERTEX
  5
668
  8
DATA
  6
CONTINUOUS
 62
     7
 10
-13.297382904438511
 20
121.72428435533121
 30
0.0
  0
VERTEX
  5
669
  8
DATA
  6
CONTINUOUS
 62
     7
 10
-12.49738290443849
 20
121.72428435533121
 30
0.0
  0
VERTEX
  5
66A
  8
DATA
  6
CONTINUOUS
 62
     7
 10
-12.49738290443849
 20
119.6242843553312
 30
0.0
  0
SEQEND
  5
66B
  8
DATA
  6
CONTINUOUS
 62
     7
  0
POLYLINE
  5
1B4
  8
DATA
  6
CONTINUOUS
 62
     7
 66
     1
 10
0.0
 20
0.0
 30
0.0
 70
     1
  0
VERTEX
  5
66C
  8
DATA
  6
CONTINUOUS
 62
     7
 10
-14.75766733491022
 20
120.9837121659811
 30
0.0
  0
VERTEX
  5
66D
  8
DATA
  6
CONTINUOUS
 62
     7
 10
-13.75766733491022
 20
120.9837121659811
 30
0.0
  0
VERTEX
  5
66E
  8
DATA
  6
CONTINUOUS
 62
     7
 10
-13.75766733491022
 20
119.9837121659811
 30
0.0
  0
VERTEX
  5
66F
  8
DATA
  6
CONTINUOUS
 62
     7
 10
-14.75766733491022
 20
119.9837121659811
 30
0.0
  0
SEQEND
  5
670
  8
DATA
  6
CONTINUOUS
 62
     7
  0
POLYLINE
  5
1BB
  8
DATA
  6
CONTINUOUS
 62
     7
 66
     1
 10
0.0
 20
0.0
 30
0.0
 70
     1
  0
VERTEX
  5
671
  8
DATA
  6
CONTINUOUS
 62
     7
 10
-12.037098473966781
 20
120.9837121659811
 30
0.0
  0
VERTEX
  5
672
  8
DATA
  6
CONTINUOUS
 62
     7
 10
-11.037098473966781
 20
120.9837121659811
 30
0.0
  0
VERTEX
  5
673
  8
DATA
  6
CONTINUOUS
 62
     7
 10
-11.037098473966781
 20
119.9837121659811
 30
0.0
  0
VERTEX
  5
674
  8
DATA
  6
CONTINUOUS
 62
     7
 10
-12.037098473966781
 20
119.9837121659811
 30
0.0
  0
SEQEND
  5
675
  8
DATA
  6
CONTINUOUS
 62
     7
  0
POLYLINE
  5
1C2
  8
DATA
  6
CONTINUOUS
 62
     7
 66
     1
 10
0.0
 20
0.0
 30
0.0
 70
     1
  0
VERTEX
  5
676
  8
DATA
  6
CONTINUOUS
 62
     7
 10
-14.75766733491022
 20
118.4648565446813
 30
0.0
  0
VERTEX
  5
677
  8
DATA
  6
CONTINUOUS
 62
     7
 10
-13.75766733491022
 20
118.4648565446813
 30
0.0
  0
VERTEX
  5
678
  8
DATA
  6
CONTINUOUS
 62
     7
 10
-13.75766733491022
 20
117.4648565446813
 30
0.0
  0
VERTEX
  5
679
  8
DATA
  6
CONTINUOUS
 62
     7
 10
-14.75766733491022
 20
117.4648565446813
 30
0.0
  0
SEQEND
  5
67A
  8
DATA
  6
CONTINUOUS
 62
     7
  0
POLYLINE
  5
1C9
  8
DATA
  6
CONTINUOUS
 62
     7
 66
     1
 10
0.0
 20
0.0
 30
0.0
 70
     1
  0
VERTEX
  5
67B
  8
DATA
  6
CONTINUOUS
 62
     7
 10
-12.037098473966781
 20
118.4648565446813
 30
0.0
  0
VERTEX
  5
67C
  8
DATA
  6
CONTINUOUS
 62
     7
 10
-11.037098473966781
 20
118.4648565446813
 30
0.0
  0
VERTEX
  5
67D
  8
DATA
  6
CONTINUOUS
 62
     7
 10
-11.037098473966781
 20
117.4648565446813
 30
0.0
  0
VERTEX
  5
67E
  8
DATA
  6
CONTINUOUS
 62
     7
 10
-12.037098473966781
 20
117.4648565446813
 30
0.0
  0
SEQEND
  5
67F
  8
DATA
  6
CONTINUOUS
 62
     7
  0
LINE
  5
1D0
  8
DATA
  6
CONTINUOUS
 62
     7
 10
-32.992754722385158
 20
122.054176049845
 30
0.0
 11
-32.433837524932827
 21
116.204176049845
 31
0.0
  0
LINE
  5
1D1
  8
DATA
  6
CONTINUOUS
 62
     7
 10
-9.1020110864914301
 20
122.054176049845
 30
0.0
 11
-9.6609282839437043
 21
116.2041760498451
 31
0.0
  0
ARC
  5
1D2
  8
DATA
  6
CONTINUOUS
 62
     7
 10
-31.997287791629692
 20
122.1492843553313
 30
0.0
 40
0.9999999999999431
 50
90.0
 51
185.45755348510701
  0
ARC
  5
1D3
  8
DATA
  6
CONTINUOUS
 62
     7
 10
-10.0974780172468
 20
122.1492843553312
 30
0.0
 40
0.9999999999999844
 50
354.54244651489557
 51
90.000000000001606
  0
ARC
  5
1D4
  8
DATA
  6
CONTINUOUS
 62
     7
 10
-31.438370594177361
 20
116.2992843553312
 30
0.0
 40
1.0000000000000879
 50
185.45755348510701
 51
269.99999999999841
  0
ARC
  5
1D5
  8
DATA
  6
CONTINUOUS
 62
     7
 10
-10.656395214699099
 20
116.2992843553312
 30
0.0
 40
1.0
 50
270.0
 51
354.5424465148958
  0
TEXT
  5
1D6
  8
DATA
 62
     7
 10
-26.370528540193771
 20
109.2379421483008
 30
0.0
 40
2.4432617187500001
  1
DVI In 
 41
0.7
 11
-26.370528540193771
 21
111.6812038670508
 31
0.0
 73
     3
  0
CIRCLE
  5
1D7
  8
DATA
  6
CONTINUOUS
 62
     7
 10
-62.250000000000021
 20
123.25
 30
0.0
 40
3.9000000000000048
  0
CIRCLE
  5
1D8
  8
DATA
  6
CONTINUOUS
 62
     7
 10
-62.250000000000021
 20
123.25
 30
0.0
 40
1.0
  0
POLYLINE
  5
1D9
  8
DATA
  6
CONTINUOUS
 62
     7
 66
     1
 10
0.0
 20
0.0
 30
0.0
 70
     1
  0
VERTEX
  5
680
  8
DATA
  6
CONTINUOUS
 62
     7
 10
-64.949112508461511
 20
127.925
 30
0.0
  0
VERTEX
  5
681
  8
DATA
  6
CONTINUOUS
 62
     7
 10
-67.648225016923035
 20
123.25
 30
0.0
  0
VERTEX
  5
682
  8
DATA
  6
CONTINUOUS
 62
     7
 10
-64.949112508461511
 20
118.575
 30
0.0
  0
VERTEX
  5
683
  8
DATA
  6
CONTINUOUS
 62
     7
 10
-59.550887491538518
 20
118.575
 30
0.0
  0
VERTEX
  5
684
  8
DATA
  6
CONTINUOUS
 62
     7
 10
-56.851774983076993
 20
123.25
 30
0.0
  0
VERTEX
  5
685
  8
DATA
  6
CONTINUOUS
 62
     7
 10
-59.550887491538518
 20
127.925
 30
0.0
  0
SEQEND
  5
686
  8
DATA
  6
CONTINUOUS
 62
     7
  0
TEXT
  5
1E2
  8
DATA
 62
     7
 10
-65.676651177196717
 20
109.2116223644208
 30
0.0
 40
1.954609375
  1
5V DC 
 41
0.7
 11
-65.676651177196717
 21
111.16623173942079
 31
0.0
 73
     3
  0
CIRCLE
  5
1E3
  8
DATA
  6
CONTINUOUS
 62
     7
 10
-52.250000000000021
 20
120.25
 30
0.0
 40
1.449999999999988
  0
TEXT
  5
1E4
  8
DATA
 62
     7
 10
-55.27205306888586
 20
109.232781691005
 30
0.0
 40
1.954609375
  1
Power 
 41
0.7
 11
-55.27205306888586
 21
111.18739106600501
 31
0.0
 73
     3
  0
ARC
  5
1E5
  8
DATA
  6
CONTINUOUS
 62
     7
 10
-52.250000000000021
 20
181.97609535108819
 30
0.0
 40
1.449999999999978
 50
210.04999042122461
 51
329.95000957877539
  0
LINE
  5
1E6
  8
DATA
  6
CONTINUOUS
 62
     7
 10
-66.150000000000006
 20
179.75
 30
0.0
 11
-66.150000000000006
 21
175.25
 31
0.0
  0
LINE
  5
1E7
  8
DATA
  6
CONTINUOUS
 62
     7
 10
-58.350000000000001
 20
179.75
 30
0.0
 11
-58.350000000000001
 21
175.25
 31
0.0
  0
LINE
  5
1E8
  8
DATA
  6
CONTINUOUS
 62
     7
 10
-66.150000000000006
 20
175.25
 30
0.0
 11
-58.350000000000001
 21
175.25
 31
0.0
  0
LINE
  5
1E9
  8
DATA
  6
CONTINUOUS
 62
     7
 10
-67.648225016923035
 20
181.25
 30
0.0
 11
-67.648225016923035
 21
179.75
 31
0.0
  0
LINE
  5
1EA
  8
DATA
  6
CONTINUOUS
 62
     7
 10
-56.851774983076993
 20
181.25
 30
0.0
 11
-56.851774983076993
 21
179.75
 31
0.0
  0
LINE
  5
1EB
  8
DATA
  6
CONTINUOUS
 62
     7
 10
-67.648225016923035
 20
179.75
 30
0.0
 11
-56.851774983076993
 21
179.75
 31
0.0
  0
LINE
  5
1EC
  8
DATA
  6
CONTINUOUS
 62
     7
 10
-32.974135784993692
 20
176.25
 30
0.0
 11
-9.1206300238846865
 21
176.25
 31
0.0
  0
LINE
  5
1ED
  8
DATA
  6
CONTINUOUS
 62
     7
 10
-39.635651494656308
 20
181.25
 30
0.0
 11
-39.635651494656308
 21
176.75
 31
0.0
  0
LINE
  5
1EE
  8
DATA
  6
CONTINUOUS
 62
     7
 10
-34.959114314220201
 20
181.25
 30
0.0
 11
-34.959114314220201
 21
176.75
 31
0.0
  0
LINE
  5
1EF
  8
DATA
  6
CONTINUOUS
 62
     7
 10
-7.1356514946565559
 20
181.25
 30
0.0
 11
-7.1356514946565559
 21
176.75
 31
0.0
  0
LINE
  5
1F0
  8
DATA
  6
CONTINUOUS
 62
     7
 10
-2.4591143142205989
 20
181.25
 30
0.0
 11
-2.4591143142205989
 21
176.75
 31
0.0
  0
LINE
  5
1F1
  8
DATA
  6
CONTINUOUS
 62
     7
 10
-32.974135784993692
 20
181.25
 30
0.0
 11
-32.974135784993692
 21
176.25
 31
0.0
  0
LINE
  5
1F2
  8
DATA
  6
CONTINUOUS
 62
     7
 10
-9.1206300238846865
 20
181.25
 30
0.0
 11
-9.1206300238846865
 21
176.25
 31
0.0
  0
LINE
  5
1F3
  8
DATA
  6
CONTINUOUS
 62
     7
 10
-39.635651494656308
 20
176.75
 30
0.0
 11
-34.959114314220201
 21
176.75
 31
0.0
  0
LINE
  5
1F4
  8
DATA
  6
CONTINUOUS
 62
     7
 10
-7.1356514946565559
 20
176.75
 30
0.0
 11
-2.4591143142205989
 21
176.75
 31
0.0
  0
LINE
  5
1F5
  8
DATA
  6
CONTINUOUS
 62
     7
 10
-73.750000000000014
 20
103.25
 30
0.0
 11
-74.399999999999963
 21
106.25
 31
0.0
  0
LINE
  5
1F6
  8
DATA
  6
CONTINUOUS
 62
     7
 10
-67.750000000000014
 20
103.25
 30
0.0
 11
-67.100000000000037
 21
106.25
 31
0.0
  0
LINE
  5
1F7
  8
DATA
  6
CONTINUOUS
 62
     7
 10
-73.750000000000014
 20
103.25
 30
0.0
 11
-67.750000000000014
 21
103.25
 31
0.0
  0
LINE
  5
1F8
  8
DATA
  6
CONTINUOUS
 62
     7
 10
36.25
 20
103.25
 30
0.0
 11
36.899999999999963
 21
106.25
 31
0.0
  0
LINE
  5
1F9
  8
DATA
  6
CONTINUOUS
 62
     7
 10
30.249999999999989
 20
103.25
 30
0.0
 11
29.600000000000009
 21
106.25
 31
0.0
  0
LINE
  5
1FA
  8
DATA
  6
CONTINUOUS
 62
     7
 10
36.25
 20
103.25
 30
0.0
 11
30.249999999999989
 21
103.25
 31
0.0
  0
LINE
  5
1FB
  8
DATA
  6
CONTINUOUS
 62
     7
 10
-79.250000000000014
 20
281.2500000001989
 30
0.0
 11
41.749999999999993
 21
281.2500000001989
 31
0.0
  0
LINE
  5
1FC
  8
DATA
  6
CONTINUOUS
 62
     7
 10
-81.250000000000014
 20
283.2500000001989
 30
0.0
 11
-81.250000000000014
 21
311.25000000019878
 31
0.0
  0
LINE
  5
1FD
  8
DATA
  6
CONTINUOUS
 62
     7
 10
43.749999999999993
 20
283.2500000001989
 30
0.0
 11
43.749999999999993
 21
311.25000000019878
 31
0.0
  0
ARC
  5
1FE
  8
DATA
  6
CONTINUOUS
 62
     7
 10
-79.250000000000014
 20
283.2500000001989
 30
0.0
 40
2.0
 50
180.0
 51
270.0
  0
ARC
  5
1FF
  8
DATA
  6
CONTINUOUS
 62
     7
 10
41.749999999999993
 20
283.2500000001989
 30
0.0
 40
2.0
 50
270.0
 51
0.0
  0
LINE
  5
200
  8
DATA
  6
CONTINUOUS
 62
     7
 10
-81.250000000000014
 20
311.25000000019878
 30
0.0
 11
43.749999999999993
 21
311.25000000019878
 31
0.0
  0
LINE
  5
201
  8
DATA
  6
CONTINUOUS
 62
     7
 10
-73.750000000000014
 20
314.25000000019878
 30
0.0
 11
-74.399999999999963
 21
311.25000000019878
 31
0.0
  0
LINE
  5
202
  8
DATA
  6
CONTINUOUS
 62
     7
 10
-67.750000000000014
 20
314.25000000019878
 30
0.0
 11
-67.100000000000037
 21
311.25000000019878
 31
0.0
  0
LINE
  5
203
  8
DATA
  6
CONTINUOUS
 62
     7
 10
-73.750000000000014
 20
314.25000000019878
 30
0.0
 11
-67.750000000000014
 21
314.25000000019878
 31
0.0
  0
LINE
  5
204
  8
DATA
  6
CONTINUOUS
 62
     7
 10
36.25
 20
314.25000000019878
 30
0.0
 11
36.899999999999963
 21
311.25000000019878
 31
0.0
  0
LINE
  5
205
  8
DATA
  6
CONTINUOUS
 62
     7
 10
30.249999999999989
 20
314.25000000019878
 30
0.0
 11
29.600000000000009
 21
311.25000000019878
 31
0.0
  0
LINE
  5
206
  8
DATA
  6
CONTINUOUS
 62
     7
 10
36.25
 20
314.25000000019878
 30
0.0
 11
30.249999999999989
 21
314.25000000019878
 31
0.0
  0
LINE
  5
207
  8
DATA
  6
CONTINUOUS
 62
     7
 10
-0.5581201563406637
 20
303.2540583140721
 30
0.0
 11
-0.5581201563406637
 21
289.95405831407209
 31
0.0
  0
LINE
  5
208
  8
DATA
  6
CONTINUOUS
 62
     7
 10
-16.258120156340699
 20
303.2540583140721
 30
0.0
 11
-16.258120156340699
 21
289.95405831407209
 31
0.0
  0
LINE
  5
209
  8
DATA
  6
CONTINUOUS
 62
     7
 10
-16.258120156340699
 20
289.95405831407209
 30
0.0
 11
-0.5581201563406637
 21
289.95405831407209
 31
0.0
  0
LINE
  5
20A
  8
DATA
  6
CONTINUOUS
 62
     7
 10
-16.258120156340699
 20
303.2540583140721
 30
0.0
 11
-0.5581201563406637
 21
303.2540583140721
 31
0.0
  0
LINE
  5
20B
  8
DATA
  6
CONTINUOUS
 62
     7
 10
-14.55812015634066
 20
300.2540583140721
 30
0.0
 11
-2.2581201563407078
 21
300.2540583140721
 31
0.0
  0
LINE
  5
20C
  8
DATA
  6
CONTINUOUS
 62
     7
 10
-14.55812015634066
 20
300.2540583140721
 30
0.0
 11
-14.55812015634066
 21
292.95405831407209
 31
0.0
  0
LINE
  5
20D
  8
DATA
  6
CONTINUOUS
 62
     7
 10
-2.2581201563407078
 20
300.2540583140721
 30
0.0
 11
-2.2581201563407078
 21
292.95405831407209
 31
0.0
  0
LINE
  5
20E
  8
DATA
  6
CONTINUOUS
 62
     7
 10
-10.6331201563407
 20
289.95405831407209
 30
0.0
 11
-10.6331201563407
 21
291.45405831407209
 31
0.0
  0
LINE
  5
20F
  8
DATA
  6
CONTINUOUS
 62
     7
 10
-6.1831201563406628
 20
291.45405831407209
 30
0.0
 11
-6.1831201563406628
 21
289.95405831407209
 31
0.0
  0
LINE
  5
210
  8
DATA
  6
CONTINUOUS
 62
     7
 10
-11.7581201563407
 20
291.45405831407209
 30
0.0
 11
-10.6331201563407
 21
291.45405831407209
 31
0.0
  0
LINE
  5
211
  8
DATA
  6
CONTINUOUS
 62
     7
 10
-6.1831201563406628
 20
291.45405831407209
 30
0.0
 11
-5.0581201563406628
 21
291.45405831407209
 31
0.0
  0
LINE
  5
212
  8
DATA
  6
CONTINUOUS
 62
     7
 10
-14.55812015634066
 20
292.95405831407209
 30
0.0
 11
-11.7581201563407
 21
292.95405831407209
 31
0.0
  0
LINE
  5
213
  8
DATA
  6
CONTINUOUS
 62
     7
 10
-5.0581201563406628
 20
292.95405831407209
 30
0.0
 11
-2.2581201563407078
 21
292.95405831407209
 31
0.0
  0
LINE
  5
214
  8
DATA
  6
CONTINUOUS
 62
     7
 10
-11.7581201563407
 20
291.45405831407209
 30
0.0
 11
-11.7581201563407
 21
292.95405831407209
 31
0.0
  0
LINE
  5
215
  8
DATA
  6
CONTINUOUS
 62
     7
 10
-5.0581201563406628
 20
292.95405831407209
 30
0.0
 11
-5.0581201563406628
 21
291.45405831407209
 31
0.0
  0
TEXT
  5
216
  8
DATA
 62
     7
 10
-5.7951188277973378
 20
307.89046580862077
 30
0.0
 40
1.954609375
  1
LINK
 50
180.0
 41
0.7
 11
-5.7951188277973378
 21
305.93585643362081
 31
0.0
 73
     3
  0
TEXT
  5
217
  8
DATA
 62
     7
 10
-13.195464785906561
 20
195.0348924772795
 30
0.0
 40
5.7009440104166647
  1
DVI RS232 ELR  
 41
0.7
 11
-13.195464785906561
 21
200.7358364876961
 31
0.0
 73
     3
  0
CIRCLE
  5
218
  8
DATA
  6
CONTINUOUS
 62
     7
 10
91.75
 20
248.75
 30
0.0
 40
2.5
  0
LINE
  5
219
  8
DATA
  6
CONTINUOUS
 62
     7
 10
90.368081044344507
 20
248.75
 30
0.0
 11
93.131918955655479
 21
248.75
 31
0.0
  0
LINE
  5
21A
  8
DATA
  6
CONTINUOUS
 62
     7
 10
91.75
 20
247.36808104434451
 30
0.0
 11
91.75
 21
250.13191895565549
 31
0.0
  0
LINE
  5
21B
  8
DATA
  6
CONTINUOUS
 62
     7
 10
101.7499999997594
 20
251.27042966980679
 30
0.0
 11
98.74999999975941
 21
251.92042966980679
 31
0.0
  0
LINE
  5
21C
  8
DATA
  6
CONTINUOUS
 62
     7
 10
101.7499999997594
 20
245.27042966980679
 30
0.0
 11
98.74999999975941
 21
244.62042966980681
 31
0.0
  0
LINE
  5
21D
  8
DATA
  6
CONTINUOUS
 62
     7
 10
101.7499999997594
 20
251.27042966980679
 30
0.0
 11
101.7499999997594
 21
245.27042966980679
 31
0.0
  0
LINE
  5
21E
  8
DATA
  6
CONTINUOUS
 62
     7
 10
101.7499999997594
 20
186.26032043004241
 30
0.0
 11
98.74999999975941
 21
185.61032043004241
 31
0.0
  0
LINE
  5
21F
  8
DATA
  6
CONTINUOUS
 62
     7
 10
101.7499999997594
 20
192.26032043004241
 30
0.0
 11
98.74999999975941
 21
192.91032043004239
 31
0.0
  0
LINE
  5
220
  8
DATA
  6
CONTINUOUS
 62
     7
 10
101.7499999997594
 20
186.26032043004241
 30
0.0
 11
101.7499999997594
 21
192.26032043004241
 31
0.0
  0
LINE
  5
221
  8
DATA
  6
CONTINUOUS
 62
     7
 10
80.337782457019259
 20
176.25
 30
0.0
 11
88.187782457019253
 21
176.25
 31
0.0
  0
LINE
  5
222
  8
DATA
  6
CONTINUOUS
 62
     7
 10
81.562782457019281
 20
181.25
 30
0.0
 11
81.562782457019281
 21
176.75
 31
0.0
  0
LINE
  5
223
  8
DATA
  6
CONTINUOUS
 62
     7
 10
86.962782457019244
 20
181.25
 30
0.0
 11
86.962782457019244
 21
176.75
 31
0.0
  0
LINE
  5
224
  8
DATA
  6
CONTINUOUS
 62
     7
 10
81.562782457019281
 20
176.75
 30
0.0
 11
86.962782457019244
 21
176.75
 31
0.0
  0
LINE
  5
225
  8
DATA
  6
CONTINUOUS
 62
     7
 10
80.337782457019259
 20
181.25
 30
0.0
 11
80.337782457019259
 21
176.25
 31
0.0
  0
LINE
  5
226
  8
DATA
  6
CONTINUOUS
 62
     7
 10
88.187782457019253
 20
181.25
 30
0.0
 11
88.187782457019253
 21
176.25
 31
0.0
  0
LINE
  5
227
  8
DATA
  6
CONTINUOUS
 62
     7
 10
77.88598699281701
 20
179.74999999970001
 30
0.0
 11
77.88598699281701
 21
175.24999999970001
 31
0.0
  0
LINE
  5
228
  8
DATA
  6
CONTINUOUS
 62
     7
 10
85.685986992817007
 20
176.25
 30
0.0
 11
85.685986992817007
 21
175.24999999970001
 31
0.0
  0
LINE
  5
229
  8
DATA
  6
CONTINUOUS
 62
     7
 10
77.88598699281701
 20
175.24999999970001
 30
0.0
 11
85.685986992817007
 21
175.24999999970001
 31
0.0
  0
LINE
  5
22A
  8
DATA
  6
CONTINUOUS
 62
     7
 10
76.38776197589398
 20
181.24999999970001
 30
0.0
 11
76.38776197589398
 21
179.74999999970001
 31
0.0
  0
LINE
  5
22B
  8
DATA
  6
CONTINUOUS
 62
     7
 10
76.38776197589398
 20
179.74999999970001
 30
0.0
 11
80.337782457019259
 21
179.74999999970001
 31
0.0
  0
TEXT
  5
22C
  8
DATA
 62
     7
 10
90.533783309380354
 20
115.66561946994349
 30
0.0
 40
8.1442057291666661
  1
EXT-DVI-CAT5-ELRS
 41
0.7
 11
90.533783309380354
 21
123.80982519911009
 31
0.0
 73
     3
  0
TEXT
  5
22D
  8
DATA
 62
     7
 10
109.2488587532487
 20
104.4881108705287
 30
0.0
 40
8.1442057291666661
  1
(センダー)
 41
0.7
 11
109.2488587532487
 21
112.6323165996954
 31
0.0
 73
     3
  0
LINE
  5
22E
  8
DATA
  6
CONTINUOUS
 62
     7
 10
-162.5
 20
81.25
 30
0.0
 11
362.5
 21
81.25
 31
0.0
  0
TEXT
  5
22F
  8
DATA
 62
     7
 10
-1.8362761425796641
 20
186.65365631390469
 30
0.0
 40
5.7009440104166647
  1
Extender S
 41
0.7
 11
-1.836276142579663
 21
192.35460032432141
 31
0.0
 73
     3
  0
CIRCLE
  5
230
  8
DATA
  6
CONTINUOUS
 62
     7
 10
30.804191347080991
 20
119.2222999750675
 30
0.0
 40
1.1750000000000109
  0
POLYLINE
  5
231
  8
DATA
  6
CONTINUOUS
 62
     7
 66
     1
 10
0.0
 20
0.0
 30
0.0
 70
     1
  0
VERTEX
  5
687
  8
DATA
  6
CONTINUOUS
 62
     7
 10
30.804191347080991
 20
121.9222999750672
 30
0.0
  0
VERTEX
  5
688
  8
DATA
  6
CONTINUOUS
 62
     7
 10
28.46592275686324
 20
120.5722999750673
 30
0.0
  0
VERTEX
  5
689
  8
DATA
  6
CONTINUOUS
 62
     7
 10
28.46592275686324
 20
117.8722999750677
 30
0.0
  0
VERTEX
  5
68A
  8
DATA
  6
CONTINUOUS
 62
     7
 10
30.804191347080991
 20
116.5222999750678
 30
0.0
  0
VERTEX
  5
68B
  8
DATA
  6
CONTINUOUS
 62
     7
 10
33.14245993729898
 20
117.8722999750677
 30
0.0
  0
VERTEX
  5
68C
  8
DATA
  6
CONTINUOUS
 62
     7
 10
33.14245993729898
 20
120.5722999750673
 30
0.0
  0
SEQEND
  5
68D
  8
DATA
  6
CONTINUOUS
 62
     7
  0
CIRCLE
  5
23A
  8
DATA
  6
CONTINUOUS
 62
     7
 10
5.8041913470809297
 20
119.2222999750675
 30
0.0
 40
1.175000000000068
  0
POLYLINE
  5
23B
  8
DATA
  6
CONTINUOUS
 62
     7
 66
     1
 10
0.0
 20
0.0
 30
0.0
 70
     1
  0
VERTEX
  5
68E
  8
DATA
  6
CONTINUOUS
 62
     7
 10
5.8041913470809297
 20
121.9222999750672
 30
0.0
  0
VERTEX
  5
68F
  8
DATA
  6
CONTINUOUS
 62
     7
 10
3.4659227568630362
 20
120.5722999750673
 30
0.0
  0
VERTEX
  5
690
  8
DATA
  6
CONTINUOUS
 62
     7
 10
3.4659227568630362
 20
117.8722999750677
 30
0.0
  0
VERTEX
  5
691
  8
DATA
  6
CONTINUOUS
 62
     7
 10
5.8041913470809297
 20
116.5222999750678
 30
0.0
  0
VERTEX
  5
692
  8
DATA
  6
CONTINUOUS
 62
     7
 10
8.1424599372989661
 20
117.8722999750677
 30
0.0
  0
VERTEX
  5
693
  8
DATA
  6
CONTINUOUS
 62
     7
 10
8.1424599372989661
 20
120.5722999750673
 30
0.0
  0
SEQEND
  5
694
  8
DATA
  6
CONTINUOUS
 62
     7
  0
LINE
  5
244
  8
DATA
  6
CONTINUOUS
 62
     7
 10
23.905954557269709
 20
115.2222999750676
 30
0.0
 11
12.70242813689249
 21
115.2222999750676
 31
0.0
  0
LINE
  5
245
  8
DATA
  6
CONTINUOUS
 62
     7
 10
11.8899281368926
 20
123.2222999750673
 30
0.0
 11
24.718454557269709
 21
123.2222999750673
 31
0.0
  0
LINE
  5
246
  8
DATA
  6
CONTINUOUS
 62
     7
 10
11.319211289640929
 20
116.4061723426846
 30
0.0
 11
10.506711289641039
 21
121.6061723426842
 31
0.0
  0
LINE
  5
247
  8
DATA
  6
CONTINUOUS
 62
     7
 10
26.101671404521269
 20
121.6061723426842
 30
0.0
 11
25.289171404521269
 21
116.4061723426846
 31
0.0
  0
CIRCLE
  5
248
  8
DATA
  6
CONTINUOUS
 62
     7
 10
18.277561576606171
 20
120.858608146221
 30
0.0
 40
0.5
  0
ARC
  5
249
  8
DATA
  6
CONTINUOUS
 62
     7
 10
11.8899281368926
 20
121.8222999750673
 30
0.0
 40
1.399999999999977
 50
90.0
 51
188.88065915052039
  0
ARC
  5
24A
  8
DATA
  6
CONTINUOUS
 62
     7
 10
24.718454557269709
 20
121.8222999750673
 30
0.0
 40
1.400000000000019
 50
351.11934084947961
 51
90.0
  0
ARC
  5
24B
  8
DATA
  6
CONTINUOUS
 62
     7
 10
12.70242813689249
 20
116.6222999750678
 30
0.0
 40
1.4000000000000281
 50
188.88065915052289
 51
270.0
  0
ARC
  5
24C
  8
DATA
  6
CONTINUOUS
 62
     7
 10
23.905954557269709
 20
116.6222999750678
 30
0.0
 40
1.4000000000001469
 50
270.0
 51
351.11934084947723
  0
CIRCLE
  5
24D
  8
DATA
  6
CONTINUOUS
 62
     7
 10
15.77756157660618
 20
120.858608146221
 30
0.0
 40
0.5
  0
CIRCLE
  5
24E
  8
DATA
  6
CONTINUOUS
 62
     7
 10
13.27756157660618
 20
120.858608146221
 30
0.0
 40
0.5
  0
CIRCLE
  5
24F
  8
DATA
  6
CONTINUOUS
 62
     7
 10
20.777561576606171
 20
120.858608146221
 30
0.0
 40
0.5
  0
CIRCLE
  5
250
  8
DATA
  6
CONTINUOUS
 62
     7
 10
23.277561576606171
 20
120.858608146221
 30
0.0
 40
0.5
  0
CIRCLE
  5
251
  8
DATA
  6
CONTINUOUS
 62
     7
 10
17.082050400534921
 20
117.2400877274587
 30
0.0
 40
0.5
  0
CIRCLE
  5
252
  8
DATA
  6
CONTINUOUS
 62
     7
 10
14.58205040053492
 20
117.2400877274587
 30
0.0
 40
0.5
  0
CIRCLE
  5
253
  8
DATA
  6
CONTINUOUS
 62
     7
 10
19.582050400534921
 20
117.2400877274587
 30
0.0
 40
0.5
  0
CIRCLE
  5
254
  8
DATA
  6
CONTINUOUS
 62
     7
 10
22.082050400534921
 20
117.2400877274587
 30
0.0
 40
0.5
  0
TEXT
  5
255
  8
DATA
 62
     7
 10
12.32672132084816
 20
109.309998793132
 30
0.0
 40
2.4432617187500001
  1
RS-232In
 41
0.7
 11
12.32672132084816
 21
111.7532605118819
 31
0.0
 73
     3
  0
LINE
  5
256
  8
DATA
  6
CONTINUOUS
 62
     7
 10
10.40239891928746
 20
176.25000000000011
 30
0.0
 11
10.40239891928746
 21
181.25
 31
0.0
  0
LINE
  5
257
  8
DATA
  6
CONTINUOUS
 62
     7
 10
26.012537726074189
 20
176.25000000000011
 30
0.0
 11
26.012537726074189
 21
181.25
 31
0.0
  0
LINE
  5
258
  8
DATA
  6
CONTINUOUS
 62
     7
 10
3.3600191146028351
 20
176.25000000000011
 30
0.0
 11
3.3600191146028351
 21
181.25
 31
0.0
  0
LINE
  5
259
  8
DATA
  6
CONTINUOUS
 62
     7
 10
8.036556295038622
 20
176.25000000000011
 30
0.0
 11
8.036556295038622
 21
181.25
 31
0.0
  0
LINE
  5
25A
  8
DATA
  6
CONTINUOUS
 62
     7
 10
28.360019114602839
 20
176.25000000000011
 30
0.0
 11
28.360019114602839
 21
181.25
 31
0.0
  0
LINE
  5
25B
  8
DATA
  6
CONTINUOUS
 62
     7
 10
33.090089247784277
 20
176.25000000000011
 30
0.0
 11
33.090089247784277
 21
181.25
 31
0.0
  0
LINE
  5
25C
  8
DATA
  6
CONTINUOUS
 62
     7
 10
3.3600191146028351
 20
176.25000000000011
 30
0.0
 11
8.036556295038622
 21
176.25000000000011
 31
0.0
  0
LINE
  5
25D
  8
DATA
  6
CONTINUOUS
 62
     7
 10
10.40239891928746
 20
176.25000000000011
 30
0.0
 11
26.012537726074189
 21
176.25000000000011
 31
0.0
  0
LINE
  5
25E
  8
DATA
  6
CONTINUOUS
 62
     7
 10
28.41355206734832
 20
176.25000000000011
 30
0.0
 11
33.090089247784277
 21
176.25000000000011
 31
0.0
  0
LINE
  5
25F
  8
DATA
  6
CONTINUOUS
 62
     7
 10
-32.462144357927187
 20
303.2540583140721
 30
0.0
 11
-32.462144357927187
 21
289.95405831407209
 31
0.0
  0
LINE
  5
260
  8
DATA
  6
CONTINUOUS
 62
     7
 10
-48.162144357927232
 20
303.2540583140721
 30
0.0
 11
-48.162144357927232
 21
289.95405831407209
 31
0.0
  0
LINE
  5
261
  8
DATA
  6
CONTINUOUS
 62
     7
 10
-48.162144357927232
 20
289.95405831407209
 30
0.0
 11
-32.462144357927187
 21
289.95405831407209
 31
0.0
  0
LINE
  5
262
  8
DATA
  6
CONTINUOUS
 62
     7
 10
-48.162144357927232
 20
303.2540583140721
 30
0.0
 11
-32.462144357927187
 21
303.2540583140721
 31
0.0
  0
LINE
  5
263
  8
DATA
  6
CONTINUOUS
 62
     7
 10
-46.46214435792718
 20
300.2540583140721
 30
0.0
 11
-34.162144357927232
 21
300.2540583140721
 31
0.0
  0
LINE
  5
264
  8
DATA
  6
CONTINUOUS
 62
     7
 10
-46.46214435792718
 20
300.2540583140721
 30
0.0
 11
-46.46214435792718
 21
292.95405831407209
 31
0.0
  0
LINE
  5
265
  8
DATA
  6
CONTINUOUS
 62
     7
 10
-34.162144357927232
 20
300.2540583140721
 30
0.0
 11
-34.162144357927232
 21
292.95405831407209
 31
0.0
  0
LINE
  5
266
  8
DATA
  6
CONTINUOUS
 62
     7
 10
-42.537144357927218
 20
289.95405831407209
 30
0.0
 11
-42.537144357927218
 21
291.45405831407209
 31
0.0
  0
LINE
  5
267
  8
DATA
  6
CONTINUOUS
 62
     7
 10
-38.087144357927187
 20
291.45405831407209
 30
0.0
 11
-38.087144357927187
 21
289.95405831407209
 31
0.0
  0
LINE
  5
268
  8
DATA
  6
CONTINUOUS
 62
     7
 10
-43.662144357927232
 20
291.45405831407209
 30
0.0
 11
-42.537144357927218
 21
291.45405831407209
 31
0.0
  0
LINE
  5
269
  8
DATA
  6
CONTINUOUS
 62
     7
 10
-38.087144357927187
 20
291.45405831407209
 30
0.0
 11
-36.962144357927187
 21
291.45405831407209
 31
0.0
  0
LINE
  5
26A
  8
DATA
  6
CONTINUOUS
 62
     7
 10
-46.46214435792718
 20
292.95405831407209
 30
0.0
 11
-43.662144357927232
 21
292.95405831407209
 31
0.0
  0
LINE
  5
26B
  8
DATA
  6
CONTINUOUS
 62
     7
 10
-36.962144357927187
 20
292.95405831407209
 30
0.0
 11
-34.162144357927232
 21
292.95405831407209
 31
0.0
  0
LINE
  5
26C
  8
DATA
  6
CONTINUOUS
 62
     7
 10
-43.662144357927232
 20
291.45405831407209
 30
0.0
 11
-43.662144357927232
 21
292.95405831407209
 31
0.0
  0
LINE
  5
26D
  8
DATA
  6
CONTINUOUS
 62
     7
 10
-36.962144357927187
 20
292.95405831407209
 30
0.0
 11
-36.962144357927187
 21
291.45405831407209
 31
0.0
  0
TEXT
  5
26E
  8
DATA
 62
     7
 10
-34.608955029743541
 20
307.89046580862077
 30
0.0
 40
1.954609375
  1
Ethernet
 50
180.0
 41
0.7
 11
-34.608955029743541
 21
305.93585643362081
 31
0.0
 73
     3
  0
CIRCLE
  5
26F
  8
DATA
  6
CONTINUOUS
 62
     7
 10
91.75
 20
198.75
 30
0.0
 40
2.5
  0
LINE
  5
270
  8
DATA
  6
CONTINUOUS
 62
     7
 10
90.368081044344507
 20
198.75
 30
0.0
 11
93.131918955655479
 21
198.75
 31
0.0
  0
LINE
  5
271
  8
DATA
  6
CONTINUOUS
 62
     7
 10
91.75
 20
200.13191895565549
 30
0.0
 11
91.75
 21
197.36808104434451
 31
0.0
  0
LINE
  5
272
  8
DATA
  6
CONTINUOUS
 62
     7
 10
70.186099226989541
 20
264.25
 30
0.0
 11
94.749999999999986
 21
264.25
 31
0.0
  0
LINE
  5
273
  8
DATA
  6
CONTINUOUS
 62
     7
 10
96.75
 20
262.25
 30
0.0
 11
96.75
 21
255.25
 31
0.0
  0
ARC
  5
274
  8
DATA
  6
CONTINUOUS
 62
     7
 10
94.749999999999986
 20
262.25
 30
0.0
 40
2.0
 50
0.0
 51
90.0
  0
ARC
  5
275
  8
DATA
  6
CONTINUOUS
 62
     7
 10
96.75
 20
264.25
 30
0.0
 40
2.0
 50
0.0
 51
90.0
  0
ARC
  5
276
  8
DATA
  6
CONTINUOUS
 62
     7
 10
96.75
 20
183.25
 30
0.0
 40
2.0
 50
270.0
 51
0.0
  0
LINE
  5
277
  8
DATA
  6
CONTINUOUS
 62
     7
 10
-48.162144357927232
 20
266.75
 30
0.0
 11
-48.162144357927232
 21
266.25
 31
0.0
  0
LINE
  5
278
  8
DATA
  6
CONTINUOUS
 62
     7
 10
-32.462144357927187
 20
266.75
 30
0.0
 11
-32.462144357927187
 21
266.25
 31
0.0
  0
LINE
  5
279
  8
DATA
  6
CONTINUOUS
 62
     7
 10
-16.258120156340699
 20
266.75
 30
0.0
 11
-16.258120156340699
 21
266.25
 31
0.0
  0
LINE
  5
27A
  8
DATA
  6
CONTINUOUS
 62
     7
 10
-0.5581201563406637
 20
266.75
 30
0.0
 11
-0.5581201563406637
 21
266.25
 31
0.0
  0
LINE
  5
27B
  8
DATA
  6
CONTINUOUS
 62
     7
 10
-48.162144357927232
 20
266.75
 30
0.0
 11
-32.462144357927187
 21
266.75
 31
0.0
  0
LINE
  5
27C
  8
DATA
  6
CONTINUOUS
 62
     7
 10
-16.258120156340699
 20
266.75
 30
0.0
 11
-0.5581201563406637
 21
266.75
 31
0.0
  0
LINE
  5
27D
  8
DATA
  6
CONTINUOUS
 62
     7
 10
90.749999999759424
 20
266.25
 30
0.0
 11
90.749999999759424
 21
266.75
 31
0.0
  0
LINE
  5
27E
  8
DATA
  6
CONTINUOUS
 62
     7
 10
77.376573670529524
 20
266.75
 30
0.0
 11
77.376573670529524
 21
266.25
 31
0.0
  0
LINE
  5
27F
  8
DATA
  6
CONTINUOUS
 62
     7
 10
77.376573670529524
 20
266.75
 30
0.0
 11
90.749999999759424
 21
266.75
 31
0.0
  0
LINE
  5
280
  8
DATA
  6
CONTINUOUS
 62
     7
 10
43.749999999999993
 20
-75.0
 30
0.0
 11
-81.250000000000014
 21
-75.0
 31
0.0
  0
LINE
  5
281
  8
DATA
  6
CONTINUOUS
 62
     7
 10
-81.250000000000014
 20
10.0
 30
0.0
 11
43.749999999999993
 21
10.0
 31
0.0
  0
LINE
  5
282
  8
DATA
  6
CONTINUOUS
 62
     7
 10
-79.250000000000014
 20
-120.0
 30
0.0
 11
41.749999999999993
 21
-120.0
 31
0.0
  0
LINE
  5
283
  8
DATA
  6
CONTINUOUS
 62
     7
 10
-81.250000000000014
 20
-75.0
 30
0.0
 11
-81.250000000000014
 21
10.0
 31
0.0
  0
LINE
  5
284
  8
DATA
  6
CONTINUOUS
 62
     7
 10
43.749999999999993
 20
-75.0
 30
0.0
 11
43.749999999999993
 21
10.0
 31
0.0
  0
LINE
  5
285
  8
DATA
  6
CONTINUOUS
 62
     7
 10
68.75
 20
-75.0
 30
0.0
 11
68.75
 21
8.0
 31
0.0
  0
LINE
  5
286
  8
DATA
  6
CONTINUOUS
 62
     7
 10
98.75
 20
-73.0
 30
0.0
 11
98.75
 21
8.0
 31
0.0
  0
LINE
  5
287
  8
DATA
  6
CONTINUOUS
 62
     7
 10
68.75
 20
-75.0
 30
0.0
 11
96.75
 21
-75.0
 31
0.0
  0
LINE
  5
288
  8
DATA
  6
CONTINUOUS
 62
     7
 10
70.75
 20
10.0
 30
0.0
 11
96.75
 21
10.0
 31
0.0
  0
LINE
  5
289
  8
DATA
  6
CONTINUOUS
 62
     7
 10
-81.250000000000014
 20
-122.0
 30
0.0
 11
-81.250000000000014
 21
-150.0
 31
0.0
  0
LINE
  5
28A
  8
DATA
  6
CONTINUOUS
 62
     7
 10
43.749999999999993
 20
-122.0
 30
0.0
 11
43.749999999999993
 21
-150.0
 31
0.0
  0
LINE
  5
28B
  8
DATA
  6
CONTINUOUS
 62
     7
 10
-79.250000000000014
 20
-124.0
 30
0.0
 11
-79.250000000000014
 21
-148.0
 31
0.0
  0
LINE
  5
28C
  8
DATA
  6
CONTINUOUS
 62
     7
 10
41.749999999999993
 20
-124.0
 30
0.0
 11
41.749999999999993
 21
-148.0
 31
0.0
  0
LINE
  5
28D
  8
DATA
  6
CONTINUOUS
 62
     7
 10
-77.250000000000014
 20
-122.0
 30
0.0
 11
39.75
 21
-122.0
 31
0.0
  0
ARC
  5
28E
  8
DATA
  6
CONTINUOUS
 62
     7
 10
-79.250000000000014
 20
-122.0
 30
0.0
 40
2.0
 50
90.0
 51
180.0
  0
ARC
  5
28F
  8
DATA
  6
CONTINUOUS
 62
     7
 10
-77.250000000000014
 20
-124.0
 30
0.0
 40
2.0
 50
90.0
 51
180.0
  0
ARC
  5
290
  8
DATA
  6
CONTINUOUS
 62
     7
 10
41.749999999999993
 20
-122.0
 30
0.0
 40
2.0
 50
0.0
 51
90.0
  0
ARC
  5
291
  8
DATA
  6
CONTINUOUS
 62
     7
 10
39.75
 20
-124.0
 30
0.0
 40
2.0
 50
0.0
 51
90.0
  0
LINE
  5
292
  8
DATA
  6
CONTINUOUS
 62
     7
 10
-79.250000000000014
 20
-148.0
 30
0.0
 11
-79.250000000000014
 21
-150.0
 31
0.0
  0
LINE
  5
293
  8
DATA
  6
CONTINUOUS
 62
     7
 10
41.749999999999993
 20
-148.0
 30
0.0
 11
41.749999999999993
 21
-150.0
 31
0.0
  0
LINE
  5
294
  8
DATA
  6
CONTINUOUS
 62
     7
 10
-81.250000000000014
 20
-150.0
 30
0.0
 11
43.749999999999993
 21
-150.0
 31
0.0
  0
CIRCLE
  5
295
  8
DATA
  6
CONTINUOUS
 62
     7
 10
-21.154037941465461
 20
-137.02571564466871
 30
0.0
 40
1.175000000000096
  0
POLYLINE
  5
296
  8
DATA
  6
CONTINUOUS
 62
     7
 66
     1
 10
0.0
 20
0.0
 30
0.0
 70
     1
  0
VERTEX
  5
695
  8
DATA
  6
CONTINUOUS
 62
     7
 10
-21.154037941465461
 20
-134.3257156446688
 30
0.0
  0
VERTEX
  5
696
  8
DATA
  6
CONTINUOUS
 62
     7
 10
-23.49230653168339
 20
-135.6757156446688
 30
0.0
  0
VERTEX
  5
697
  8
DATA
  6
CONTINUOUS
 62
     7
 10
-23.49230653168339
 20
-138.37571564466879
 30
0.0
  0
VERTEX
  5
698
  8
DATA
  6
CONTINUOUS
 62
     7
 10
-21.154037941465461
 20
-139.72571564466881
 30
0.0
  0
VERTEX
  5
699
  8
DATA
  6
CONTINUOUS
 62
     7
 10
-18.81576935124728
 20
-138.37571564466879
 30
0.0
  0
VERTEX
  5
69A
  8
DATA
  6
CONTINUOUS
 62
     7
 10
-18.81576935124728
 20
-135.6757156446688
 30
0.0
  0
SEQEND
  5
69B
  8
DATA
  6
CONTINUOUS
 62
     7
  0
CIRCLE
  5
29F
  8
DATA
  6
CONTINUOUS
 62
     7
 10
11.34596205853428
 20
-137.02571564466871
 30
0.0
 40
1.175000000000068
  0
POLYLINE
  5
2A0
  8
DATA
  6
CONTINUOUS
 62
     7
 66
     1
 10
0.0
 20
0.0
 30
0.0
 70
     1
  0
VERTEX
  5
69C
  8
DATA
  6
CONTINUOUS
 62
     7
 10
11.34596205853428
 20
-134.3257156446688
 30
0.0
  0
VERTEX
  5
69D
  8
DATA
  6
CONTINUOUS
 62
     7
 10
9.0076934683163596
 20
-135.6757156446688
 30
0.0
  0
VERTEX
  5
69E
  8
DATA
  6
CONTINUOUS
 62
     7
 10
9.0076934683163596
 20
-138.37571564466879
 30
0.0
  0
VERTEX
  5
69F
  8
DATA
  6
CONTINUOUS
 62
     7
 10
11.34596205853428
 20
-139.72571564466881
 30
0.0
  0
VERTEX
  5
6A0
  8
DATA
  6
CONTINUOUS
 62
     7
 10
13.684230648752321
 20
-138.37571564466879
 30
0.0
  0
VERTEX
  5
6A1
  8
DATA
  6
CONTINUOUS
 62
     7
 10
13.684230648752321
 20
-135.6757156446688
 30
0.0
  0
SEQEND
  5
6A2
  8
DATA
  6
CONTINUOUS
 62
     7
  0
LINE
  5
2A9
  8
DATA
  6
CONTINUOUS
 62
     7
 10
-15.85394282865677
 20
-133.10071564466881
 30
0.0
 11
6.0458669457260887
 21
-133.10071564466881
 31
0.0
  0
LINE
  5
2AA
  8
DATA
  6
CONTINUOUS
 62
     7
 10
5.4869497482738163
 20
-140.9507156446688
 30
0.0
 11
-15.295025631204471
 21
-140.9507156446688
 31
0.0
  0
POLYLINE
  5
2AB
  8
DATA
  6
CONTINUOUS
 62
     7
 66
     1
 10
0.0
 20
0.0
 30
0.0
 70
     1
  0
VERTEX
  5
6A3
  8
DATA
  6
CONTINUOUS
 62
     7
 10
-15.904104112644269
 20
-136.26071564466869
 30
0.0
  0
VERTEX
  5
6A4
  8
DATA
  6
CONTINUOUS
 62
     7
 10
-14.37410411264425
 20
-136.26071564466869
 30
0.0
  0
VERTEX
  5
6A5
  8
DATA
  6
CONTINUOUS
 62
     7
 10
-14.37410411264425
 20
-137.79071564466881
 30
0.0
  0
VERTEX
  5
6A6
  8
DATA
  6
CONTINUOUS
 62
     7
 10
-15.904104112644269
 20
-137.79071564466881
 30
0.0
  0
SEQEND
  5
6A7
  8
DATA
  6
CONTINUOUS
 62
     7
  0
POLYLINE
  5
2B2
  8
DATA
  6
CONTINUOUS
 62
     7
 66
     1
 10
0.0
 20
0.0
 30
0.0
 70
     1
  0
VERTEX
  5
6A8
  8
DATA
  6
CONTINUOUS
 62
     7
 10
-13.90410411264425
 20
-136.26071564466869
 30
0.0
  0
VERTEX
  5
6A9
  8
DATA
  6
CONTINUOUS
 62
     7
 10
-12.3741041126443
 20
-136.26071564466869
 30
0.0
  0
VERTEX
  5
6AA
  8
DATA
  6
CONTINUOUS
 62
     7
 10
-12.3741041126443
 20
-137.79071564466881
 30
0.0
  0
VERTEX
  5
6AB
  8
DATA
  6
CONTINUOUS
 62
     7
 10
-13.90410411264425
 20
-137.79071564466881
 30
0.0
  0
SEQEND
  5
6AC
  8
DATA
  6
CONTINUOUS
 62
     7
  0
POLYLINE
  5
2B9
  8
DATA
  6
CONTINUOUS
 62
     7
 66
     1
 10
0.0
 20
0.0
 30
0.0
 70
     1
  0
VERTEX
  5
6AD
  8
DATA
  6
CONTINUOUS
 62
     7
 10
-11.90410411264445
 20
-136.26071564466869
 30
0.0
  0
VERTEX
  5
6AE
  8
DATA
  6
CONTINUOUS
 62
     7
 10
-10.37410411264487
 20
-136.26071564466869
 30
0.0
  0
VERTEX
  5
6AF
  8
DATA
  6
CONTINUOUS
 62
     7
 10
-10.37410411264487
 20
-137.79071564466881
 30
0.0
  0
VERTEX
  5
6B0
  8
DATA
  6
CONTINUOUS
 62
     7
 10
-11.90410411264445
 20
-137.79071564466881
 30
0.0
  0
SEQEND
  5
6B1
  8
DATA
  6
CONTINUOUS
 62
     7
  0
POLYLINE
  5
2C0
  8
DATA
  6
CONTINUOUS
 62
     7
 66
     1
 10
0.0
 20
0.0
 30
0.0
 70
     1
  0
VERTEX
  5
6B2
  8
DATA
  6
CONTINUOUS
 62
     7
 10
-9.9041041126449851
 20
-136.26071564466869
 30
0.0
  0
VERTEX
  5
6B3
  8
DATA
  6
CONTINUOUS
 62
     7
 10
-8.3741041126449982
 20
-136.26071564466869
 30
0.0
  0
VERTEX
  5
6B4
  8
DATA
  6
CONTINUOUS
 62
     7
 10
-8.3741041126449982
 20
-137.79071564466881
 30
0.0
  0
VERTEX
  5
6B5
  8
DATA
  6
CONTINUOUS
 62
     7
 10
-9.9041041126449851
 20
-137.79071564466881
 30
0.0
  0
SEQEND
  5
6B6
  8
DATA
  6
CONTINUOUS
 62
     7
  0
POLYLINE
  5
2C7
  8
DATA
  6
CONTINUOUS
 62
     7
 66
     1
 10
0.0
 20
0.0
 30
0.0
 70
     1
  0
VERTEX
  5
6B7
  8
DATA
  6
CONTINUOUS
 62
     7
 10
-7.904104112645002
 20
-136.26071564466869
 30
0.0
  0
VERTEX
  5
6B8
  8
DATA
  6
CONTINUOUS
 62
     7
 10
-6.3741041126449991
 20
-136.26071564466869
 30
0.0
  0
VERTEX
  5
6B9
  8
DATA
  6
CONTINUOUS
 62
     7
 10
-6.3741041126449991
 20
-137.79071564466881
 30
0.0
  0
VERTEX
  5
6BA
  8
DATA
  6
CONTINUOUS
 62
     7
 10
-7.904104112645002
 20
-137.79071564466881
 30
0.0
  0
SEQEND
  5
6BB
  8
DATA
  6
CONTINUOUS
 62
     7
  0
POLYLINE
  5
2CE
  8
DATA
  6
CONTINUOUS
 62
     7
 66
     1
 10
0.0
 20
0.0
 30
0.0
 70
     1
  0
VERTEX
  5
6BC
  8
DATA
  6
CONTINUOUS
 62
     7
 10
-5.9041041126450011
 20
-136.26071564466869
 30
0.0
  0
VERTEX
  5
6BD
  8
DATA
  6
CONTINUOUS
 62
     7
 10
-4.3741041126449991
 20
-136.26071564466869
 30
0.0
  0
VERTEX
  5
6BE
  8
DATA
  6
CONTINUOUS
 62
     7
 10
-4.3741041126449991
 20
-137.79071564466881
 30
0.0
  0
VERTEX
  5
6BF
  8
DATA
  6
CONTINUOUS
 62
     7
 10
-5.9041041126450011
 20
-137.79071564466881
 30
0.0
  0
SEQEND
  5
6C0
  8
DATA
  6
CONTINUOUS
 62
     7
  0
POLYLINE
  5
2D5
  8
DATA
  6
CONTINUOUS
 62
     7
 66
     1
 10
0.0
 20
0.0
 30
0.0
 70
     1
  0
VERTEX
  5
6C1
  8
DATA
  6
CONTINUOUS
 62
     7
 10
-3.9041041126449998
 20
-136.26071564466869
 30
0.0
  0
VERTEX
  5
6C2
  8
DATA
  6
CONTINUOUS
 62
     7
 10
-2.3741041126449991
 20
-136.26071564466869
 30
0.0
  0
VERTEX
  5
6C3
  8
DATA
  6
CONTINUOUS
 62
     7
 10
-2.3741041126449991
 20
-137.79071564466881
 30
0.0
  0
VERTEX
  5
6C4
  8
DATA
  6
CONTINUOUS
 62
     7
 10
-3.9041041126449998
 20
-137.79071564466881
 30
0.0
  0
SEQEND
  5
6C5
  8
DATA
  6
CONTINUOUS
 62
     7
  0
POLYLINE
  5
2DC
  8
DATA
  6
CONTINUOUS
 62
     7
 66
     1
 10
0.0
 20
0.0
 30
0.0
 70
     1
  0
VERTEX
  5
6C6
  8
DATA
  6
CONTINUOUS
 62
     7
 10
-1.904104112645
 20
-136.26071564466869
 30
0.0
  0
VERTEX
  5
6C7
  8
DATA
  6
CONTINUOUS
 62
     7
 10
-0.374104112645
 20
-136.26071564466869
 30
0.0
  0
VERTEX
  5
6C8
  8
DATA
  6
CONTINUOUS
 62
     7
 10
-0.374104112645
 20
-137.79071564466881
 30
0.0
  0
VERTEX
  5
6C9
  8
DATA
  6
CONTINUOUS
 62
     7
 10
-1.904104112645
 20
-137.79071564466881
 30
0.0
  0
SEQEND
  5
6CA
  8
DATA
  6
CONTINUOUS
 62
     7
  0
POLYLINE
  5
2E3
  8
DATA
  6
CONTINUOUS
 62
     7
 66
     1
 10
0.0
 20
0.0
 30
0.0
 70
     1
  0
VERTEX
  5
6CB
  8
DATA
  6
CONTINUOUS
 62
     7
 10
-15.904104112644269
 20
-134.26071564466869
 30
0.0
  0
VERTEX
  5
6CC
  8
DATA
  6
CONTINUOUS
 62
     7
 10
-14.37410411264425
 20
-134.26071564466869
 30
0.0
  0
VERTEX
  5
6CD
  8
DATA
  6
CONTINUOUS
 62
     7
 10
-14.37410411264425
 20
-135.79071564466881
 30
0.0
  0
VERTEX
  5
6CE
  8
DATA
  6
CONTINUOUS
 62
     7
 10
-15.904104112644269
 20
-135.79071564466881
 30
0.0
  0
SEQEND
  5
6CF
  8
DATA
  6
CONTINUOUS
 62
     7
  0
POLYLINE
  5
2EA
  8
DATA
  6
CONTINUOUS
 62
     7
 66
     1
 10
0.0
 20
0.0
 30
0.0
 70
     1
  0
VERTEX
  5
6D0
  8
DATA
  6
CONTINUOUS
 62
     7
 10
-13.90410411264425
 20
-134.26071564466869
 30
0.0
  0
VERTEX
  5
6D1
  8
DATA
  6
CONTINUOUS
 62
     7
 10
-12.3741041126443
 20
-134.26071564466869
 30
0.0
  0
VERTEX
  5
6D2
  8
DATA
  6
CONTINUOUS
 62
     7
 10
-12.3741041126443
 20
-135.79071564466881
 30
0.0
  0
VERTEX
  5
6D3
  8
DATA
  6
CONTINUOUS
 62
     7
 10
-13.90410411264425
 20
-135.79071564466881
 30
0.0
  0
SEQEND
  5
6D4
  8
DATA
  6
CONTINUOUS
 62
     7
  0
POLYLINE
  5
2F1
  8
DATA
  6
CONTINUOUS
 62
     7
 66
     1
 10
0.0
 20
0.0
 30
0.0
 70
     1
  0
VERTEX
  5
6D5
  8
DATA
  6
CONTINUOUS
 62
     7
 10
-11.90410411264445
 20
-134.26071564466869
 30
0.0
  0
VERTEX
  5
6D6
  8
DATA
  6
CONTINUOUS
 62
     7
 10
-10.37410411264487
 20
-134.26071564466869
 30
0.0
  0
VERTEX
  5
6D7
  8
DATA
  6
CONTINUOUS
 62
     7
 10
-10.37410411264487
 20
-135.79071564466881
 30
0.0
  0
VERTEX
  5
6D8
  8
DATA
  6
CONTINUOUS
 62
     7
 10
-11.90410411264445
 20
-135.79071564466881
 30
0.0
  0
SEQEND
  5
6D9
  8
DATA
  6
CONTINUOUS
 62
     7
  0
POLYLINE
  5
2F8
  8
DATA
  6
CONTINUOUS
 62
     7
 66
     1
 10
0.0
 20
0.0
 30
0.0
 70
     1
  0
VERTEX
  5
6DA
  8
DATA
  6
CONTINUOUS
 62
     7
 10
-9.9041041126449851
 20
-134.26071564466869
 30
0.0
  0
VERTEX
  5
6DB
  8
DATA
  6
CONTINUOUS
 62
     7
 10
-8.3741041126449982
 20
-134.26071564466869
 30
0.0
  0
VERTEX
  5
6DC
  8
DATA
  6
CONTINUOUS
 62
     7
 10
-8.3741041126449982
 20
-135.79071564466881
 30
0.0
  0
VERTEX
  5
6DD
  8
DATA
  6
CONTINUOUS
 62
     7
 10
-9.9041041126449851
 20
-135.79071564466881
 30
0.0
  0
SEQEND
  5
6DE
  8
DATA
  6
CONTINUOUS
 62
     7
  0
POLYLINE
  5
2FF
  8
DATA
  6
CONTINUOUS
 62
     7
 66
     1
 10
0.0
 20
0.0
 30
0.0
 70
     1
  0
VERTEX
  5
6DF
  8
DATA
  6
CONTINUOUS
 62
     7
 10
-7.904104112645002
 20
-134.26071564466869
 30
0.0
  0
VERTEX
  5
6E0
  8
DATA
  6
CONTINUOUS
 62
     7
 10
-6.3741041126449991
 20
-134.26071564466869
 30
0.0
  0
VERTEX
  5
6E1
  8
DATA
  6
CONTINUOUS
 62
     7
 10
-6.3741041126449991
 20
-135.79071564466881
 30
0.0
  0
VERTEX
  5
6E2
  8
DATA
  6
CONTINUOUS
 62
     7
 10
-7.904104112645002
 20
-135.79071564466881
 30
0.0
  0
SEQEND
  5
6E3
  8
DATA
  6
CONTINUOUS
 62
     7
  0
POLYLINE
  5
306
  8
DATA
  6
CONTINUOUS
 62
     7
 66
     1
 10
0.0
 20
0.0
 30
0.0
 70
     1
  0
VERTEX
  5
6E4
  8
DATA
  6
CONTINUOUS
 62
     7
 10
-5.9041041126450011
 20
-134.26071564466869
 30
0.0
  0
VERTEX
  5
6E5
  8
DATA
  6
CONTINUOUS
 62
     7
 10
-4.3741041126449991
 20
-134.26071564466869
 30
0.0
  0
VERTEX
  5
6E6
  8
DATA
  6
CONTINUOUS
 62
     7
 10
-4.3741041126449991
 20
-135.79071564466881
 30
0.0
  0
VERTEX
  5
6E7
  8
DATA
  6
CONTINUOUS
 62
     7
 10
-5.9041041126450011
 20
-135.79071564466881
 30
0.0
  0
SEQEND
  5
6E8
  8
DATA
  6
CONTINUOUS
 62
     7
  0
POLYLINE
  5
30D
  8
DATA
  6
CONTINUOUS
 62
     7
 66
     1
 10
0.0
 20
0.0
 30
0.0
 70
     1
  0
VERTEX
  5
6E9
  8
DATA
  6
CONTINUOUS
 62
     7
 10
-3.9041041126449998
 20
-134.26071564466869
 30
0.0
  0
VERTEX
  5
6EA
  8
DATA
  6
CONTINUOUS
 62
     7
 10
-2.3741041126449991
 20
-134.26071564466869
 30
0.0
  0
VERTEX
  5
6EB
  8
DATA
  6
CONTINUOUS
 62
     7
 10
-2.3741041126449991
 20
-135.79071564466881
 30
0.0
  0
VERTEX
  5
6EC
  8
DATA
  6
CONTINUOUS
 62
     7
 10
-3.9041041126449998
 20
-135.79071564466881
 30
0.0
  0
SEQEND
  5
6ED
  8
DATA
  6
CONTINUOUS
 62
     7
  0
POLYLINE
  5
314
  8
DATA
  6
CONTINUOUS
 62
     7
 66
     1
 10
0.0
 20
0.0
 30
0.0
 70
     1
  0
VERTEX
  5
6EE
  8
DATA
  6
CONTINUOUS
 62
     7
 10
-1.904104112645
 20
-134.26071564466869
 30
0.0
  0
VERTEX
  5
6EF
  8
DATA
  6
CONTINUOUS
 62
     7
 10
-0.374104112645
 20
-134.26071564466869
 30
0.0
  0
VERTEX
  5
6F0
  8
DATA
  6
CONTINUOUS
 62
     7
 10
-0.374104112645
 20
-135.79071564466881
 30
0.0
  0
VERTEX
  5
6F1
  8
DATA
  6
CONTINUOUS
 62
     7
 10
-1.904104112645
 20
-135.79071564466881
 30
0.0
  0
SEQEND
  5
6F2
  8
DATA
  6
CONTINUOUS
 62
     7
  0
POLYLINE
  5
31B
  8
DATA
  6
CONTINUOUS
 62
     7
 66
     1
 10
0.0
 20
0.0
 30
0.0
 70
     1
  0
VERTEX
  5
6F3
  8
DATA
  6
CONTINUOUS
 62
     7
 10
-15.904104112644269
 20
-138.26071564466869
 30
0.0
  0
VERTEX
  5
6F4
  8
DATA
  6
CONTINUOUS
 62
     7
 10
-14.37410411264425
 20
-138.26071564466869
 30
0.0
  0
VERTEX
  5
6F5
  8
DATA
  6
CONTINUOUS
 62
     7
 10
-14.37410411264425
 20
-139.79071564466881
 30
0.0
  0
VERTEX
  5
6F6
  8
DATA
  6
CONTINUOUS
 62
     7
 10
-15.904104112644269
 20
-139.79071564466881
 30
0.0
  0
SEQEND
  5
6F7
  8
DATA
  6
CONTINUOUS
 62
     7
  0
POLYLINE
  5
322
  8
DATA
  6
CONTINUOUS
 62
     7
 66
     1
 10
0.0
 20
0.0
 30
0.0
 70
     1
  0
VERTEX
  5
6F8
  8
DATA
  6
CONTINUOUS
 62
     7
 10
-13.90410411264425
 20
-138.26071564466869
 30
0.0
  0
VERTEX
  5
6F9
  8
DATA
  6
CONTINUOUS
 62
     7
 10
-12.3741041126443
 20
-138.26071564466869
 30
0.0
  0
VERTEX
  5
6FA
  8
DATA
  6
CONTINUOUS
 62
     7
 10
-12.3741041126443
 20
-139.79071564466881
 30
0.0
  0
VERTEX
  5
6FB
  8
DATA
  6
CONTINUOUS
 62
     7
 10
-13.90410411264425
 20
-139.79071564466881
 30
0.0
  0
SEQEND
  5
6FC
  8
DATA
  6
CONTINUOUS
 62
     7
  0
POLYLINE
  5
329
  8
DATA
  6
CONTINUOUS
 62
     7
 66
     1
 10
0.0
 20
0.0
 30
0.0
 70
     1
  0
VERTEX
  5
6FD
  8
DATA
  6
CONTINUOUS
 62
     7
 10
-11.90410411264445
 20
-138.26071564466869
 30
0.0
  0
VERTEX
  5
6FE
  8
DATA
  6
CONTINUOUS
 62
     7
 10
-10.37410411264487
 20
-138.26071564466869
 30
0.0
  0
VERTEX
  5
6FF
  8
DATA
  6
CONTINUOUS
 62
     7
 10
-10.37410411264487
 20
-139.79071564466881
 30
0.0
  0
VERTEX
  5
700
  8
DATA
  6
CONTINUOUS
 62
     7
 10
-11.90410411264445
 20
-139.79071564466881
 30
0.0
  0
SEQEND
  5
701
  8
DATA
  6
CONTINUOUS
 62
     7
  0
POLYLINE
  5
330
  8
DATA
  6
CONTINUOUS
 62
     7
 66
     1
 10
0.0
 20
0.0
 30
0.0
 70
     1
  0
VERTEX
  5
702
  8
DATA
  6
CONTINUOUS
 62
     7
 10
-9.9041041126449851
 20
-138.26071564466869
 30
0.0
  0
VERTEX
  5
703
  8
DATA
  6
CONTINUOUS
 62
     7
 10
-8.3741041126449982
 20
-138.26071564466869
 30
0.0
  0
VERTEX
  5
704
  8
DATA
  6
CONTINUOUS
 62
     7
 10
-8.3741041126449982
 20
-139.79071564466881
 30
0.0
  0
VERTEX
  5
705
  8
DATA
  6
CONTINUOUS
 62
     7
 10
-9.9041041126449851
 20
-139.79071564466881
 30
0.0
  0
SEQEND
  5
706
  8
DATA
  6
CONTINUOUS
 62
     7
  0
POLYLINE
  5
337
  8
DATA
  6
CONTINUOUS
 62
     7
 66
     1
 10
0.0
 20
0.0
 30
0.0
 70
     1
  0
VERTEX
  5
707
  8
DATA
  6
CONTINUOUS
 62
     7
 10
-7.904104112645002
 20
-138.26071564466869
 30
0.0
  0
VERTEX
  5
708
  8
DATA
  6
CONTINUOUS
 62
     7
 10
-6.3741041126449991
 20
-138.26071564466869
 30
0.0
  0
VERTEX
  5
709
  8
DATA
  6
CONTINUOUS
 62
     7
 10
-6.3741041126449991
 20
-139.79071564466881
 30
0.0
  0
VERTEX
  5
70A
  8
DATA
  6
CONTINUOUS
 62
     7
 10
-7.904104112645002
 20
-139.79071564466881
 30
0.0
  0
SEQEND
  5
70B
  8
DATA
  6
CONTINUOUS
 62
     7
  0
POLYLINE
  5
33E
  8
DATA
  6
CONTINUOUS
 62
     7
 66
     1
 10
0.0
 20
0.0
 30
0.0
 70
     1
  0
VERTEX
  5
70C
  8
DATA
  6
CONTINUOUS
 62
     7
 10
-5.9041041126450011
 20
-138.26071564466869
 30
0.0
  0
VERTEX
  5
70D
  8
DATA
  6
CONTINUOUS
 62
     7
 10
-4.3741041126449991
 20
-138.26071564466869
 30
0.0
  0
VERTEX
  5
70E
  8
DATA
  6
CONTINUOUS
 62
     7
 10
-4.3741041126449991
 20
-139.79071564466881
 30
0.0
  0
VERTEX
  5
70F
  8
DATA
  6
CONTINUOUS
 62
     7
 10
-5.9041041126450011
 20
-139.79071564466881
 30
0.0
  0
SEQEND
  5
710
  8
DATA
  6
CONTINUOUS
 62
     7
  0
POLYLINE
  5
345
  8
DATA
  6
CONTINUOUS
 62
     7
 66
     1
 10
0.0
 20
0.0
 30
0.0
 70
     1
  0
VERTEX
  5
711
  8
DATA
  6
CONTINUOUS
 62
     7
 10
-3.9041041126449998
 20
-138.26071564466869
 30
0.0
  0
VERTEX
  5
712
  8
DATA
  6
CONTINUOUS
 62
     7
 10
-2.3741041126449991
 20
-138.26071564466869
 30
0.0
  0
VERTEX
  5
713
  8
DATA
  6
CONTINUOUS
 62
     7
 10
-2.3741041126449991
 20
-139.79071564466881
 30
0.0
  0
VERTEX
  5
714
  8
DATA
  6
CONTINUOUS
 62
     7
 10
-3.9041041126449998
 20
-139.79071564466881
 30
0.0
  0
SEQEND
  5
715
  8
DATA
  6
CONTINUOUS
 62
     7
  0
POLYLINE
  5
34C
  8
DATA
  6
CONTINUOUS
 62
     7
 66
     1
 10
0.0
 20
0.0
 30
0.0
 70
     1
  0
VERTEX
  5
716
  8
DATA
  6
CONTINUOUS
 62
     7
 10
-1.904104112645
 20
-138.26071564466869
 30
0.0
  0
VERTEX
  5
717
  8
DATA
  6
CONTINUOUS
 62
     7
 10
-0.374104112645
 20
-138.26071564466869
 30
0.0
  0
VERTEX
  5
718
  8
DATA
  6
CONTINUOUS
 62
     7
 10
-0.374104112645
 20
-139.79071564466881
 30
0.0
  0
VERTEX
  5
719
  8
DATA
  6
CONTINUOUS
 62
     7
 10
-1.904104112645
 20
-139.79071564466881
 30
0.0
  0
SEQEND
  5
71A
  8
DATA
  6
CONTINUOUS
 62
     7
  0
POLYLINE
  5
353
  8
DATA
  6
CONTINUOUS
 62
     7
 66
     1
 10
0.0
 20
0.0
 30
0.0
  0
VERTEX
  5
71B
  8
DATA
  6
CONTINUOUS
 62
     7
 10
3.645962058534423
 20
-136.62571564466879
 30
0.0
  0
VERTEX
  5
71C
  8
DATA
  6
CONTINUOUS
 62
     7
 10
5.745962058534416
 20
-136.62571564466879
 30
0.0
  0
VERTEX
  5
71D
  8
DATA
  6
CONTINUOUS
 62
     7
 10
5.745962058534416
 20
-137.4257156446688
 30
0.0
  0
VERTEX
  5
71E
  8
DATA
  6
CONTINUOUS
 62
     7
 10
3.645962058534423
 20
-137.4257156446688
 30
0.0
  0
SEQEND
  5
71F
  8
DATA
  6
CONTINUOUS
 62
     7
  0
POLYLINE
  5
35A
  8
DATA
  6
CONTINUOUS
 62
     7
 66
     1
 10
0.0
 20
0.0
 30
0.0
  0
VERTEX
  5
720
  8
DATA
  6
CONTINUOUS
 62
     7
 10
2.8459620585344112
 20
-137.4257156446688
 30
0.0
  0
VERTEX
  5
721
  8
DATA
  6
CONTINUOUS
 62
     7
 10
0.7459620585344169
 20
-137.4257156446688
 30
0.0
  0
VERTEX
  5
722
  8
DATA
  6
CONTINUOUS
 62
     7
 10
0.7459620585344169
 20
-136.62571564466879
 30
0.0
  0
VERTEX
  5
723
  8
DATA
  6
CONTINUOUS
 62
     7
 10
2.8459620585344112
 20
-136.62571564466879
 30
0.0
  0
SEQEND
  5
724
  8
DATA
  6
CONTINUOUS
 62
     7
  0
POLYLINE
  5
361
  8
DATA
  6
CONTINUOUS
 62
     7
 66
     1
 10
0.0
 20
0.0
 30
0.0
  0
VERTEX
  5
725
  8
DATA
  6
CONTINUOUS
 62
     7
 10
3.645962058534423
 20
-137.4257156446688
 30
0.0
  0
VERTEX
  5
726
  8
DATA
  6
CONTINUOUS
 62
     7
 10
3.645962058534423
 20
-139.52571564466871
 30
0.0
  0
VERTEX
  5
727
  8
DATA
  6
CONTINUOUS
 62
     7
 10
2.8459620585344112
 20
-139.52571564466871
 30
0.0
  0
VERTEX
  5
728
  8
DATA
  6
CONTINUOUS
 62
     7
 10
2.8459620585344112
 20
-137.4257156446688
 30
0.0
  0
SEQEND
  5
729
  8
DATA
  6
CONTINUOUS
 62
     7
  0
POLYLINE
  5
368
  8
DATA
  6
CONTINUOUS
 62
     7
 66
     1
 10
0.0
 20
0.0
 30
0.0
  0
VERTEX
  5
72A
  8
DATA
  6
CONTINUOUS
 62
     7
 10
2.8459620585344112
 20
-136.62571564466879
 30
0.0
  0
VERTEX
  5
72B
  8
DATA
  6
CONTINUOUS
 62
     7
 10
2.8459620585344112
 20
-134.52571564466871
 30
0.0
  0
VERTEX
  5
72C
  8
DATA
  6
CONTINUOUS
 62
     7
 10
3.645962058534423
 20
-134.52571564466871
 30
0.0
  0
VERTEX
  5
72D
  8
DATA
  6
CONTINUOUS
 62
     7
 10
3.645962058534423
 20
-136.62571564466879
 30
0.0
  0
SEQEND
  5
72E
  8
DATA
  6
CONTINUOUS
 62
     7
  0
POLYLINE
  5
36F
  8
DATA
  6
CONTINUOUS
 62
     7
 66
     1
 10
0.0
 20
0.0
 30
0.0
 70
     1
  0
VERTEX
  5
72F
  8
DATA
  6
CONTINUOUS
 62
     7
 10
1.3856776280626939
 20
-135.2662878340189
 30
0.0
  0
VERTEX
  5
730
  8
DATA
  6
CONTINUOUS
 62
     7
 10
2.3856776280626941
 20
-135.2662878340189
 30
0.0
  0
VERTEX
  5
731
  8
DATA
  6
CONTINUOUS
 62
     7
 10
2.3856776280626941
 20
-136.2662878340189
 30
0.0
  0
VERTEX
  5
732
  8
DATA
  6
CONTINUOUS
 62
     7
 10
1.3856776280626939
 20
-136.2662878340189
 30
0.0
  0
SEQEND
  5
733
  8
DATA
  6
CONTINUOUS
 62
     7
  0
POLYLINE
  5
376
  8
DATA
  6
CONTINUOUS
 62
     7
 66
     1
 10
0.0
 20
0.0
 30
0.0
 70
     1
  0
VERTEX
  5
734
  8
DATA
  6
CONTINUOUS
 62
     7
 10
4.1062464890061392
 20
-135.2662878340189
 30
0.0
  0
VERTEX
  5
735
  8
DATA
  6
CONTINUOUS
 62
     7
 10
5.1062464890061392
 20
-135.2662878340189
 30
0.0
  0
VERTEX
  5
736
  8
DATA
  6
CONTINUOUS
 62
     7
 10
5.1062464890061392
 20
-136.2662878340189
 30
0.0
  0
VERTEX
  5
737
  8
DATA
  6
CONTINUOUS
 62
     7
 10
4.1062464890061392
 20
-136.2662878340189
 30
0.0
  0
SEQEND
  5
738
  8
DATA
  6
CONTINUOUS
 62
     7
  0
POLYLINE
  5
37D
  8
DATA
  6
CONTINUOUS
 62
     7
 66
     1
 10
0.0
 20
0.0
 30
0.0
 70
     1
  0
VERTEX
  5
739
  8
DATA
  6
CONTINUOUS
 62
     7
 10
1.3856776280626939
 20
-137.78514345531869
 30
0.0
  0
VERTEX
  5
73A
  8
DATA
  6
CONTINUOUS
 62
     7
 10
2.3856776280626941
 20
-137.78514345531869
 30
0.0
  0
VERTEX
  5
73B
  8
DATA
  6
CONTINUOUS
 62
     7
 10
2.3856776280626941
 20
-138.78514345531869
 30
0.0
  0
VERTEX
  5
73C
  8
DATA
  6
CONTINUOUS
 62
     7
 10
1.3856776280626939
 20
-138.78514345531869
 30
0.0
  0
SEQEND
  5
73D
  8
DATA
  6
CONTINUOUS
 62
     7
  0
POLYLINE
  5
384
  8
DATA
  6
CONTINUOUS
 62
     7
 66
     1
 10
0.0
 20
0.0
 30
0.0
 70
     1
  0
VERTEX
  5
73E
  8
DATA
  6
CONTINUOUS
 62
     7
 10
4.1062464890061392
 20
-137.78514345531869
 30
0.0
  0
VERTEX
  5
73F
  8
DATA
  6
CONTINUOUS
 62
     7
 10
5.1062464890061392
 20
-137.78514345531869
 30
0.0
  0
VERTEX
  5
740
  8
DATA
  6
CONTINUOUS
 62
     7
 10
5.1062464890061392
 20
-138.78514345531869
 30
0.0
  0
VERTEX
  5
741
  8
DATA
  6
CONTINUOUS
 62
     7
 10
4.1062464890061392
 20
-138.78514345531869
 30
0.0
  0
SEQEND
  5
742
  8
DATA
  6
CONTINUOUS
 62
     7
  0
LINE
  5
38B
  8
DATA
  6
CONTINUOUS
 62
     7
 10
-16.849409759412239
 20
-134.19582395015499
 30
0.0
 11
-16.290492561959908
 21
-140.04582395015501
 31
0.0
  0
LINE
  5
38C
  8
DATA
  6
CONTINUOUS
 62
     7
 10
7.0413338764814881
 20
-134.19582395015499
 30
0.0
 11
6.482416679029213
 21
-140.0458239501549
 31
0.0
  0
ARC
  5
38D
  8
DATA
  6
CONTINUOUS
 62
     7
 10
-15.85394282865677
 20
-134.10071564466881
 30
0.0
 40
0.9999999999999431
 50
90.0
 51
185.45755348510701
  0
ARC
  5
38E
  8
DATA
  6
CONTINUOUS
 62
     7
 10
6.0458669457261172
 20
-134.10071564466881
 30
0.0
 40
0.9999999999999844
 50
354.54244651489557
 51
90.000000000001606
  0
ARC
  5
38F
  8
DATA
  6
CONTINUOUS
 62
     7
 10
-15.295025631204441
 20
-139.9507156446688
 30
0.0
 40
1.0000000000000879
 50
185.45755348510701
 51
269.99999999999841
  0
ARC
  5
390
  8
DATA
  6
CONTINUOUS
 62
     7
 10
5.4869497482738163
 20
-139.9507156446688
 30
0.0
 40
1.0
 50
270.0
 51
354.5424465148958
  0
TEXT
  5
391
  8
DATA
 62
     7
 10
-12.289610212397649
 20
-146.3102748823344
 30
0.0
 40
2.4432617187500001
  1
DVI Out 
 41
0.7
 11
-12.289610212397649
 21
-143.8670131635844
 31
0.0
 73
     3
  0
CIRCLE
  5
392
  8
DATA
  6
CONTINUOUS
 62
     7
 10
31.87104516503209
 20
-133.0
 30
0.0
 40
3.9000000000000048
  0
CIRCLE
  5
393
  8
DATA
  6
CONTINUOUS
 62
     7
 10
31.87104516503209
 20
-133.0
 30
0.0
 40
1.0
  0
POLYLINE
  5
394
  8
DATA
  6
CONTINUOUS
 62
     7
 66
     1
 10
0.0
 20
0.0
 30
0.0
 70
     1
  0
VERTEX
  5
743
  8
DATA
  6
CONTINUOUS
 62
     7
 10
29.171932656570601
 20
-128.32499999999999
 30
0.0
  0
VERTEX
  5
744
  8
DATA
  6
CONTINUOUS
 62
     7
 10
26.472820148109069
 20
-133.0
 30
0.0
  0
VERTEX
  5
745
  8
DATA
  6
CONTINUOUS
 62
     7
 10
29.171932656570601
 20
-137.67500000000001
 30
0.0
  0
VERTEX
  5
746
  8
DATA
  6
CONTINUOUS
 62
     7
 10
34.570157673493583
 20
-137.67500000000001
 30
0.0
  0
VERTEX
  5
747
  8
DATA
  6
CONTINUOUS
 62
     7
 10
37.269270181955108
 20
-133.0
 30
0.0
  0
VERTEX
  5
748
  8
DATA
  6
CONTINUOUS
 62
     7
 10
34.570157673493583
 20
-128.32499999999999
 30
0.0
  0
SEQEND
  5
749
  8
DATA
  6
CONTINUOUS
 62
     7
  0
TEXT
  5
39D
  8
DATA
 62
     7
 10
29.14245539059457
 20
-146.92011076914571
 30
0.0
 40
1.954609375
  1
5V DC 
 41
0.7
 11
29.14245539059457
 21
-144.96550139414569
 31
0.0
 73
     3
  0
CIRCLE
  5
39E
  8
DATA
  6
CONTINUOUS
 62
     7
 10
21.73335112053557
 20
-136.0
 30
0.0
 40
1.449999999999988
  0
TEXT
  5
39F
  8
DATA
 62
     7
 10
18.713442636391861
 20
-147.0172183089949
 30
0.0
 40
1.954609375
  1
Power 
 41
0.7
 11
18.713442636391861
 21
-145.06260893399491
 31
0.0
 73
     3
  0
ARC
  5
3A0
  8
DATA
  6
CONTINUOUS
 62
     7
 10
21.79284644134875
 20
-74.273904648911738
 30
0.0
 40
1.449999999999978
 50
210.04999042122461
 51
329.95000957877539
  0
LINE
  5
3A1
  8
DATA
  6
CONTINUOUS
 62
     7
 10
27.77217746329196
 20
-76.5
 30
0.0
 11
27.77217746329196
 21
-81.0
 31
0.0
  0
LINE
  5
3A2
  8
DATA
  6
CONTINUOUS
 62
     7
 10
35.572177463291972
 20
-76.5
 30
0.0
 11
35.572177463291972
 21
-81.0
 31
0.0
  0
LINE
  5
3A3
  8
DATA
  6
CONTINUOUS
 62
     7
 10
27.77217746329196
 20
-81.0
 30
0.0
 11
35.572177463291972
 21
-81.0
 31
0.0
  0
LINE
  5
3A4
  8
DATA
  6
CONTINUOUS
 62
     7
 10
26.273952446368941
 20
-75.0
 30
0.0
 11
26.273952446368941
 21
-76.5
 31
0.0
  0
LINE
  5
3A5
  8
DATA
  6
CONTINUOUS
 62
     7
 10
37.07040248021498
 20
-75.0
 30
0.0
 11
37.07040248021498
 21
-76.5
 31
0.0
  0
LINE
  5
3A6
  8
DATA
  6
CONTINUOUS
 62
     7
 10
26.273952446368941
 20
-76.5
 30
0.0
 11
37.07040248021498
 21
-76.5
 31
0.0
  0
LINE
  5
3A7
  8
DATA
  6
CONTINUOUS
 62
     7
 10
-17.067073424526431
 20
-80.0
 30
0.0
 11
6.7864323365825774
 21
-80.0
 31
0.0
  0
LINE
  5
3A8
  8
DATA
  6
CONTINUOUS
 62
     7
 10
-23.72858913418904
 20
-75.0
 30
0.0
 11
-23.72858913418904
 21
-79.5
 31
0.0
  0
LINE
  5
3A9
  8
DATA
  6
CONTINUOUS
 62
     7
 10
-19.05205195375293
 20
-75.0
 30
0.0
 11
-19.05205195375293
 21
-79.5
 31
0.0
  0
LINE
  5
3AA
  8
DATA
  6
CONTINUOUS
 62
     7
 10
8.7714108658107062
 20
-75.0
 30
0.0
 11
8.7714108658107062
 21
-79.5
 31
0.0
  0
LINE
  5
3AB
  8
DATA
  6
CONTINUOUS
 62
     7
 10
13.44794804624666
 20
-75.0
 30
0.0
 11
13.44794804624666
 21
-79.5
 31
0.0
  0
LINE
  5
3AC
  8
DATA
  6
CONTINUOUS
 62
     7
 10
-17.067073424526431
 20
-75.0
 30
0.0
 11
-17.067073424526431
 21
-80.0
 31
0.0
  0
LINE
  5
3AD
  8
DATA
  6
CONTINUOUS
 62
     7
 10
6.7864323365825774
 20
-75.0
 30
0.0
 11
6.7864323365825774
 21
-80.0
 31
0.0
  0
LINE
  5
3AE
  8
DATA
  6
CONTINUOUS
 62
     7
 10
-23.72858913418904
 20
-79.5
 30
0.0
 11
-19.05205195375293
 21
-79.5
 31
0.0
  0
LINE
  5
3AF
  8
DATA
  6
CONTINUOUS
 62
     7
 10
8.7714108658107062
 20
-79.5
 30
0.0
 11
13.44794804624666
 21
-79.5
 31
0.0
  0
LINE
  5
3B0
  8
DATA
  6
CONTINUOUS
 62
     7
 10
-73.750000000000014
 20
-153.0
 30
0.0
 11
-74.399999999999963
 21
-150.0
 31
0.0
  0
LINE
  5
3B1
  8
DATA
  6
CONTINUOUS
 62
     7
 10
-67.750000000000014
 20
-153.0
 30
0.0
 11
-67.100000000000037
 21
-150.0
 31
0.0
  0
LINE
  5
3B2
  8
DATA
  6
CONTINUOUS
 62
     7
 10
-73.750000000000014
 20
-153.0
 30
0.0
 11
-67.750000000000014
 21
-153.0
 31
0.0
  0
LINE
  5
3B3
  8
DATA
  6
CONTINUOUS
 62
     7
 10
36.25
 20
-153.0
 30
0.0
 11
36.899999999999963
 21
-150.0
 31
0.0
  0
LINE
  5
3B4
  8
DATA
  6
CONTINUOUS
 62
     7
 10
30.249999999999989
 20
-153.0
 30
0.0
 11
29.600000000000009
 21
-150.0
 31
0.0
  0
LINE
  5
3B5
  8
DATA
  6
CONTINUOUS
 62
     7
 10
36.25
 20
-153.0
 30
0.0
 11
30.249999999999989
 21
-153.0
 31
0.0
  0
LINE
  5
3B6
  8
DATA
  6
CONTINUOUS
 62
     7
 10
-79.250000000000014
 20
25.000000000198892
 30
0.0
 11
41.749999999999993
 21
25.000000000198892
 31
0.0
  0
LINE
  5
3B7
  8
DATA
  6
CONTINUOUS
 62
     7
 10
-81.250000000000014
 20
27.000000000198892
 30
0.0
 11
-81.250000000000014
 21
55.000000000198888
 31
0.0
  0
LINE
  5
3B8
  8
DATA
  6
CONTINUOUS
 62
     7
 10
43.749999999999993
 20
27.000000000198892
 30
0.0
 11
43.749999999999993
 21
55.000000000198888
 31
0.0
  0
ARC
  5
3B9
  8
DATA
  6
CONTINUOUS
 62
     7
 10
-79.250000000000014
 20
27.000000000198892
 30
0.0
 40
2.0
 50
180.0
 51
270.0
  0
ARC
  5
3BA
  8
DATA
  6
CONTINUOUS
 62
     7
 10
41.749999999999993
 20
27.000000000198892
 30
0.0
 40
2.0
 50
270.0
 51
0.0
  0
LINE
  5
3BB
  8
DATA
  6
CONTINUOUS
 62
     7
 10
-81.250000000000014
 20
55.000000000198888
 30
0.0
 11
43.749999999999993
 21
55.000000000198888
 31
0.0
  0
LINE
  5
3BC
  8
DATA
  6
CONTINUOUS
 62
     7
 10
-73.750000000000014
 20
58.000000000198888
 30
0.0
 11
-74.399999999999963
 21
55.000000000198888
 31
0.0
  0
LINE
  5
3BD
  8
DATA
  6
CONTINUOUS
 62
     7
 10
-67.750000000000014
 20
58.000000000198888
 30
0.0
 11
-67.100000000000037
 21
55.000000000198888
 31
0.0
  0
LINE
  5
3BE
  8
DATA
  6
CONTINUOUS
 62
     7
 10
-73.750000000000014
 20
58.000000000198888
 30
0.0
 11
-67.750000000000014
 21
58.000000000198888
 31
0.0
  0
LINE
  5
3BF
  8
DATA
  6
CONTINUOUS
 62
     7
 10
36.25
 20
58.000000000198888
 30
0.0
 11
36.899999999999963
 21
55.000000000198888
 31
0.0
  0
LINE
  5
3C0
  8
DATA
  6
CONTINUOUS
 62
     7
 10
30.249999999999989
 20
58.000000000198888
 30
0.0
 11
29.600000000000009
 21
55.000000000198888
 31
0.0
  0
LINE
  5
3C1
  8
DATA
  6
CONTINUOUS
 62
     7
 10
36.25
 20
58.000000000198888
 30
0.0
 11
30.249999999999989
 21
58.000000000198888
 31
0.0
  0
LINE
  5
3C2
  8
DATA
  6
CONTINUOUS
 62
     7
 10
8.4420731809686345
 20
47.004058314072132
 30
0.0
 11
8.4420731809686345
 21
33.704058314072107
 31
0.0
  0
LINE
  5
3C3
  8
DATA
  6
CONTINUOUS
 62
     7
 10
-7.257926819031411
 20
47.004058314072132
 30
0.0
 11
-7.257926819031411
 21
33.704058314072107
 31
0.0
  0
LINE
  5
3C4
  8
DATA
  6
CONTINUOUS
 62
     7
 10
-7.257926819031411
 20
33.704058314072107
 30
0.0
 11
8.4420731809686345
 21
33.704058314072107
 31
0.0
  0
LINE
  5
3C5
  8
DATA
  6
CONTINUOUS
 62
     7
 10
-7.257926819031411
 20
47.004058314072132
 30
0.0
 11
8.4420731809686345
 21
47.004058314072132
 31
0.0
  0
LINE
  5
3C6
  8
DATA
  6
CONTINUOUS
 62
     7
 10
-5.5579268190313647
 20
44.004058314072132
 30
0.0
 11
6.7420731809685881
 21
44.004058314072132
 31
0.0
  0
LINE
  5
3C7
  8
DATA
  6
CONTINUOUS
 62
     7
 10
-5.5579268190313647
 20
44.004058314072132
 30
0.0
 11
-5.5579268190313647
 21
36.704058314072107
 31
0.0
  0
LINE
  5
3C8
  8
DATA
  6
CONTINUOUS
 62
     7
 10
6.7420731809685881
 20
44.004058314072132
 30
0.0
 11
6.7420731809685881
 21
36.704058314072107
 31
0.0
  0
LINE
  5
3C9
  8
DATA
  6
CONTINUOUS
 62
     7
 10
-1.6329268190314099
 20
33.704058314072107
 30
0.0
 11
-1.6329268190314099
 21
35.204058314072121
 31
0.0
  0
LINE
  5
3CA
  8
DATA
  6
CONTINUOUS
 62
     7
 10
2.817073180968634
 20
35.204058314072121
 30
0.0
 11
2.817073180968634
 21
33.704058314072107
 31
0.0
  0
LINE
  5
3CB
  8
DATA
  6
CONTINUOUS
 62
     7
 10
-2.757926819031411
 20
35.204058314072121
 30
0.0
 11
-1.6329268190314099
 21
35.204058314072121
 31
0.0
  0
LINE
  5
3CC
  8
DATA
  6
CONTINUOUS
 62
     7
 10
2.817073180968634
 20
35.204058314072121
 30
0.0
 11
3.942073180968634
 21
35.204058314072121
 31
0.0
  0
LINE
  5
3CD
  8
DATA
  6
CONTINUOUS
 62
     7
 10
-5.5579268190313647
 20
36.704058314072107
 30
0.0
 11
-2.757926819031411
 21
36.704058314072107
 31
0.0
  0
LINE
  5
3CE
  8
DATA
  6
CONTINUOUS
 62
     7
 10
3.942073180968634
 20
36.704058314072107
 30
0.0
 11
6.7420731809685881
 21
36.704058314072107
 31
0.0
  0
LINE
  5
3CF
  8
DATA
  6
CONTINUOUS
 62
     7
 10
-2.757926819031411
 20
35.204058314072121
 30
0.0
 11
-2.757926819031411
 21
36.704058314072107
 31
0.0
  0
LINE
  5
3D0
  8
DATA
  6
CONTINUOUS
 62
     7
 10
3.942073180968634
 20
36.704058314072107
 30
0.0
 11
3.942073180968634
 21
35.204058314072121
 31
0.0
  0
TEXT
  5
3D1
  8
DATA
 62
     7
 10
-37.8101898622905
 20
51.640465808620803
 30
0.0
 40
1.954609375
  1
LINK
 50
180.0
 41
0.7
 11
-37.8101898622905
 21
49.685856433620799
 31
0.0
 73
     3
  0
TEXT
  5
3D2
  8
DATA
 62
     7
 10
-13.195464785906561
 20
-61.215107522720473
 30
0.0
 40
5.7009440104166647
  1
DVI RS232 ELR  
 41
0.7
 11
-13.195464785906561
 21
-55.51416351230381
 31
0.0
 73
     3
  0
CIRCLE
  5
3D3
  8
DATA
  6
CONTINUOUS
 62
     7
 10
91.75
 20
-7.5
 30
0.0
 40
2.5
  0
LINE
  5
3D4
  8
DATA
  6
CONTINUOUS
 62
     7
 10
90.368081044344507
 20
-7.5
 30
0.0
 11
93.131918955655479
 21
-7.5
 31
0.0
  0
LINE
  5
3D5
  8
DATA
  6
CONTINUOUS
 62
     7
 10
91.75
 20
-8.8819189556554932
 30
0.0
 11
91.75
 21
-6.1180810443445059
 31
0.0
  0
LINE
  5
3D6
  8
DATA
  6
CONTINUOUS
 62
     7
 10
101.7499999997594
 20
-4.8932611495028757
 30
0.0
 11
98.74999999975941
 21
-4.2432611495028993
 31
0.0
  0
LINE
  5
3D7
  8
DATA
  6
CONTINUOUS
 62
     7
 10
101.7499999997594
 20
-10.89326114950287
 30
0.0
 11
98.74999999975941
 21
-11.54326114950285
 31
0.0
  0
LINE
  5
3D8
  8
DATA
  6
CONTINUOUS
 62
     7
 10
101.7499999997594
 20
-4.8932611495028757
 30
0.0
 11
101.7499999997594
 21
-10.89326114950287
 31
0.0
  0
LINE
  5
3D9
  8
DATA
  6
CONTINUOUS
 62
     7
 10
101.7499999997594
 20
-69.989679569957545
 30
0.0
 11
98.74999999975941
 21
-70.639679569957536
 31
0.0
  0
LINE
  5
3DA
  8
DATA
  6
CONTINUOUS
 62
     7
 10
101.7499999997594
 20
-63.989679569957559
 30
0.0
 11
98.74999999975941
 21
-63.339679569957582
 31
0.0
  0
LINE
  5
3DB
  8
DATA
  6
CONTINUOUS
 62
     7
 10
101.7499999997594
 20
-69.989679569957545
 30
0.0
 11
101.7499999997594
 21
-63.989679569957559
 31
0.0
  0
LINE
  5
3DC
  8
DATA
  6
CONTINUOUS
 62
     7
 10
80.337782457019259
 20
-80.0
 30
0.0
 11
88.187782457019253
 21
-80.0
 31
0.0
  0
LINE
  5
3DD
  8
DATA
  6
CONTINUOUS
 62
     7
 10
81.562782457019281
 20
-75.0
 30
0.0
 11
81.562782457019281
 21
-79.5
 31
0.0
  0
LINE
  5
3DE
  8
DATA
  6
CONTINUOUS
 62
     7
 10
86.962782457019244
 20
-75.0
 30
0.0
 11
86.962782457019244
 21
-79.5
 31
0.0
  0
LINE
  5
3DF
  8
DATA
  6
CONTINUOUS
 62
     7
 10
81.562782457019281
 20
-79.5
 30
0.0
 11
86.962782457019244
 21
-79.5
 31
0.0
  0
LINE
  5
3E0
  8
DATA
  6
CONTINUOUS
 62
     7
 10
80.337782457019259
 20
-75.0
 30
0.0
 11
80.337782457019259
 21
-80.0
 31
0.0
  0
LINE
  5
3E1
  8
DATA
  6
CONTINUOUS
 62
     7
 10
88.187782457019253
 20
-75.0
 30
0.0
 11
88.187782457019253
 21
-80.0
 31
0.0
  0
LINE
  5
3E2
  8
DATA
  6
CONTINUOUS
 62
     7
 10
77.88598699281701
 20
-76.500000000299991
 30
0.0
 11
77.88598699281701
 21
-81.000000000299977
 31
0.0
  0
LINE
  5
3E3
  8
DATA
  6
CONTINUOUS
 62
     7
 10
85.685986992817007
 20
-80.0
 30
0.0
 11
85.685986992817007
 21
-81.000000000299977
 31
0.0
  0
LINE
  5
3E4
  8
DATA
  6
CONTINUOUS
 62
     7
 10
77.88598699281701
 20
-81.000000000299977
 30
0.0
 11
85.685986992817007
 21
-81.000000000299977
 31
0.0
  0
LINE
  5
3E5
  8
DATA
  6
CONTINUOUS
 62
     7
 10
76.38776197589398
 20
-75.000000000299991
 30
0.0
 11
76.38776197589398
 21
-76.500000000299991
 31
0.0
  0
LINE
  5
3E6
  8
DATA
  6
CONTINUOUS
 62
     7
 10
76.38776197589398
 20
-76.500000000299991
 30
0.0
 11
80.337782457019259
 21
-76.500000000299991
 31
0.0
  0
TEXT
  5
3E7
  8
DATA
 62
     7
 10
88.287821661396009
 20
-141.17657353694071
 30
0.0
 40
8.1442057291666661
  1
EXT-DVI-CAT5-ELRR
 41
0.7
 11
88.287821661396009
 21
-133.03236780777399
 31
0.0
 73
     3
  0
TEXT
  5
3E8
  8
DATA
 62
     7
 10
102.85297014829089
 20
-152.3540821363554
 30
0.0
 40
8.1442057291666661
  1
(レシーバー)
 41
0.7
 11
102.85297014829089
 21
-144.2098764071888
 31
0.0
 73
     3
  0
TEXT
  5
3E9
  8
DATA
 62
     7
 10
-1.8362761425796641
 20
-69.596343686095267
 30
0.0
 40
5.7009440104166647
  1
Extender R
 41
0.7
 11
-1.836276142579663
 21
-63.89539967567859
 31
0.0
 73
     3
  0
CIRCLE
  5
3EA
  8
DATA
  6
CONTINUOUS
 62
     7
 10
-36.138064312815189
 20
-137.0277000249325
 30
0.0
 40
1.1750000000000109
  0
POLYLINE
  5
3EB
  8
DATA
  6
CONTINUOUS
 62
     7
 66
     1
 10
0.0
 20
0.0
 30
0.0
 70
     1
  0
VERTEX
  5
74A
  8
DATA
  6
CONTINUOUS
 62
     7
 10
-36.138064312815189
 20
-134.32770002493271
 30
0.0
  0
VERTEX
  5
74B
  8
DATA
  6
CONTINUOUS
 62
     7
 10
-38.47633290303294
 20
-135.67770002493259
 30
0.0
  0
VERTEX
  5
74C
  8
DATA
  6
CONTINUOUS
 62
     7
 10
-38.47633290303294
 20
-138.3777000249323
 30
0.0
  0
VERTEX
  5
74D
  8
DATA
  6
CONTINUOUS
 62
     7
 10
-36.138064312815189
 20
-139.7277000249322
 30
0.0
  0
VERTEX
  5
74E
  8
DATA
  6
CONTINUOUS
 62
     7
 10
-33.79979572259721
 20
-138.3777000249323
 30
0.0
  0
VERTEX
  5
74F
  8
DATA
  6
CONTINUOUS
 62
     7
 10
-33.79979572259721
 20
-135.67770002493259
 30
0.0
  0
SEQEND
  5
750
  8
DATA
  6
CONTINUOUS
 62
     7
  0
CIRCLE
  5
3F4
  8
DATA
  6
CONTINUOUS
 62
     7
 10
-61.138064312815239
 20
-137.0277000249325
 30
0.0
 40
1.175000000000068
  0
POLYLINE
  5
3F5
  8
DATA
  6
CONTINUOUS
 62
     7
 66
     1
 10
0.0
 20
0.0
 30
0.0
 70
     1
  0
VERTEX
  5
751
  8
DATA
  6
CONTINUOUS
 62
     7
 10
-61.138064312815239
 20
-134.32770002493271
 30
0.0
  0
VERTEX
  5
752
  8
DATA
  6
CONTINUOUS
 62
     7
 10
-63.476332903033132
 20
-135.67770002493259
 30
0.0
  0
VERTEX
  5
753
  8
DATA
  6
CONTINUOUS
 62
     7
 10
-63.476332903033132
 20
-138.3777000249323
 30
0.0
  0
VERTEX
  5
754
  8
DATA
  6
CONTINUOUS
 62
     7
 10
-61.138064312815239
 20
-139.7277000249322
 30
0.0
  0
VERTEX
  5
755
  8
DATA
  6
CONTINUOUS
 62
     7
 10
-58.79979572259721
 20
-138.3777000249323
 30
0.0
  0
VERTEX
  5
756
  8
DATA
  6
CONTINUOUS
 62
     7
 10
-58.79979572259721
 20
-135.67770002493259
 30
0.0
  0
SEQEND
  5
757
  8
DATA
  6
CONTINUOUS
 62
     7
  0
LINE
  5
3FE
  8
DATA
  6
CONTINUOUS
 62
     7
 10
-43.036301102626467
 20
-141.02770002493239
 30
0.0
 11
-54.239827523003683
 21
-141.02770002493239
 31
0.0
  0
LINE
  5
3FF
  8
DATA
  6
CONTINUOUS
 62
     7
 10
-55.052327523003569
 20
-133.0277000249327
 30
0.0
 11
-42.223801102626467
 21
-133.0277000249327
 31
0.0
  0
LINE
  5
400
  8
DATA
  6
CONTINUOUS
 62
     7
 10
-55.623044370255251
 20
-139.8438276573153
 30
0.0
 11
-56.435544370255137
 21
-134.64382765731571
 31
0.0
  0
LINE
  5
401
  8
DATA
  6
CONTINUOUS
 62
     7
 10
-40.840584255374907
 20
-134.64382765731571
 30
0.0
 11
-41.653084255374907
 21
-139.8438276573153
 31
0.0
  0
CIRCLE
  5
402
  8
DATA
  6
CONTINUOUS
 62
     7
 10
-48.664694083290001
 20
-135.391391853779
 30
0.0
 40
0.5
  0
ARC
  5
403
  8
DATA
  6
CONTINUOUS
 62
     7
 10
-55.052327523003569
 20
-134.42770002493259
 30
0.0
 40
1.399999999999977
 50
90.0
 51
188.88065915052059
  0
ARC
  5
404
  8
DATA
  6
CONTINUOUS
 62
     7
 10
-42.223801102626467
 20
-134.42770002493259
 30
0.0
 40
1.400000000000019
 50
351.11934084947939
 51
90.0
  0
ARC
  5
405
  8
DATA
  6
CONTINUOUS
 62
     7
 10
-54.239827523003683
 20
-139.62770002493221
 30
0.0
 40
1.4000000000000281
 50
188.88065915052289
 51
270.0
  0
ARC
  5
406
  8
DATA
  6
CONTINUOUS
 62
     7
 10
-43.036301102626467
 20
-139.62770002493221
 30
0.0
 40
1.4000000000001469
 50
270.0
 51
351.11934084947723
  0
CIRCLE
  5
407
  8
DATA
  6
CONTINUOUS
 62
     7
 10
-51.164694083290001
 20
-135.391391853779
 30
0.0
 40
0.5
  0
CIRCLE
  5
408
  8
DATA
  6
CONTINUOUS
 62
     7
 10
-53.664694083290001
 20
-135.391391853779
 30
0.0
 40
0.5
  0
CIRCLE
  5
409
  8
DATA
  6
CONTINUOUS
 62
     7
 10
-46.164694083290001
 20
-135.391391853779
 30
0.0
 40
0.5
  0
CIRCLE
  5
40A
  8
DATA
  6
CONTINUOUS
 62
     7
 10
-43.664694083290001
 20
-135.391391853779
 30
0.0
 40
0.5
  0
CIRCLE
  5
40B
  8
DATA
  6
CONTINUOUS
 62
     7
 10
-49.860205259361251
 20
-139.00991227254119
 30
0.0
 40
0.5
  0
CIRCLE
  5
40C
  8
DATA
  6
CONTINUOUS
 62
     7
 10
-52.360205259361251
 20
-139.00991227254119
 30
0.0
 40
0.5
  0
CIRCLE
  5
40D
  8
DATA
  6
CONTINUOUS
 62
     7
 10
-47.360205259361251
 20
-139.00991227254119
 30
0.0
 40
0.5
  0
CIRCLE
  5
40E
  8
DATA
  6
CONTINUOUS
 62
     7
 10
-44.860205259361251
 20
-139.00991227254119
 30
0.0
 40
0.5
  0
TEXT
  5
40F
  8
DATA
 62
     7
 10
-57.393642369341393
 20
-146.7654555941071
 30
0.0
 40
2.4432617187500001
  1
RS-232 Out
 41
0.7
 11
-57.393642369341393
 21
-144.3221938753571
 31
0.0
 73
     3
  0
LINE
  5
410
  8
DATA
  6
CONTINUOUS
 62
     7
 10
-56.453263346793399
 20
-79.999999999999915
 30
0.0
 11
-56.453263346793399
 21
-75.0
 31
0.0
  0
LINE
  5
411
  8
DATA
  6
CONTINUOUS
 62
     7
 10
-40.843124540006677
 20
-79.999999999999915
 30
0.0
 11
-40.843124540006677
 21
-75.0
 31
0.0
  0
LINE
  5
412
  8
DATA
  6
CONTINUOUS
 62
     7
 10
-63.495643151478042
 20
-79.999999999999915
 30
0.0
 11
-63.495643151478042
 21
-75.0
 31
0.0
  0
LINE
  5
413
  8
DATA
  6
CONTINUOUS
 62
     7
 10
-58.819105971042262
 20
-79.999999999999915
 30
0.0
 11
-58.819105971042262
 21
-75.0
 31
0.0
  0
LINE
  5
414
  8
DATA
  6
CONTINUOUS
 62
     7
 10
-38.495643151478042
 20
-79.999999999999915
 30
0.0
 11
-38.495643151478042
 21
-75.0
 31
0.0
  0
LINE
  5
415
  8
DATA
  6
CONTINUOUS
 62
     7
 10
-33.765573018296557
 20
-79.999999999999915
 30
0.0
 11
-33.765573018296557
 21
-75.0
 31
0.0
  0
LINE
  5
416
  8
DATA
  6
CONTINUOUS
 62
     7
 10
-63.495643151478042
 20
-79.999999999999915
 30
0.0
 11
-58.819105971042262
 21
-79.999999999999915
 31
0.0
  0
LINE
  5
417
  8
DATA
  6
CONTINUOUS
 62
     7
 10
-56.453263346793399
 20
-79.999999999999915
 30
0.0
 11
-40.843124540006677
 21
-79.999999999999915
 31
0.0
  0
LINE
  5
418
  8
DATA
  6
CONTINUOUS
 62
     7
 10
-38.442110198732522
 20
-79.999999999999915
 30
0.0
 11
-33.765573018296557
 21
-79.999999999999915
 31
0.0
  0
LINE
  5
419
  8
DATA
  6
CONTINUOUS
 62
     7
 10
-32.462144357927187
 20
47.004058314072132
 30
0.0
 11
-32.462144357927187
 21
33.704058314072107
 31
0.0
  0
LINE
  5
41A
  8
DATA
  6
CONTINUOUS
 62
     7
 10
-48.162144357927232
 20
47.004058314072132
 30
0.0
 11
-48.162144357927232
 21
33.704058314072107
 31
0.0
  0
LINE
  5
41B
  8
DATA
  6
CONTINUOUS
 62
     7
 10
-48.162144357927232
 20
33.704058314072107
 30
0.0
 11
-32.462144357927187
 21
33.704058314072107
 31
0.0
  0
LINE
  5
41C
  8
DATA
  6
CONTINUOUS
 62
     7
 10
-48.162144357927232
 20
47.004058314072132
 30
0.0
 11
-32.462144357927187
 21
47.004058314072132
 31
0.0
  0
LINE
  5
41D
  8
DATA
  6
CONTINUOUS
 62
     7
 10
-46.46214435792718
 20
44.004058314072132
 30
0.0
 11
-34.162144357927232
 21
44.004058314072132
 31
0.0
  0
LINE
  5
41E
  8
DATA
  6
CONTINUOUS
 62
     7
 10
-46.46214435792718
 20
44.004058314072132
 30
0.0
 11
-46.46214435792718
 21
36.704058314072107
 31
0.0
  0
LINE
  5
41F
  8
DATA
  6
CONTINUOUS
 62
     7
 10
-34.162144357927232
 20
44.004058314072132
 30
0.0
 11
-34.162144357927232
 21
36.704058314072107
 31
0.0
  0
LINE
  5
420
  8
DATA
  6
CONTINUOUS
 62
     7
 10
-42.537144357927218
 20
33.704058314072107
 30
0.0
 11
-42.537144357927218
 21
35.204058314072121
 31
0.0
  0
LINE
  5
421
  8
DATA
  6
CONTINUOUS
 62
     7
 10
-38.087144357927187
 20
35.204058314072121
 30
0.0
 11
-38.087144357927187
 21
33.704058314072107
 31
0.0
  0
LINE
  5
422
  8
DATA
  6
CONTINUOUS
 62
     7
 10
-43.662144357927232
 20
35.204058314072121
 30
0.0
 11
-42.537144357927218
 21
35.204058314072121
 31
0.0
  0
LINE
  5
423
  8
DATA
  6
CONTINUOUS
 62
     7
 10
-38.087144357927187
 20
35.204058314072121
 30
0.0
 11
-36.962144357927187
 21
35.204058314072121
 31
0.0
  0
LINE
  5
424
  8
DATA
  6
CONTINUOUS
 62
     7
 10
-46.46214435792718
 20
36.704058314072107
 30
0.0
 11
-43.662144357927232
 21
36.704058314072107
 31
0.0
  0
LINE
  5
425
  8
DATA
  6
CONTINUOUS
 62
     7
 10
-36.962144357927187
 20
36.704058314072107
 30
0.0
 11
-34.162144357927232
 21
36.704058314072107
 31
0.0
  0
LINE
  5
426
  8
DATA
  6
CONTINUOUS
 62
     7
 10
-43.662144357927232
 20
35.204058314072121
 30
0.0
 11
-43.662144357927232
 21
36.704058314072107
 31
0.0
  0
LINE
  5
427
  8
DATA
  6
CONTINUOUS
 62
     7
 10
-36.962144357927187
 20
36.704058314072107
 30
0.0
 11
-36.962144357927187
 21
35.204058314072121
 31
0.0
  0
TEXT
  5
428
  8
DATA
 62
     7
 10
5.9855807838746804
 20
51.640465808620803
 30
0.0
 40
1.954609375
  1
Ethernet
 50
180.0
 41
0.7
 11
5.9855807838746804
 21
49.685856433620799
 31
0.0
 73
     3
  0
CIRCLE
  5
429
  8
DATA
  6
CONTINUOUS
 62
     7
 10
91.75
 20
-57.5
 30
0.0
 40
2.5
  0
LINE
  5
42A
  8
DATA
  6
CONTINUOUS
 62
     7
 10
90.368081044344507
 20
-57.5
 30
0.0
 11
93.131918955655479
 21
-57.5
 31
0.0
  0
LINE
  5
42B
  8
DATA
  6
CONTINUOUS
 62
     7
 10
91.75
 20
-56.1180810443445
 30
0.0
 11
91.75
 21
-58.881918955655479
 31
0.0
  0
LINE
  5
42C
  8
DATA
  6
CONTINUOUS
 62
     7
 10
70.186099226989541
 20
8.0
 30
0.0
 11
94.749999999999986
 21
8.0
 31
0.0
  0
LINE
  5
42D
  8
DATA
  6
CONTINUOUS
 62
     7
 10
96.75
 20
6.0
 30
0.0
 11
96.75
 21
-1.0
 31
0.0
  0
ARC
  5
42E
  8
DATA
  6
CONTINUOUS
 62
     7
 10
94.749999999999986
 20
6.0
 30
0.0
 40
2.0
 50
0.0
 51
90.0
  0
ARC
  5
42F
  8
DATA
  6
CONTINUOUS
 62
     7
 10
96.75
 20
8.0
 30
0.0
 40
2.0
 50
0.0
 51
90.0
  0
ARC
  5
430
  8
DATA
  6
CONTINUOUS
 62
     7
 10
96.75
 20
-73.0
 30
0.0
 40
2.0
 50
270.0
 51
0.0
  0
LINE
  5
431
  8
DATA
  6
CONTINUOUS
 62
     7
 10
-48.162144357927232
 20
10.5
 30
0.0
 11
-48.162144357927232
 21
10.0
 31
0.0
  0
LINE
  5
432
  8
DATA
  6
CONTINUOUS
 62
     7
 10
-32.462144357927187
 20
10.5
 30
0.0
 11
-32.462144357927187
 21
10.0
 31
0.0
  0
LINE
  5
433
  8
DATA
  6
CONTINUOUS
 62
     7
 10
-7.3219634691111528
 20
10.5
 30
0.0
 11
-7.3219634691111528
 21
10.0
 31
0.0
  0
LINE
  5
434
  8
DATA
  6
CONTINUOUS
 62
     7
 10
8.3780365308888936
 20
10.5
 30
0.0
 11
8.3780365308888936
 21
10.0
 31
0.0
  0
LINE
  5
435
  8
DATA
  6
CONTINUOUS
 62
     7
 10
-48.162144357927232
 20
10.5
 30
0.0
 11
-32.462144357927187
 21
10.5
 31
0.0
  0
LINE
  5
436
  8
DATA
  6
CONTINUOUS
 62
     7
 10
-7.3219634691111528
 20
10.5
 30
0.0
 11
8.3780365308888936
 21
10.5
 31
0.0
  0
LINE
  5
437
  8
DATA
  6
CONTINUOUS
 62
     7
 10
90.749999999759424
 20
10.0
 30
0.0
 11
90.749999999759424
 21
10.5
 31
0.0
  0
LINE
  5
438
  8
DATA
  6
CONTINUOUS
 62
     7
 10
77.376573670529524
 20
10.5
 30
0.0
 11
77.376573670529524
 21
10.0
 31
0.0
  0
LINE
  5
439
  8
DATA
  6
CONTINUOUS
 62
     7
 10
77.376573670529524
 20
10.5
 30
0.0
 11
90.749999999759424
 21
10.5
 31
0.0
  0
LINE
  5
43A
  8
DATA
  6
CONTINUOUS
 62
     7
 10
96.75
 20
255.25
 30
0.0
 11
98.75
 21
255.25
 31
0.0
  0
LINE
  5
43B
  8
DATA
  6
CONTINUOUS
 62
     7
 10
96.75
 20
-1.0
 30
0.0
 11
98.75
 21
-1.0
 31
0.0
  0
ARC
  5
43C
  8
DATA
  6
CONTINUOUS
 62
     7
 10
70.75
 20
264.25
 30
0.0
 40
2.0
 50
90.0
 51
180.0
  0
ARC
  5
43D
  8
DATA
  6
CONTINUOUS
 62
     7
 10
70.75
 20
8.0
 30
0.0
 40
2.0
 50
90.0
 51
180.0
  0
LINE
  5
43E
  8
DATA
  6
CONTINUOUS
 62
     7
 10
137.5000000002845
 20
181.25
 30
0.0
 11
262.50000000028427
 21
181.25
 31
0.0
  0
LINE
  5
43F
  8
DATA
  6
CONTINUOUS
 62
     7
 10
262.50000000028427
 20
266.25
 30
0.0
 11
137.5000000002845
 21
266.25
 31
0.0
  0
LINE
  5
440
  8
DATA
  6
CONTINUOUS
 62
     7
 10
262.50000000028427
 20
181.25
 30
0.0
 11
262.50000000028427
 21
266.25
 31
0.0
  0
LINE
  5
441
  8
DATA
  6
CONTINUOUS
 62
     7
 10
137.5000000002845
 20
181.25
 30
0.0
 11
137.5000000002845
 21
266.25
 31
0.0
  0
ARC
  5
442
  8
DATA
  6
CONTINUOUS
 62
     7
 10
233.50000000028439
 20
181.97609535108819
 30
0.0
 40
1.449999999999978
 50
210.04999042122461
 51
329.95000957877539
  0
LINE
  5
443
  8
DATA
  6
CONTINUOUS
 62
     7
 10
247.40000000028431
 20
179.75
 30
0.0
 11
247.40000000028431
 21
175.25
 31
0.0
  0
LINE
  5
444
  8
DATA
  6
CONTINUOUS
 62
     7
 10
239.6000000002843
 20
179.75
 30
0.0
 11
239.6000000002843
 21
175.25
 31
0.0
  0
LINE
  5
445
  8
DATA
  6
CONTINUOUS
 62
     7
 10
247.40000000028431
 20
175.25
 30
0.0
 11
239.6000000002843
 21
175.25
 31
0.0
  0
LINE
  5
446
  8
DATA
  6
CONTINUOUS
 62
     7
 10
248.8982250172073
 20
181.25
 30
0.0
 11
248.8982250172073
 21
179.75
 31
0.0
  0
LINE
  5
447
  8
DATA
  6
CONTINUOUS
 62
     7
 10
238.10177498336131
 20
181.25
 30
0.0
 11
238.10177498336131
 21
179.75
 31
0.0
  0
LINE
  5
448
  8
DATA
  6
CONTINUOUS
 62
     7
 10
248.8982250172073
 20
179.75
 30
0.0
 11
238.10177498336131
 21
179.75
 31
0.0
  0
LINE
  5
449
  8
DATA
  6
CONTINUOUS
 62
     7
 10
214.22413578527801
 20
176.25
 30
0.0
 11
190.370630024169
 21
176.25
 31
0.0
  0
LINE
  5
44A
  8
DATA
  6
CONTINUOUS
 62
     7
 10
220.88565149494059
 20
181.25
 30
0.0
 11
220.88565149494059
 21
176.75
 31
0.0
  0
LINE
  5
44B
  8
DATA
  6
CONTINUOUS
 62
     7
 10
216.2091143145044
 20
181.25
 30
0.0
 11
216.2091143145044
 21
176.75
 31
0.0
  0
LINE
  5
44C
  8
DATA
  6
CONTINUOUS
 62
     7
 10
188.38565149494079
 20
181.25
 30
0.0
 11
188.38565149494079
 21
176.75
 31
0.0
  0
LINE
  5
44D
  8
DATA
  6
CONTINUOUS
 62
     7
 10
183.70911431450489
 20
181.25
 30
0.0
 11
183.70911431450489
 21
176.75
 31
0.0
  0
LINE
  5
44E
  8
DATA
  6
CONTINUOUS
 62
     7
 10
214.22413578527801
 20
181.25
 30
0.0
 11
214.22413578527801
 21
176.25
 31
0.0
  0
LINE
  5
44F
  8
DATA
  6
CONTINUOUS
 62
     7
 10
190.370630024169
 20
181.25
 30
0.0
 11
190.370630024169
 21
176.25
 31
0.0
  0
LINE
  5
450
  8
DATA
  6
CONTINUOUS
 62
     7
 10
220.88565149494059
 20
176.75
 30
0.0
 11
216.2091143145044
 21
176.75
 31
0.0
  0
LINE
  5
451
  8
DATA
  6
CONTINUOUS
 62
     7
 10
188.38565149494079
 20
176.75
 30
0.0
 11
183.70911431450489
 21
176.75
 31
0.0
  0
LINE
  5
452
  8
DATA
  6
CONTINUOUS
 62
     7
 10
170.84760108099681
 20
176.25000000000011
 30
0.0
 11
170.84760108099681
 21
181.25
 31
0.0
  0
LINE
  5
453
  8
DATA
  6
CONTINUOUS
 62
     7
 10
155.23746227421009
 20
176.25000000000011
 30
0.0
 11
155.23746227421009
 21
181.25
 31
0.0
  0
LINE
  5
454
  8
DATA
  6
CONTINUOUS
 62
     7
 10
177.88998088568141
 20
176.25000000000011
 30
0.0
 11
177.88998088568141
 21
181.25
 31
0.0
  0
LINE
  5
455
  8
DATA
  6
CONTINUOUS
 62
     7
 10
173.2134437052456
 20
176.25000000000011
 30
0.0
 11
173.2134437052456
 21
181.25
 31
0.0
  0
LINE
  5
456
  8
DATA
  6
CONTINUOUS
 62
     7
 10
152.8899808856815
 20
176.25000000000011
 30
0.0
 11
152.8899808856815
 21
181.25
 31
0.0
  0
LINE
  5
457
  8
DATA
  6
CONTINUOUS
 62
     7
 10
148.15991075250011
 20
176.25000000000011
 30
0.0
 11
148.15991075250011
 21
181.25
 31
0.0
  0
LINE
  5
458
  8
DATA
  6
CONTINUOUS
 62
     7
 10
177.88998088568141
 20
176.25000000000011
 30
0.0
 11
173.2134437052456
 21
176.25000000000011
 31
0.0
  0
LINE
  5
459
  8
DATA
  6
CONTINUOUS
 62
     7
 10
170.84760108099681
 20
176.25000000000011
 30
0.0
 11
155.23746227421009
 21
176.25000000000011
 31
0.0
  0
LINE
  5
45A
  8
DATA
  6
CONTINUOUS
 62
     7
 10
152.83644793293601
 20
176.25000000000011
 30
0.0
 11
148.15991075250011
 21
176.25000000000011
 31
0.0
  0
LINE
  5
45B
  8
DATA
  6
CONTINUOUS
 62
     7
 10
229.41214435821161
 20
266.75
 30
0.0
 11
229.41214435821161
 21
266.25
 31
0.0
  0
LINE
  5
45C
  8
DATA
  6
CONTINUOUS
 62
     7
 10
213.7121443582115
 20
266.75
 30
0.0
 11
213.7121443582115
 21
266.25
 31
0.0
  0
LINE
  5
45D
  8
DATA
  6
CONTINUOUS
 62
     7
 10
197.50812015662501
 20
266.75
 30
0.0
 11
197.50812015662501
 21
266.25
 31
0.0
  0
LINE
  5
45E
  8
DATA
  6
CONTINUOUS
 62
     7
 10
181.80812015662491
 20
266.75
 30
0.0
 11
181.80812015662491
 21
266.25
 31
0.0
  0
LINE
  5
45F
  8
DATA
  6
CONTINUOUS
 62
     7
 10
229.41214435821161
 20
266.75
 30
0.0
 11
213.7121443582115
 21
266.75
 31
0.0
  0
LINE
  5
460
  8
DATA
  6
CONTINUOUS
 62
     7
 10
197.50812015662501
 20
266.75
 30
0.0
 11
181.80812015662491
 21
266.75
 31
0.0
  0
LINE
  5
461
  8
DATA
  6
CONTINUOUS
 62
     7
 10
137.5
 20
-75.0
 30
0.0
 11
262.5
 21
-75.0
 31
0.0
  0
LINE
  5
462
  8
DATA
  6
CONTINUOUS
 62
     7
 10
262.5
 20
10.0
 30
0.0
 11
137.5
 21
10.0
 31
0.0
  0
LINE
  5
463
  8
DATA
  6
CONTINUOUS
 62
     7
 10
262.5
 20
-75.0
 30
0.0
 11
262.5
 21
10.0
 31
0.0
  0
LINE
  5
464
  8
DATA
  6
CONTINUOUS
 62
     7
 10
137.5
 20
-75.0
 30
0.0
 11
137.5
 21
10.0
 31
0.0
  0
ARC
  5
465
  8
DATA
  6
CONTINUOUS
 62
     7
 10
159.45715355865121
 20
-74.273904648911738
 30
0.0
 40
1.449999999999978
 50
210.04999042122461
 51
329.95000957877539
  0
LINE
  5
466
  8
DATA
  6
CONTINUOUS
 62
     7
 10
153.477822536708
 20
-76.5
 30
0.0
 11
153.477822536708
 21
-81.0
 31
0.0
  0
LINE
  5
467
  8
DATA
  6
CONTINUOUS
 62
     7
 10
145.67782253670799
 20
-76.5
 30
0.0
 11
145.67782253670799
 21
-81.0
 31
0.0
  0
LINE
  5
468
  8
DATA
  6
CONTINUOUS
 62
     7
 10
153.477822536708
 20
-81.0
 30
0.0
 11
145.67782253670799
 21
-81.0
 31
0.0
  0
LINE
  5
469
  8
DATA
  6
CONTINUOUS
 62
     7
 10
154.97604755363099
 20
-75.0
 30
0.0
 11
154.97604755363099
 21
-76.5
 31
0.0
  0
LINE
  5
46A
  8
DATA
  6
CONTINUOUS
 62
     7
 10
144.17959751978489
 20
-75.0
 30
0.0
 11
144.17959751978489
 21
-76.5
 31
0.0
  0
LINE
  5
46B
  8
DATA
  6
CONTINUOUS
 62
     7
 10
154.97604755363099
 20
-76.5
 30
0.0
 11
144.17959751978489
 21
-76.5
 31
0.0
  0
LINE
  5
46C
  8
DATA
  6
CONTINUOUS
 62
     7
 10
198.3170734245264
 20
-80.0
 30
0.0
 11
174.46356766341739
 21
-80.0
 31
0.0
  0
LINE
  5
46D
  8
DATA
  6
CONTINUOUS
 62
     7
 10
204.97858913418901
 20
-75.0
 30
0.0
 11
204.97858913418901
 21
-79.5
 31
0.0
  0
LINE
  5
46E
  8
DATA
  6
CONTINUOUS
 62
     7
 10
200.30205195375291
 20
-75.0
 30
0.0
 11
200.30205195375291
 21
-79.5
 31
0.0
  0
LINE
  5
46F
  8
DATA
  6
CONTINUOUS
 62
     7
 10
172.47858913418921
 20
-75.0
 30
0.0
 11
172.47858913418921
 21
-79.5
 31
0.0
  0
LINE
  5
470
  8
DATA
  6
CONTINUOUS
 62
     7
 10
167.80205195375331
 20
-75.0
 30
0.0
 11
167.80205195375331
 21
-79.5
 31
0.0
  0
LINE
  5
471
  8
DATA
  6
CONTINUOUS
 62
     7
 10
198.3170734245264
 20
-75.0
 30
0.0
 11
198.3170734245264
 21
-80.0
 31
0.0
  0
LINE
  5
472
  8
DATA
  6
CONTINUOUS
 62
     7
 10
174.46356766341739
 20
-75.0
 30
0.0
 11
174.46356766341739
 21
-80.0
 31
0.0
  0
LINE
  5
473
  8
DATA
  6
CONTINUOUS
 62
     7
 10
204.97858913418901
 20
-79.5
 30
0.0
 11
200.30205195375291
 21
-79.5
 31
0.0
  0
LINE
  5
474
  8
DATA
  6
CONTINUOUS
 62
     7
 10
172.47858913418921
 20
-79.5
 30
0.0
 11
167.80205195375331
 21
-79.5
 31
0.0
  0
LINE
  5
475
  8
DATA
  6
CONTINUOUS
 62
     7
 10
237.70326334679331
 20
-79.999999999999915
 30
0.0
 11
237.70326334679331
 21
-75.0
 31
0.0
  0
LINE
  5
476
  8
DATA
  6
CONTINUOUS
 62
     7
 10
222.0931245400067
 20
-79.999999999999915
 30
0.0
 11
222.0931245400067
 21
-75.0
 31
0.0
  0
LINE
  5
477
  8
DATA
  6
CONTINUOUS
 62
     7
 10
244.74564315147799
 20
-79.999999999999915
 30
0.0
 11
244.74564315147799
 21
-75.0
 31
0.0
  0
LINE
  5
478
  8
DATA
  6
CONTINUOUS
 62
     7
 10
240.06910597104221
 20
-79.999999999999915
 30
0.0
 11
240.06910597104221
 21
-75.0
 31
0.0
  0
LINE
  5
479
  8
DATA
  6
CONTINUOUS
 62
     7
 10
219.74564315147799
 20
-79.999999999999915
 30
0.0
 11
219.74564315147799
 21
-75.0
 31
0.0
  0
LINE
  5
47A
  8
DATA
  6
CONTINUOUS
 62
     7
 10
215.01557301829649
 20
-79.999999999999915
 30
0.0
 11
215.01557301829649
 21
-75.0
 31
0.0
  0
LINE
  5
47B
  8
DATA
  6
CONTINUOUS
 62
     7
 10
244.74564315147799
 20
-79.999999999999915
 30
0.0
 11
240.06910597104221
 21
-79.999999999999915
 31
0.0
  0
LINE
  5
47C
  8
DATA
  6
CONTINUOUS
 62
     7
 10
237.70326334679331
 20
-79.999999999999915
 30
0.0
 11
222.0931245400067
 21
-79.999999999999915
 31
0.0
  0
LINE
  5
47D
  8
DATA
  6
CONTINUOUS
 62
     7
 10
219.69211019873239
 20
-79.999999999999915
 30
0.0
 11
215.01557301829649
 21
-79.999999999999915
 31
0.0
  0
LINE
  5
47E
  8
DATA
  6
CONTINUOUS
 62
     7
 10
229.41214435792719
 20
10.5
 30
0.0
 11
229.41214435792719
 21
10.0
 31
0.0
  0
LINE
  5
47F
  8
DATA
  6
CONTINUOUS
 62
     7
 10
213.7121443579272
 20
10.5
 30
0.0
 11
213.7121443579272
 21
10.0
 31
0.0
  0
LINE
  5
480
  8
DATA
  6
CONTINUOUS
 62
     7
 10
188.5719634691111
 20
10.5
 30
0.0
 11
188.5719634691111
 21
10.0
 31
0.0
  0
LINE
  5
481
  8
DATA
  6
CONTINUOUS
 62
     7
 10
172.87196346911111
 20
10.5
 30
0.0
 11
172.87196346911111
 21
10.0
 31
0.0
  0
LINE
  5
482
  8
DATA
  6
CONTINUOUS
 62
     7
 10
229.41214435792719
 20
10.5
 30
0.0
 11
213.7121443579272
 21
10.5
 31
0.0
  0
LINE
  5
483
  8
DATA
  6
CONTINUOUS
 62
     7
 10
188.5719634691111
 20
10.5
 30
0.0
 11
172.87196346911111
 21
10.5
 31
0.0
  0
LINE
  5
484
  8
DATA
  6
CONTINUOUS
 62
     7
 10
262.50000000028427
 20
254.25
 30
0.0
 11
137.5000000002845
 21
254.25
 31
0.0
  0
LINE
  5
485
  8
DATA
  6
CONTINUOUS
 62
     7
 10
262.5
 20
-2.0
 30
0.0
 11
137.5
 21
-2.0
 31
0.0
  0
CIRCLE
  5
486
  8
DATA
  6
CONTINUOUS
 62
     7
 10
150.0000000002845
 20
259.25
 30
0.0
 40
2.5
  0
LINE
  5
487
  8
DATA
  6
CONTINUOUS
 62
     7
 10
148.61808104462901
 20
259.25
 30
0.0
 11
151.38191895593999
 21
259.25
 31
0.0
  0
LINE
  5
488
  8
DATA
  6
CONTINUOUS
 62
     7
 10
150.0000000002845
 20
257.86808104434448
 30
0.0
 11
150.0000000002845
 21
260.63191895565541
 31
0.0
  0
CIRCLE
  5
489
  8
DATA
  6
CONTINUOUS
 62
     7
 10
200.0000000002845
 20
259.25
 30
0.0
 40
2.5
  0
LINE
  5
48A
  8
DATA
  6
CONTINUOUS
 62
     7
 10
198.61808104462901
 20
259.25
 30
0.0
 11
201.38191895593999
 21
259.25
 31
0.0
  0
LINE
  5
48B
  8
DATA
  6
CONTINUOUS
 62
     7
 10
200.0000000002845
 20
257.86808104434448
 30
0.0
 11
200.0000000002845
 21
260.63191895565541
 31
0.0
  0
CIRCLE
  5
48C
  8
DATA
  6
CONTINUOUS
 62
     7
 10
250.0000000002845
 20
259.25
 30
0.0
 40
2.5
  0
LINE
  5
48D
  8
DATA
  6
CONTINUOUS
 62
     7
 10
248.61808104462901
 20
259.25
 30
0.0
 11
251.38191895593999
 21
259.25
 31
0.0
  0
LINE
  5
48E
  8
DATA
  6
CONTINUOUS
 62
     7
 10
250.0000000002845
 20
257.86808104434448
 30
0.0
 11
250.0000000002845
 21
260.63191895565541
 31
0.0
  0
CIRCLE
  5
48F
  8
DATA
  6
CONTINUOUS
 62
     7
 10
150.0000000002845
 20
3.0
 30
0.0
 40
2.5
  0
LINE
  5
490
  8
DATA
  6
CONTINUOUS
 62
     7
 10
148.61808104462901
 20
3.0
 30
0.0
 11
151.38191895593999
 21
3.0
 31
0.0
  0
LINE
  5
491
  8
DATA
  6
CONTINUOUS
 62
     7
 10
150.0000000002845
 20
1.6180810443445059
 30
0.0
 11
150.0000000002845
 21
4.3819189556554932
 31
0.0
  0
CIRCLE
  5
492
  8
DATA
  6
CONTINUOUS
 62
     7
 10
200.0000000002845
 20
3.0
 30
0.0
 40
2.5
  0
LINE
  5
493
  8
DATA
  6
CONTINUOUS
 62
     7
 10
198.61808104462901
 20
3.0
 30
0.0
 11
201.38191895593999
 21
3.0
 31
0.0
  0
LINE
  5
494
  8
DATA
  6
CONTINUOUS
 62
     7
 10
200.0000000002845
 20
1.6180810443445059
 30
0.0
 11
200.0000000002845
 21
4.3819189556554932
 31
0.0
  0
CIRCLE
  5
495
  8
DATA
  6
CONTINUOUS
 62
     7
 10
250.0000000002845
 20
3.0
 30
0.0
 40
2.5
  0
LINE
  5
496
  8
DATA
  6
CONTINUOUS
 62
     7
 10
248.61808104462901
 20
3.0
 30
0.0
 11
251.38191895593999
 21
3.0
 31
0.0
  0
LINE
  5
497
  8
DATA
  6
CONTINUOUS
 62
     7
 10
250.0000000002845
 20
1.6180810443445059
 30
0.0
 11
250.0000000002845
 21
4.3819189556554932
 31
0.0
  0
LINE
  5
498
  8
DATA
  6
CONTINUOUS
 62
     7
 10
139.5000000002845
 20
181.25
 30
0.0
 11
139.5000000002845
 21
254.25
 31
0.0
  0
LINE
  5
499
  8
DATA
  6
CONTINUOUS
 62
     7
 10
260.50000000028427
 20
181.25
 30
0.0
 11
260.50000000028427
 21
254.25
 31
0.0
  0
POLYLINE
  5
49A
  8
DATA
  6
CONTINUOUS
 62
     7
 66
     1
 10
0.0
 20
0.0
 30
0.0
 70
     1
  0
VERTEX
  5
758
  8
DATA
  6
CONTINUOUS
 62
     7
 10
164.5000000002845
 20
237.25
 30
0.0
  0
VERTEX
  5
759
  8
DATA
  6
CONTINUOUS
 62
     7
 10
171.5000000002845
 20
237.25
 30
0.0
  0
VERTEX
  5
75A
  8
DATA
  6
CONTINUOUS
 62
     7
 10
171.5000000002845
 20
230.25
 30
0.0
  0
VERTEX
  5
75B
  8
DATA
  6
CONTINUOUS
 62
     7
 10
164.5000000002845
 20
230.25
 30
0.0
  0
SEQEND
  5
75C
  8
DATA
  6
CONTINUOUS
 62
     7
  0
LINE
  5
4A1
  8
DATA
  6
CONTINUOUS
 62
     7
 10
168.6000000002845
 20
233.75
 30
0.0
 11
168.6000000002845
 21
235.25
 31
0.0
  0
LINE
  5
4A2
  8
DATA
  6
CONTINUOUS
 62
     7
 10
170.1000000002845
 20
235.25
 30
0.0
 11
170.1000000002845
 21
233.75
 31
0.0
  0
LINE
  5
4A3
  8
DATA
  6
CONTINUOUS
 62
     7
 10
168.6000000002845
 20
235.25
 30
0.0
 11
170.1000000002845
 21
235.25
 31
0.0
  0
LINE
  5
4A4
  8
DATA
  6
CONTINUOUS
 62
     7
 10
165.90000000028439
 20
233.75
 30
0.0
 11
165.90000000028439
 21
235.25
 31
0.0
  0
LINE
  5
4A5
  8
DATA
  6
CONTINUOUS
 62
     7
 10
167.40000000028439
 20
235.25
 30
0.0
 11
167.40000000028439
 21
233.75
 31
0.0
  0
LINE
  5
4A6
  8
DATA
  6
CONTINUOUS
 62
     7
 10
165.90000000028439
 20
235.25
 30
0.0
 11
167.40000000028439
 21
235.25
 31
0.0
  0
LINE
  5
4A7
  8
DATA
  6
CONTINUOUS
 62
     7
 10
168.6000000002845
 20
232.25
 30
0.0
 11
168.6000000002845
 21
233.75
 31
0.0
  0
LINE
  5
4A8
  8
DATA
  6
CONTINUOUS
 62
     7
 10
170.1000000002845
 20
232.25
 30
0.0
 11
168.6000000002845
 21
232.25
 31
0.0
  0
LINE
  5
4A9
  8
DATA
  6
CONTINUOUS
 62
     7
 10
170.1000000002845
 20
233.75
 30
0.0
 11
170.1000000002845
 21
232.25
 31
0.0
  0
LINE
  5
4AA
  8
DATA
  6
CONTINUOUS
 62
     7
 10
165.90000000028439
 20
232.25
 30
0.0
 11
165.90000000028439
 21
233.75
 31
0.0
  0
LINE
  5
4AB
  8
DATA
  6
CONTINUOUS
 62
     7
 10
167.40000000028439
 20
232.25
 30
0.0
 11
165.90000000028439
 21
232.25
 31
0.0
  0
LINE
  5
4AC
  8
DATA
  6
CONTINUOUS
 62
     7
 10
167.40000000028439
 20
233.75
 30
0.0
 11
167.40000000028439
 21
232.25
 31
0.0
  0
LINE
  5
4AD
  8
DATA
  6
CONTINUOUS
 62
     7
 10
165.90000000028439
 20
233.91240747360021
 30
0.0
 11
167.40000000028439
 21
233.91240747360021
 31
0.0
  0
LINE
  5
4AE
  8
DATA
  6
CONTINUOUS
 62
     7
 10
168.6000000002845
 20
233.91240747360021
 30
0.0
 11
170.1000000002845
 21
233.91240747360021
 31
0.0
  0
TEXT
  5
4AF
  8
DATA
 62
     7
 10
169.707576480553
 20
236.59704703889409
 30
0.0
 40
0.9773046875
  1
1
 50
180.0
 41
0.7
 11
169.707576480553
 21
235.61974235139411
 31
0.0
 73
     3
  0
TEXT
  5
4B0
  8
DATA
 62
     7
 10
167.05398189456159
 20
236.59704703889409
 30
0.0
 40
0.9773046875
  1
2
 50
180.0
 41
0.7
 11
167.05398189456159
 21
235.61974235139411
 31
0.0
 73
     3
  0
TEXT
  5
4B1
  8
DATA
 62
     7
 10
170.01959847709671
 20
231.78617225064491
 30
0.0
 40
0.9773046875
  1
ON
 50
180.0
 41
0.7
 11
170.01959847709671
 21
230.8088675631449
 31
0.0
 73
     3
  0
CIRCLE
  5
4B2
  8
DATA
  6
CONTINUOUS
 62
     7
 10
148.0000000002845
 20
248.27042966980679
 30
0.0
 40
3.649999999999999
  0
CIRCLE
  5
4B3
  8
DATA
  6
CONTINUOUS
 62
     7
 10
148.0000000002845
 20
248.27042966980679
 30
0.0
 40
3.0
  0
CIRCLE
  5
4B4
  8
DATA
  6
CONTINUOUS
 62
     7
 10
252.0000000002845
 20
248.27042966980679
 30
0.0
 40
3.6500000000000048
  0
CIRCLE
  5
4B5
  8
DATA
  6
CONTINUOUS
 62
     7
 10
252.0000000002845
 20
248.27042966980679
 30
0.0
 40
3.0
  0
CIRCLE
  5
4B6
  8
DATA
  6
CONTINUOUS
 62
     7
 10
148.0000000002845
 20
189.26032043004241
 30
0.0
 40
3.649999999999999
  0
CIRCLE
  5
4B7
  8
DATA
  6
CONTINUOUS
 62
     7
 10
148.0000000002845
 20
189.26032043004241
 30
0.0
 40
3.0
  0
CIRCLE
  5
4B8
  8
DATA
  6
CONTINUOUS
 62
     7
 10
252.0000000002845
 20
189.26032043004241
 30
0.0
 40
3.6500000000000048
  0
CIRCLE
  5
4B9
  8
DATA
  6
CONTINUOUS
 62
     7
 10
252.0000000002845
 20
189.26032043004241
 30
0.0
 40
3.0
  0
CIRCLE
  5
4BA
  8
DATA
  6
CONTINUOUS
 62
     7
 10
148.0000000002845
 20
-8.0
 30
0.0
 40
3.649999999999999
  0
CIRCLE
  5
4BB
  8
DATA
  6
CONTINUOUS
 62
     7
 10
148.0000000002845
 20
-8.0
 30
0.0
 40
3.0
  0
CIRCLE
  5
4BC
  8
DATA
  6
CONTINUOUS
 62
     7
 10
252.0000000002845
 20
-8.0
 30
0.0
 40
3.6500000000000048
  0
CIRCLE
  5
4BD
  8
DATA
  6
CONTINUOUS
 62
     7
 10
252.0000000002845
 20
-8.0
 30
0.0
 40
3.0
  0
CIRCLE
  5
4BE
  8
DATA
  6
CONTINUOUS
 62
     7
 10
148.0000000002845
 20
-66.989679569957559
 30
0.0
 40
3.649999999999999
  0
CIRCLE
  5
4BF
  8
DATA
  6
CONTINUOUS
 62
     7
 10
148.0000000002845
 20
-66.989679569957559
 30
0.0
 40
3.0
  0
CIRCLE
  5
4C0
  8
DATA
  6
CONTINUOUS
 62
     7
 10
252.0000000002845
 20
-66.989679569957559
 30
0.0
 40
3.6500000000000048
  0
CIRCLE
  5
4C1
  8
DATA
  6
CONTINUOUS
 62
     7
 10
252.0000000002845
 20
-66.989679569957559
 30
0.0
 40
3.0
  0
LINE
  5
4C2
  8
DATA
  6
CONTINUOUS
 62
     7
 10
139.5
 20
-75.0
 30
0.0
 11
139.5
 21
-2.0
 31
0.0
  0
LINE
  5
4C3
  8
DATA
  6
CONTINUOUS
 62
     7
 10
260.5
 20
-75.0
 30
0.0
 11
260.5
 21
-2.0
 31
0.0
  0
POLYLINE
  5
4C4
  8
DATA
  6
CONTINUOUS
 62
     7
 66
     1
 10
0.0
 20
0.0
 30
0.0
 70
     1
  0
VERTEX
  5
75D
  8
DATA
  6
CONTINUOUS
 62
     7
 10
280.64968672039441
 20
162.9139529810061
 30
0.0
  0
VERTEX
  5
75E
  8
DATA
  6
CONTINUOUS
 62
     7
 10
322.64968672039441
 20
162.9139529810061
 30
0.0
  0
VERTEX
  5
75F
  8
DATA
  6
CONTINUOUS
 62
     7
 10
322.64968672039441
 20
120.91395298100601
 30
0.0
  0
VERTEX
  5
760
  8
DATA
  6
CONTINUOUS
 62
     7
 10
280.64968672039441
 20
120.91395298100601
 30
0.0
  0
SEQEND
  5
761
  8
DATA
  6
CONTINUOUS
 62
     7
  0
LINE
  5
4CB
  8
DATA
  6
CONTINUOUS
 62
     7
 10
298.04968672039439
 20
141.9139529810061
 30
0.0
 11
298.04968672039439
 21
132.9139529810061
 31
0.0
  0
LINE
  5
4CC
  8
DATA
  6
CONTINUOUS
 62
     7
 10
289.04968672039439
 20
132.9139529810061
 30
0.0
 11
289.04968672039439
 21
141.9139529810061
 31
0.0
  0
LINE
  5
4CD
  8
DATA
  6
CONTINUOUS
 62
     7
 10
298.04968672039439
 20
132.9139529810061
 30
0.0
 11
289.04968672039439
 21
132.9139529810061
 31
0.0
  0
LINE
  5
4CE
  8
DATA
  6
CONTINUOUS
 62
     7
 10
314.24968672039432
 20
141.9139529810061
 30
0.0
 11
314.24968672039432
 21
132.9139529810061
 31
0.0
  0
LINE
  5
4CF
  8
DATA
  6
CONTINUOUS
 62
     7
 10
305.24968672039432
 20
132.9139529810061
 30
0.0
 11
305.24968672039432
 21
141.9139529810061
 31
0.0
  0
LINE
  5
4D0
  8
DATA
  6
CONTINUOUS
 62
     7
 10
314.24968672039432
 20
132.9139529810061
 30
0.0
 11
305.24968672039432
 21
132.9139529810061
 31
0.0
  0
LINE
  5
4D1
  8
DATA
  6
CONTINUOUS
 62
     7
 10
298.04968672039439
 20
150.91395298100599
 30
0.0
 11
298.04968672039439
 21
141.9139529810061
 31
0.0
  0
LINE
  5
4D2
  8
DATA
  6
CONTINUOUS
 62
     7
 10
289.04968672039439
 20
150.91395298100599
 30
0.0
 11
298.04968672039439
 21
150.91395298100599
 31
0.0
  0
LINE
  5
4D3
  8
DATA
  6
CONTINUOUS
 62
     7
 10
289.04968672039439
 20
141.9139529810061
 30
0.0
 11
289.04968672039439
 21
150.91395298100599
 31
0.0
  0
LINE
  5
4D4
  8
DATA
  6
CONTINUOUS
 62
     7
 10
314.24968672039432
 20
150.91395298100599
 30
0.0
 11
314.24968672039432
 21
141.9139529810061
 31
0.0
  0
LINE
  5
4D5
  8
DATA
  6
CONTINUOUS
 62
     7
 10
305.24968672039432
 20
150.91395298100599
 30
0.0
 11
314.24968672039432
 21
150.91395298100599
 31
0.0
  0
LINE
  5
4D6
  8
DATA
  6
CONTINUOUS
 62
     7
 10
305.24968672039432
 20
141.9139529810061
 30
0.0
 11
305.24968672039432
 21
150.91395298100599
 31
0.0
  0
LINE
  5
4D7
  8
DATA
  6
CONTINUOUS
 62
     7
 10
314.24968672039432
 20
140.93950813940461
 30
0.0
 11
305.24968672039432
 21
140.93950813940461
 31
0.0
  0
LINE
  5
4D8
  8
DATA
  6
CONTINUOUS
 62
     7
 10
298.04968672039439
 20
140.93950813940461
 30
0.0
 11
289.04968672039439
 21
140.93950813940461
 31
0.0
  0
TEXT
  5
4D9
  8
DATA
 62
     7
 10
292.03046125073809
 20
124.83167074764179
 30
0.0
 40
5.8638281250000004
  1
1
 41
0.7
 11
292.03046125073809
 21
130.69549887264179
 31
0.0
 73
     3
  0
TEXT
  5
4DA
  8
DATA
 62
     7
 10
308.26588921780842
 20
124.83167074764179
 30
0.0
 40
5.8638281250000004
  1
2
 41
0.7
 11
308.26588921780842
 21
130.69549887264179
 31
0.0
 73
     3
  0
TEXT
  5
4DB
  8
DATA
 62
     7
 10
289.53209585952112
 20
153.6969194771369
 30
0.0
 40
5.8638281250000004
  1
ON
 41
0.7
 11
289.53209585952112
 21
159.5607476021369
 31
0.0
 73
     3
  0
TEXT
  5
4DC
  8
DATA
 62
     7
 10
263.23884560827349
 20
103.62804182575471
 30
0.0
 40
8.1442057291666661
  1
スイッチ拡大図
 41
0.7
 11
263.23884560827349
 21
111.77224755492141
 31
0.0
 73
     3
  0
LINE
  5
4DD
  8
DATA
  6
CONTINUOUS
 62
     7
 10
256.25
 20
100.0
 30
0.0
 11
343.75
 21
100.0
 31
0.0
  0
CIRCLE
  5
4DE
  8
DATA
  6
CONTINUOUS
 62
     7
 10
145.25000000028439
 20
223.94999999999999
 30
0.0
 40
1.5
  0
CIRCLE
  5
4DF
  8
DATA
  6
CONTINUOUS
 62
     7
 10
254.75000000028439
 20
223.94999999999999
 30
0.0
 40
1.5
  0
LINE
  5
4E0
  8
DATA
  6
CONTINUOUS
 62
     7
 10
187.5
 20
100.0
 30
0.0
 11
81.25
 21
100.0
 31
0.0
  0
POLYLINE
  5
4E1
  8
DATA
  6
CONTINUOUS
 62
     7
 66
     1
 10
0.0
 20
0.0
 30
0.0
 70
     1
  0
VERTEX
  5
762
  8
DATA
  6
CONTINUOUS
 62
     7
 10
228.5
 20
-42.0
 30
0.0
  0
VERTEX
  5
763
  8
DATA
  6
CONTINUOUS
 62
     7
 10
241.5
 20
-42.0
 30
0.0
  0
VERTEX
  5
764
  8
DATA
  6
CONTINUOUS
 62
     7
 10
241.5
 20
-50.0
 30
0.0
  0
VERTEX
  5
765
  8
DATA
  6
CONTINUOUS
 62
     7
 10
228.5
 20
-50.0
 30
0.0
  0
SEQEND
  5
766
  8
DATA
  6
CONTINUOUS
 62
     7
  0
LINE
  5
4E8
  8
DATA
  6
CONTINUOUS
 62
     7
 10
238.26765393469449
 20
-46.172365963488389
 30
0.0
 11
238.26765393469449
 21
-44.672365963488389
 31
0.0
  0
LINE
  5
4E9
  8
DATA
  6
CONTINUOUS
 62
     7
 10
239.76765393469449
 20
-44.672365963488389
 30
0.0
 11
239.76765393469449
 21
-46.172365963488389
 31
0.0
  0
LINE
  5
4EA
  8
DATA
  6
CONTINUOUS
 62
     7
 10
238.26765393469449
 20
-44.672365963488389
 30
0.0
 11
239.76765393469449
 21
-44.672365963488389
 31
0.0
  0
LINE
  5
4EB
  8
DATA
  6
CONTINUOUS
 62
     7
 10
235.5676539346945
 20
-46.172365963488389
 30
0.0
 11
235.5676539346945
 21
-44.672365963488389
 31
0.0
  0
LINE
  5
4EC
  8
DATA
  6
CONTINUOUS
 62
     7
 10
237.0676539346945
 20
-44.672365963488389
 30
0.0
 11
237.0676539346945
 21
-46.172365963488389
 31
0.0
  0
LINE
  5
4ED
  8
DATA
  6
CONTINUOUS
 62
     7
 10
235.5676539346945
 20
-44.672365963488389
 30
0.0
 11
237.0676539346945
 21
-44.672365963488389
 31
0.0
  0
LINE
  5
4EE
  8
DATA
  6
CONTINUOUS
 62
     7
 10
238.26765393469449
 20
-47.672365963488403
 30
0.0
 11
238.26765393469449
 21
-46.172365963488389
 31
0.0
  0
LINE
  5
4EF
  8
DATA
  6
CONTINUOUS
 62
     7
 10
239.76765393469449
 20
-47.672365963488403
 30
0.0
 11
238.26765393469449
 21
-47.672365963488403
 31
0.0
  0
LINE
  5
4F0
  8
DATA
  6
CONTINUOUS
 62
     7
 10
239.76765393469449
 20
-46.172365963488389
 30
0.0
 11
239.76765393469449
 21
-47.672365963488403
 31
0.0
  0
LINE
  5
4F1
  8
DATA
  6
CONTINUOUS
 62
     7
 10
235.5676539346945
 20
-47.672365963488403
 30
0.0
 11
235.5676539346945
 21
-46.172365963488389
 31
0.0
  0
LINE
  5
4F2
  8
DATA
  6
CONTINUOUS
 62
     7
 10
237.0676539346945
 20
-47.672365963488403
 30
0.0
 11
235.5676539346945
 21
-47.672365963488403
 31
0.0
  0
LINE
  5
4F3
  8
DATA
  6
CONTINUOUS
 62
     7
 10
237.0676539346945
 20
-46.172365963488389
 30
0.0
 11
237.0676539346945
 21
-47.672365963488403
 31
0.0
  0
LINE
  5
4F4
  8
DATA
  6
CONTINUOUS
 62
     7
 10
235.5676539346945
 20
-46.009958489888149
 30
0.0
 11
237.0676539346945
 21
-46.009958489888149
 31
0.0
  0
LINE
  5
4F5
  8
DATA
  6
CONTINUOUS
 62
     7
 10
238.26765393469449
 20
-46.009958489888149
 30
0.0
 11
239.76765393469449
 21
-46.009958489888149
 31
0.0
  0
TEXT
  5
4F6
  8
DATA
 62
     7
 10
239.37523041496311
 20
-43.325318924594349
 30
0.0
 40
0.9773046875
  1
1
 50
180.0
 41
0.7
 11
239.37523041496311
 21
-44.302623612094351
 31
0.0
 73
     3
  0
TEXT
  5
4F7
  8
DATA
 62
     7
 10
236.72163582897161
 20
-43.325318924594349
 30
0.0
 40
0.9773046875
  1
2
 50
180.0
 41
0.7
 11
236.72163582897161
 21
-44.302623612094351
 31
0.0
 73
     3
  0
TEXT
  5
4F8
  8
DATA
 62
     7
 10
239.68725241150671
 20
-48.136193712843529
 30
0.0
 40
0.9773046875
  1
ON
 50
180.0
 41
0.7
 11
239.68725241150671
 21
-49.113498400343531
 31
0.0
 73
     3
  0
LINE
  5
4F9
  8
DATA
  6
CONTINUOUS
 62
     7
 10
232.86765393469449
 20
-46.172365963488389
 30
0.0
 11
232.86765393469449
 21
-44.672365963488389
 31
0.0
  0
LINE
  5
4FA
  8
DATA
  6
CONTINUOUS
 62
     7
 10
234.36765393469449
 20
-44.672365963488389
 30
0.0
 11
234.36765393469449
 21
-46.172365963488389
 31
0.0
  0
LINE
  5
4FB
  8
DATA
  6
CONTINUOUS
 62
     7
 10
232.86765393469449
 20
-44.672365963488389
 30
0.0
 11
234.36765393469449
 21
-44.672365963488389
 31
0.0
  0
LINE
  5
4FC
  8
DATA
  6
CONTINUOUS
 62
     7
 10
232.86765393469449
 20
-47.672365963488403
 30
0.0
 11
232.86765393469449
 21
-46.172365963488389
 31
0.0
  0
LINE
  5
4FD
  8
DATA
  6
CONTINUOUS
 62
     7
 10
234.36765393469449
 20
-47.672365963488403
 30
0.0
 11
232.86765393469449
 21
-47.672365963488403
 31
0.0
  0
LINE
  5
4FE
  8
DATA
  6
CONTINUOUS
 62
     7
 10
234.36765393469449
 20
-46.172365963488389
 30
0.0
 11
234.36765393469449
 21
-47.672365963488403
 31
0.0
  0
LINE
  5
4FF
  8
DATA
  6
CONTINUOUS
 62
     7
 10
232.86765393469449
 20
-46.009958489888149
 30
0.0
 11
234.36765393469449
 21
-46.009958489888149
 31
0.0
  0
TEXT
  5
500
  8
DATA
 62
     7
 10
234.02163582897171
 20
-43.325318924594349
 30
0.0
 40
0.9773046875
  1
3
 50
180.0
 41
0.7
 11
234.02163582897171
 21
-44.302623612094351
 31
0.0
 73
     3
  0
LINE
  5
501
  8
DATA
  6
CONTINUOUS
 62
     7
 10
230.16765393469461
 20
-46.172365963488389
 30
0.0
 11
230.16765393469461
 21
-44.672365963488389
 31
0.0
  0
LINE
  5
502
  8
DATA
  6
CONTINUOUS
 62
     7
 10
231.6676539346945
 20
-44.672365963488389
 30
0.0
 11
231.6676539346945
 21
-46.172365963488389
 31
0.0
  0
LINE
  5
503
  8
DATA
  6
CONTINUOUS
 62
     7
 10
230.16765393469461
 20
-44.672365963488389
 30
0.0
 11
231.6676539346945
 21
-44.672365963488389
 31
0.0
  0
LINE
  5
504
  8
DATA
  6
CONTINUOUS
 62
     7
 10
230.16765393469461
 20
-47.672365963488403
 30
0.0
 11
230.16765393469461
 21
-46.172365963488389
 31
0.0
  0
LINE
  5
505
  8
DATA
  6
CONTINUOUS
 62
     7
 10
231.6676539346945
 20
-47.672365963488403
 30
0.0
 11
230.16765393469461
 21
-47.672365963488403
 31
0.0
  0
LINE
  5
506
  8
DATA
  6
CONTINUOUS
 62
     7
 10
231.6676539346945
 20
-46.172365963488389
 30
0.0
 11
231.6676539346945
 21
-47.672365963488403
 31
0.0
  0
LINE
  5
507
  8
DATA
  6
CONTINUOUS
 62
     7
 10
230.16765393469461
 20
-46.009958489888149
 30
0.0
 11
231.6676539346945
 21
-46.009958489888149
 31
0.0
  0
TEXT
  5
508
  8
DATA
 62
     7
 10
231.32163582897169
 20
-43.325318924594349
 30
0.0
 40
0.9773046875
  1
4
 50
180.0
 41
0.7
 11
231.32163582897169
 21
-44.302623612094351
 31
0.0
 73
     3
  0
POLYLINE
  5
509
  8
DATA
  6
CONTINUOUS
 62
     7
 66
     1
 10
0.0
 20
0.0
 30
0.0
 70
     1
  0
VERTEX
  5
767
  8
DATA
  6
CONTINUOUS
 62
     7
 10
273.48082822417439
 20
-89.604338700217866
 30
0.0
  0
VERTEX
  5
768
  8
DATA
  6
CONTINUOUS
 62
     7
 10
351.48082822417427
 20
-89.604338700217866
 30
0.0
  0
VERTEX
  5
769
  8
DATA
  6
CONTINUOUS
 62
     7
 10
351.48082822417427
 20
-137.6043387002187
 30
0.0
  0
VERTEX
  5
76A
  8
DATA
  6
CONTINUOUS
 62
     7
 10
273.48082822417439
 20
-137.6043387002187
 30
0.0
  0
SEQEND
  5
76B
  8
DATA
  6
CONTINUOUS
 62
     7
  0
LINE
  5
510
  8
DATA
  6
CONTINUOUS
 62
     7
 10
292.87490461600669
 20
-112.570142919288
 30
0.0
 11
292.87490461600669
 21
-121.5701429192883
 31
0.0
  0
LINE
  5
511
  8
DATA
  6
CONTINUOUS
 62
     7
 10
283.87490461600669
 20
-121.5701429192883
 30
0.0
 11
283.87490461600669
 21
-112.570142919288
 31
0.0
  0
LINE
  5
512
  8
DATA
  6
CONTINUOUS
 62
     7
 10
292.87490461600669
 20
-121.5701429192883
 30
0.0
 11
283.87490461600669
 21
-121.5701429192883
 31
0.0
  0
LINE
  5
513
  8
DATA
  6
CONTINUOUS
 62
     7
 10
309.07490461600707
 20
-112.570142919288
 30
0.0
 11
309.07490461600707
 21
-121.5701429192883
 31
0.0
  0
LINE
  5
514
  8
DATA
  6
CONTINUOUS
 62
     7
 10
300.07490461600707
 20
-121.5701429192883
 30
0.0
 11
300.07490461600707
 21
-112.570142919288
 31
0.0
  0
LINE
  5
515
  8
DATA
  6
CONTINUOUS
 62
     7
 10
309.07490461600707
 20
-121.5701429192883
 30
0.0
 11
300.07490461600707
 21
-121.5701429192883
 31
0.0
  0
LINE
  5
516
  8
DATA
  6
CONTINUOUS
 62
     7
 10
292.87490461600669
 20
-103.57014291928741
 30
0.0
 11
292.87490461600669
 21
-112.570142919288
 31
0.0
  0
LINE
  5
517
  8
DATA
  6
CONTINUOUS
 62
     7
 10
283.87490461600669
 20
-103.57014291928741
 30
0.0
 11
292.87490461600669
 21
-103.57014291928741
 31
0.0
  0
LINE
  5
518
  8
DATA
  6
CONTINUOUS
 62
     7
 10
283.87490461600669
 20
-112.570142919288
 30
0.0
 11
283.87490461600669
 21
-103.57014291928741
 31
0.0
  0
LINE
  5
519
  8
DATA
  6
CONTINUOUS
 62
     7
 10
309.07490461600707
 20
-103.57014291928741
 30
0.0
 11
309.07490461600707
 21
-112.570142919288
 31
0.0
  0
LINE
  5
51A
  8
DATA
  6
CONTINUOUS
 62
     7
 10
300.07490461600707
 20
-103.57014291928741
 30
0.0
 11
309.07490461600707
 21
-103.57014291928741
 31
0.0
  0
LINE
  5
51B
  8
DATA
  6
CONTINUOUS
 62
     7
 10
300.07490461600707
 20
-112.570142919288
 30
0.0
 11
300.07490461600707
 21
-103.57014291928741
 31
0.0
  0
LINE
  5
51C
  8
DATA
  6
CONTINUOUS
 62
     7
 10
309.07490461600707
 20
-113.5445877608895
 30
0.0
 11
300.07490461600707
 21
-113.5445877608895
 31
0.0
  0
LINE
  5
51D
  8
DATA
  6
CONTINUOUS
 62
     7
 10
292.87490461600669
 20
-113.5445877608895
 30
0.0
 11
283.87490461600669
 21
-113.5445877608895
 31
0.0
  0
TEXT
  5
51E
  8
DATA
 62
     7
 10
286.22944573439588
 20
-129.65242515265271
 30
0.0
 40
5.8638281250000004
  1
1
 41
0.7
 11
286.22944573439588
 21
-123.7885970276527
 31
0.0
 73
     3
  0
TEXT
  5
51F
  8
DATA
 62
     7
 10
302.15101325034419
 20
-129.65242515265271
 30
0.0
 40
5.8638281250000004
  1
2
 41
0.7
 11
302.15101325034419
 21
-123.7885970276527
 31
0.0
 73
     3
  0
TEXT
  5
520
  8
DATA
 62
     7
 10
284.35731375513382
 20
-100.78717642315669
 30
0.0
 40
5.8638281250000004
  1
ON
 41
0.7
 11
284.35731375513382
 21
-94.923348298156782
 31
0.0
 73
     3
  0
LINE
  5
521
  8
DATA
  6
CONTINUOUS
 62
     7
 10
325.27490461600701
 20
-112.570142919288
 30
0.0
 11
325.27490461600701
 21
-121.5701429192883
 31
0.0
  0
LINE
  5
522
  8
DATA
  6
CONTINUOUS
 62
     7
 10
316.27490461600689
 20
-121.5701429192883
 30
0.0
 11
316.27490461600689
 21
-112.570142919288
 31
0.0
  0
LINE
  5
523
  8
DATA
  6
CONTINUOUS
 62
     7
 10
325.27490461600701
 20
-121.5701429192883
 30
0.0
 11
316.27490461600689
 21
-121.5701429192883
 31
0.0
  0
LINE
  5
524
  8
DATA
  6
CONTINUOUS
 62
     7
 10
325.27490461600701
 20
-103.57014291928741
 30
0.0
 11
325.27490461600701
 21
-112.570142919288
 31
0.0
  0
LINE
  5
525
  8
DATA
  6
CONTINUOUS
 62
     7
 10
316.27490461600689
 20
-103.57014291928741
 30
0.0
 11
325.27490461600701
 21
-103.57014291928741
 31
0.0
  0
LINE
  5
526
  8
DATA
  6
CONTINUOUS
 62
     7
 10
316.27490461600689
 20
-112.570142919288
 30
0.0
 11
316.27490461600689
 21
-103.57014291928741
 31
0.0
  0
LINE
  5
527
  8
DATA
  6
CONTINUOUS
 62
     7
 10
325.27490461600701
 20
-113.5445877608895
 30
0.0
 11
316.27490461600689
 21
-113.5445877608895
 31
0.0
  0
TEXT
  5
528
  8
DATA
 62
     7
 10
318.35101325034412
 20
-129.65242515265271
 30
0.0
 40
5.8638281250000004
  1
3
 41
0.7
 11
318.35101325034412
 21
-123.7885970276527
 31
0.0
 73
     3
  0
LINE
  5
529
  8
DATA
  6
CONTINUOUS
 62
     7
 10
341.474904616007
 20
-112.570142919288
 30
0.0
 11
341.474904616007
 21
-121.5701429192883
 31
0.0
  0
LINE
  5
52A
  8
DATA
  6
CONTINUOUS
 62
     7
 10
332.47490461600711
 20
-121.5701429192883
 30
0.0
 11
332.47490461600711
 21
-112.570142919288
 31
0.0
  0
LINE
  5
52B
  8
DATA
  6
CONTINUOUS
 62
     7
 10
341.474904616007
 20
-121.5701429192883
 30
0.0
 11
332.47490461600711
 21
-121.5701429192883
 31
0.0
  0
LINE
  5
52C
  8
DATA
  6
CONTINUOUS
 62
     7
 10
341.474904616007
 20
-103.57014291928741
 30
0.0
 11
341.474904616007
 21
-112.570142919288
 31
0.0
  0
LINE
  5
52D
  8
DATA
  6
CONTINUOUS
 62
     7
 10
332.47490461600711
 20
-103.57014291928741
 30
0.0
 11
341.474904616007
 21
-103.57014291928741
 31
0.0
  0
LINE
  5
52E
  8
DATA
  6
CONTINUOUS
 62
     7
 10
332.47490461600711
 20
-112.570142919288
 30
0.0
 11
332.47490461600711
 21
-103.57014291928741
 31
0.0
  0
LINE
  5
52F
  8
DATA
  6
CONTINUOUS
 62
     7
 10
341.474904616007
 20
-113.5445877608895
 30
0.0
 11
332.47490461600711
 21
-113.5445877608895
 31
0.0
  0
TEXT
  5
530
  8
DATA
 62
     7
 10
334.55101325034423
 20
-129.65242515265271
 30
0.0
 40
5.8638281250000004
  1
4
 41
0.7
 11
334.55101325034423
 21
-123.7885970276527
 31
0.0
 73
     3
  0
TEXT
  5
531
  8
DATA
 62
     7
 10
275.29005794358642
 20
-152.4028255383939
 30
0.0
 40
8.1442057291666661
  1
スイッチ拡大図
 41
0.7
 11
275.29005794358642
 21
-144.25861980922721
 31
0.0
 73
     3
  0
LINE
  5
532
  8
DATA
  6
CONTINUOUS
 62
     7
 10
356.25
 20
-156.25
 30
0.0
 11
268.75
 21
-156.25
 31
0.0
  0
LINE
  5
533
  8
DATA
  6
CONTINUOUS
 62
     7
 10
187.5
 20
-156.25
 30
0.0
 11
81.25
 21
-156.25
 31
0.0
  0
CIRCLE
  5
534
  8
DATA
  6
CONTINUOUS
 62
     7
 10
145.25
 20
-32.300000000000011
 30
0.0
 40
1.5
  0
CIRCLE
  5
535
  8
DATA
  6
CONTINUOUS
 62
     7
 10
254.75
 20
-32.300000000000011
 30
0.0
 40
1.5
  0
ENDSEC
  0
EOF
