  0
SECTION
  2
HEADER
  9
$ACADVER
  1
AC1009
  9
$INSBASE
 10
0.0
 20
0.0
 30
0.0
  9
$EXTMIN
 10
9.9963383446405487
 20
2.4224859830253531
 30
-0.0015258207003583
  9
$EXTMAX
 10
190.00579878222879
 20
270.00824037474621
 30
0.0000000349246037
  9
$LIMMIN
 10
0.0
 20
0.0
  9
$LIMMAX
 10
0.0
 20
0.0
  9
$ORTHOMODE
 70
     0
  9
$REGENMODE
 70
     1
  9
$FILLMODE
 70
     1
  9
$QTEXTMODE
 70
     0
  9
$MIRRTEXT
 70
     1
  9
$DRAGMODE
 70
     2
  9
$LTSCALE
 40
5.0800000000000001
  9
$OSMODE
 70
   231
  9
$ATTMODE
 70
     1
  9
$TEXTSIZE
 40
0.0
  9
$TRACEWID
 40
1.0
  9
$TEXTSTYLE
  7
STANDARD
  9
$CLAYER
  8
DATA
  9
$CELTYPE
  6
BYLAYER
  9
$CECOLOR
 62
   256
  9
$DIMSCALE
 40
1.0
  9
$DIMASZ
 40
0.18
  9
$DIMEXO
 40
0.0625
  9
$DIMDLI
 40
0.38
  9
$DIMRND
 40
0.0
  9
$DIMDLE
 40
0.0
  9
$DIMEXE
 40
0.18
  9
$DIMTP
 40
0.0
  9
$DIMTM
 40
0.0
  9
$DIMTXT
 40
0.18
  9
$DIMCEN
 40
0.09
  9
$DIMTSZ
 40
0.0
  9
$DIMTOL
 70
     0
  9
$DIMLIM
 70
     0
  9
$DIMTIH
 70
     1
  9
$DIMTOH
 70
     1
  9
$DIMSE1
 70
     0
  9
$DIMSE2
 70
     0
  9
$DIMTAD
 70
     0
  9
$DIMZIN
 70
     0
  9
$DIMBLK
  1

  9
$DIMASO
 70
     1
  9
$DIMSHO
 70
     1
  9
$DIMPOST
  1

  9
$DIMAPOST
  1

  9
$DIMALT
 70
     0
  9
$DIMALTD
 70
     2
  9
$DIMALTF
 40
25.399999999999999
  9
$DIMLFAC
 40
1.0
  9
$DIMTOFL
 70
     0
  9
$DIMTVP
 40
0.0
  9
$DIMTIX
 70
     0
  9
$DIMSOXD
 70
     0
  9
$DIMSAH
 70
     0
  9
$DIMBLK1
  1

  9
$DIMBLK2
  1

  9
$DIMSTYLE
  2
STANDARD
  9
$DIMCLRD
 70
     0
  9
$DIMCLRE
 70
     0
  9
$DIMCLRT
 70
     0
  9
$DIMTFAC
 40
1.0
  9
$DIMGAP
 40
0.09
  9
$LUNITS
 70
     2
  9
$LUPREC
 70
     4
  9
$SKETCHINC
 40
0.1
  9
$FILLETRAD
 40
0.0
  9
$AUNITS
 70
     0
  9
$AUPREC
 70
     0
  9
$MENU
  1
acad
  9
$ELEVATION
 40
0.0
  9
$PELEVATION
 40
0.0
  9
$THICKNESS
 40
0.0
  9
$LIMCHECK
 70
     0
  9
$BLIPMODE
 70
     0
  9
$CHAMFERA
 40
0.0
  9
$CHAMFERB
 40
0.0
  9
$SKPOLY
 70
     0
  9
$TDCREATE
 40
2455202.6457175929
  9
$TDUPDATE
 40
2455202.6468387269
  9
$TDINDWG
 40
0.0002564815
  9
$TDUSRTIMER
 40
0.0002564815
  9
$USRTIMER
 70
     1
  9
$ANGBASE
 50
0.0
  9
$ANGDIR
 70
     0
  9
$PDMODE
 70
     1
  9
$PDSIZE
 40
-2.0
  9
$PLINEWID
 40
0.0
  9
$COORDS
 70
     0
  9
$SPLFRAME
 70
     0
  9
$SPLINETYPE
 70
     6
  9
$SPLINESEGS
 70
     8
  9
$ATTDIA
 70
     0
  9
$ATTREQ
 70
     1
  9
$HANDLING
 70
     1
  9
$HANDSEED
  5
22B
  9
$SURFTAB1
 70
     6
  9
$SURFTAB2
 70
     6
  9
$SURFTYPE
 70
     6
  9
$SURFU
 70
     6
  9
$SURFV
 70
     6
  9
$UCSNAME
  2

  9
$UCSORG
 10
0.0
 20
0.0
 30
0.0
  9
$UCSXDIR
 10
1.0
 20
0.0
 30
0.0
  9
$UCSYDIR
 10
0.0
 20
1.0
 30
0.0
  9
$PUCSNAME
  2

  9
$PUCSORG
 10
0.0
 20
0.0
 30
0.0
  9
$PUCSXDIR
 10
1.0
 20
0.0
 30
0.0
  9
$PUCSYDIR
 10
0.0
 20
1.0
 30
0.0
  9
$USERI1
 70
     0
  9
$USERI2
 70
     0
  9
$USERI3
 70
     0
  9
$USERI4
 70
     0
  9
$USERI5
 70
     0
  9
$USERR1
 40
0.0
  9
$USERR2
 40
0.0
  9
$USERR3
 40
0.0
  9
$USERR4
 40
0.0
  9
$USERR5
 40
0.0
  9
$WORLDVIEW
 70
     1
  9
$SHADEDGE
 70
     3
  9
$SHADEDIF
 70
    70
  9
$TILEMODE
 70
     1
  9
$MAXACTVP
 70
    64
  9
$PLIMCHECK
 70
     0
  9
$PEXTMIN
 10
1.0000000000000000E+020
 20
1.0000000000000000E+020
 30
1.0000000000000000E+020
  9
$PEXTMAX
 10
-1.0000000000000000E+020
 20
-1.0000000000000000E+020
 30
-1.0000000000000000E+020
  9
$PLIMMIN
 10
0.0
 20
0.0
  9
$PLIMMAX
 10
12.0
 20
9.0
  9
$UNITMODE
 70
     0
  9
$VISRETAIN
 70
     0
  9
$PLINEGEN
 70
     1
  9
$PSLTSCALE
 70
     0
  0
ENDSEC
  0
SECTION
  2
TABLES
  0
TABLE
  2
VPORT
 70
     1
  0
VPORT
  2
*ACTIVE
 70
     0
 10
0.0
 20
0.0
 11
1.0
 21
1.0
 12
100.0010685634347
 22
136.2153631788857
 13
0.0
 23
0.0
 14
1.0
 24
1.0
 15
0.0
 25
0.0
 16
0.0
 26
0.0
 36
1.0
 17
0.0
 27
0.0
 37
0.0
 40
269.55813095971871
 41
1.964329643296433
 42
50.0
 43
0.0
 44
0.0
 50
0.0
 51
0.0
 71
     0
 72
  2000
 73
     1
 74
     1
 75
     0
 76
     0
 77
     0
 78
     0
  0
ENDTAB
  0
TABLE
  2
LTYPE
 70
    11
  0
LTYPE
  2
CONTINUOUS
 70
     0
  3
Solid line
 72
    65
 73
     0
 40
0.0
  0
ENDTAB
  0
TABLE
  2
LAYER
 70
     6
  0
LAYER
  2
0
 70
     0
 62
     7
  6
CONTINUOUS
  0
LAYER
  2
DATA
 70
     0
 62
     7
  6
CONTINUOUS
  0
LAYER
  2
HIBINO-BASE
 70
     0
 62
     7
  6
CONTINUOUS
  0
LAYER
  2
SPEC
 70
     0
 62
     7
  6
CONTINUOUS
  0
LAYER
  2
DIMNSIONS
 70
     0
 62
     7
  6
CONTINUOUS
  0
ENDTAB
  0
TABLE
  2
STYLE
 70
     3
  0
STYLE
  2
STANDARD
 70
     0
 40
0.0
 41
1.0
 50
0.0
 71
     0
 42
0.0
  3
txt
  4
BIGFONT.SHX
  0
ENDTAB
  0
TABLE
  2
VIEW
 70
     0
  0
ENDTAB
  0
TABLE
  2
UCS
 70
     0
  0
ENDTAB
  0
TABLE
  2
APPID
 70
     3
  0
APPID
  2
ACAD
 70
     0
  0
APPID
  2
ACADANNOTATIVE
 70
     0
  0
APPID
  2
ACAD_MLEADERVER
 70
     0
  0
ENDTAB
  0
TABLE
  2
DIMSTYLE
 70
     2
  0
DIMSTYLE
  2
STANDARD
 70
     0
  3

  4

  5

  6

  7

 40
1.0
 41
0.18
 42
0.0625
 43
0.38
 44
0.18
 45
0.0
 46
0.0
 47
0.0
 48
0.0
140
0.18
141
0.09
142
0.0
143
25.399999999999999
144
1.0
145
0.0
146
1.0
147
0.09
 71
     0
 72
     0
 73
     1
 74
     1
 75
     0
 76
     0
 77
     0
 78
     0
170
     0
171
     2
172
     0
173
     0
174
     0
175
     0
176
     0
177
     0
178
     0
  0
ENDTAB
  0
ENDSEC
  0
SECTION
  2
BLOCKS
  0
BLOCK
  8
0
  2
$MODEL_SPACE
 70
     0
 10
0.0
 20
0.0
 30
0.0
  3
$MODEL_SPACE
  1

  0
ENDBLK
  5
1AA
  8
0
  0
BLOCK
 67
     1
  8
0
  2
$PAPER_SPACE
 70
     0
 10
0.0
 20
0.0
 30
0.0
  3
$PAPER_SPACE
  1

  0
ENDBLK
  5
1A6
 67
     1
  8
0
  0
ENDSEC
  0
SECTION
  2
ENTITIES
  0
LINE
  5
2D
  8
HIBINO-BASE
  6
CONTINUOUS
 62
     7
 10
10.0
 20
270.0
 30
0.0
 11
190.0
 21
270.0
 31
0.0
  0
LINE
  5
2E
  8
HIBINO-BASE
  6
CONTINUOUS
 62
     7
 10
190.0
 20
10.0
 30
0.0
 11
10.0
 21
10.0
 31
0.0
  0
LINE
  5
2F
  8
HIBINO-BASE
  6
CONTINUOUS
 62
     7
 10
10.0
 20
10.0
 30
0.0
 11
10.0
 21
270.0
 31
0.0
  0
LINE
  5
30
  8
HIBINO-BASE
  6
CONTINUOUS
 62
     7
 10
190.0
 20
270.0
 30
0.0
 11
190.0
 21
10.0
 31
0.0
  0
LINE
  5
31
  8
HIBINO-BASE
  6
CONTINUOUS
 62
     7
 10
100.0
 20
32.500000000000007
 30
0.0
 11
190.0
 21
32.500000000000007
 31
0.0
  0
LINE
  5
32
  8
HIBINO-BASE
  6
CONTINUOUS
 62
     7
 10
100.0
 20
10.0
 30
0.0
 11
100.0
 21
32.500000000000007
 31
0.0
  0
TEXT
  5
33
  8
HIBINO-BASE
 62
     7
 10
100.90000000000001
 20
29.991306666666681
 30
0.0
 40
1.6288411458333329
  1
NOTE
 41
0.7
 11
100.90000000000001
 21
31.620147812500011
 31
0.0
 73
     3
  0
LINE
  5
34
  8
HIBINO-BASE
  6
CONTINUOUS
 62
     7
 10
135.0
 20
10.0
 30
0.0
 11
135.0
 21
32.500000000000007
 31
0.0
  0
TEXT
  5
35
  8
HIBINO-BASE
 62
     7
 10
135.89999999999989
 20
29.991306666666681
 30
0.0
 40
1.6288411458333329
  1
TITLE
 41
0.7
 11
135.89999999999989
 21
31.620147812500011
 31
0.0
 73
     3
  0
LINE
  5
36
  8
HIBINO-BASE
  6
CONTINUOUS
 62
     7
 10
100.0
 20
20.000000000000011
 30
0.0
 11
190.0
 21
20.000000000000011
 31
0.0
  0
TEXT
  5
37
  8
HIBINO-BASE
 62
     7
 10
148.39999999999989
 20
17.54762666666667
 30
0.0
 40
1.6288411458333329
  1
DRAWN
 41
0.7
 11
148.39999999999989
 21
19.176467812500011
 31
0.0
 73
     3
  0
TEXT
  5
38
  8
HIBINO-BASE
 62
     7
 10
123.39999999999991
 20
17.54762666666667
 30
0.0
 40
1.6288411458333329
  1
DATE
 41
0.7
 11
123.39999999999991
 21
19.176467812500011
 31
0.0
 73
     3
  0
TEXT
  5
39
  8
HIBINO-BASE
 62
     7
 10
113.40000000000001
 20
17.54762666666667
 30
0.0
 40
1.6288411458333329
  1
SCALE
 41
0.7
 11
113.40000000000001
 21
19.176467812500011
 31
0.0
 73
     3
  0
TEXT
  5
3A
  8
HIBINO-BASE
 62
     7
 10
135.89999999999989
 20
17.54762666666667
 30
0.0
 40
1.6288411458333329
  1
DESIGN
 41
0.7
 11
135.89999999999989
 21
19.176467812500011
 31
0.0
 73
     3
  0
TEXT
  5
3B
  8
HIBINO-BASE
 62
     7
 10
173.39999999999989
 20
17.54762666666667
 30
0.0
 40
1.6288411458333329
  1
DRAWING NO.
 41
0.7
 11
173.39999999999989
 21
19.176467812500011
 31
0.0
 73
     3
  0
TEXT
  5
3C
  8
HIBINO-BASE
 62
     7
 10
160.89999999999989
 20
17.54762666666667
 30
0.0
 40
1.6288411458333329
  1
CHECK
 41
0.7
 11
160.89999999999989
 21
19.176467812500011
 31
0.0
 73
     3
  0
LINE
  5
3D
  8
HIBINO-BASE
  6
CONTINUOUS
 62
     7
 10
114.375
 20
11.25
 30
0.0
 11
118.125
 21
15.000000000000011
 31
0.0
  0
TEXT
  5
3E
  8
HIBINO-BASE
 62
     7
 10
113.75
 20
13.891056666666669
 30
0.0
 40
1.6288411458333329
  1
1
 41
0.7
 11
113.75
 21
15.5198978125
 31
0.0
 73
     3
  0
LINE
  5
3F
  8
HIBINO-BASE
  6
CONTINUOUS
 62
     7
 10
112.5
 20
10.0
 30
0.0
 11
112.5
 21
20.000000000000011
 31
0.0
  0
LINE
  5
40
  8
HIBINO-BASE
  6
CONTINUOUS
 62
     7
 10
122.5
 20
10.0
 30
0.0
 11
122.5
 21
20.000000000000011
 31
0.0
  0
LINE
  5
41
  8
HIBINO-BASE
  6
CONTINUOUS
 62
     7
 10
147.49999999999989
 20
20.000000000000011
 30
0.0
 11
147.49999999999989
 21
10.0
 31
0.0
  0
LINE
  5
42
  8
HIBINO-BASE
  6
CONTINUOUS
 62
     7
 10
172.5
 20
20.000000000000011
 30
0.0
 11
172.5
 21
10.0
 31
0.0
  0
LINE
  5
43
  8
HIBINO-BASE
  6
CONTINUOUS
 62
     7
 10
159.99999999999989
 20
10.0
 30
0.0
 11
159.99999999999989
 21
20.000000000000011
 31
0.0
  0
TEXT
  5
44
  8
HIBINO-BASE
 62
     7
 10
123.35654
 20
12.86364666666667
 30
0.0
 40
1.6288411458333329
  1
'09.10.
 41
0.7
 11
123.35654
 21
14.4924878125
 31
0.0
 73
     3
  0
TEXT
  5
45
  8
HIBINO-BASE
 62
     7
 10
117.5
 20
12.016056666666669
 30
0.0
 40
1.6288411458333329
  1
1
 41
0.7
 11
117.5
 21
13.6448978125
 31
0.0
 73
     3
  0
TEXT
  5
46
  8
HIBINO-BASE
 62
     7
 10
103.8833333333333
 20
11.97600000000001
 30
0.0
 40
3.2576822916666659
  1
A4
 41
0.7
 11
103.8833333333333
 21
15.23368229166668
 31
0.0
 73
     3
  0
TEXT
  5
47
  8
HIBINO-BASE
 62
     7
 10
100.9583333333333
 20
17.380545000000009
 30
0.0
 40
1.6288411458333329
  1
PAPER SIZE
 41
0.7
 11
100.9583333333333
 21
19.009386145833339
 31
0.0
 73
     3
  0
TEXT
  5
48
  8
HIBINO-BASE
 62
     7
 10
12.914210746798121
 20
3.6055064617452159
 30
0.0
 40
3.5291558159722221
  1
Hibino-Intersound Corporation
 41
0.7
 11
12.914210746798121
 21
7.134662277717438
 31
0.0
 73
     3
  0
TEXT
  5
49
  8
HIBINO-BASE
 62
     7
 10
120.6459666039878
 20
3.9158454622045098
 30
0.0
 40
3.5291558159722221
  1
ヒビノインターサウンド株式会社
 41
0.7
 11
120.6459666039878
 21
7.4450012781767319
 31
0.0
 73
     3
  0
TEXT
  5
4A
  8
HIBINO-BASE
 62
     7
 10
149.60022779846969
 20
12.949501375176339
 30
0.0
 40
1.6288411458333329
  1
T.Ootake
 41
0.7
 11
149.60022779846969
 21
14.57834252100967
 31
0.0
 73
     3
  0
LINE
  5
4B
  8
SPEC
  6
CONTINUOUS
 62
     7
 10
17.5
 20
260.0
 30
0.0
 11
165.0
 21
260.0
 31
0.0
  0
LINE
  5
4C
  8
SPEC
  6
CONTINUOUS
 62
     7
 10
17.5
 20
256.25
 30
0.0
 11
165.0
 21
256.25
 31
0.0
  0
LINE
  5
4D
  8
SPEC
  6
CONTINUOUS
 62
     7
 10
17.5
 20
241.25
 30
0.0
 11
165.0
 21
241.25
 31
0.0
  0
LINE
  5
4E
  8
SPEC
  6
CONTINUOUS
 62
     7
 10
17.5
 20
245.0
 30
0.0
 11
165.0
 21
245.0
 31
0.0
  0
LINE
  5
4F
  8
SPEC
  6
CONTINUOUS
 62
     7
 10
17.5
 20
248.75
 30
0.0
 11
165.0
 21
248.75
 31
0.0
  0
LINE
  5
50
  8
SPEC
  6
CONTINUOUS
 62
     7
 10
165.0
 20
237.5
 30
0.0
 11
17.5
 21
237.5
 31
0.0
  0
LINE
  5
51
  8
SPEC
  6
CONTINUOUS
 62
     7
 10
17.5
 20
252.5
 30
0.0
 11
165.0
 21
252.5
 31
0.0
  0
LINE
  5
52
  8
SPEC
  6
CONTINUOUS
 62
     7
 10
17.5
 20
260.0
 30
0.0
 11
17.5
 21
218.75
 31
0.0
  0
TEXT
  5
53
  8
SPEC
 62
     7
 10
18.75
 20
261.39326999999997
 30
0.0
 40
2.4432617187500001
  1
仕様
 41
0.7
 11
18.75
 21
263.83653171875
 31
0.0
 73
     3
  0
LINE
  5
54
  8
SPEC
  6
CONTINUOUS
 62
     7
 10
50.0
 20
260.0
 30
0.0
 11
50.0
 21
237.5
 31
0.0
  0
LINE
  5
55
  8
SPEC
  6
CONTINUOUS
 62
     7
 10
165.0
 20
260.0
 30
0.0
 11
165.0
 21
218.75
 31
0.0
  0
TEXT
  5
56
  8
SPEC
 62
     7
 10
18.37173077945242
 20
257.1505140937108
 30
0.0
 40
1.900311249999999
  1
形式
 41
0.7
 11
18.37173077945242
 21
259.05082534371081
 31
0.0
 73
     3
  0
LINE
  5
57
  8
SPEC
  6
CONTINUOUS
 62
     7
 10
50.0
 20
260.0
 30
0.0
 11
50.0
 21
218.75
 31
0.0
  0
TEXT
  5
58
  8
SPEC
 62
     7
 10
18.288803047631259
 20
223.50765757640539
 30
0.0
 40
1.900314670138888
  1
寸法
 41
0.7
 11
18.288803047631259
 21
225.4079722465442
 31
0.0
 73
     3
  0
TEXT
  5
59
  8
SPEC
 62
     7
 10
18.350636777250671
 20
219.7260925381311
 30
0.0
 40
1.900314670138888
  1
重量
 41
0.7
 11
18.350636777250671
 21
221.62640720827
 31
0.0
 73
     3
  0
TEXT
  5
5A
  8
SPEC
 62
     7
 10
18.3541995908936
 20
230.93739019547471
 30
0.0
 40
1.900314670138888
  1
電源
 41
0.7
 11
18.3541995908936
 21
232.8377048656136
 31
0.0
 73
     3
  0
TEXT
  5
5B
  8
SPEC
 62
     7
 10
50.890157968692982
 20
230.87502363579949
 30
0.0
 40
1.900314670138888
  1
5V DC
 41
0.7
 11
50.890157968692982
 21
232.77533830593839
 31
0.0
 73
     3
  0
TEXT
  5
5C
  8
SPEC
 62
     7
 10
50.958825643204861
 20
223.33423176124529
 30
0.0
 40
1.900314670138888
  1
40(W)\U+00D729(H)\U+00D745(D)mm(突起部含まず)
 41
0.7
 11
50.958825643204861
 21
225.23454643138419
 31
0.0
 73
     3
  0
TEXT
  5
5D
  8
SPEC
 62
     7
 10
50.862721810047638
 20
219.8165430072203
 30
0.0
 40
1.900314670138888
  1
約50g
 41
0.7
 11
50.862721810047638
 21
221.7168576773592
 31
0.0
 73
     3
  0
TEXT
  5
5E
  8
SPEC
 62
     7
 10
18.06114706493258
 20
253.479463648007
 30
0.0
 40
1.900311249999999
  1
ビデオアンプ帯域
 41
0.7
 11
18.06114706493258
 21
255.37977489800701
 31
0.0
 73
     3
  0
TEXT
  5
5F
  8
SPEC
 62
     7
 10
50.931626308033287
 20
253.35250086515441
 30
0.0
 40
1.900314670138888
  1
225MHz
 41
0.7
 11
50.931626308033287
 21
255.25281553529331
 31
0.0
 73
     3
  0
TEXT
  5
60
  8
SPEC
 62
     7
 10
18.416532071770401
 20
249.6505140937108
 30
0.0
 40
1.900311249999999
  1
入力ビデオ信号
 41
0.7
 11
18.416532071770401
 21
251.55082534371081
 31
0.0
 73
     3
  0
TEXT
  5
61
  8
SPEC
 62
     7
 10
50.884728031253999
 20
249.65005580889141
 30
0.0
 40
1.900314670138888
  1
1.2Vp-p
 41
0.7
 11
50.884728031253999
 21
251.55037047903031
 31
0.0
 73
     3
  0
LINE
  5
62
  8
SPEC
  6
CONTINUOUS
 62
     7
 10
165.0
 20
233.75
 30
0.0
 11
17.5
 21
233.75
 31
0.0
  0
LINE
  5
63
  8
SPEC
  6
CONTINUOUS
 62
     7
 10
165.0
 20
230.0
 30
0.0
 11
17.5
 21
230.0
 31
0.0
  0
LINE
  5
64
  8
SPEC
  6
CONTINUOUS
 62
     7
 10
165.0
 20
226.25
 30
0.0
 11
17.5
 21
226.25
 31
0.0
  0
LINE
  5
65
  8
SPEC
  6
CONTINUOUS
 62
     7
 10
165.0
 20
218.75
 30
0.0
 11
17.5
 21
218.75
 31
0.0
  0
TEXT
  5
66
  8
SPEC
 62
     7
 10
18.416532071770401
 20
245.94789508804729
 30
0.0
 40
1.900311249999999
  1
入力DDC信号
 41
0.7
 11
18.416532071770401
 21
247.84820633804731
 31
0.0
 73
     3
  0
TEXT
  5
67
  8
SPEC
 62
     7
 10
50.931626308033287
 20
245.80625925533269
 30
0.0
 40
1.900314670138888
  1
5Vp-p(TTL)
 41
0.7
 11
50.931626308033287
 21
247.70657392547159
 31
0.0
 73
     3
  0
TEXT
  5
68
  8
SPEC
 62
     7
 10
18.463913066106912
 20
242.24527608238381
 30
0.0
 40
1.900311249999999
  1
最大対応解像度
 41
0.7
 11
18.463913066106912
 21
244.1455873323838
 31
0.0
 73
     3
  0
TEXT
  5
69
  8
SPEC
 62
     7
 10
50.806367055617471
 20
242.08757406843671
 30
0.0
 40
1.900314670138888
  1
1080p/1920\U+00D71200
 41
0.7
 11
50.806367055617471
 21
243.98788873857561
 31
0.0
 73
     3
  0
TEXT
  5
6A
  8
SPEC
 62
     7
 10
18.463913066106912
 20
238.49527608238381
 30
0.0
 40
1.900311249999999
  1
HDMI端子
 41
0.7
 11
18.463913066106912
 21
240.3955873323838
 31
0.0
 73
     3
  0
TEXT
  5
6B
  8
SPEC
 62
     7
 10
50.931626308033287
 20
238.33757406843671
 30
0.0
 40
1.900314670138888
  1
TypeA 19pinメス
 41
0.7
 11
50.931626308033287
 21
240.23788873857561
 31
0.0
 73
     3
  0
TEXT
  5
6C
  8
SPEC
 62
     7
 10
17.942722128405329
 20
234.74527608238381
 30
0.0
 40
1.900311249999999
  1
リンクコネクター
 41
0.7
 11
17.942722128405329
 21
236.6455873323838
 31
0.0
 73
     3
  0
TEXT
  5
6D
  8
SPEC
 62
     7
 10
50.931626308033287
 20
234.55625925533269
 30
0.0
 40
1.900314670138888
  1
LC
 41
0.7
 11
50.931626308033287
 21
236.45657392547159
 31
0.0
 73
     3
  0
TEXT
  5
6E
  8
SPEC
 62
     7
 10
18.3541995908936
 20
227.18739019547471
 30
0.0
 40
1.900314670138888
  1
消費電力
 41
0.7
 11
18.3541995908936
 21
229.0877048656136
 31
0.0
 73
     3
  0
TEXT
  5
6F
  8
SPEC
 62
     7
 10
50.921571605587943
 20
227.15643727269449
 30
0.0
 40
1.900314670138888
  1
5W(最大)
 41
0.7
 11
50.921571605587943
 21
229.0567519428333
 31
0.0
 73
     3
  0
LINE
  5
70
  8
SPEC
  6
CONTINUOUS
 62
     7
 10
165.0
 20
222.5
 30
0.0
 11
17.5
 21
222.5
 31
0.0
  0
TEXT
  5
71
  8
SPEC
 62
     7
 10
50.886885446191123
 20
257.12466402675329
 30
0.0
 40
1.900314670138888
  1
HDMI1.3ブースタ ー
 41
0.7
 11
50.886885446191123
 21
259.02497869689222
 31
0.0
 73
     3
  0
TEXT
  5
72
  8
DIMNSIONS
 62
     7
 10
79.999999999999986
 20
22.269490000000012
 30
0.0
 40
2.4432617187500001
  1
(単位：mm)
 41
0.7
 11
79.999999999999986
 21
24.71275171875001
 31
0.0
 73
     3
  0
LINE
  5
73
  8
DIMNSIONS
  6
CONTINUOUS
 62
     7
 10
41.750000000000007
 20
106.25
 30
0.0
 11
29.25
 21
106.25
 31
0.0
  0
LINE
  5
74
  8
DIMNSIONS
  6
CONTINUOUS
 62
     7
 10
41.750000000000007
 20
151.25
 30
0.0
 11
29.25
 21
151.25
 31
0.0
  0
LINE
  5
75
  8
DIMNSIONS
  6
CONTINUOUS
 62
     7
 10
31.25
 20
106.25
 30
0.0
 11
31.25
 21
151.25
 31
0.0
  0
LINE
  5
76
  8
DIMNSIONS
  6
CONTINUOUS
 62
     7
 10
31.25
 20
106.25
 30
0.0
 11
30.579960204849758
 21
108.7506225585938
 31
0.0
  0
LINE
  5
77
  8
DIMNSIONS
  6
CONTINUOUS
 62
     7
 10
31.25
 20
106.25
 30
0.0
 11
31.920039795150249
 21
108.7506225585938
 31
0.0
  0
LINE
  5
78
  8
DIMNSIONS
  6
CONTINUOUS
 62
     7
 10
31.25
 20
151.25
 30
0.0
 11
31.920039795150249
 21
148.74937744140621
 31
0.0
  0
LINE
  5
79
  8
DIMNSIONS
  6
CONTINUOUS
 62
     7
 10
31.25
 20
151.25
 30
0.0
 11
30.579960204849758
 21
148.74937744140621
 31
0.0
  0
TEXT
  5
7A
  8
DIMNSIONS
 62
     7
 10
30.256111111111132
 20
126.9861111111111
 30
0.0
 40
2.7147352430555549
  1
45
 50
90.0
 41
0.7
 11
27.541375868055571
 21
126.9861111111111
 31
0.0
 73
     3
  0
LINE
  5
7B
  8
DIMNSIONS
  6
CONTINUOUS
 62
     7
 10
43.750000000000021
 20
104.25
 30
0.0
 11
43.750000000000021
 21
91.75
 31
0.0
  0
LINE
  5
7C
  8
DIMNSIONS
  6
CONTINUOUS
 62
     7
 10
83.750000000000014
 20
104.25
 30
0.0
 11
83.750000000000014
 21
91.75
 31
0.0
  0
LINE
  5
7D
  8
DIMNSIONS
  6
CONTINUOUS
 62
     7
 10
43.750000000000021
 20
93.75
 30
0.0
 11
83.750000000000014
 21
93.75
 31
0.0
  0
LINE
  5
7E
  8
DIMNSIONS
  6
CONTINUOUS
 62
     7
 10
43.750000000000021
 20
93.75
 30
0.0
 11
46.250622558593761
 21
94.420039795150245
 31
0.0
  0
LINE
  5
7F
  8
DIMNSIONS
  6
CONTINUOUS
 62
     7
 10
43.750000000000021
 20
93.75
 30
0.0
 11
46.250622558593761
 21
93.079960204849755
 31
0.0
  0
LINE
  5
80
  8
DIMNSIONS
  6
CONTINUOUS
 62
     7
 10
83.750000000000014
 20
93.75
 30
0.0
 11
81.249377441406267
 21
93.079960204849755
 31
0.0
  0
LINE
  5
81
  8
DIMNSIONS
  6
CONTINUOUS
 62
     7
 10
83.750000000000014
 20
93.75
 30
0.0
 11
81.249377441406267
 21
94.420039795150245
 31
0.0
  0
TEXT
  5
82
  8
DIMNSIONS
 62
     7
 10
61.986111111111128
 20
94.743888888888875
 30
0.0
 40
2.7147352430555549
  1
40
 41
0.7
 11
61.986111111111128
 21
97.458624131944447
 31
0.0
 73
     3
  0
LINE
  5
83
  8
DIMNSIONS
  6
CONTINUOUS
 62
     7
 10
43.600000000000001
 20
50.0
 30
0.0
 11
29.25
 21
50.0
 31
0.0
  0
LINE
  5
84
  8
DIMNSIONS
  6
CONTINUOUS
 62
     7
 10
43.600000000000001
 20
79.0
 30
0.0
 11
29.25
 21
79.0
 31
0.0
  0
LINE
  5
85
  8
DIMNSIONS
  6
CONTINUOUS
 62
     7
 10
31.25
 20
50.0
 30
0.0
 11
31.25
 21
79.0
 31
0.0
  0
LINE
  5
86
  8
DIMNSIONS
  6
CONTINUOUS
 62
     7
 10
31.25
 20
50.0
 30
0.0
 11
30.579960204849758
 21
52.500622558593747
 31
0.0
  0
LINE
  5
87
  8
DIMNSIONS
  6
CONTINUOUS
 62
     7
 10
31.25
 20
50.0
 30
0.0
 11
31.920039795150249
 21
52.500622558593747
 31
0.0
  0
LINE
  5
88
  8
DIMNSIONS
  6
CONTINUOUS
 62
     7
 10
31.25
 20
79.0
 30
0.0
 11
31.920039795150249
 21
76.499377441406267
 31
0.0
  0
LINE
  5
89
  8
DIMNSIONS
  6
CONTINUOUS
 62
     7
 10
31.25
 20
79.0
 30
0.0
 11
30.579960204849758
 21
76.499377441406267
 31
0.0
  0
TEXT
  5
8A
  8
DIMNSIONS
 62
     7
 10
30.256111111111132
 20
62.736111111111121
 30
0.0
 40
2.7147352430555549
  1
29
 50
90.0
 41
0.7
 11
27.541375868055571
 21
62.736111111111121
 31
0.0
 73
     3
  0
LINE
  5
8B
  8
DIMNSIONS
  6
CONTINUOUS
 62
     7
 10
45.404364580628133
 20
47.0
 30
0.0
 11
29.25
 21
47.0
 31
0.0
  0
LINE
  5
8C
  8
DIMNSIONS
  6
CONTINUOUS
 62
     7
 10
43.600000000000001
 20
50.0
 30
0.0
 11
29.25
 21
50.0
 31
0.0
  0
LINE
  5
8D
  8
DIMNSIONS
  6
CONTINUOUS
 62
     7
 10
31.25
 20
50.0
 30
0.0
 11
31.25
 21
47.0
 31
0.0
  0
LINE
  5
8E
  8
DIMNSIONS
  6
CONTINUOUS
 62
     7
 10
31.25
 20
47.0
 30
0.0
 11
31.25
 21
42.162500000000001
 31
0.0
  0
LINE
  5
8F
  8
DIMNSIONS
  6
CONTINUOUS
 62
     7
 10
31.25
 20
47.0
 30
0.0
 11
31.920039795150249
 21
44.499377441406253
 31
0.0
  0
LINE
  5
90
  8
DIMNSIONS
  6
CONTINUOUS
 62
     7
 10
31.25
 20
47.0
 30
0.0
 11
30.579960204849758
 21
44.499377441406253
 31
0.0
  0
LINE
  5
91
  8
DIMNSIONS
  6
CONTINUOUS
 62
     7
 10
31.25
 20
50.0
 30
0.0
 11
31.25
 21
55.0
 31
0.0
  0
LINE
  5
92
  8
DIMNSIONS
  6
CONTINUOUS
 62
     7
 10
31.25
 20
50.0
 30
0.0
 11
30.579960204849758
 21
52.500622558593747
 31
0.0
  0
LINE
  5
93
  8
DIMNSIONS
  6
CONTINUOUS
 62
     7
 10
31.25
 20
50.0
 30
0.0
 11
31.920039795150249
 21
52.500622558593747
 31
0.0
  0
TEXT
  5
94
  8
DIMNSIONS
 62
     7
 10
30.305499999999991
 20
42.162500000000001
 30
0.0
 40
2.4432617187500001
  1
3
 50
90.0
 41
0.7
 11
27.86223828124999
 21
42.162500000000001
 31
0.0
 73
     3
  0
LINE
  5
95
  8
DIMNSIONS
  6
CONTINUOUS
 62
     7
 10
41.750000000000007
 20
151.25
 30
0.0
 11
29.25
 21
151.25
 31
0.0
  0
LINE
  5
96
  8
DIMNSIONS
  6
CONTINUOUS
 62
     7
 10
53.800000000000011
 20
156.25
 30
0.0
 11
29.25
 21
156.25
 31
0.0
  0
LINE
  5
97
  8
DIMNSIONS
  6
CONTINUOUS
 62
     7
 10
31.25
 20
156.25
 30
0.0
 11
31.25
 21
151.25
 31
0.0
  0
LINE
  5
98
  8
DIMNSIONS
  6
CONTINUOUS
 62
     7
 10
31.25
 20
151.25
 30
0.0
 11
31.25
 21
146.25
 31
0.0
  0
LINE
  5
99
  8
DIMNSIONS
  6
CONTINUOUS
 62
     7
 10
31.25
 20
151.25
 30
0.0
 11
31.920039795150249
 21
148.74937744140621
 31
0.0
  0
LINE
  5
9A
  8
DIMNSIONS
  6
CONTINUOUS
 62
     7
 10
31.25
 20
151.25
 30
0.0
 11
30.579960204849758
 21
148.74937744140621
 31
0.0
  0
LINE
  5
9B
  8
DIMNSIONS
  6
CONTINUOUS
 62
     7
 10
31.25
 20
156.25
 30
0.0
 11
31.25
 21
160.51388888888891
 31
0.0
  0
LINE
  5
9C
  8
DIMNSIONS
  6
CONTINUOUS
 62
     7
 10
31.25
 20
156.25
 30
0.0
 11
30.579960204849758
 21
158.7506225585937
 31
0.0
  0
LINE
  5
9D
  8
DIMNSIONS
  6
CONTINUOUS
 62
     7
 10
31.25
 20
156.25
 30
0.0
 11
31.920039795150249
 21
158.7506225585937
 31
0.0
  0
TEXT
  5
9E
  8
DIMNSIONS
 62
     7
 10
30.256111111111132
 20
158.75
 30
0.0
 40
2.7147352430555549
  1
5
 50
90.0
 41
0.7
 11
27.541375868055571
 21
158.75
 31
0.0
 73
     3
  0
LINE
  5
9F
  8
DIMNSIONS
  6
CONTINUOUS
 62
     7
 10
56.300000000000011
 20
101.25
 30
0.0
 11
29.25
 21
101.25
 31
0.0
  0
LINE
  5
A0
  8
DIMNSIONS
  6
CONTINUOUS
 62
     7
 10
41.749999999999993
 20
106.25
 30
0.0
 11
29.25
 21
106.25
 31
0.0
  0
LINE
  5
A1
  8
DIMNSIONS
  6
CONTINUOUS
 62
     7
 10
31.25
 20
106.25
 30
0.0
 11
31.25
 21
101.25
 31
0.0
  0
LINE
  5
A2
  8
DIMNSIONS
  6
CONTINUOUS
 62
     7
 10
31.25
 20
101.25
 30
0.0
 11
31.25
 21
96.236111111111128
 31
0.0
  0
LINE
  5
A3
  8
DIMNSIONS
  6
CONTINUOUS
 62
     7
 10
31.25
 20
101.25
 30
0.0
 11
31.920039795150249
 21
98.749377441406224
 31
0.0
  0
LINE
  5
A4
  8
DIMNSIONS
  6
CONTINUOUS
 62
     7
 10
31.25
 20
101.25
 30
0.0
 11
30.579960204849758
 21
98.749377441406224
 31
0.0
  0
LINE
  5
A5
  8
DIMNSIONS
  6
CONTINUOUS
 62
     7
 10
31.25
 20
106.25
 30
0.0
 11
31.25
 21
111.25
 31
0.0
  0
LINE
  5
A6
  8
DIMNSIONS
  6
CONTINUOUS
 62
     7
 10
31.25
 20
106.25
 30
0.0
 11
30.579960204849758
 21
108.7506225585938
 31
0.0
  0
LINE
  5
A7
  8
DIMNSIONS
  6
CONTINUOUS
 62
     7
 10
31.25
 20
106.25
 30
0.0
 11
31.920039795150249
 21
108.7506225585938
 31
0.0
  0
TEXT
  5
A8
  8
DIMNSIONS
 62
     7
 10
30.256111111111132
 20
96.236111111111128
 30
0.0
 40
2.7147352430555549
  1
5
 50
90.0
 41
0.7
 11
27.541375868055571
 21
96.236111111111128
 31
0.0
 73
     3
  0
TEXT
  5
A9
  8
DATA
 62
     7
 10
20.0
 20
14.238
 30
0.0
 40
1.6288411458333329
  1
仕様および外観は予告なく変更されることがありますので、ご了承ください。
 41
0.7
 11
20.0
 21
15.86684114583333
 31
0.0
 73
     3
  0
POLYLINE
  5
AA
  8
DATA
  6
CONTINUOUS
 62
     7
 66
     1
 10
0.0
 20
0.0
 30
0.0
 70
   129
  0
VERTEX
  5
1D8
  8
DATA
  6
CONTINUOUS
 62
     7
 10
100.0
 20
140.0
 30
0.0
  0
VERTEX
  5
1D9
  8
DATA
  6
CONTINUOUS
 62
     7
 10
100.0
 20
140.0
 30
0.0
  0
SEQEND
  5
1DA
  8
DATA
  6
CONTINUOUS
 62
     7
  0
TEXT
  5
AD
  8
DATA
 62
     7
 10
149.84999999999999
 20
21.07108871003971
 30
0.0
 40
2.4432617187500001
  1
EXT-HDMI1.3-141SBP
 41
0.7
 11
149.84999999999999
 21
23.514350428789712
 31
0.0
 73
     3
  0
TEXT
  5
AE
  8
DATA
 62
     7
 10
149.8880433769427
 20
29.011005544377479
 30
0.0
 40
2.4432617187500001
  1
Gefen
 41
0.7
 11
149.8880433769427
 21
31.454267263127491
 31
0.0
 73
     3
  0
TEXT
  5
AF
  8
DATA
 62
     7
 10
147.90000000000001
 20
25.32210547730903
 30
0.0
 40
1.6288411458333329
  1
HDMI1.3ブースタ ー
 41
0.7
 11
147.90000000000001
 21
26.950946623142361
 31
0.0
 73
     3
  0
POLYLINE
  5
B0
  8
DATA
  6
CONTINUOUS
 62
     7
 66
     1
 10
0.0
 20
0.0
 30
0.0
 70
     1
  0
VERTEX
  5
1DB
  8
DATA
  6
CONTINUOUS
 62
     7
 10
43.750000000000021
 20
151.25
 30
0.0
  0
VERTEX
  5
1DC
  8
DATA
  6
CONTINUOUS
 62
     7
 10
83.750000000000014
 20
151.25
 30
0.0
  0
VERTEX
  5
1DD
  8
DATA
  6
CONTINUOUS
 62
     7
 10
83.750000000000014
 20
106.25
 30
0.0
  0
VERTEX
  5
1DE
  8
DATA
  6
CONTINUOUS
 62
     7
 10
43.750000000000021
 20
106.25
 30
0.0
  0
SEQEND
  5
1DF
  8
DATA
  6
CONTINUOUS
 62
     7
  0
LINE
  5
B7
  8
DATA
  6
CONTINUOUS
 62
     7
 10
58.300000000000011
 20
101.25
 30
0.0
 11
63.200000000000017
 21
101.25
 31
0.0
  0
LINE
  5
B8
  8
DATA
  6
CONTINUOUS
 62
     7
 10
60.750000000000021
 20
101.25
 30
0.0
 11
60.750000000000021
 21
106.25
 31
0.0
  0
LINE
  5
B9
  8
DATA
  6
CONTINUOUS
 62
     7
 10
58.300000000000011
 20
101.25
 30
0.0
 11
58.300000000000011
 21
106.25
 31
0.0
  0
LINE
  5
BA
  8
DATA
  6
CONTINUOUS
 62
     7
 10
63.200000000000017
 20
106.25
 30
0.0
 11
63.200000000000017
 21
101.25
 31
0.0
  0
LINE
  5
BB
  8
DATA
  6
CONTINUOUS
 62
     7
 10
43.75
 20
77.400000000000006
 30
0.0
 11
43.75
 21
51.600000000000001
 31
0.0
  0
LINE
  5
BC
  8
DATA
  6
CONTINUOUS
 62
     7
 10
83.500000000000014
 20
77.400000000000006
 30
0.0
 11
83.500000000000014
 21
51.600000000000001
 31
0.0
  0
LINE
  5
BD
  8
DATA
  6
CONTINUOUS
 62
     7
 10
45.350000000000001
 20
50.0
 30
0.0
 11
56.149999999999999
 21
50.0
 31
0.0
  0
LINE
  5
BE
  8
DATA
  6
CONTINUOUS
 62
     7
 10
71.100000000000023
 20
50.0
 30
0.0
 11
81.900000000000006
 21
50.0
 31
0.0
  0
LINE
  5
BF
  8
DATA
  6
CONTINUOUS
 62
     7
 10
45.350000000000001
 20
79.0
 30
0.0
 11
81.900000000000006
 21
79.0
 31
0.0
  0
LINE
  5
C0
  8
DATA
  6
CONTINUOUS
 62
     7
 10
45.350000000000001
 20
51.600000000000001
 30
0.0
 11
81.900000000000006
 21
51.600000000000001
 31
0.0
  0
LINE
  5
C1
  8
DATA
  6
CONTINUOUS
 62
     7
 10
46.950000000000003
 20
77.400000000000006
 30
0.0
 11
80.300000000000026
 21
77.400000000000006
 31
0.0
  0
LINE
  5
C2
  8
DATA
  6
CONTINUOUS
 62
     7
 10
45.350000000000001
 20
75.799999999999983
 30
0.0
 11
45.350000000000001
 21
51.600000000000001
 31
0.0
  0
LINE
  5
C3
  8
DATA
  6
CONTINUOUS
 62
     7
 10
81.900000000000006
 20
75.799999999999983
 30
0.0
 11
81.900000000000006
 21
51.600000000000001
 31
0.0
  0
ARC
  5
C4
  8
DATA
  6
CONTINUOUS
 62
     7
 10
46.950000000000003
 20
75.799999999999983
 30
0.0
 40
1.600000000000015
 50
90.0
 51
179.9999999999994
  0
ARC
  5
C5
  8
DATA
  6
CONTINUOUS
 62
     7
 10
80.300000000000026
 20
75.799999999999983
 30
0.0
 40
1.600000000000001
 50
0.0
 51
90.0
  0
ARC
  5
C6
  8
DATA
  6
CONTINUOUS
 62
     7
 10
45.350000000000001
 20
77.400000000000006
 30
0.0
 40
1.5999999999999941
 50
90.0
 51
180.0000000000002
  0
ARC
  5
C7
  8
DATA
  6
CONTINUOUS
 62
     7
 10
81.900000000000006
 20
77.400000000000006
 30
0.0
 40
1.600000000000001
 50
0.0
 51
90.0
  0
ARC
  5
C8
  8
DATA
  6
CONTINUOUS
 62
     7
 10
45.350000000000001
 20
51.600000000000001
 30
0.0
 40
1.5999999999999941
 50
180.0
 51
270.00000000000028
  0
ARC
  5
C9
  8
DATA
  6
CONTINUOUS
 62
     7
 10
81.900000000000006
 20
51.600000000000001
 30
0.0
 40
1.5999999999999941
 50
270.0
 51
0.0
  0
LINE
  5
CA
  8
DATA
  6
CONTINUOUS
 62
     7
 10
56.149999999999999
 20
51.600000000000001
 30
0.0
 11
56.149999999999999
 21
50.0
 31
0.0
  0
LINE
  5
CB
  8
DATA
  6
CONTINUOUS
 62
     7
 10
71.100000000000023
 20
51.600000000000001
 30
0.0
 11
71.100000000000023
 21
50.0
 31
0.0
  0
POLYLINE
  5
CC
  8
DATA
  6
CONTINUOUS
 62
     7
 66
     1
 10
0.0
 20
0.0
 30
0.0
 70
     1
  0
VERTEX
  5
1E0
  8
DATA
  6
CONTINUOUS
 62
     7
 10
58.050000000000011
 20
70.585491840485403
 30
0.0
  0
VERTEX
  5
1E1
  8
DATA
  6
CONTINUOUS
 62
     7
 10
60.500000000000021
 20
69.170983680970835
 30
0.0
  0
VERTEX
  5
1E2
  8
DATA
  6
CONTINUOUS
 62
     7
 10
62.95000000000001
 20
70.585491840485403
 30
0.0
  0
VERTEX
  5
1E3
  8
DATA
  6
CONTINUOUS
 62
     7
 10
62.95000000000001
 20
73.414508159514583
 30
0.0
  0
VERTEX
  5
1E4
  8
DATA
  6
CONTINUOUS
 62
     7
 10
60.500000000000021
 20
74.829016319029165
 30
0.0
  0
VERTEX
  5
1E5
  8
DATA
  6
CONTINUOUS
 62
     7
 10
58.050000000000011
 20
73.414508159514583
 30
0.0
  0
SEQEND
  5
1E6
  8
DATA
  6
CONTINUOUS
 62
     7
  0
CIRCLE
  5
D5
  8
DATA
  6
CONTINUOUS
 62
     7
 10
60.500000000000021
 20
72.0
 30
0.0
 40
1.25
  0
POLYLINE
  5
D6
  8
DATA
  6
CONTINUOUS
 62
     7
 66
     1
 10
0.0
 20
0.0
 30
0.0
  0
VERTEX
  5
1E7
  8
DATA
  6
CONTINUOUS
 62
     7
 10
52.517186317629537
 20
61.50571259312396
 30
0.0
  0
VERTEX
  5
1E8
  8
DATA
  6
CONTINUOUS
 62
     7
 10
52.517186317629537
 20
65.505712593123974
 30
0.0
  0
VERTEX
  5
1E9
  8
DATA
  6
CONTINUOUS
 62
     7
 10
68.517186317629523
 20
65.505712593123974
 30
0.0
  0
VERTEX
  5
1EA
  8
DATA
  6
CONTINUOUS
 62
     7
 10
68.517186317629523
 20
61.50571259312396
 30
0.0
  0
SEQEND
  5
1EB
  8
DATA
  6
CONTINUOUS
 62
     7
  0
LINE
  5
DD
  8
DATA
  6
CONTINUOUS
 62
     7
 10
66.017186317629182
 20
59.505712593123967
 30
0.0
 11
55.017186317629871
 21
59.505712593123967
 31
0.0
  0
ARC
  5
DE
  8
DATA
  6
CONTINUOUS
 62
     7
 10
51.248002644160223
 20
57.356733001287303
 30
0.0
 40
4.3387623639095594
 50
29.689391623917
 51
72.990991867903475
  0
ARC
  5
DF
  8
DATA
  6
CONTINUOUS
 62
     7
 10
69.786369991098837
 20
57.356733001287303
 30
0.0
 40
4.3387623639095869
 50
107.0090081320965
 51
150.31060837608311
  0
CIRCLE
  5
E0
  8
DATA
  6
CONTINUOUS
 62
     7
 10
49.232183053935032
 20
64.0
 30
0.0
 40
1.5
  0
CIRCLE
  5
E1
  8
DATA
  6
CONTINUOUS
 62
     7
 10
77.000000000000014
 20
63.5
 30
0.0
 40
1.850000000000001
  0
LINE
  5
E2
  8
DATA
  6
CONTINUOUS
 62
     7
 10
75.468171027823303
 20
63.5
 30
0.0
 11
78.531828972176726
 21
63.5
 31
0.0
  0
LINE
  5
E3
  8
DATA
  6
CONTINUOUS
 62
     7
 10
77.000000000000014
 20
61.968171027823267
 30
0.0
 11
77.000000000000014
 21
65.031828972176726
 31
0.0
  0
TEXT
  5
E4
  8
DATA
 62
     7
 10
47.428340058398632
 20
106.9477066735371
 30
0.0
 40
1.6288411458333329
  1
Link
 41
0.7
 11
47.428340058398632
 21
108.5765478193704
 31
0.0
 73
     3
  0
TEXT
  5
E5
  8
DATA
 62
     7
 10
59.25125021470086
 20
106.9477066735371
 30
0.0
 40
1.6288411458333329
  1
Out
 41
0.7
 11
59.25125021470086
 21
108.5765478193704
 31
0.0
 73
     3
  0
TEXT
  5
E6
  8
DATA
 62
     7
 10
75.863300566810437
 20
106.9477066735371
 30
0.0
 40
1.6288411458333329
  1
EQ
 41
0.7
 11
75.863300566810437
 21
108.5765478193704
 31
0.0
 73
     3
  0
TEXT
  5
E7
  8
DATA
 62
     7
 10
58.245604814996057
 20
118.18783634270591
 30
0.0
 40
3.2576822916666659
  1
SBPlus
 41
0.7
 11
58.245604814996057
 21
121.4455186343725
 31
0.0
 73
     3
  0
TEXT
  5
E8
  8
DATA
 62
     7
 10
58.324052467564478
 20
112.8163393520784
 30
0.0
 40
3.2576822916666659
  1
forHDMI 1.3
 41
0.7
 11
58.324052467564478
 21
116.0740216437451
 31
0.0
 73
     3
  0
LINE
  5
E9
  8
DATA
  6
CONTINUOUS
 62
     7
 10
47.404364580628119
 20
47.0
 30
0.0
 11
46.704364580628123
 21
50.0
 31
0.0
  0
LINE
  5
EA
  8
DATA
  6
CONTINUOUS
 62
     7
 10
53.404364580628119
 20
47.0
 30
0.0
 11
54.104364580628129
 21
50.0
 31
0.0
  0
LINE
  5
EB
  8
DATA
  6
CONTINUOUS
 62
     7
 10
47.404364580628119
 20
47.0
 30
0.0
 11
53.404364580628119
 21
47.0
 31
0.0
  0
LINE
  5
EC
  8
DATA
  6
CONTINUOUS
 62
     7
 10
79.595635419371916
 20
47.0
 30
0.0
 11
80.295635419371905
 21
50.0
 31
0.0
  0
LINE
  5
ED
  8
DATA
  6
CONTINUOUS
 62
     7
 10
73.595635419371916
 20
47.0
 30
0.0
 11
72.895635419371914
 21
50.0
 31
0.0
  0
LINE
  5
EE
  8
DATA
  6
CONTINUOUS
 62
     7
 10
79.595635419371916
 20
47.0
 30
0.0
 11
73.595635419371916
 21
47.0
 31
0.0
  0
LINE
  5
EF
  8
DATA
  6
CONTINUOUS
 62
     7
 10
43.75
 20
170.34999999988599
 30
0.0
 11
43.75
 21
196.14999999988609
 31
0.0
  0
LINE
  5
F0
  8
DATA
  6
CONTINUOUS
 62
     7
 10
83.500000000000014
 20
170.34999999988599
 30
0.0
 11
83.500000000000014
 21
196.14999999988609
 31
0.0
  0
LINE
  5
F1
  8
DATA
  6
CONTINUOUS
 62
     7
 10
45.350000000000001
 20
197.74999999988611
 30
0.0
 11
56.149999999999999
 21
197.74999999988611
 31
0.0
  0
LINE
  5
F2
  8
DATA
  6
CONTINUOUS
 62
     7
 10
71.100000000000023
 20
197.74999999988611
 30
0.0
 11
81.900000000000006
 21
197.74999999988611
 31
0.0
  0
LINE
  5
F3
  8
DATA
  6
CONTINUOUS
 62
     7
 10
45.350000000000001
 20
168.749999999886
 30
0.0
 11
81.900000000000006
 21
168.749999999886
 31
0.0
  0
LINE
  5
F4
  8
DATA
  6
CONTINUOUS
 62
     7
 10
45.350000000000001
 20
196.14999999988609
 30
0.0
 11
81.900000000000006
 21
196.14999999988609
 31
0.0
  0
LINE
  5
F5
  8
DATA
  6
CONTINUOUS
 62
     7
 10
45.350000000000001
 20
170.34999999988599
 30
0.0
 11
45.350000000000001
 21
196.14999999988609
 31
0.0
  0
LINE
  5
F6
  8
DATA
  6
CONTINUOUS
 62
     7
 10
81.900000000000006
 20
170.34999999988599
 30
0.0
 11
81.900000000000006
 21
196.14999999988609
 31
0.0
  0
ARC
  5
F7
  8
DATA
  6
CONTINUOUS
 62
     7
 10
45.350000000000001
 20
170.34999999988599
 30
0.0
 40
1.600000000000001
 50
180.0
 51
270.0
  0
ARC
  5
F8
  8
DATA
  6
CONTINUOUS
 62
     7
 10
81.900000000000006
 20
170.34999999988599
 30
0.0
 40
1.599999999999987
 50
270.0
 51
0.0
  0
ARC
  5
F9
  8
DATA
  6
CONTINUOUS
 62
     7
 10
45.350000000000001
 20
196.14999999988609
 30
0.0
 40
1.6000000000000221
 50
89.99999999999973
 51
180.0
  0
ARC
  5
FA
  8
DATA
  6
CONTINUOUS
 62
     7
 10
81.900000000000006
 20
196.14999999988609
 30
0.0
 40
1.600000000000001
 50
0.0
 51
90.0
  0
LINE
  5
FB
  8
DATA
  6
CONTINUOUS
 62
     7
 10
56.149999999999999
 20
196.14999999988609
 30
0.0
 11
56.149999999999999
 21
197.74999999988611
 31
0.0
  0
LINE
  5
FC
  8
DATA
  6
CONTINUOUS
 62
     7
 10
71.100000000000023
 20
196.14999999988609
 30
0.0
 11
71.100000000000023
 21
197.74999999988611
 31
0.0
  0
POLYLINE
  5
FD
  8
DATA
  6
CONTINUOUS
 62
     7
 66
     1
 10
0.0
 20
0.0
 30
0.0
 70
     1
  0
VERTEX
  5
1EC
  8
DATA
  6
CONTINUOUS
 62
     7
 10
55.517835523242248
 20
177.1645081594005
 30
0.0
  0
VERTEX
  5
1ED
  8
DATA
  6
CONTINUOUS
 62
     7
 10
57.96783552324225
 20
178.57901631891511
 30
0.0
  0
VERTEX
  5
1EE
  8
DATA
  6
CONTINUOUS
 62
     7
 10
60.41783552324226
 20
177.1645081594005
 30
0.0
  0
VERTEX
  5
1EF
  8
DATA
  6
CONTINUOUS
 62
     7
 10
60.41783552324226
 20
174.33549184037139
 30
0.0
  0
VERTEX
  5
1F0
  8
DATA
  6
CONTINUOUS
 62
     7
 10
57.96783552324225
 20
172.92098368085681
 30
0.0
  0
VERTEX
  5
1F1
  8
DATA
  6
CONTINUOUS
 62
     7
 10
55.517835523242248
 20
174.33549184037139
 30
0.0
  0
SEQEND
  5
1F2
  8
DATA
  6
CONTINUOUS
 62
     7
  0
CIRCLE
  5
106
  8
DATA
  6
CONTINUOUS
 62
     7
 10
57.96783552324225
 20
175.749999999886
 30
0.0
 40
1.25
  0
POLYLINE
  5
107
  8
DATA
  6
CONTINUOUS
 62
     7
 66
     1
 10
0.0
 20
0.0
 30
0.0
  0
VERTEX
  5
1F3
  8
DATA
  6
CONTINUOUS
 62
     7
 10
49.985021840871802
 20
186.244287406762
 30
0.0
  0
VERTEX
  5
1F4
  8
DATA
  6
CONTINUOUS
 62
     7
 10
49.985021840871802
 20
182.244287406762
 30
0.0
  0
VERTEX
  5
1F5
  8
DATA
  6
CONTINUOUS
 62
     7
 10
65.985021840871838
 20
182.244287406762
 30
0.0
  0
VERTEX
  5
1F6
  8
DATA
  6
CONTINUOUS
 62
     7
 10
65.985021840871838
 20
186.244287406762
 30
0.0
  0
SEQEND
  5
1F7
  8
DATA
  6
CONTINUOUS
 62
     7
  0
LINE
  5
10E
  8
DATA
  6
CONTINUOUS
 62
     7
 10
63.48502184087144
 20
188.244287406762
 30
0.0
 11
52.485021840872108
 21
188.244287406762
 31
0.0
  0
ARC
  5
10F
  8
DATA
  6
CONTINUOUS
 62
     7
 10
48.715838167402481
 20
190.3932669985987
 30
0.0
 40
4.3387623639095727
 50
287.00900813209671
 51
330.31060837608311
  0
ARC
  5
110
  8
DATA
  6
CONTINUOUS
 62
     7
 10
67.254205514341209
 20
190.3932669985987
 30
0.0
 40
4.3387623639096748
 50
209.68939162391609
 51
252.99099186790241
  0
LINE
  5
111
  8
DATA
  6
CONTINUOUS
 62
     7
 10
47.404364580628119
 20
200.7499999998862
 30
0.0
 11
46.704364580628123
 21
197.74999999988611
 31
0.0
  0
LINE
  5
112
  8
DATA
  6
CONTINUOUS
 62
     7
 10
53.404364580628119
 20
200.7499999998862
 30
0.0
 11
54.104364580628129
 21
197.74999999988611
 31
0.0
  0
LINE
  5
113
  8
DATA
  6
CONTINUOUS
 62
     7
 10
47.404364580628119
 20
200.7499999998862
 30
0.0
 11
53.404364580628119
 21
200.7499999998862
 31
0.0
  0
LINE
  5
114
  8
DATA
  6
CONTINUOUS
 62
     7
 10
79.595635419371916
 20
200.7499999998862
 30
0.0
 11
80.295635419371905
 21
197.74999999988611
 31
0.0
  0
LINE
  5
115
  8
DATA
  6
CONTINUOUS
 62
     7
 10
73.595635419371916
 20
200.7499999998862
 30
0.0
 11
72.895635419371914
 21
197.74999999988611
 31
0.0
  0
LINE
  5
116
  8
DATA
  6
CONTINUOUS
 62
     7
 10
79.595635419371916
 20
200.7499999998862
 30
0.0
 11
73.595635419371916
 21
200.7499999998862
 31
0.0
  0
LINE
  5
117
  8
DATA
  6
CONTINUOUS
 62
     7
 10
55.800000000000011
 20
156.25
 30
0.0
 11
60.700000000000017
 21
156.25
 31
0.0
  0
LINE
  5
118
  8
DATA
  6
CONTINUOUS
 62
     7
 10
58.250000000000021
 20
151.25
 30
0.0
 11
58.250000000000021
 21
156.25
 31
0.0
  0
LINE
  5
119
  8
DATA
  6
CONTINUOUS
 62
     7
 10
55.800000000000011
 20
151.25
 30
0.0
 11
55.800000000000011
 21
156.25
 31
0.0
  0
LINE
  5
11A
  8
DATA
  6
CONTINUOUS
 62
     7
 10
60.700000000000017
 20
156.25
 30
0.0
 11
60.700000000000017
 21
151.25
 31
0.0
  0
CIRCLE
  5
11B
  8
DATA
  6
CONTINUOUS
 62
     7
 10
73.500000000000014
 20
182.69999999999999
 30
0.0
 40
3.1499999999999981
  0
CIRCLE
  5
11C
  8
DATA
  6
CONTINUOUS
 62
     7
 10
73.500000000000014
 20
182.749999999886
 30
0.0
 40
0.5
  0
TEXT
  5
11D
  8
DATA
 62
     7
 10
59.458608311376253
 20
150.30569900134549
 30
0.0
 40
1.6288411458333329
  1
In
 50
180.0
 41
0.7
 11
59.458608311376253
 21
148.67685785551211
 31
0.0
 73
     3
  0
TEXT
  5
11E
  8
DATA
 62
     7
 10
76.472955940556034
 20
150.30569900134549
 30
0.0
 40
1.6288411458333329
  1
5V DC
 50
180.0
 41
0.7
 11
76.472955940556034
 21
148.67685785551211
 31
0.0
 73
     3
  0
LINE
  5
11F
  8
DATA
  6
CONTINUOUS
 62
     7
 10
100.0
 20
106.25
 30
0.0
 11
129.0
 21
106.25
 31
0.0
  0
LINE
  5
120
  8
DATA
  6
CONTINUOUS
 62
     7
 10
100.0
 20
151.25
 30
0.0
 11
129.0
 21
151.25
 31
0.0
  0
LINE
  5
121
  8
DATA
  6
CONTINUOUS
 62
     7
 10
100.0
 20
106.25
 30
0.0
 11
100.0
 21
151.25
 31
0.0
  0
LINE
  5
122
  8
DATA
  6
CONTINUOUS
 62
     7
 10
129.0
 20
106.25
 30
0.0
 11
129.0
 21
151.25
 31
0.0
  0
LINE
  5
123
  8
DATA
  6
CONTINUOUS
 62
     7
 10
104.5416758052032
 20
101.25
 30
0.0
 11
109.4416758052031
 21
101.25
 31
0.0
  0
LINE
  5
124
  8
DATA
  6
CONTINUOUS
 62
     7
 10
106.9916758052031
 20
101.25
 30
0.0
 11
106.9916758052031
 21
106.25
 31
0.0
  0
LINE
  5
125
  8
DATA
  6
CONTINUOUS
 62
     7
 10
104.5416758052032
 20
101.25
 30
0.0
 11
104.5416758052032
 21
106.25
 31
0.0
  0
LINE
  5
126
  8
DATA
  6
CONTINUOUS
 62
     7
 10
109.4416758052031
 20
106.25
 30
0.0
 11
109.4416758052031
 21
101.25
 31
0.0
  0
LINE
  5
127
  8
DATA
  6
CONTINUOUS
 62
     7
 10
104.5285432353964
 20
156.25
 30
0.0
 11
109.4285432353964
 21
156.25
 31
0.0
  0
LINE
  5
128
  8
DATA
  6
CONTINUOUS
 62
     7
 10
106.9785432353964
 20
151.25
 30
0.0
 11
106.9785432353964
 21
156.25
 31
0.0
  0
LINE
  5
129
  8
DATA
  6
CONTINUOUS
 62
     7
 10
104.5285432353964
 20
151.25
 30
0.0
 11
104.5285432353964
 21
156.25
 31
0.0
  0
LINE
  5
12A
  8
DATA
  6
CONTINUOUS
 62
     7
 10
109.4285432353964
 20
156.25
 30
0.0
 11
109.4285432353964
 21
151.25
 31
0.0
  0
LINE
  5
12B
  8
DATA
  6
CONTINUOUS
 62
     7
 10
131.99999999970001
 20
149.8132756337761
 30
0.0
 11
128.9999999996999
 21
150.51327563377609
 31
0.0
  0
LINE
  5
12C
  8
DATA
  6
CONTINUOUS
 62
     7
 10
131.99999999970001
 20
143.8132756337761
 30
0.0
 11
128.9999999996999
 21
143.11327563377611
 31
0.0
  0
LINE
  5
12D
  8
DATA
  6
CONTINUOUS
 62
     7
 10
131.99999999970001
 20
149.8132756337761
 30
0.0
 11
131.99999999970001
 21
143.8132756337761
 31
0.0
  0
LINE
  5
12E
  8
DATA
  6
CONTINUOUS
 62
     7
 10
131.99999999970001
 20
107.6867243662238
 30
0.0
 11
128.9999999996999
 21
106.9867243662238
 31
0.0
  0
LINE
  5
12F
  8
DATA
  6
CONTINUOUS
 62
     7
 10
131.99999999970001
 20
113.6867243662238
 30
0.0
 11
128.9999999996999
 21
114.3867243662239
 31
0.0
  0
LINE
  5
130
  8
DATA
  6
CONTINUOUS
 62
     7
 10
131.99999999970001
 20
107.6867243662238
 30
0.0
 11
131.99999999970001
 21
113.6867243662238
 31
0.0
  0
ENDSEC
  0
EOF
