  0
SECTION
  2
HEADER
  9
$ACADVER
  1
AC1015
  9
$ACADMAINTVER
 70
    20
  9
$DWGCODEPAGE
  3
ANSI_932
  9
$INSBASE
 10
0.0
 20
0.0
 30
0.0
  9
$EXTMIN
 10
29.98901503392153
 20
7.267457949076288
 30
-0.0015258207003583
  9
$EXTMAX
 10
570.0173963466861
 20
810.0247211242381
 30
0.0000000349246037
  9
$LIMMIN
 10
0.0
 20
0.0
  9
$LIMMAX
 10
0.0
 20
0.0
  9
$ORTHOMODE
 70
     0
  9
$REGENMODE
 70
     1
  9
$FILLMODE
 70
     1
  9
$QTEXTMODE
 70
     0
  9
$MIRRTEXT
 70
     1
  9
$LTSCALE
 40
15.24
  9
$ATTMODE
 70
     1
  9
$TEXTSIZE
 40
0.0
  9
$TRACEWID
 40
1.0
  9
$TEXTSTYLE
  7
STANDARD
  9
$CLAYER
  8
DATA
  9
$CELTYPE
  6
ByLayer
  9
$CECOLOR
 62
   256
  9
$CELTSCALE
 40
1.0
  9
$DISPSILH
 70
     0
  9
$DIMSCALE
 40
1.0
  9
$DIMASZ
 40
0.18
  9
$DIMEXO
 40
0.0625
  9
$DIMDLI
 40
0.38
  9
$DIMRND
 40
0.0
  9
$DIMDLE
 40
0.0
  9
$DIMEXE
 40
0.18
  9
$DIMTP
 40
0.0
  9
$DIMTM
 40
0.0
  9
$DIMTXT
 40
0.18
  9
$DIMCEN
 40
0.09
  9
$DIMTSZ
 40
0.0
  9
$DIMTOL
 70
     0
  9
$DIMLIM
 70
     0
  9
$DIMTIH
 70
     1
  9
$DIMTOH
 70
     1
  9
$DIMSE1
 70
     0
  9
$DIMSE2
 70
     0
  9
$DIMTAD
 70
     0
  9
$DIMZIN
 70
     0
  9
$DIMBLK
  1

  9
$DIMASO
 70
     1
  9
$DIMSHO
 70
     1
  9
$DIMPOST
  1

  9
$DIMAPOST
  1

  9
$DIMALT
 70
     0
  9
$DIMALTD
 70
     2
  9
$DIMALTF
 40
25.4
  9
$DIMLFAC
 40
1.0
  9
$DIMTOFL
 70
     0
  9
$DIMTVP
 40
0.0
  9
$DIMTIX
 70
     0
  9
$DIMSOXD
 70
     0
  9
$DIMSAH
 70
     0
  9
$DIMBLK1
  1

  9
$DIMBLK2
  1

  9
$DIMSTYLE
  2
STANDARD
  9
$DIMCLRD
 70
     0
  9
$DIMCLRE
 70
     0
  9
$DIMCLRT
 70
     0
  9
$DIMTFAC
 40
1.0
  9
$DIMGAP
 40
0.09
  9
$DIMJUST
 70
     0
  9
$DIMSD1
 70
     0
  9
$DIMSD2
 70
     0
  9
$DIMTOLJ
 70
     1
  9
$DIMTZIN
 70
     0
  9
$DIMALTZ
 70
     0
  9
$DIMALTTZ
 70
     0
  9
$DIMUPT
 70
     0
  9
$DIMDEC
 70
     4
  9
$DIMTDEC
 70
     4
  9
$DIMALTU
 70
     2
  9
$DIMALTTD
 70
     2
  9
$DIMTXSTY
  7
STANDARD
  9
$DIMAUNIT
 70
     0
  9
$DIMADEC
 70
     0
  9
$DIMALTRND
 40
0.0
  9
$DIMAZIN
 70
     0
  9
$DIMDSEP
 70
    46
  9
$DIMATFIT
 70
     3
  9
$DIMFRAC
 70
     0
  9
$DIMLDRBLK
  1

  9
$DIMLUNIT
 70
     2
  9
$DIMLWD
 70
    -2
  9
$DIMLWE
 70
    -2
  9
$DIMTMOVE
 70
     0
  9
$LUNITS
 70
     2
  9
$LUPREC
 70
     4
  9
$SKETCHINC
 40
0.1
  9
$FILLETRAD
 40
0.0
  9
$AUNITS
 70
     0
  9
$AUPREC
 70
     0
  9
$MENU
  1
acad
  9
$ELEVATION
 40
0.0
  9
$PELEVATION
 40
0.0
  9
$THICKNESS
 40
0.0
  9
$LIMCHECK
 70
     0
  9
$CHAMFERA
 40
0.0
  9
$CHAMFERB
 40
0.0
  9
$CHAMFERC
 40
0.0
  9
$CHAMFERD
 40
0.0
  9
$SKPOLY
 70
     0
  9
$TDCREATE
 40
2455418.571990741
  9
$TDUCREATE
 40
2455418.196990741
  9
$TDUPDATE
 40
2455418.576526053
  9
$TDUUPDATE
 40
2455418.201526053
  9
$TDINDWG
 40
0.0006156250
  9
$TDUSRTIMER
 40
0.0006154398
  9
$USRTIMER
 70
     1
  9
$ANGBASE
 50
0.0
  9
$ANGDIR
 70
     0
  9
$PDMODE
 70
     1
  9
$PDSIZE
 40
-2.0
  9
$PLINEWID
 40
0.0
  9
$SPLFRAME
 70
     0
  9
$SPLINETYPE
 70
     6
  9
$SPLINESEGS
 70
     8
  9
$HANDSEED
  5
2F8
  9
$SURFTAB1
 70
     6
  9
$SURFTAB2
 70
     6
  9
$SURFTYPE
 70
     6
  9
$SURFU
 70
     6
  9
$SURFV
 70
     6
  9
$UCSBASE
  2

  9
$UCSNAME
  2

  9
$UCSORG
 10
0.0
 20
0.0
 30
0.0
  9
$UCSXDIR
 10
1.0
 20
0.0
 30
0.0
  9
$UCSYDIR
 10
0.0
 20
1.0
 30
0.0
  9
$UCSORTHOREF
  2

  9
$UCSORTHOVIEW
 70
     0
  9
$UCSORGTOP
 10
0.0
 20
0.0
 30
0.0
  9
$UCSORGBOTTOM
 10
0.0
 20
0.0
 30
0.0
  9
$UCSORGLEFT
 10
0.0
 20
0.0
 30
0.0
  9
$UCSORGRIGHT
 10
0.0
 20
0.0
 30
0.0
  9
$UCSORGFRONT
 10
0.0
 20
0.0
 30
0.0
  9
$UCSORGBACK
 10
0.0
 20
0.0
 30
0.0
  9
$PUCSBASE
  2

  9
$PUCSNAME
  2

  9
$PUCSORG
 10
0.0
 20
0.0
 30
0.0
  9
$PUCSXDIR
 10
1.0
 20
0.0
 30
0.0
  9
$PUCSYDIR
 10
0.0
 20
1.0
 30
0.0
  9
$PUCSORTHOREF
  2

  9
$PUCSORTHOVIEW
 70
     0
  9
$PUCSORGTOP
 10
0.0
 20
0.0
 30
0.0
  9
$PUCSORGBOTTOM
 10
0.0
 20
0.0
 30
0.0
  9
$PUCSORGLEFT
 10
0.0
 20
0.0
 30
0.0
  9
$PUCSORGRIGHT
 10
0.0
 20
0.0
 30
0.0
  9
$PUCSORGFRONT
 10
0.0
 20
0.0
 30
0.0
  9
$PUCSORGBACK
 10
0.0
 20
0.0
 30
0.0
  9
$USERI1
 70
     0
  9
$USERI2
 70
     0
  9
$USERI3
 70
     0
  9
$USERI4
 70
     0
  9
$USERI5
 70
     0
  9
$USERR1
 40
0.0
  9
$USERR2
 40
0.0
  9
$USERR3
 40
0.0
  9
$USERR4
 40
0.0
  9
$USERR5
 40
0.0
  9
$WORLDVIEW
 70
     1
  9
$SHADEDGE
 70
     3
  9
$SHADEDIF
 70
    70
  9
$TILEMODE
 70
     1
  9
$MAXACTVP
 70
    64
  9
$PINSBASE
 10
0.0
 20
0.0
 30
0.0
  9
$PLIMCHECK
 70
     0
  9
$PEXTMIN
 10
1.000000000000000E+20
 20
1.000000000000000E+20
 30
1.000000000000000E+20
  9
$PEXTMAX
 10
-1.000000000000000E+20
 20
-1.000000000000000E+20
 30
-1.000000000000000E+20
  9
$PLIMMIN
 10
0.0
 20
0.0
  9
$PLIMMAX
 10
12.0
 20
9.0
  9
$UNITMODE
 70
     0
  9
$VISRETAIN
 70
     0
  9
$PLINEGEN
 70
     1
  9
$PSLTSCALE
 70
     0
  9
$TREEDEPTH
 70
  3020
  9
$CMLSTYLE
  2
Standard
  9
$CMLJUST
 70
     0
  9
$CMLSCALE
 40
1.0
  9
$PROXYGRAPHICS
 70
     1
  9
$MEASUREMENT
 70
     0
  9
$CELWEIGHT
370
    -1
  9
$ENDCAPS
280
     0
  9
$JOINSTYLE
280
     0
  9
$LWDISPLAY
290
     0
  9
$INSUNITS
 70
     0
  9
$HYPERLINKBASE
  1

  9
$STYLESHEET
  1

  9
$XEDIT
290
     1
  9
$CEPSNTYPE
380
     0
  9
$PSTYLEMODE
290
     1
  9
$FINGERPRINTGUID
  2
{BDD0472F-C3FF-42C2-A930-7C5C139F9620}
  9
$VERSIONGUID
  2
{825EB9FD-58E6-4400-9340-648F90284EF2}
  9
$EXTNAMES
290
     1
  9
$PSVPSCALE
 40
0.0
  9
$OLESTARTUP
290
     0
  0
ENDSEC
  0
SECTION
  2
CLASSES
  0
CLASS
  1
ACDBDICTIONARYWDFLT
  2
AcDbDictionaryWithDefault
  3
ObjectDBX Classes
 90
        0
280
     0
281
     0
  0
CLASS
  1
MATERIAL
  2
AcDbMaterial
  3
ObjectDBX Classes
 90
     1153
280
     0
281
     0
  0
CLASS
  1
VISUALSTYLE
  2
AcDbVisualStyle
  3
ObjectDBX Classes
 90
     4095
280
     0
281
     0
  0
CLASS
  1
SCALE
  2
AcDbScale
  3
ObjectDBX Classes
 90
     1153
280
     0
281
     0
  0
CLASS
  1
TABLESTYLE
  2
AcDbTableStyle
  3
ObjectDBX Classes
 90
     4095
280
     0
281
     0
  0
CLASS
  1
MLEADERSTYLE
  2
AcDbMLeaderStyle
  3
ACDB_MLEADERSTYLE_CLASS
 90
     4095
280
     0
281
     0
  0
CLASS
  1
DICTIONARYVAR
  2
AcDbDictionaryVar
  3
ObjectDBX Classes
 90
        0
280
     0
281
     0
  0
CLASS
  1
CELLSTYLEMAP
  2
AcDbCellStyleMap
  3
ObjectDBX Classes
 90
     1152
280
     0
281
     0
  0
CLASS
  1
ACDBPLACEHOLDER
  2
AcDbPlaceHolder
  3
ObjectDBX Classes
 90
        0
280
     0
281
     0
  0
CLASS
  1
LAYOUT
  2
AcDbLayout
  3
ObjectDBX Classes
 90
        0
280
     0
281
     0
  0
ENDSEC
  0
SECTION
  2
TABLES
  0
TABLE
  2
VPORT
  5
22E
330
0
100
AcDbSymbolTable
 70
     1
  0
VPORT
  5
296
330
22E
100
AcDbSymbolTableRecord
100
AcDbViewportTableRecord
  2
*ACTIVE
 70
     0
 10
0.0
 20
0.0
 11
1.0
 21
1.0
 12
300.0032056903038
 22
408.6460895366571
 13
0.0
 23
0.0
 14
1.0
 24
1.0
 15
0.0
 25
0.0
 16
0.0
 26
0.0
 36
1.0
 17
0.0
 27
0.0
 37
0.0
 40
808.6671325973101
 41
1.961916461916461
 42
50.0
 43
0.0
 44
0.0
 50
0.0
 51
0.0
 71
     0
 72
  2000
 73
     1
 74
     1
 75
     0
 76
     0
 77
     0
 78
     0
281
     0
 65
     1
110
0.0
120
0.0
130
0.0
111
1.0
121
0.0
131
0.0
112
0.0
122
1.0
132
0.0
 79
     0
146
0.0
  0
ENDTAB
  0
TABLE
  2
LTYPE
  5
22B
330
0
100
AcDbSymbolTable
 70
    11
  0
LTYPE
  5
280
330
22B
100
AcDbSymbolTableRecord
100
AcDbLinetypeTableRecord
  2
ByBlock
 70
     0
  3

 72
    65
 73
     0
 40
0.0
  0
LTYPE
  5
281
330
22B
100
AcDbSymbolTableRecord
100
AcDbLinetypeTableRecord
  2
ByLayer
 70
     0
  3

 72
    65
 73
     0
 40
0.0
  0
LTYPE
  5
282
330
22B
100
AcDbSymbolTableRecord
100
AcDbLinetypeTableRecord
  2
CONTINUOUS
 70
     0
  3
Solid line
 72
    65
 73
     0
 40
0.0
  0
ENDTAB
  0
TABLE
  2
LAYER
  5
228
330
0
100
AcDbSymbolTable
 70
     5
  0
LAYER
  5
27A
102
{ACAD_XDICTIONARY
360
2A9
102
}
330
228
100
AcDbSymbolTableRecord
100
AcDbLayerTableRecord
  2
0
 70
     0
 62
     7
  6
CONTINUOUS
370
    -3
390
235
  0
LAYER
  5
295
102
{ACAD_XDICTIONARY
360
2AB
102
}
330
228
100
AcDbSymbolTableRecord
100
AcDbLayerTableRecord
  2
DATA
 70
     0
 62
     7
  6
CONTINUOUS
370
    -3
390
235
  0
LAYER
  5
2A1
102
{ACAD_XDICTIONARY
360
2AD
102
}
330
228
100
AcDbSymbolTableRecord
100
AcDbLayerTableRecord
  2
HIBINO-BASE
 70
     0
 62
     7
  6
CONTINUOUS
370
    -3
390
235
  0
LAYER
  5
2A2
102
{ACAD_XDICTIONARY
360
2AF
102
}
330
228
100
AcDbSymbolTableRecord
100
AcDbLayerTableRecord
  2
SPEC
 70
     0
 62
     7
  6
CONTINUOUS
370
    -3
390
235
  0
LAYER
  5
2A3
102
{ACAD_XDICTIONARY
360
2B1
102
}
330
228
100
AcDbSymbolTableRecord
100
AcDbLayerTableRecord
  2
DIMNSIONS
 70
     0
 62
     7
  6
CONTINUOUS
370
    -3
390
235
  0
ENDTAB
  0
TABLE
  2
STYLE
  5
229
330
0
100
AcDbSymbolTable
 70
     3
  0
STYLE
  5
27B
330
229
100
AcDbSymbolTableRecord
100
AcDbTextStyleTableRecord
  2
STANDARD
 70
     0
 40
0.0
 41
1.0
 50
0.0
 71
     0
 42
0.0
  3
txt
  4
BIGFONT.SHX
  0
ENDTAB
  0
TABLE
  2
VIEW
  5
22C
330
0
100
AcDbSymbolTable
 70
     0
  0
ENDTAB
  0
TABLE
  2
UCS
  5
22D
330
0
100
AcDbSymbolTable
 70
     0
  0
ENDTAB
  0
TABLE
  2
APPID
  5
22F
330
0
100
AcDbSymbolTable
 70
     3
  0
APPID
  5
27C
330
22F
100
AcDbSymbolTableRecord
100
AcDbRegAppTableRecord
  2
ACAD
 70
     0
  0
APPID
  5
283
330
22F
100
AcDbSymbolTableRecord
100
AcDbRegAppTableRecord
  2
AcadAnnotative
 70
     0
  0
APPID
  5
2F3
330
22F
100
AcDbSymbolTableRecord
100
AcDbRegAppTableRecord
  2
ACAD_MLEADERVER
 70
     0
  0
ENDTAB
  0
TABLE
  2
DIMSTYLE
  5
230
330
0
100
AcDbSymbolTable
 70
     2
100
AcDbDimStyleTable
 71
     0
  0
DIMSTYLE
105
27D
330
230
100
AcDbSymbolTableRecord
100
AcDbDimStyleTableRecord
  2
STANDARD
 70
     0
279
     2
340
27B
  0
ENDTAB
  0
TABLE
  2
BLOCK_RECORD
  5
227
330
0
100
AcDbSymbolTable
 70
     0
  0
BLOCK_RECORD
  5
291
330
227
100
AcDbSymbolTableRecord
100
AcDbBlockTableRecord
  2
*Model_Space
340
294
  0
BLOCK_RECORD
  5
28D
330
227
100
AcDbSymbolTableRecord
100
AcDbBlockTableRecord
  2
*Paper_Space
340
290
  0
ENDTAB
  0
ENDSEC
  0
SECTION
  2
BLOCKS
  0
BLOCK
  5
292
330
291
100
AcDbEntity
  8
0
100
AcDbBlockBegin
  2
*Model_Space
 70
     0
 10
0.0
 20
0.0
 30
0.0
  3
*Model_Space
  1

  0
ENDBLK
  5
293
330
291
100
AcDbEntity
  8
0
100
AcDbBlockEnd
  0
BLOCK
  5
28E
330
28D
100
AcDbEntity
 67
     1
  8
0
100
AcDbBlockBegin
  2
*Paper_Space
 70
     0
 10
0.0
 20
0.0
 30
0.0
  3
*Paper_Space
  1

  0
ENDBLK
  5
28F
330
28D
100
AcDbEntity
 67
     1
  8
0
100
AcDbBlockEnd
  0
ENDSEC
  0
SECTION
  2
ENTITIES
  0
LINE
  5
2C
330
291
100
AcDbEntity
  8
HIBINO-BASE
  6
Continuous
 62
     7
100
AcDbLine
 10
30.0
 20
810.0
 30
0.0
 11
569.9999999999999
 21
810.0
 31
0.0
  0
LINE
  5
2D
330
291
100
AcDbEntity
  8
HIBINO-BASE
  6
Continuous
 62
     7
100
AcDbLine
 10
569.9999999999999
 20
30.0
 30
0.0
 11
30.0
 21
30.0
 31
0.0
  0
LINE
  5
2E
330
291
100
AcDbEntity
  8
HIBINO-BASE
  6
Continuous
 62
     7
100
AcDbLine
 10
30.0
 20
30.0
 30
0.0
 11
30.0
 21
810.0
 31
0.0
  0
LINE
  5
2F
330
291
100
AcDbEntity
  8
HIBINO-BASE
  6
Continuous
 62
     7
100
AcDbLine
 10
569.9999999999999
 20
810.0
 30
0.0
 11
569.9999999999999
 21
30.0
 31
0.0
  0
LINE
  5
30
330
291
100
AcDbEntity
  8
HIBINO-BASE
  6
Continuous
 62
     7
100
AcDbLine
 10
300.0
 20
97.50000000000005
 30
0.0
 11
569.9999999999999
 21
97.50000000000005
 31
0.0
  0
LINE
  5
31
330
291
100
AcDbEntity
  8
HIBINO-BASE
  6
Continuous
 62
     7
100
AcDbLine
 10
300.0
 20
30.0
 30
0.0
 11
300.0
 21
97.50000000000005
 31
0.0
  0
TEXT
  5
32
330
291
100
AcDbEntity
  8
HIBINO-BASE
 62
     7
100
AcDbText
 10
302.6999999999999
 20
89.97391999999999
 30
0.0
 40
4.886523437499999
  1
NOTE
 41
0.7
 11
302.6999999999999
 21
94.8604434375
 31
0.0
100
AcDbText
 73
     3
  0
LINE
  5
33
330
291
100
AcDbEntity
  8
HIBINO-BASE
  6
Continuous
 62
     7
100
AcDbLine
 10
405.0
 20
30.0
 30
0.0
 11
405.0
 21
97.50000000000005
 31
0.0
  0
TEXT
  5
34
330
291
100
AcDbEntity
  8
HIBINO-BASE
 62
     7
100
AcDbText
 10
407.6999999999999
 20
89.97391999999999
 30
0.0
 40
4.886523437499999
  1
TITLE
 41
0.7
 11
407.6999999999999
 21
94.8604434375
 31
0.0
100
AcDbText
 73
     3
  0
LINE
  5
35
330
291
100
AcDbEntity
  8
HIBINO-BASE
  6
Continuous
 62
     7
100
AcDbLine
 10
300.0
 20
60.00000000000007
 30
0.0
 11
569.9999999999999
 21
60.00000000000007
 31
0.0
  0
TEXT
  5
36
330
291
100
AcDbEntity
  8
HIBINO-BASE
 62
     7
100
AcDbText
 10
445.1999999999999
 20
52.64287999999997
 30
0.0
 40
4.886523437499999
  1
DRAWN
 41
0.7
 11
445.1999999999999
 21
57.52940343749997
 31
0.0
100
AcDbText
 73
     3
  0
TEXT
  5
37
330
291
100
AcDbEntity
  8
HIBINO-BASE
 62
     7
100
AcDbText
 10
370.1999999999999
 20
52.64287999999997
 30
0.0
 40
4.886523437499999
  1
DATE
 41
0.7
 11
370.1999999999999
 21
57.52940343749997
 31
0.0
100
AcDbText
 73
     3
  0
TEXT
  5
38
330
291
100
AcDbEntity
  8
HIBINO-BASE
 62
     7
100
AcDbText
 10
340.1999999999999
 20
52.64287999999997
 30
0.0
 40
4.886523437499999
  1
SCALE
 41
0.7
 11
340.1999999999999
 21
57.52940343749997
 31
0.0
100
AcDbText
 73
     3
  0
TEXT
  5
39
330
291
100
AcDbEntity
  8
HIBINO-BASE
 62
     7
100
AcDbText
 10
407.6999999999999
 20
52.64287999999997
 30
0.0
 40
4.886523437499999
  1
DESIGN
 41
0.7
 11
407.6999999999999
 21
57.52940343749997
 31
0.0
100
AcDbText
 73
     3
  0
TEXT
  5
3A
330
291
100
AcDbEntity
  8
HIBINO-BASE
 62
     7
100
AcDbText
 10
520.1999999999999
 20
52.64287999999997
 30
0.0
 40
4.886523437499999
  1
DRAWING NO.
 41
0.7
 11
520.1999999999999
 21
57.52940343749997
 31
0.0
100
AcDbText
 73
     3
  0
TEXT
  5
3B
330
291
100
AcDbEntity
  8
HIBINO-BASE
 62
     7
100
AcDbText
 10
482.6999999999999
 20
52.64287999999997
 30
0.0
 40
4.886523437499999
  1
CHECK
 41
0.7
 11
482.6999999999999
 21
57.52940343749997
 31
0.0
100
AcDbText
 73
     3
  0
LINE
  5
3C
330
291
100
AcDbEntity
  8
HIBINO-BASE
  6
Continuous
 62
     7
100
AcDbLine
 10
343.1249999999999
 20
33.75
 30
0.0
 11
354.3749999999999
 21
45.00000000000006
 31
0.0
  0
TEXT
  5
3D
330
291
100
AcDbEntity
  8
HIBINO-BASE
 62
     7
100
AcDbText
 10
341.25
 20
41.67317000000001
 30
0.0
 40
4.886523437499999
  1
1
 41
0.7
 11
341.25
 21
46.55969343750001
 31
0.0
100
AcDbText
 73
     3
  0
LINE
  5
3E
330
291
100
AcDbEntity
  8
HIBINO-BASE
  6
Continuous
 62
     7
100
AcDbLine
 10
337.5
 20
30.0
 30
0.0
 11
337.5
 21
60.00000000000007
 31
0.0
  0
LINE
  5
3F
330
291
100
AcDbEntity
  8
HIBINO-BASE
  6
Continuous
 62
     7
100
AcDbLine
 10
367.5
 20
30.0
 30
0.0
 11
367.5
 21
60.00000000000007
 31
0.0
  0
LINE
  5
40
330
291
100
AcDbEntity
  8
HIBINO-BASE
  6
Continuous
 62
     7
100
AcDbLine
 10
442.4999999999999
 20
60.00000000000007
 30
0.0
 11
442.4999999999999
 21
30.0
 31
0.0
  0
LINE
  5
41
330
291
100
AcDbEntity
  8
HIBINO-BASE
  6
Continuous
 62
     7
100
AcDbLine
 10
517.4999999999999
 20
60.00000000000007
 30
0.0
 11
517.4999999999999
 21
30.0
 31
0.0
  0
LINE
  5
42
330
291
100
AcDbEntity
  8
HIBINO-BASE
  6
Continuous
 62
     7
100
AcDbLine
 10
479.9999999999999
 20
30.0
 30
0.0
 11
479.9999999999999
 21
60.00000000000007
 31
0.0
  0
TEXT
  5
43
330
291
100
AcDbEntity
  8
HIBINO-BASE
 62
     7
100
AcDbText
 10
370.0696199999999
 20
38.59093999999998
 30
0.0
 40
4.886523437499999
  1
'10.08.
 41
0.7
 11
370.0696199999999
 21
43.47746343749998
 31
0.0
100
AcDbText
 73
     3
  0
TEXT
  5
44
330
291
100
AcDbEntity
  8
HIBINO-BASE
 62
     7
100
AcDbText
 10
352.4999999999999
 20
36.04817000000001
 30
0.0
 40
4.886523437499999
  1
3
 41
0.7
 11
352.4999999999999
 21
40.93469343750001
 31
0.0
100
AcDbText
 73
     3
  0
TEXT
  5
45
330
291
100
AcDbEntity
  8
HIBINO-BASE
 62
     7
100
AcDbText
 10
447.0174300331037
 20
38.59093999999998
 30
0.0
 40
4.886523437499999
  1
T.Ootake
 41
0.7
 11
447.0174300331037
 21
43.47746343749998
 31
0.0
100
AcDbText
 73
     3
  0
TEXT
  5
46
330
291
100
AcDbEntity
  8
HIBINO-BASE
 62
     7
100
AcDbText
 10
311.65
 20
35.92800000000003
 30
0.0
 40
9.773046874999998
  1
A4
 41
0.7
 11
311.65
 21
45.70104687500003
 31
0.0
100
AcDbText
 73
     3
  0
TEXT
  5
47
330
291
100
AcDbEntity
  8
HIBINO-BASE
 62
     7
100
AcDbText
 10
302.875
 20
52.14163500000005
 30
0.0
 40
4.886523437499999
  1
PAPER SIZE
 41
0.7
 11
302.875
 21
57.02815843750005
 31
0.0
100
AcDbText
 73
     3
  0
TEXT
  5
48
330
291
100
AcDbEntity
  8
HIBINO-BASE
 62
     7
100
AcDbText
 10
38.74263224039436
 20
10.81651938523559
 30
0.0
 40
10.58746744791666
  1
Hibino-Intersound Corporation
 41
0.7
 11
38.74263224039436
 21
21.40398683315226
 31
0.0
100
AcDbText
 73
     3
  0
TEXT
  5
49
330
291
100
AcDbEntity
  8
HIBINO-BASE
 62
     7
100
AcDbText
 10
361.9378998119634
 20
11.74753638661347
 30
0.0
 40
10.58746744791666
  1
ヒビノインターサウンド株式会社
 41
0.7
 11
361.9378998119634
 21
22.33500383453014
 31
0.0
100
AcDbText
 73
     3
  0
LINE
  5
4A
330
291
100
AcDbEntity
  8
SPEC
  6
Continuous
 62
     7
100
AcDbLine
 10
52.5
 20
780.0
 30
0.0
 11
495.0
 21
780.0
 31
0.0
  0
LINE
  5
4B
330
291
100
AcDbEntity
  8
SPEC
  6
Continuous
 62
     7
100
AcDbLine
 10
52.5
 20
768.75
 30
0.0
 11
495.0
 21
768.75
 31
0.0
  0
LINE
  5
4C
330
291
100
AcDbEntity
  8
SPEC
  6
Continuous
 62
     7
100
AcDbLine
 10
52.5
 20
723.7499999999999
 30
0.0
 11
495.0
 21
723.7499999999999
 31
0.0
  0
LINE
  5
4D
330
291
100
AcDbEntity
  8
SPEC
  6
Continuous
 62
     7
100
AcDbLine
 10
52.5
 20
735.0
 30
0.0
 11
495.0
 21
735.0
 31
0.0
  0
LINE
  5
4E
330
291
100
AcDbEntity
  8
SPEC
  6
Continuous
 62
     7
100
AcDbLine
 10
52.5
 20
746.25
 30
0.0
 11
495.0
 21
746.25
 31
0.0
  0
LINE
  5
4F
330
291
100
AcDbEntity
  8
SPEC
  6
Continuous
 62
     7
100
AcDbLine
 10
52.5
 20
712.5
 30
0.0
 11
495.0
 21
712.5
 31
0.0
  0
LINE
  5
50
330
291
100
AcDbEntity
  8
SPEC
  6
Continuous
 62
     7
100
AcDbLine
 10
52.5
 20
757.5
 30
0.0
 11
495.0
 21
757.5
 31
0.0
  0
TEXT
  5
51
330
291
100
AcDbEntity
  8
SPEC
 62
     7
100
AcDbText
 10
221.5609439431962
 20
771.1711405804865
 30
0.0
 40
5.700933749999999
  1
225MHz
 41
0.7
 11
221.5609439431962
 21
776.8720743304864
 31
0.0
100
AcDbText
 73
     3
  0
TEXT
  5
52
330
291
100
AcDbEntity
  8
SPEC
 62
     7
100
AcDbText
 10
56.25
 20
784.1798099999999
 30
0.0
 40
7.329785156249999
  1
仕様
 41
0.7
 11
56.25
 21
791.5095951562498
 31
0.0
100
AcDbText
 73
     3
  0
TEXT
  5
53
330
291
100
AcDbEntity
  8
SPEC
 62
     7
100
AcDbText
 10
54.78642241004825
 20
715.4908314155377
 30
0.0
 40
5.700933749999999
  1
イーサネット・パケット転送モード(Duplex)
 41
0.7
 11
54.78642241004825
 21
721.1917651655377
 31
0.0
100
AcDbText
 73
     3
  0
TEXT
  5
54
330
291
100
AcDbEntity
  8
SPEC
 62
     7
100
AcDbText
 10
53.90566575495349
 20
771.4509802048086
 30
0.0
 40
5.700933749999999
  1
ビデオアンプ帯域
 41
0.7
 11
53.90566575495349
 21
777.1519139548086
 31
0.0
100
AcDbText
 73
     3
  0
TEXT
  5
55
330
291
100
AcDbEntity
  8
SPEC
 62
     7
100
AcDbText
 10
54.93798139998659
 20
637.0288672036028
 30
0.0
 40
5.700933749999999
  1
寸法
 41
0.7
 11
54.93798139998659
 21
642.7298009536029
 31
0.0
100
AcDbText
 73
     3
  0
TEXT
  5
56
330
291
100
AcDbEntity
  8
SPEC
 62
     7
100
AcDbText
 10
55.04216555580543
 20
659.339590993779
 30
0.0
 40
5.700933749999999
  1
電源
 41
0.7
 11
55.04216555580543
 21
665.0405247437789
 31
0.0
100
AcDbText
 73
     3
  0
TEXT
  5
57
330
291
100
AcDbEntity
  8
SPEC
 62
     7
100
AcDbText
 10
54.97645593552797
 20
760.4451500307715
 30
0.0
 40
5.700933749999999
  1
入力ビデオ信号
 41
0.7
 11
54.97645593552797
 21
766.1460837807715
 31
0.0
100
AcDbText
 73
     3
  0
TEXT
  5
58
330
291
100
AcDbEntity
  8
SPEC
 62
     7
100
AcDbText
 10
54.98916612204786
 20
749.0526282681182
 30
0.0
 40
5.700933749999999
  1
入力DDC信号
 41
0.7
 11
54.98916612204786
 21
754.7535620181182
 31
0.0
100
AcDbText
 73
     3
  0
TEXT
  5
59
330
291
100
AcDbEntity
  8
SPEC
 62
     7
100
AcDbText
 10
220.592150741298
 20
715.5994809946983
 30
0.0
 40
5.700933749999999
  1
フル
 41
0.7
 11
220.592150741298
 21
721.3004147446983
 31
0.0
100
AcDbText
 73
     3
  0
TEXT
  5
5A
330
291
100
AcDbEntity
  8
SPEC
 62
     7
100
AcDbText
 10
221.396961170689
 20
704.080046057783
 30
0.0
 40
5.700933749999999
  1
Type A、19pin メス
 41
0.7
 11
221.396961170689
 21
709.7809798077831
 31
0.0
100
AcDbText
 73
     3
  0
TEXT
  5
5B
330
291
100
AcDbEntity
  8
SPEC
 62
     7
100
AcDbText
 10
221.5133012780023
 20
748.8629619845816
 30
0.0
 40
5.700933749999999
  1
5Vp-p(TTL)
 41
0.7
 11
221.5133012780023
 21
754.5638957345817
 31
0.0
100
AcDbText
 73
     3
  0
TEXT
  5
5C
330
291
100
AcDbEntity
  8
SPEC
 62
     7
100
AcDbText
 10
221.0663080777448
 20
760.1506437024321
 30
0.0
 40
5.700933749999999
  1
1.2Vp-p
 41
0.7
 11
221.0663080777448
 21
765.8515774524321
 31
0.0
100
AcDbText
 73
     3
  0
TEXT
  5
5D
330
291
100
AcDbEntity
  8
SPEC
 62
     7
100
AcDbText
 10
55.28681263788024
 20
726.6008192142199
 30
0.0
 40
5.700933749999999
  1
最大インサーネット送信レート
 41
0.7
 11
55.28681263788024
 21
732.3017529642198
 31
0.0
100
AcDbText
 73
     3
  0
TEXT
  5
5E
330
291
100
AcDbEntity
  8
SPEC
 62
     7
100
AcDbText
 10
221.0703597626242
 20
726.7618090689709
 30
0.0
 40
5.700933749999999
  1
100Mbps
 41
0.7
 11
221.0703597626242
 21
732.4627428189709
 31
0.0
100
AcDbText
 73
     3
  0
LINE
  5
5F
330
291
100
AcDbEntity
  8
SPEC
  6
Continuous
 62
     7
100
AcDbLine
 10
52.5
 20
690.0
 30
0.0
 11
495.0
 21
690.0
 31
0.0
  0
LINE
  5
60
330
291
100
AcDbEntity
  8
SPEC
  6
Continuous
 62
     7
100
AcDbLine
 10
52.5
 20
667.4999999999999
 30
0.0
 11
495.0
 21
667.4999999999999
 31
0.0
  0
TEXT
  5
61
330
291
100
AcDbEntity
  8
SPEC
 62
     7
100
AcDbText
 10
55.04278883999194
 20
625.8109155000893
 30
0.0
 40
5.700933749999999
  1
重量
 41
0.7
 11
55.04278883999194
 21
631.5118492500893
 31
0.0
100
AcDbText
 73
     3
  0
TEXT
  5
62
330
291
100
AcDbEntity
  8
SPEC
 62
     7
100
AcDbText
 10
221.4032086113825
 20
636.833263570576
 30
0.0
 40
5.700944010416665
  1
83(W)\U+00D729(H)\U+00D785(D)mm(突起部含まず)、(センダー、レシーバー共に)
 41
0.7
 11
221.4032086113825
 21
642.5342075809927
 31
0.0
100
AcDbText
 73
     3
  0
LINE
  5
63
330
291
100
AcDbEntity
  8
SPEC
  6
Continuous
 62
     7
100
AcDbLine
 10
52.5
 20
780.0
 30
0.0
 11
52.5
 21
622.5
 31
0.0
  0
LINE
  5
64
330
291
100
AcDbEntity
  8
SPEC
  6
Continuous
 62
     7
100
AcDbLine
 10
495.0
 20
780.0
 30
0.0
 11
495.0
 21
622.5
 31
0.0
  0
TEXT
  5
65
330
291
100
AcDbEntity
  8
SPEC
 62
     7
100
AcDbText
 10
221.3569635783484
 20
625.8965776697277
 30
0.0
 40
5.700944010416665
  1
約160g(センダー、レシーバー共に）
 41
0.7
 11
221.3569635783484
 21
631.5975216801444
 31
0.0
100
AcDbText
 73
     3
  0
LINE
  5
66
330
291
100
AcDbEntity
  8
SPEC
  6
Continuous
 62
     7
100
AcDbLine
 10
52.5
 20
701.25
 30
0.0
 11
495.0
 21
701.25
 31
0.0
  0
LINE
  5
67
330
291
100
AcDbEntity
  8
SPEC
  6
Continuous
 62
     7
100
AcDbLine
 10
52.5
 20
678.75
 30
0.0
 11
495.0
 21
678.75
 31
0.0
  0
TEXT
  5
68
330
291
100
AcDbEntity
  8
SPEC
 62
     7
100
AcDbText
 10
55.19060194384898
 20
704.2408314155377
 30
0.0
 40
5.700933749999999
  1
HDMI入出力端子
 41
0.7
 11
55.19060194384898
 21
709.9417651655377
 31
0.0
100
AcDbText
 73
     3
  0
TEXT
  5
69
330
291
100
AcDbEntity
  8
SPEC
 62
     7
100
AcDbText
 10
53.72128263311959
 20
693.2650972996379
 30
0.0
 40
5.700933749999999
  1
LEDインジケータ ー(power)
 41
0.7
 11
53.72128263311959
 21
698.9660310496378
 31
0.0
100
AcDbText
 73
     3
  0
TEXT
  5
6A
330
291
100
AcDbEntity
  8
SPEC
 62
     7
100
AcDbText
 10
55.0947770372036
 20
648.089590993779
 30
0.0
 40
5.700933749999999
  1
消費電力
 41
0.7
 11
55.0947770372036
 21
653.7905247437789
 31
0.0
100
AcDbText
 73
     3
  0
LINE
  5
6B
330
291
100
AcDbEntity
  8
SPEC
  6
Continuous
 62
     7
100
AcDbLine
 10
52.5
 20
656.25
 30
0.0
 11
495.0
 21
656.25
 31
0.0
  0
LINE
  5
6C
330
291
100
AcDbEntity
  8
SPEC
  6
Continuous
 62
     7
100
AcDbLine
 10
218.75
 20
780.0
 30
0.0
 11
218.75
 21
622.5
 31
0.0
  0
TEXT
  5
6D
330
291
100
AcDbEntity
  8
SPEC
 62
     7
100
AcDbText
 10
221.5518190040953
 20
692.9224712635408
 30
0.0
 40
5.700933749999999
  1
1(red)
 41
0.7
 11
221.5518190040953
 21
698.6234050135408
 31
0.0
100
AcDbText
 73
     3
  0
TEXT
  5
6E
330
291
100
AcDbEntity
  8
SPEC
 62
     7
100
AcDbText
 10
221.5518190040953
 20
659.2492934426005
 30
0.0
 40
5.700933749999999
  1
5V DC
 41
0.7
 11
221.5518190040953
 21
664.9502271926004
 31
0.0
100
AcDbText
 73
     3
  0
TEXT
  5
6F
330
291
100
AcDbEntity
  8
SPEC
 62
     7
100
AcDbText
 10
221.0908859297384
 20
647.7673040475862
 30
0.0
 40
5.700933749999999
  1
10W(最大・ペア)
 41
0.7
 11
221.0908859297384
 21
653.4682377975862
 31
0.0
100
AcDbText
 73
     3
  0
TEXT
  5
70
330
291
100
AcDbEntity
  8
SPEC
 62
     7
100
AcDbText
 10
54.98916612204786
 20
737.8026282681182
 30
0.0
 40
5.700933749999999
  1
最大対応解像度
 41
0.7
 11
54.98916612204786
 21
743.5035620181182
 31
0.0
100
AcDbText
 73
     3
  0
TEXT
  5
71
330
291
100
AcDbEntity
  8
SPEC
 62
     7
100
AcDbText
 10
221.5133012780023
 20
737.6129619845817
 30
0.0
 40
5.700933749999999
  1
1080p@60/1920\U+00D71200@60Hz
 41
0.7
 11
221.5133012780023
 21
743.3138957345817
 31
0.0
100
AcDbText
 73
     3
  0
TEXT
  5
72
330
291
100
AcDbEntity
  8
SPEC
 62
     7
100
AcDbText
 10
53.72128263311959
 20
682.0150972996379
 30
0.0
 40
5.700933749999999
  1
電源入力端子
 41
0.7
 11
53.72128263311959
 21
687.7160310496378
 31
0.0
100
AcDbText
 73
     3
  0
TEXT
  5
73
330
291
100
AcDbEntity
  8
SPEC
 62
     7
100
AcDbText
 10
221.5518190040953
 20
681.6724712635408
 30
0.0
 40
5.700933749999999
  1
5V DC locking jack
 41
0.7
 11
221.5518190040953
 21
687.3734050135408
 31
0.0
100
AcDbText
 73
     3
  0
TEXT
  5
74
330
291
100
AcDbEntity
  8
SPEC
 62
     7
100
AcDbText
 10
53.72128263311959
 20
670.7650972996378
 30
0.0
 40
5.700933749999999
  1
リンクコネクター
 41
0.7
 11
53.72128263311959
 21
676.4660310496378
 31
0.0
100
AcDbText
 73
     3
  0
TEXT
  5
75
330
291
100
AcDbEntity
  8
SPEC
 62
     7
100
AcDbText
 10
221.5518190040953
 20
670.4224712635407
 30
0.0
 40
5.700933749999999
  1
RJ-45シールド付き
 41
0.7
 11
221.5518190040953
 21
676.1234050135406
 31
0.0
100
AcDbText
 73
     3
  0
LINE
  5
76
330
291
100
AcDbEntity
  8
SPEC
  6
Continuous
 62
     7
100
AcDbLine
 10
52.5
 20
645.0
 30
0.0
 11
495.0
 21
645.0
 31
0.0
  0
LINE
  5
77
330
291
100
AcDbEntity
  8
SPEC
  6
Continuous
 62
     7
100
AcDbLine
 10
52.5
 20
633.75
 30
0.0
 11
495.0
 21
633.75
 31
0.0
  0
LINE
  5
78
330
291
100
AcDbEntity
  8
SPEC
  6
Continuous
 62
     7
100
AcDbLine
 10
52.5
 20
622.5
 30
0.0
 11
495.0
 21
622.5
 31
0.0
  0
TEXT
  5
79
330
291
100
AcDbEntity
  8
DIMNSIONS
 62
     7
100
AcDbText
 10
240.0
 20
66.80847000000003
 30
0.0
 40
7.329785156249999
  1
(単位：mm)
 41
0.7
 11
240.0
 21
74.13825515625003
 31
0.0
100
AcDbText
 73
     3
  0
LINE
  5
7A
330
291
100
AcDbEntity
  8
DIMNSIONS
  6
Continuous
 62
     7
100
AcDbLine
 10
131.5
 20
162.5
 30
0.0
 11
112.75
 21
162.5
 31
0.0
  0
LINE
  5
7B
330
291
100
AcDbEntity
  8
DIMNSIONS
  6
Continuous
 62
     7
100
AcDbLine
 10
131.5
 20
191.5
 30
0.0
 11
112.75
 21
191.5
 31
0.0
  0
LINE
  5
7C
330
291
100
AcDbEntity
  8
DIMNSIONS
  6
Continuous
 62
     7
100
AcDbLine
 10
118.75
 20
162.5
 30
0.0
 11
118.75
 21
191.5
 31
0.0
  0
LINE
  5
7D
330
291
100
AcDbEntity
  8
DIMNSIONS
  6
Continuous
 62
     7
100
AcDbLine
 10
118.75
 20
162.5
 30
0.0
 11
116.7398806145492
 21
170.0018676757812
 31
0.0
  0
LINE
  5
7E
330
291
100
AcDbEntity
  8
DIMNSIONS
  6
Continuous
 62
     7
100
AcDbLine
 10
118.75
 20
162.5
 30
0.0
 11
120.7601193854507
 21
170.0018676757812
 31
0.0
  0
LINE
  5
7F
330
291
100
AcDbEntity
  8
DIMNSIONS
  6
Continuous
 62
     7
100
AcDbLine
 10
118.75
 20
191.5
 30
0.0
 11
120.7601193854507
 21
183.9981323242187
 31
0.0
  0
LINE
  5
80
330
291
100
AcDbEntity
  8
DIMNSIONS
  6
Continuous
 62
     7
100
AcDbLine
 10
118.75
 20
191.5
 30
0.0
 11
116.7398806145492
 21
183.9981323242187
 31
0.0
  0
TEXT
  5
81
330
291
100
AcDbEntity
  8
DIMNSIONS
 62
     7
100
AcDbText
 10
115.7683333333333
 20
171.7083333333333
 30
0.0
 40
8.144205729166666
  1
29
 50
90.0
 41
0.7
 11
107.6241276041667
 21
171.7083333333333
 31
0.0
100
AcDbText
 73
     3
  0
LINE
  5
82
330
291
100
AcDbEntity
  8
DIMNSIONS
  6
Continuous
 62
     7
100
AcDbLine
 10
137.5
 20
158.8026618547566
 30
0.0
 11
137.5
 21
137.75
 31
0.0
  0
LINE
  5
83
330
291
100
AcDbEntity
  8
DIMNSIONS
  6
Continuous
 62
     7
100
AcDbLine
 10
220.5
 20
158.8026618547566
 30
0.0
 11
220.5
 21
137.75
 31
0.0
  0
LINE
  5
84
330
291
100
AcDbEntity
  8
DIMNSIONS
  6
Continuous
 62
     7
100
AcDbLine
 10
137.5
 20
143.75
 30
0.0
 11
220.5
 21
143.75
 31
0.0
  0
LINE
  5
85
330
291
100
AcDbEntity
  8
DIMNSIONS
  6
Continuous
 62
     7
100
AcDbLine
 10
137.5
 20
143.75
 30
0.0
 11
145.0018676757812
 21
145.7601193854507
 31
0.0
  0
LINE
  5
86
330
291
100
AcDbEntity
  8
DIMNSIONS
  6
Continuous
 62
     7
100
AcDbLine
 10
137.5
 20
143.75
 30
0.0
 11
145.0018676757812
 21
141.7398806145492
 31
0.0
  0
LINE
  5
87
330
291
100
AcDbEntity
  8
DIMNSIONS
  6
Continuous
 62
     7
100
AcDbLine
 10
220.5
 20
143.75
 30
0.0
 11
212.9981323242188
 21
141.7398806145492
 31
0.0
  0
LINE
  5
88
330
291
100
AcDbEntity
  8
DIMNSIONS
  6
Continuous
 62
     7
100
AcDbLine
 10
220.5
 20
143.75
 30
0.0
 11
212.9981323242188
 21
145.7601193854507
 31
0.0
  0
TEXT
  5
89
330
291
100
AcDbEntity
  8
DIMNSIONS
 62
     7
100
AcDbText
 10
173.7083333333333
 20
146.7316666666666
 30
0.0
 40
8.144205729166666
  1
83
 41
0.7
 11
173.7083333333333
 21
154.8758723958333
 31
0.0
100
AcDbText
 73
     3
  0
LINE
  5
8A
330
291
100
AcDbEntity
  8
DIMNSIONS
  6
Continuous
 62
     7
100
AcDbLine
 10
134.9
 20
160.5
 30
0.0
 11
112.75
 21
160.5
 31
0.0
  0
LINE
  5
8B
330
291
100
AcDbEntity
  8
DIMNSIONS
  6
Continuous
 62
     7
100
AcDbLine
 10
133.6707809583494
 20
162.5
 30
0.0
 11
112.75
 21
162.5
 31
0.0
  0
LINE
  5
8C
330
291
100
AcDbEntity
  8
DIMNSIONS
  6
Continuous
 62
     7
100
AcDbLine
 10
118.75
 20
162.5
 30
0.0
 11
118.75
 21
160.5
 31
0.0
  0
LINE
  5
8D
330
291
100
AcDbEntity
  8
DIMNSIONS
  6
Continuous
 62
     7
100
AcDbLine
 10
118.75
 20
160.5
 30
0.0
 11
118.75
 21
145.6083333333333
 31
0.0
  0
LINE
  5
8E
330
291
100
AcDbEntity
  8
DIMNSIONS
  6
Continuous
 62
     7
100
AcDbLine
 10
118.75
 20
160.5
 30
0.0
 11
120.7601193854507
 21
152.9981323242187
 31
0.0
  0
LINE
  5
8F
330
291
100
AcDbEntity
  8
DIMNSIONS
  6
Continuous
 62
     7
100
AcDbLine
 10
118.75
 20
160.5
 30
0.0
 11
116.7398806145492
 21
152.9981323242187
 31
0.0
  0
LINE
  5
90
330
291
100
AcDbEntity
  8
DIMNSIONS
  6
Continuous
 62
     7
100
AcDbLine
 10
118.75
 20
162.5
 30
0.0
 11
118.75
 21
177.5
 31
0.0
  0
LINE
  5
91
330
291
100
AcDbEntity
  8
DIMNSIONS
  6
Continuous
 62
     7
100
AcDbLine
 10
118.75
 20
162.5
 30
0.0
 11
116.7398806145492
 21
170.0018676757812
 31
0.0
  0
LINE
  5
92
330
291
100
AcDbEntity
  8
DIMNSIONS
  6
Continuous
 62
     7
100
AcDbLine
 10
118.75
 20
162.5
 30
0.0
 11
120.7601193854507
 21
170.0018676757812
 31
0.0
  0
TEXT
  5
93
330
291
100
AcDbEntity
  8
DIMNSIONS
 62
     7
100
AcDbText
 10
115.7683333333333
 20
145.6083333333333
 30
0.0
 40
8.144205729166666
  1
2
 50
90.0
 41
0.7
 11
107.6241276041666
 21
145.6083333333333
 31
0.0
100
AcDbText
 73
     3
  0
LINE
  5
94
330
291
100
AcDbEntity
  8
DIMNSIONS
  6
Continuous
 62
     7
100
AcDbLine
 10
131.5
 20
218.75
 30
0.0
 11
112.75
 21
218.75
 31
0.0
  0
LINE
  5
95
330
291
100
AcDbEntity
  8
DIMNSIONS
  6
Continuous
 62
     7
100
AcDbLine
 10
131.5
 20
303.75
 30
0.0
 11
112.75
 21
303.75
 31
0.0
  0
LINE
  5
96
330
291
100
AcDbEntity
  8
DIMNSIONS
  6
Continuous
 62
     7
100
AcDbLine
 10
118.75
 20
218.75
 30
0.0
 11
118.75
 21
303.75
 31
0.0
  0
LINE
  5
97
330
291
100
AcDbEntity
  8
DIMNSIONS
  6
Continuous
 62
     7
100
AcDbLine
 10
118.75
 20
218.75
 30
0.0
 11
116.7398806145492
 21
226.2518676757813
 31
0.0
  0
LINE
  5
98
330
291
100
AcDbEntity
  8
DIMNSIONS
  6
Continuous
 62
     7
100
AcDbLine
 10
118.75
 20
218.75
 30
0.0
 11
120.7601193854507
 21
226.2518676757813
 31
0.0
  0
LINE
  5
99
330
291
100
AcDbEntity
  8
DIMNSIONS
  6
Continuous
 62
     7
100
AcDbLine
 10
118.75
 20
303.75
 30
0.0
 11
120.7601193854507
 21
296.2481323242188
 31
0.0
  0
LINE
  5
9A
330
291
100
AcDbEntity
  8
DIMNSIONS
  6
Continuous
 62
     7
100
AcDbLine
 10
118.75
 20
303.75
 30
0.0
 11
116.7398806145492
 21
296.2481323242188
 31
0.0
  0
TEXT
  5
9B
330
291
100
AcDbEntity
  8
DIMNSIONS
 62
     7
100
AcDbText
 10
115.7683333333333
 20
255.9583333333333
 30
0.0
 40
8.144205729166666
  1
85
 50
90.0
 41
0.7
 11
107.6241276041667
 21
255.9583333333333
 31
0.0
100
AcDbText
 73
     3
  0
LINE
  5
9C
330
291
100
AcDbEntity
  8
DIMNSIONS
  6
Continuous
 62
     7
100
AcDbLine
 10
193.6038388845071
 20
212.75
 30
0.0
 11
112.75
 21
212.75
 31
0.0
  0
LINE
  5
9D
330
291
100
AcDbEntity
  8
DIMNSIONS
  6
Continuous
 62
     7
100
AcDbLine
 10
131.5
 20
218.75
 30
0.0
 11
112.75
 21
218.75
 31
0.0
  0
LINE
  5
9E
330
291
100
AcDbEntity
  8
DIMNSIONS
  6
Continuous
 62
     7
100
AcDbLine
 10
118.75
 20
218.75
 30
0.0
 11
118.75
 21
212.75
 31
0.0
  0
LINE
  5
9F
330
291
100
AcDbEntity
  8
DIMNSIONS
  6
Continuous
 62
     7
100
AcDbLine
 10
118.75
 20
212.75
 30
0.0
 11
118.75
 21
199.9083333333333
 31
0.0
  0
LINE
  5
A0
330
291
100
AcDbEntity
  8
DIMNSIONS
  6
Continuous
 62
     7
100
AcDbLine
 10
118.75
 20
212.75
 30
0.0
 11
120.7601193854507
 21
205.2481323242187
 31
0.0
  0
LINE
  5
A1
330
291
100
AcDbEntity
  8
DIMNSIONS
  6
Continuous
 62
     7
100
AcDbLine
 10
118.75
 20
212.75
 30
0.0
 11
116.7398806145492
 21
205.2481323242187
 31
0.0
  0
LINE
  5
A2
330
291
100
AcDbEntity
  8
DIMNSIONS
  6
Continuous
 62
     7
100
AcDbLine
 10
118.75
 20
218.75
 30
0.0
 11
118.75
 21
233.75
 31
0.0
  0
LINE
  5
A3
330
291
100
AcDbEntity
  8
DIMNSIONS
  6
Continuous
 62
     7
100
AcDbLine
 10
118.75
 20
218.75
 30
0.0
 11
116.7398806145492
 21
226.2518676757813
 31
0.0
  0
LINE
  5
A4
330
291
100
AcDbEntity
  8
DIMNSIONS
  6
Continuous
 62
     7
100
AcDbLine
 10
118.75
 20
218.75
 30
0.0
 11
120.7601193854507
 21
226.2518676757813
 31
0.0
  0
TEXT
  5
A5
330
291
100
AcDbEntity
  8
DIMNSIONS
 62
     7
100
AcDbText
 10
115.7683333333333
 20
199.9083333333333
 30
0.0
 40
8.144205729166666
  1
6
 50
90.0
 41
0.7
 11
107.6241276041666
 21
199.9083333333333
 31
0.0
100
AcDbText
 73
     3
  0
LINE
  5
A6
330
291
100
AcDbEntity
  8
DIMNSIONS
  6
Continuous
 62
     7
100
AcDbLine
 10
131.5
 20
418.75
 30
0.0
 11
112.75
 21
418.75
 31
0.0
  0
LINE
  5
A7
330
291
100
AcDbEntity
  8
DIMNSIONS
  6
Continuous
 62
     7
100
AcDbLine
 10
131.5
 20
447.75
 30
0.0
 11
112.75
 21
447.75
 31
0.0
  0
LINE
  5
A8
330
291
100
AcDbEntity
  8
DIMNSIONS
  6
Continuous
 62
     7
100
AcDbLine
 10
118.75
 20
418.75
 30
0.0
 11
118.75
 21
447.75
 31
0.0
  0
LINE
  5
A9
330
291
100
AcDbEntity
  8
DIMNSIONS
  6
Continuous
 62
     7
100
AcDbLine
 10
118.75
 20
418.75
 30
0.0
 11
116.7398806145492
 21
426.2518676757811
 31
0.0
  0
LINE
  5
AA
330
291
100
AcDbEntity
  8
DIMNSIONS
  6
Continuous
 62
     7
100
AcDbLine
 10
118.75
 20
418.75
 30
0.0
 11
120.7601193854507
 21
426.2518676757811
 31
0.0
  0
LINE
  5
AB
330
291
100
AcDbEntity
  8
DIMNSIONS
  6
Continuous
 62
     7
100
AcDbLine
 10
118.75
 20
447.75
 30
0.0
 11
120.7601193854507
 21
440.2481323242188
 31
0.0
  0
LINE
  5
AC
330
291
100
AcDbEntity
  8
DIMNSIONS
  6
Continuous
 62
     7
100
AcDbLine
 10
118.75
 20
447.75
 30
0.0
 11
116.7398806145492
 21
440.2481323242188
 31
0.0
  0
TEXT
  5
AD
330
291
100
AcDbEntity
  8
DIMNSIONS
 62
     7
100
AcDbText
 10
115.7683333333333
 20
427.9583333333333
 30
0.0
 40
8.144205729166666
  1
29
 50
90.0
 41
0.7
 11
107.6241276041667
 21
427.9583333333333
 31
0.0
100
AcDbText
 73
     3
  0
LINE
  5
AE
330
291
100
AcDbEntity
  8
DIMNSIONS
  6
Continuous
 62
     7
100
AcDbLine
 10
137.5
 20
415.0526618547567
 30
0.0
 11
137.5
 21
394.0
 31
0.0
  0
LINE
  5
AF
330
291
100
AcDbEntity
  8
DIMNSIONS
  6
Continuous
 62
     7
100
AcDbLine
 10
220.5
 20
415.0526618547567
 30
0.0
 11
220.5
 21
394.0
 31
0.0
  0
LINE
  5
B0
330
291
100
AcDbEntity
  8
DIMNSIONS
  6
Continuous
 62
     7
100
AcDbLine
 10
137.5
 20
400.0
 30
0.0
 11
220.5
 21
400.0
 31
0.0
  0
LINE
  5
B1
330
291
100
AcDbEntity
  8
DIMNSIONS
  6
Continuous
 62
     7
100
AcDbLine
 10
137.5
 20
400.0
 30
0.0
 11
145.0018676757812
 21
402.0101193854507
 31
0.0
  0
LINE
  5
B2
330
291
100
AcDbEntity
  8
DIMNSIONS
  6
Continuous
 62
     7
100
AcDbLine
 10
137.5
 20
400.0
 30
0.0
 11
145.0018676757812
 21
397.9898806145492
 31
0.0
  0
LINE
  5
B3
330
291
100
AcDbEntity
  8
DIMNSIONS
  6
Continuous
 62
     7
100
AcDbLine
 10
220.5
 20
400.0
 30
0.0
 11
212.9981323242188
 21
397.9898806145492
 31
0.0
  0
LINE
  5
B4
330
291
100
AcDbEntity
  8
DIMNSIONS
  6
Continuous
 62
     7
100
AcDbLine
 10
220.5
 20
400.0
 30
0.0
 11
212.9981323242188
 21
402.0101193854507
 31
0.0
  0
TEXT
  5
B5
330
291
100
AcDbEntity
  8
DIMNSIONS
 62
     7
100
AcDbText
 10
173.7083333333333
 20
402.9816666666666
 30
0.0
 40
8.144205729166666
  1
83
 41
0.7
 11
173.7083333333333
 21
411.1258723958332
 31
0.0
100
AcDbText
 73
     3
  0
LINE
  5
B6
330
291
100
AcDbEntity
  8
DIMNSIONS
  6
Continuous
 62
     7
100
AcDbLine
 10
134.9
 20
416.75
 30
0.0
 11
112.75
 21
416.75
 31
0.0
  0
LINE
  5
B7
330
291
100
AcDbEntity
  8
DIMNSIONS
  6
Continuous
 62
     7
100
AcDbLine
 10
133.6707809583494
 20
418.75
 30
0.0
 11
112.75
 21
418.75
 31
0.0
  0
LINE
  5
B8
330
291
100
AcDbEntity
  8
DIMNSIONS
  6
Continuous
 62
     7
100
AcDbLine
 10
118.75
 20
418.75
 30
0.0
 11
118.75
 21
416.75
 31
0.0
  0
LINE
  5
B9
330
291
100
AcDbEntity
  8
DIMNSIONS
  6
Continuous
 62
     7
100
AcDbLine
 10
118.75
 20
416.75
 30
0.0
 11
118.75
 21
401.8583333333332
 31
0.0
  0
LINE
  5
BA
330
291
100
AcDbEntity
  8
DIMNSIONS
  6
Continuous
 62
     7
100
AcDbLine
 10
118.75
 20
416.75
 30
0.0
 11
120.7601193854507
 21
409.2481323242187
 31
0.0
  0
LINE
  5
BB
330
291
100
AcDbEntity
  8
DIMNSIONS
  6
Continuous
 62
     7
100
AcDbLine
 10
118.75
 20
416.75
 30
0.0
 11
116.7398806145492
 21
409.2481323242187
 31
0.0
  0
LINE
  5
BC
330
291
100
AcDbEntity
  8
DIMNSIONS
  6
Continuous
 62
     7
100
AcDbLine
 10
118.75
 20
418.75
 30
0.0
 11
118.75
 21
433.75
 31
0.0
  0
LINE
  5
BD
330
291
100
AcDbEntity
  8
DIMNSIONS
  6
Continuous
 62
     7
100
AcDbLine
 10
118.75
 20
418.75
 30
0.0
 11
116.7398806145492
 21
426.2518676757811
 31
0.0
  0
LINE
  5
BE
330
291
100
AcDbEntity
  8
DIMNSIONS
  6
Continuous
 62
     7
100
AcDbLine
 10
118.75
 20
418.75
 30
0.0
 11
120.7601193854507
 21
426.2518676757811
 31
0.0
  0
TEXT
  5
BF
330
291
100
AcDbEntity
  8
DIMNSIONS
 62
     7
100
AcDbText
 10
115.7683333333333
 20
401.8583333333332
 30
0.0
 40
8.144205729166666
  1
2
 50
90.0
 41
0.7
 11
107.6241276041666
 21
401.8583333333332
 31
0.0
100
AcDbText
 73
     3
  0
LINE
  5
C0
330
291
100
AcDbEntity
  8
DIMNSIONS
  6
Continuous
 62
     7
100
AcDbLine
 10
131.5
 20
475.0
 30
0.0
 11
112.75
 21
475.0
 31
0.0
  0
LINE
  5
C1
330
291
100
AcDbEntity
  8
DIMNSIONS
  6
Continuous
 62
     7
100
AcDbLine
 10
131.5
 20
560.0
 30
0.0
 11
112.75
 21
560.0
 31
0.0
  0
LINE
  5
C2
330
291
100
AcDbEntity
  8
DIMNSIONS
  6
Continuous
 62
     7
100
AcDbLine
 10
118.75
 20
475.0
 30
0.0
 11
118.75
 21
560.0
 31
0.0
  0
LINE
  5
C3
330
291
100
AcDbEntity
  8
DIMNSIONS
  6
Continuous
 62
     7
100
AcDbLine
 10
118.75
 20
475.0
 30
0.0
 11
116.7398806145492
 21
482.5018676757811
 31
0.0
  0
LINE
  5
C4
330
291
100
AcDbEntity
  8
DIMNSIONS
  6
Continuous
 62
     7
100
AcDbLine
 10
118.75
 20
475.0
 30
0.0
 11
120.7601193854507
 21
482.5018676757811
 31
0.0
  0
LINE
  5
C5
330
291
100
AcDbEntity
  8
DIMNSIONS
  6
Continuous
 62
     7
100
AcDbLine
 10
118.75
 20
560.0
 30
0.0
 11
120.7601193854507
 21
552.4981323242188
 31
0.0
  0
LINE
  5
C6
330
291
100
AcDbEntity
  8
DIMNSIONS
  6
Continuous
 62
     7
100
AcDbLine
 10
118.75
 20
560.0
 30
0.0
 11
116.7398806145492
 21
552.4981323242188
 31
0.0
  0
TEXT
  5
C7
330
291
100
AcDbEntity
  8
DIMNSIONS
 62
     7
100
AcDbText
 10
115.7683333333333
 20
512.2083333333334
 30
0.0
 40
8.144205729166666
  1
85
 50
90.0
 41
0.7
 11
107.6241276041667
 21
512.2083333333334
 31
0.0
100
AcDbText
 73
     3
  0
TEXT
  5
C8
330
291
100
AcDbEntity
  8
DATA
 62
     7
100
AcDbText
 10
449.9999999999999
 20
63.48137458772291
 30
0.0
 40
7.329785156249999
  1
EXT-HDMI1.3-CAT5-ELR
 41
0.7
 11
449.9999999999999
 21
70.81115974397291
 31
0.0
100
AcDbText
 73
     3
  0
TEXT
  5
C9
330
291
100
AcDbEntity
  8
DATA
 62
     7
100
AcDbText
 10
60.0
 20
42.71399999999998
 30
0.0
 40
4.886523437499999
  1
仕様および外観は予告なく変更されることがありますので、ご了承ください。
 41
0.7
 11
60.0
 21
47.60052343749999
 31
0.0
100
AcDbText
 73
     3
  0
TEXT
  5
CA
330
291
100
AcDbEntity
  8
DATA
 62
     7
100
AcDbText
 10
449.9713515443359
 20
86.64500939095638
 30
0.0
 40
7.329785156249999
  1
Gefen
 41
0.7
 11
449.9713515443359
 21
93.97479454720638
 31
0.0
100
AcDbText
 73
     3
  0
TEXT
  5
CB
330
291
100
AcDbEntity
  8
DATA
 62
     7
100
AcDbText
 10
445.3494740600226
 20
75.77157892331022
 30
0.0
 40
4.886523437499999
  1
HDMI1.3CAT5延長機
 41
0.7
 11
445.3494740600226
 21
80.65810236081022
 31
0.0
100
AcDbText
 73
     3
  0
LINE
  5
CC
330
291
100
AcDbEntity
  8
DATA
  6
Continuous
 62
     7
100
AcDbLine
 10
137.5
 20
164.5
 30
0.0
 11
137.5
 21
189.5
 31
0.0
  0
TEXT
  5
CD
330
291
100
AcDbEntity
  8
DATA
 62
     7
100
AcDbText
 10
151.5473574362234
 20
115.4091824498496
 30
0.0
 40
8.144205729166666
  1
レシーバー
 41
0.7
 11
151.5473574362234
 21
123.5533881790163
 31
0.0
100
AcDbText
 73
     3
  0
LINE
  5
CE
330
291
100
AcDbEntity
  8
DATA
  6
Continuous
 62
     7
100
AcDbLine
 10
220.5
 20
164.5
 30
0.0
 11
220.5
 21
189.5
 31
0.0
  0
LINE
  5
CF
330
291
100
AcDbEntity
  8
DATA
  6
Continuous
 62
     7
100
AcDbLine
 10
139.5
 20
162.5
 30
0.0
 11
149.5
 21
162.5
 31
0.0
  0
LINE
  5
D0
330
291
100
AcDbEntity
  8
DATA
  6
Continuous
 62
     7
100
AcDbLine
 10
208.5
 20
162.5
 30
0.0
 11
218.5
 21
162.5
 31
0.0
  0
LINE
  5
D1
330
291
100
AcDbEntity
  8
DATA
  6
Continuous
 62
     7
100
AcDbLine
 10
139.5
 20
191.5
 30
0.0
 11
218.5
 21
191.5
 31
0.0
  0
LINE
  5
D2
330
291
100
AcDbEntity
  8
DATA
  6
Continuous
 62
     7
100
AcDbLine
 10
149.5
 20
162.5
 30
0.0
 11
149.5
 21
164.5
 31
0.0
  0
LINE
  5
D3
330
291
100
AcDbEntity
  8
DATA
  6
Continuous
 62
     7
100
AcDbLine
 10
208.5
 20
162.5
 30
0.0
 11
208.5
 21
164.5
 31
0.0
  0
LINE
  5
D4
330
291
100
AcDbEntity
  8
DATA
  6
Continuous
 62
     7
100
AcDbLine
 10
139.5
 20
164.5
 30
0.0
 11
218.5
 21
164.5
 31
0.0
  0
LINE
  5
D5
330
291
100
AcDbEntity
  8
DATA
  6
Continuous
 62
     7
100
AcDbLine
 10
141.5
 20
189.5
 30
0.0
 11
216.5
 21
189.5
 31
0.0
  0
LINE
  5
D6
330
291
100
AcDbEntity
  8
DATA
  6
Continuous
 62
     7
100
AcDbLine
 10
139.5
 20
164.5
 30
0.0
 11
139.5
 21
187.5
 31
0.0
  0
LINE
  5
D7
330
291
100
AcDbEntity
  8
DATA
  6
Continuous
 62
     7
100
AcDbLine
 10
218.5
 20
164.5
 30
0.0
 11
218.5
 21
187.5
 31
0.0
  0
ARC
  5
D8
330
291
100
AcDbEntity
  8
DATA
  6
Continuous
 62
     7
100
AcDbCircle
 10
141.5
 20
187.5
 30
0.0
 40
2.0
100
AcDbArc
 50
90.0
 51
180.0
  0
ARC
  5
D9
330
291
100
AcDbEntity
  8
DATA
  6
Continuous
 62
     7
100
AcDbCircle
 10
139.5
 20
189.5
 30
0.0
 40
2.0
100
AcDbArc
 50
90.0
 51
180.0
  0
ARC
  5
DA
330
291
100
AcDbEntity
  8
DATA
  6
Continuous
 62
     7
100
AcDbCircle
 10
216.5
 20
187.5
 30
0.0
 40
2.0
100
AcDbArc
 50
0.0
 51
90.0
  0
ARC
  5
DB
330
291
100
AcDbEntity
  8
DATA
  6
Continuous
 62
     7
100
AcDbCircle
 10
218.5
 20
189.5
 30
0.0
 40
2.0
100
AcDbArc
 50
0.0
 51
90.0
  0
ARC
  5
DC
330
291
100
AcDbEntity
  8
DATA
  6
Continuous
 62
     7
100
AcDbCircle
 10
139.5
 20
164.5
 30
0.0
 40
2.0
100
AcDbArc
 50
180.0
 51
270.0
  0
ARC
  5
DD
330
291
100
AcDbEntity
  8
DATA
  6
Continuous
 62
     7
100
AcDbCircle
 10
218.5
 20
164.5
 30
0.0
 40
2.0
100
AcDbArc
 50
270.0
 51
0.0
  0
LINE
  5
DE
330
291
100
AcDbEntity
  8
DATA
  6
Continuous
 62
     7
100
AcDbLine
 10
140.9
 20
160.5
 30
0.0
 11
139.95
 21
162.5
 31
0.0
  0
LINE
  5
DF
330
291
100
AcDbEntity
  8
DATA
  6
Continuous
 62
     7
100
AcDbLine
 10
146.6
 20
160.5
 30
0.0
 11
147.55
 21
162.5
 31
0.0
  0
LINE
  5
E0
330
291
100
AcDbEntity
  8
DATA
  6
Continuous
 62
     7
100
AcDbLine
 10
140.9
 20
160.5
 30
0.0
 11
146.6
 21
160.5
 31
0.0
  0
LINE
  5
E1
330
291
100
AcDbEntity
  8
DATA
  6
Continuous
 62
     7
100
AcDbLine
 10
217.1
 20
160.5
 30
0.0
 11
218.05
 21
162.5
 31
0.0
  0
LINE
  5
E2
330
291
100
AcDbEntity
  8
DATA
  6
Continuous
 62
     7
100
AcDbLine
 10
211.4
 20
160.5
 30
0.0
 11
210.45
 21
162.5
 31
0.0
  0
LINE
  5
E3
330
291
100
AcDbEntity
  8
DATA
  6
Continuous
 62
     7
100
AcDbLine
 10
217.1
 20
160.5
 30
0.0
 11
211.4
 21
160.5
 31
0.0
  0
LINE
  5
E4
330
291
100
AcDbEntity
  8
DATA
  6
Continuous
 62
     7
100
AcDbLine
 10
137.5
 20
218.75
 30
0.0
 11
220.5
 21
218.75
 31
0.0
  0
LINE
  5
E5
330
291
100
AcDbEntity
  8
DATA
  6
Continuous
 62
     7
100
AcDbLine
 10
137.5
 20
303.75
 30
0.0
 11
220.5
 21
303.75
 31
0.0
  0
LINE
  5
E6
330
291
100
AcDbEntity
  8
DATA
  6
Continuous
 62
     7
100
AcDbLine
 10
137.5
 20
218.75
 30
0.0
 11
137.5
 21
303.75
 31
0.0
  0
LINE
  5
E7
330
291
100
AcDbEntity
  8
DATA
  6
Continuous
 62
     7
100
AcDbLine
 10
220.5
 20
218.75
 30
0.0
 11
220.5
 21
303.75
 31
0.0
  0
CIRCLE
  5
E8
330
291
100
AcDbEntity
  8
DATA
  6
Continuous
 62
     7
100
AcDbCircle
 10
203.5
 20
179.5
 30
0.0
 40
3.900000000000005
  0
LWPOLYLINE
  5
E9
330
291
100
AcDbEntity
  8
DATA
  6
Continuous
 62
     7
100
AcDbPolyline
 90
        6
 70
     1
 43
0.0
 10
200.6132486540519
 20
184.5
 10
197.7264973081037
 20
179.5
 10
200.6132486540519
 20
174.5
 10
206.3867513459481
 20
174.5
 10
209.2735026918962
 20
179.5
 10
206.3867513459481
 20
184.5
  0
CIRCLE
  5
F2
330
291
100
AcDbEntity
  8
DATA
  6
Continuous
 62
     7
100
AcDbCircle
 10
203.5
 20
179.5
 30
0.0
 40
2.900000000000005
  0
CIRCLE
  5
F3
330
291
100
AcDbEntity
  8
DATA
  6
Continuous
 62
     7
100
AcDbCircle
 10
203.5
 20
179.5
 30
0.0
 40
0.75
  0
LWPOLYLINE
  5
F4
330
291
100
AcDbEntity
  8
DATA
  6
Continuous
 62
     7
100
AcDbPolyline
 90
        6
 70
     1
 43
0.0
 10
167.7528537731933
 20
181.710851705659
 10
170.5412414523193
 20
182.4579979324657
 10
171.288387679126
 20
185.2463856115917
 10
169.2471462268067
 20
187.2876270639111
 10
166.4587585476807
 20
186.5404808371044
 10
165.7116123208739
 20
183.7520931579783
  0
CIRCLE
  5
FD
330
291
100
AcDbEntity
  8
DATA
  6
Continuous
 62
     7
100
AcDbCircle
 10
168.5
 20
184.4992393847851
 30
0.0
 40
1.275000000000034
  0
LINE
  5
FE
330
291
100
AcDbEntity
  8
DATA
  6
Continuous
 62
     7
100
AcDbLine
 10
176.3499999999999
 20
177.4363887160209
 30
0.0
 11
160.65
 21
177.4363887160209
 31
0.0
  0
LINE
  5
FF
330
291
100
AcDbEntity
  8
DATA
  6
Continuous
 62
     7
100
AcDbLine
 10
176.3499999999999
 20
177.4363887160209
 30
0.0
 11
176.3499999999999
 21
173.1363887160207
 31
0.0
  0
LINE
  5
100
330
291
100
AcDbEntity
  8
DATA
  6
Continuous
 62
     7
100
AcDbLine
 10
160.65
 20
177.4363887160209
 30
0.0
 11
160.65
 21
173.1363887160207
 31
0.0
  0
LINE
  5
101
330
291
100
AcDbEntity
  8
DATA
  6
Continuous
 62
     7
100
AcDbLine
 10
176.3499999999999
 20
173.1363887160207
 30
0.0
 11
173.75
 21
171.4363887160206
 31
0.0
  0
LINE
  5
102
330
291
100
AcDbEntity
  8
DATA
  6
Continuous
 62
     7
100
AcDbLine
 10
160.65
 20
173.1363887160207
 30
0.0
 11
163.25
 21
171.4363887160206
 31
0.0
  0
LINE
  5
103
330
291
100
AcDbEntity
  8
DATA
  6
Continuous
 62
     7
100
AcDbLine
 10
173.75
 20
171.4363887160206
 30
0.0
 11
163.25
 21
171.4363887160206
 31
0.0
  0
LWPOLYLINE
  5
104
330
291
100
AcDbEntity
  8
DATA
  6
Continuous
 62
     7
100
AcDbPolyline
 90
        4
 70
     1
 43
0.0
 10
163.5
 20
175.150225541528
 10
173.5
 20
175.150225541528
 10
173.5
 20
174.650225541528
 10
163.5
 20
174.650225541528
  0
CIRCLE
  5
10B
330
291
100
AcDbEntity
  8
DATA
  6
Continuous
 62
     7
100
AcDbCircle
 10
183.5
 20
175.0
 30
0.0
 40
1.400000000000005
  0
CIRCLE
  5
10C
330
291
100
AcDbEntity
  8
DATA
  6
Continuous
 62
     7
100
AcDbCircle
 10
149.0
 20
175.0
 30
0.0
 40
5.0
  0
TEXT
  5
10D
330
291
100
AcDbEntity
  8
DATA
 62
     7
100
AcDbText
 10
147.501625
 20
165.3989751530865
 30
0.0
 40
1.979041992187499
  1
IR
 41
0.7
 11
147.501625
 21
167.378017145274
 31
0.0
100
AcDbText
 73
     3
  0
TEXT
  5
10E
330
291
100
AcDbEntity
  8
DATA
 62
     7
100
AcDbText
 10
163.1692419081481
 20
165.3989751530865
 30
0.0
 40
1.979041992187499
  1
HDMI Out
 41
0.7
 11
163.1692419081481
 21
167.378017145274
 31
0.0
100
AcDbText
 73
     3
  0
TEXT
  5
10F
330
291
100
AcDbEntity
  8
DATA
 62
     7
100
AcDbText
 10
180.5319367550616
 20
165.3989751530865
 30
0.0
 40
1.979041992187499
  1
Power
 41
0.7
 11
180.5319367550616
 21
167.378017145274
 31
0.0
100
AcDbText
 73
     3
  0
TEXT
  5
110
330
291
100
AcDbEntity
  8
DATA
 62
     7
100
AcDbText
 10
200.7876382039501
 20
165.3989751530865
 30
0.0
 40
1.979041992187499
  1
5V DC
 41
0.7
 11
200.7876382039501
 21
167.378017145274
 31
0.0
100
AcDbText
 73
     3
  0
LINE
  5
111
330
291
100
AcDbEntity
  8
DATA
  6
Continuous
 62
     7
100
AcDbLine
 10
165.7116123208739
 20
213.75
 30
0.0
 11
171.288387679126
 21
213.75
 31
0.0
  0
LINE
  5
112
330
291
100
AcDbEntity
  8
DATA
  6
Continuous
 62
     7
100
AcDbLine
 10
165.7116123208739
 20
213.75
 30
0.0
 11
165.7116123208739
 21
218.75
 31
0.0
  0
LINE
  5
113
330
291
100
AcDbEntity
  8
DATA
  6
Continuous
 62
     7
100
AcDbLine
 10
171.288387679126
 20
213.75
 30
0.0
 11
171.288387679126
 21
218.75
 31
0.0
  0
ARC
  5
114
330
291
100
AcDbEntity
  8
DATA
  6
Continuous
 62
     7
100
AcDbCircle
 10
183.5
 20
218.7705688788114
 30
0.0
 40
1.399999999999999
100
AcDbArc
 50
180.8418231053616
 51
359.1581768946372
  0
LINE
  5
115
330
291
100
AcDbEntity
  8
DATA
  6
Continuous
 62
     7
100
AcDbLine
 10
199.6038388845071
 20
212.75
 30
0.0
 11
207.4038388845071
 21
212.75
 31
0.0
  0
LINE
  5
116
330
291
100
AcDbEntity
  8
DATA
  6
Continuous
 62
     7
100
AcDbLine
 10
209.2773415764034
 20
217.25
 30
0.0
 11
209.2773415764034
 21
218.75
 31
0.0
  0
LINE
  5
117
330
291
100
AcDbEntity
  8
DATA
  6
Continuous
 62
     7
100
AcDbLine
 10
197.7303361926109
 20
217.25
 30
0.0
 11
197.7303361926109
 21
218.75
 31
0.0
  0
LINE
  5
118
330
291
100
AcDbEntity
  8
DATA
  6
Continuous
 62
     7
100
AcDbLine
 10
209.2773415764034
 20
217.25
 30
0.0
 11
197.7303361926109
 21
217.25
 31
0.0
  0
LINE
  5
119
330
291
100
AcDbEntity
  8
DATA
  6
Continuous
 62
     7
100
AcDbLine
 10
207.4038388845071
 20
212.75
 30
0.0
 11
207.4038388845071
 21
217.25
 31
0.0
  0
LINE
  5
11A
330
291
100
AcDbEntity
  8
DATA
  6
Continuous
 62
     7
100
AcDbLine
 10
199.6038388845071
 20
212.75
 30
0.0
 11
199.6038388845071
 21
217.25
 31
0.0
  0
LINE
  5
11B
330
291
100
AcDbEntity
  8
DATA
  6
Continuous
 62
     7
100
AcDbLine
 10
137.5
 20
339.4999999997941
 30
0.0
 11
137.5
 21
314.4999999997942
 31
0.0
  0
LINE
  5
11C
330
291
100
AcDbEntity
  8
DATA
  6
Continuous
 62
     7
100
AcDbLine
 10
220.5
 20
339.4999999997941
 30
0.0
 11
220.5
 21
314.4999999997942
 31
0.0
  0
LINE
  5
11D
330
291
100
AcDbEntity
  8
DATA
  6
Continuous
 62
     7
100
AcDbLine
 10
139.5
 20
341.4999999997941
 30
0.0
 11
149.5
 21
341.4999999997941
 31
0.0
  0
LINE
  5
11E
330
291
100
AcDbEntity
  8
DATA
  6
Continuous
 62
     7
100
AcDbLine
 10
208.5
 20
341.4999999997941
 30
0.0
 11
218.5
 21
341.4999999997941
 31
0.0
  0
LINE
  5
11F
330
291
100
AcDbEntity
  8
DATA
  6
Continuous
 62
     7
100
AcDbLine
 10
139.5
 20
312.4999999997942
 30
0.0
 11
218.5
 21
312.4999999997942
 31
0.0
  0
LINE
  5
120
330
291
100
AcDbEntity
  8
DATA
  6
Continuous
 62
     7
100
AcDbLine
 10
149.5
 20
341.4999999997941
 30
0.0
 11
149.5
 21
339.4999999997941
 31
0.0
  0
LINE
  5
121
330
291
100
AcDbEntity
  8
DATA
  6
Continuous
 62
     7
100
AcDbLine
 10
208.5
 20
341.4999999997941
 30
0.0
 11
208.5
 21
339.4999999997941
 31
0.0
  0
LINE
  5
122
330
291
100
AcDbEntity
  8
DATA
  6
Continuous
 62
     7
100
AcDbLine
 10
139.5
 20
339.4999999997941
 30
0.0
 11
218.5
 21
339.4999999997941
 31
0.0
  0
LINE
  5
123
330
291
100
AcDbEntity
  8
DATA
  6
Continuous
 62
     7
100
AcDbLine
 10
139.5
 20
339.4999999997941
 30
0.0
 11
139.5
 21
314.4422253237295
 31
0.0
  0
LINE
  5
124
330
291
100
AcDbEntity
  8
DATA
  6
Continuous
 62
     7
100
AcDbLine
 10
218.5
 20
339.4999999997941
 30
0.0
 11
218.5
 21
314.4999999997942
 31
0.0
  0
ARC
  5
125
330
291
100
AcDbEntity
  8
DATA
  6
Continuous
 62
     7
100
AcDbCircle
 10
139.5
 20
314.4999999997942
 30
0.0
 40
2.0
100
AcDbArc
 50
180.0
 51
270.0
  0
ARC
  5
126
330
291
100
AcDbEntity
  8
DATA
  6
Continuous
 62
     7
100
AcDbCircle
 10
218.5
 20
314.4999999997942
 30
0.0
 40
2.0
100
AcDbArc
 50
270.0
 51
0.0
  0
ARC
  5
127
330
291
100
AcDbEntity
  8
DATA
  6
Continuous
 62
     7
100
AcDbCircle
 10
139.5
 20
339.4999999997941
 30
0.0
 40
2.0
100
AcDbArc
 50
90.0
 51
180.0
  0
ARC
  5
128
330
291
100
AcDbEntity
  8
DATA
  6
Continuous
 62
     7
100
AcDbCircle
 10
218.5
 20
339.4999999997941
 30
0.0
 40
2.0
100
AcDbArc
 50
0.0
 51
90.0
  0
LINE
  5
129
330
291
100
AcDbEntity
  8
DATA
  6
Continuous
 62
     7
100
AcDbLine
 10
140.9
 20
343.4999999997941
 30
0.0
 11
139.95
 21
341.4999999997941
 31
0.0
  0
LINE
  5
12A
330
291
100
AcDbEntity
  8
DATA
  6
Continuous
 62
     7
100
AcDbLine
 10
146.6
 20
343.4999999997941
 30
0.0
 11
147.55
 21
341.4999999997941
 31
0.0
  0
LINE
  5
12B
330
291
100
AcDbEntity
  8
DATA
  6
Continuous
 62
     7
100
AcDbLine
 10
140.9
 20
343.4999999997941
 30
0.0
 11
146.6
 21
343.4999999997941
 31
0.0
  0
LINE
  5
12C
330
291
100
AcDbEntity
  8
DATA
  6
Continuous
 62
     7
100
AcDbLine
 10
217.1
 20
343.4999999997941
 30
0.0
 11
218.05
 21
341.4999999997941
 31
0.0
  0
LINE
  5
12D
330
291
100
AcDbEntity
  8
DATA
  6
Continuous
 62
     7
100
AcDbLine
 10
211.4
 20
343.4999999997941
 30
0.0
 11
210.45
 21
341.4999999997941
 31
0.0
  0
LINE
  5
12E
330
291
100
AcDbEntity
  8
DATA
  6
Continuous
 62
     7
100
AcDbLine
 10
217.1
 20
343.4999999997941
 30
0.0
 11
211.4
 21
343.4999999997941
 31
0.0
  0
CIRCLE
  5
12F
330
291
100
AcDbEntity
  8
DATA
  6
Continuous
 62
     7
100
AcDbCircle
 10
202.5
 20
330.499999999794
 30
0.0
 40
3.0
  0
CIRCLE
  5
130
330
291
100
AcDbEntity
  8
DATA
  6
Continuous
 62
     7
100
AcDbCircle
 10
202.5
 20
330.499999999794
 30
0.0
 40
2.0
  0
TEXT
  5
131
330
291
100
AcDbEntity
  8
DATA
 62
     7
100
AcDbText
 10
206.4293747981389
 20
338.2982279285897
 30
0.0
 40
1.979041992187499
  1
Ext IR
 50
180.0
 41
0.7
 11
206.4293747981389
 21
336.3191859364022
 31
0.0
100
AcDbText
 73
     3
  0
LINE
  5
132
330
291
100
AcDbEntity
  8
DATA
  6
Continuous
 62
     7
100
AcDbLine
 10
168.2431850541318
 20
333.4876253553222
 30
0.0
 11
168.2431850541318
 21
320.1876253553221
 31
0.0
  0
LINE
  5
133
330
291
100
AcDbEntity
  8
DATA
  6
Continuous
 62
     7
100
AcDbLine
 10
152.543185054132
 20
333.4876253553222
 30
0.0
 11
152.543185054132
 21
320.1876253553221
 31
0.0
  0
LINE
  5
134
330
291
100
AcDbEntity
  8
DATA
  6
Continuous
 62
     7
100
AcDbLine
 10
154.2431850541319
 20
330.4876253553222
 30
0.0
 11
154.2431850541319
 21
323.1876253553221
 31
0.0
  0
LINE
  5
135
330
291
100
AcDbEntity
  8
DATA
  6
Continuous
 62
     7
100
AcDbLine
 10
166.5431850541319
 20
330.4876253553222
 30
0.0
 11
166.5431850541319
 21
323.1876253553221
 31
0.0
  0
LINE
  5
136
330
291
100
AcDbEntity
  8
DATA
  6
Continuous
 62
     7
100
AcDbLine
 10
154.2431850541319
 20
330.4876253553222
 30
0.0
 11
166.5431850541319
 21
330.4876253553222
 31
0.0
  0
LINE
  5
137
330
291
100
AcDbEntity
  8
DATA
  6
Continuous
 62
     7
100
AcDbLine
 10
158.1681850541319
 20
320.1876253553221
 30
0.0
 11
158.1681850541319
 21
321.6876253553221
 31
0.0
  0
LINE
  5
138
330
291
100
AcDbEntity
  8
DATA
  6
Continuous
 62
     7
100
AcDbLine
 10
162.6181850541318
 20
321.6876253553221
 30
0.0
 11
162.6181850541318
 21
320.1876253553221
 31
0.0
  0
LINE
  5
139
330
291
100
AcDbEntity
  8
DATA
  6
Continuous
 62
     7
100
AcDbLine
 10
157.043185054132
 20
321.6876253553221
 30
0.0
 11
158.1681850541319
 21
321.6876253553221
 31
0.0
  0
LINE
  5
13A
330
291
100
AcDbEntity
  8
DATA
  6
Continuous
 62
     7
100
AcDbLine
 10
162.6181850541318
 20
321.6876253553221
 30
0.0
 11
163.7431850541318
 21
321.6876253553221
 31
0.0
  0
LINE
  5
13B
330
291
100
AcDbEntity
  8
DATA
  6
Continuous
 62
     7
100
AcDbLine
 10
154.2431850541319
 20
323.1876253553221
 30
0.0
 11
157.043185054132
 21
323.1876253553221
 31
0.0
  0
LINE
  5
13C
330
291
100
AcDbEntity
  8
DATA
  6
Continuous
 62
     7
100
AcDbLine
 10
163.7431850541318
 20
323.1876253553221
 30
0.0
 11
166.5431850541319
 21
323.1876253553221
 31
0.0
  0
LINE
  5
13D
330
291
100
AcDbEntity
  8
DATA
  6
Continuous
 62
     7
100
AcDbLine
 10
157.043185054132
 20
321.6876253553221
 30
0.0
 11
157.043185054132
 21
323.1876253553221
 31
0.0
  0
LINE
  5
13E
330
291
100
AcDbEntity
  8
DATA
  6
Continuous
 62
     7
100
AcDbLine
 10
163.7431850541318
 20
323.1876253553221
 30
0.0
 11
163.7431850541318
 21
321.6876253553221
 31
0.0
  0
LINE
  5
13F
330
291
100
AcDbEntity
  8
DATA
  6
Continuous
 62
     7
100
AcDbLine
 10
152.543185054132
 20
333.4876253553222
 30
0.0
 11
168.2431850541318
 21
333.4876253553222
 31
0.0
  0
LINE
  5
140
330
291
100
AcDbEntity
  8
DATA
  6
Continuous
 62
     7
100
AcDbLine
 10
152.543185054132
 20
320.1876253553221
 30
0.0
 11
168.2431850541318
 21
320.1876253553221
 31
0.0
  0
LINE
  5
141
330
291
100
AcDbEntity
  8
DATA
  6
Continuous
 62
     7
100
AcDbLine
 10
188.2431850541318
 20
333.4876253553222
 30
0.0
 11
188.2431850541318
 21
320.1876253553221
 31
0.0
  0
LINE
  5
142
330
291
100
AcDbEntity
  8
DATA
  6
Continuous
 62
     7
100
AcDbLine
 10
172.543185054132
 20
333.4876253553222
 30
0.0
 11
172.543185054132
 21
320.1876253553221
 31
0.0
  0
LINE
  5
143
330
291
100
AcDbEntity
  8
DATA
  6
Continuous
 62
     7
100
AcDbLine
 10
174.2431850541319
 20
330.4876253553222
 30
0.0
 11
174.2431850541319
 21
323.1876253553221
 31
0.0
  0
LINE
  5
144
330
291
100
AcDbEntity
  8
DATA
  6
Continuous
 62
     7
100
AcDbLine
 10
186.5431850541319
 20
330.4876253553222
 30
0.0
 11
186.5431850541319
 21
323.1876253553221
 31
0.0
  0
LINE
  5
145
330
291
100
AcDbEntity
  8
DATA
  6
Continuous
 62
     7
100
AcDbLine
 10
174.2431850541319
 20
330.4876253553222
 30
0.0
 11
186.5431850541319
 21
330.4876253553222
 31
0.0
  0
LINE
  5
146
330
291
100
AcDbEntity
  8
DATA
  6
Continuous
 62
     7
100
AcDbLine
 10
178.1681850541319
 20
320.1876253553221
 30
0.0
 11
178.1681850541319
 21
321.6876253553221
 31
0.0
  0
LINE
  5
147
330
291
100
AcDbEntity
  8
DATA
  6
Continuous
 62
     7
100
AcDbLine
 10
182.6181850541318
 20
321.6876253553221
 30
0.0
 11
182.6181850541318
 21
320.1876253553221
 31
0.0
  0
LINE
  5
148
330
291
100
AcDbEntity
  8
DATA
  6
Continuous
 62
     7
100
AcDbLine
 10
177.043185054132
 20
321.6876253553221
 30
0.0
 11
178.1681850541319
 21
321.6876253553221
 31
0.0
  0
LINE
  5
149
330
291
100
AcDbEntity
  8
DATA
  6
Continuous
 62
     7
100
AcDbLine
 10
182.6181850541318
 20
321.6876253553221
 30
0.0
 11
183.7431850541318
 21
321.6876253553221
 31
0.0
  0
LINE
  5
14A
330
291
100
AcDbEntity
  8
DATA
  6
Continuous
 62
     7
100
AcDbLine
 10
174.2431850541319
 20
323.1876253553221
 30
0.0
 11
177.043185054132
 21
323.1876253553221
 31
0.0
  0
LINE
  5
14B
330
291
100
AcDbEntity
  8
DATA
  6
Continuous
 62
     7
100
AcDbLine
 10
183.7431850541318
 20
323.1876253553221
 30
0.0
 11
186.5431850541319
 21
323.1876253553221
 31
0.0
  0
LINE
  5
14C
330
291
100
AcDbEntity
  8
DATA
  6
Continuous
 62
     7
100
AcDbLine
 10
177.043185054132
 20
321.6876253553221
 30
0.0
 11
177.043185054132
 21
323.1876253553221
 31
0.0
  0
LINE
  5
14D
330
291
100
AcDbEntity
  8
DATA
  6
Continuous
 62
     7
100
AcDbLine
 10
183.7431850541318
 20
323.1876253553221
 30
0.0
 11
183.7431850541318
 21
321.6876253553221
 31
0.0
  0
LINE
  5
14E
330
291
100
AcDbEntity
  8
DATA
  6
Continuous
 62
     7
100
AcDbLine
 10
172.543185054132
 20
333.4876253553222
 30
0.0
 11
188.2431850541318
 21
333.4876253553222
 31
0.0
  0
LINE
  5
14F
330
291
100
AcDbEntity
  8
DATA
  6
Continuous
 62
     7
100
AcDbLine
 10
172.543185054132
 20
320.1876253553221
 30
0.0
 11
188.2431850541318
 21
320.1876253553221
 31
0.0
  0
TEXT
  5
150
330
291
100
AcDbEntity
  8
DATA
 62
     7
100
AcDbText
 10
163.1464362497005
 20
338.1760162878296
 30
0.0
 40
1.979041992187499
  1
LINK
 50
180.0
 41
0.7
 11
163.1464362497005
 21
336.1969742956421
 31
0.0
100
AcDbText
 73
     3
  0
TEXT
  5
151
330
291
100
AcDbEntity
  8
DATA
 62
     7
100
AcDbText
 10
185.712880705662
 20
338.1760162878296
 30
0.0
 40
1.979041992187499
  1
Ethernet
 50
180.0
 41
0.7
 11
185.712880705662
 21
336.1969742956421
 31
0.0
100
AcDbText
 73
     3
  0
TEXT
  5
152
330
291
100
AcDbEntity
  8
DATA
 62
     7
100
AcDbText
 10
174.0641963959324
 20
316.6456933271606
 30
0.0
 40
1.979041992187499
  1
CAT-5
 50
180.0
 41
0.7
 11
174.0641963959324
 21
314.6666513349731
 31
0.0
100
AcDbText
 73
     3
  0
LINE
  5
153
330
291
100
AcDbEntity
  8
DATA
  6
Continuous
 62
     7
100
AcDbLine
 10
199.5
 20
304.55
 30
0.0
 11
199.5
 21
303.75
 31
0.0
  0
LINE
  5
154
330
291
100
AcDbEntity
  8
DATA
  6
Continuous
 62
     7
100
AcDbLine
 10
205.5
 20
304.55
 30
0.0
 11
205.5
 21
303.75
 31
0.0
  0
LINE
  5
155
330
291
100
AcDbEntity
  8
DATA
  6
Continuous
 62
     7
100
AcDbLine
 10
199.5
 20
304.55
 30
0.0
 11
205.5
 21
304.55
 31
0.0
  0
LINE
  5
156
330
291
100
AcDbEntity
  8
DATA
  6
Continuous
 62
     7
100
AcDbLine
 10
152.543185054132
 20
303.95
 30
0.0
 11
152.543185054132
 21
303.75
 31
0.0
  0
LINE
  5
157
330
291
100
AcDbEntity
  8
DATA
  6
Continuous
 62
     7
100
AcDbLine
 10
168.2431850541318
 20
303.95
 30
0.0
 11
168.2431850541318
 21
303.75
 31
0.0
  0
LINE
  5
158
330
291
100
AcDbEntity
  8
DATA
  6
Continuous
 62
     7
100
AcDbLine
 10
172.543185054132
 20
303.95
 30
0.0
 11
172.543185054132
 21
303.75
 31
0.0
  0
LINE
  5
159
330
291
100
AcDbEntity
  8
DATA
  6
Continuous
 62
     7
100
AcDbLine
 10
188.2431850541318
 20
303.95
 30
0.0
 11
188.2431850541318
 21
303.75
 31
0.0
  0
LINE
  5
15A
330
291
100
AcDbEntity
  8
DATA
  6
Continuous
 62
     7
100
AcDbLine
 10
152.543185054132
 20
303.95
 30
0.0
 11
168.2431850541318
 21
303.95
 31
0.0
  0
LINE
  5
15B
330
291
100
AcDbEntity
  8
DATA
  6
Continuous
 62
     7
100
AcDbLine
 10
172.543185054132
 20
303.95
 30
0.0
 11
188.2431850541318
 21
303.95
 31
0.0
  0
TEXT
  5
15C
330
291
100
AcDbEntity
  8
DATA
 62
     7
100
AcDbText
 10
150.4774626492784
 20
229.1941555290101
 30
0.0
 40
4.072102864583333
  1
Extender for
 41
0.7
 11
150.4774626492784
 21
233.2662583935935
 31
0.0
100
AcDbText
 73
     3
  0
TEXT
  5
15D
330
291
100
AcDbEntity
  8
DATA
 62
     7
100
AcDbText
 10
185.9428898042543
 20
229.0690780389736
 30
0.0
 40
7.329785156249999
  1
HDMI
 41
0.7
 11
185.9428898042543
 21
236.3988631952236
 31
0.0
100
AcDbText
 73
     3
  0
TEXT
  5
15E
330
291
100
AcDbEntity
  8
DATA
 62
     7
100
AcDbText
 10
205.3587655678436
 20
229.1941555290101
 30
0.0
 40
4.072102864583333
  1
1.3
 41
0.7
 11
205.3587655678436
 21
233.2662583935935
 31
0.0
100
AcDbText
 73
     3
  0
TEXT
  5
15F
330
291
100
AcDbEntity
  8
DATA
 62
     7
100
AcDbText
 10
168.3680502839016
 20
222.5401665281571
 30
0.0
 40
4.072102864583333
  1
over CAT5 w/ETH R
 41
0.7
 11
168.3680502839016
 21
226.6122693927404
 31
0.0
100
AcDbText
 73
     3
  0
LINE
  5
160
330
291
100
AcDbEntity
  8
DATA
  6
Continuous
 62
     7
100
AcDbLine
 10
268.75
 20
162.5
 30
0.0
 11
268.75
 21
191.5
 31
0.0
  0
LINE
  5
161
330
291
100
AcDbEntity
  8
DATA
  6
Continuous
 62
     7
100
AcDbLine
 10
268.75
 20
162.5
 30
0.0
 11
353.75
 21
162.5
 31
0.0
  0
LINE
  5
162
330
291
100
AcDbEntity
  8
DATA
  6
Continuous
 62
     7
100
AcDbLine
 10
268.75
 20
191.5
 30
0.0
 11
352.25
 21
191.5
 31
0.0
  0
LINE
  5
163
330
291
100
AcDbEntity
  8
DATA
  6
Continuous
 62
     7
100
AcDbLine
 10
353.75
 20
162.5
 30
0.0
 11
353.75
 21
190.0
 31
0.0
  0
LINE
  5
164
330
291
100
AcDbEntity
  8
DATA
  6
Continuous
 62
     7
100
AcDbLine
 10
281.1841556311975
 20
160.5
 30
0.0
 11
282.1341556311976
 21
162.5
 31
0.0
  0
LINE
  5
165
330
291
100
AcDbEntity
  8
DATA
  6
Continuous
 62
     7
100
AcDbLine
 10
275.4841556311975
 20
160.5
 30
0.0
 11
274.5341556311974
 21
162.5
 31
0.0
  0
LINE
  5
166
330
291
100
AcDbEntity
  8
DATA
  6
Continuous
 62
     7
100
AcDbLine
 10
281.1841556311975
 20
160.5
 30
0.0
 11
275.4841556311975
 21
160.5
 31
0.0
  0
LINE
  5
167
330
291
100
AcDbEntity
  8
DATA
  6
Continuous
 62
     7
100
AcDbLine
 10
338.6255691135111
 20
160.5
 30
0.0
 11
337.6755691135111
 21
162.5
 31
0.0
  0
LINE
  5
168
330
291
100
AcDbEntity
  8
DATA
  6
Continuous
 62
     7
100
AcDbLine
 10
344.3255691135111
 20
160.5
 30
0.0
 11
345.2755691135111
 21
162.5
 31
0.0
  0
LINE
  5
169
330
291
100
AcDbEntity
  8
DATA
  6
Continuous
 62
     7
100
AcDbLine
 10
338.6255691135111
 20
160.5
 30
0.0
 11
344.3255691135111
 21
160.5
 31
0.0
  0
LINE
  5
16A
330
291
100
AcDbEntity
  8
DATA
  6
Continuous
 62
     7
100
AcDbLine
 10
262.7499997718962
 20
183.3089290295834
 30
0.0
 11
262.7499997718962
 21
175.5089290295834
 31
0.0
  0
LINE
  5
16B
330
291
100
AcDbEntity
  8
DATA
  6
Continuous
 62
     7
100
AcDbLine
 10
267.2499997718962
 20
173.6354263376871
 30
0.0
 11
268.7499997718962
 21
173.6354263376871
 31
0.0
  0
LINE
  5
16C
330
291
100
AcDbEntity
  8
DATA
  6
Continuous
 62
     7
100
AcDbLine
 10
267.2499997718962
 20
185.1824317214797
 30
0.0
 11
268.7499997718962
 21
185.1824317214797
 31
0.0
  0
LINE
  5
16D
330
291
100
AcDbEntity
  8
DATA
  6
Continuous
 62
     7
100
AcDbLine
 10
267.2499997718962
 20
173.6354263376871
 30
0.0
 11
267.2499997718962
 21
185.1824317214797
 31
0.0
  0
LINE
  5
16E
330
291
100
AcDbEntity
  8
DATA
  6
Continuous
 62
     7
100
AcDbLine
 10
262.7499997718962
 20
175.5089290295834
 30
0.0
 11
267.2499997718962
 21
175.5089290295834
 31
0.0
  0
LINE
  5
16F
330
291
100
AcDbEntity
  8
DATA
  6
Continuous
 62
     7
100
AcDbLine
 10
262.7499997718962
 20
183.3089290295834
 30
0.0
 11
267.2499997718962
 21
183.3089290295834
 31
0.0
  0
LINE
  5
170
330
291
100
AcDbEntity
  8
DATA
  6
Continuous
 62
     7
100
AcDbLine
 10
263.75
 20
183.3089290295834
 30
0.0
 11
263.75
 21
187.2876270639111
 31
0.0
  0
LINE
  5
171
330
291
100
AcDbEntity
  8
DATA
  6
Continuous
 62
     7
100
AcDbLine
 10
263.75
 20
187.2876270639111
 30
0.0
 11
268.75
 21
187.2876270639111
 31
0.0
  0
LINE
  5
172
330
291
100
AcDbEntity
  8
DATA
  6
Continuous
 62
     7
100
AcDbLine
 10
354.55
 20
170.5
 30
0.0
 11
354.55
 21
176.5
 31
0.0
  0
LINE
  5
173
330
291
100
AcDbEntity
  8
DATA
  6
Continuous
 62
     7
100
AcDbLine
 10
354.55
 20
170.5
 30
0.0
 11
353.75
 21
170.5
 31
0.0
  0
LINE
  5
174
330
291
100
AcDbEntity
  8
DATA
  6
Continuous
 62
     7
100
AcDbLine
 10
353.75
 20
176.5
 30
0.0
 11
354.55
 21
176.5
 31
0.0
  0
LINE
  5
175
330
291
100
AcDbEntity
  8
DATA
  6
Continuous
 62
     7
100
AcDbLine
 10
353.75
 20
183.758640572527
 30
0.0
 11
353.95
 21
183.758640572527
 31
0.0
  0
LINE
  5
176
330
291
100
AcDbEntity
  8
DATA
  6
Continuous
 62
     7
100
AcDbLine
 10
353.95
 20
176.5
 30
0.0
 11
353.95
 21
183.758640572527
 31
0.0
  0
ARC
  5
177
330
291
100
AcDbEntity
  8
DATA
  6
Continuous
 62
     7
100
AcDbCircle
 10
352.25
 20
190.0
 30
0.0
 40
1.5
100
AcDbArc
 50
0.0
 51
90.0
  0
LINE
  5
178
330
291
100
AcDbEntity
  8
DATA
  6
Continuous
 62
     7
100
AcDbLine
 10
137.5
 20
420.75
 30
0.0
 11
137.5
 21
445.75
 31
0.0
  0
TEXT
  5
179
330
291
100
AcDbEntity
  8
DATA
 62
     7
100
AcDbText
 10
156.4072248696305
 20
378.0012599380983
 30
0.0
 40
8.144205729166666
  1
センダー
 41
0.7
 11
156.4072248696305
 21
386.1454656672649
 31
0.0
100
AcDbText
 73
     3
  0
LINE
  5
17A
330
291
100
AcDbEntity
  8
DATA
  6
Continuous
 62
     7
100
AcDbLine
 10
220.5
 20
420.75
 30
0.0
 11
220.5
 21
445.75
 31
0.0
  0
LINE
  5
17B
330
291
100
AcDbEntity
  8
DATA
  6
Continuous
 62
     7
100
AcDbLine
 10
139.5
 20
418.75
 30
0.0
 11
149.5
 21
418.75
 31
0.0
  0
LINE
  5
17C
330
291
100
AcDbEntity
  8
DATA
  6
Continuous
 62
     7
100
AcDbLine
 10
208.5
 20
418.75
 30
0.0
 11
218.5
 21
418.75
 31
0.0
  0
LINE
  5
17D
330
291
100
AcDbEntity
  8
DATA
  6
Continuous
 62
     7
100
AcDbLine
 10
139.5
 20
447.75
 30
0.0
 11
218.5
 21
447.75
 31
0.0
  0
LINE
  5
17E
330
291
100
AcDbEntity
  8
DATA
  6
Continuous
 62
     7
100
AcDbLine
 10
149.5
 20
418.75
 30
0.0
 11
149.5
 21
420.75
 31
0.0
  0
LINE
  5
17F
330
291
100
AcDbEntity
  8
DATA
  6
Continuous
 62
     7
100
AcDbLine
 10
208.5
 20
418.75
 30
0.0
 11
208.5
 21
420.75
 31
0.0
  0
LINE
  5
180
330
291
100
AcDbEntity
  8
DATA
  6
Continuous
 62
     7
100
AcDbLine
 10
139.5
 20
420.75
 30
0.0
 11
218.5
 21
420.75
 31
0.0
  0
LINE
  5
181
330
291
100
AcDbEntity
  8
DATA
  6
Continuous
 62
     7
100
AcDbLine
 10
141.5
 20
445.75
 30
0.0
 11
216.5
 21
445.75
 31
0.0
  0
LINE
  5
182
330
291
100
AcDbEntity
  8
DATA
  6
Continuous
 62
     7
100
AcDbLine
 10
139.5
 20
420.75
 30
0.0
 11
139.5
 21
443.75
 31
0.0
  0
LINE
  5
183
330
291
100
AcDbEntity
  8
DATA
  6
Continuous
 62
     7
100
AcDbLine
 10
218.5
 20
420.75
 30
0.0
 11
218.5
 21
443.75
 31
0.0
  0
ARC
  5
184
330
291
100
AcDbEntity
  8
DATA
  6
Continuous
 62
     7
100
AcDbCircle
 10
141.5
 20
443.75
 30
0.0
 40
2.0
100
AcDbArc
 50
90.0
 51
180.0
  0
ARC
  5
185
330
291
100
AcDbEntity
  8
DATA
  6
Continuous
 62
     7
100
AcDbCircle
 10
139.5
 20
445.75
 30
0.0
 40
2.0
100
AcDbArc
 50
90.0
 51
180.0
  0
ARC
  5
186
330
291
100
AcDbEntity
  8
DATA
  6
Continuous
 62
     7
100
AcDbCircle
 10
216.5
 20
443.75
 30
0.0
 40
2.0
100
AcDbArc
 50
0.0
 51
90.0
  0
ARC
  5
187
330
291
100
AcDbEntity
  8
DATA
  6
Continuous
 62
     7
100
AcDbCircle
 10
218.5
 20
445.75
 30
0.0
 40
2.0
100
AcDbArc
 50
0.0
 51
90.0
  0
ARC
  5
188
330
291
100
AcDbEntity
  8
DATA
  6
Continuous
 62
     7
100
AcDbCircle
 10
139.5
 20
420.75
 30
0.0
 40
2.0
100
AcDbArc
 50
180.0
 51
270.0
  0
ARC
  5
189
330
291
100
AcDbEntity
  8
DATA
  6
Continuous
 62
     7
100
AcDbCircle
 10
218.5
 20
420.75
 30
0.0
 40
2.0
100
AcDbArc
 50
270.0
 51
0.0
  0
LINE
  5
18A
330
291
100
AcDbEntity
  8
DATA
  6
Continuous
 62
     7
100
AcDbLine
 10
140.9
 20
416.75
 30
0.0
 11
139.95
 21
418.75
 31
0.0
  0
LINE
  5
18B
330
291
100
AcDbEntity
  8
DATA
  6
Continuous
 62
     7
100
AcDbLine
 10
146.6
 20
416.75
 30
0.0
 11
147.55
 21
418.75
 31
0.0
  0
LINE
  5
18C
330
291
100
AcDbEntity
  8
DATA
  6
Continuous
 62
     7
100
AcDbLine
 10
140.9
 20
416.75
 30
0.0
 11
146.6
 21
416.75
 31
0.0
  0
LINE
  5
18D
330
291
100
AcDbEntity
  8
DATA
  6
Continuous
 62
     7
100
AcDbLine
 10
217.1
 20
416.75
 30
0.0
 11
218.05
 21
418.75
 31
0.0
  0
LINE
  5
18E
330
291
100
AcDbEntity
  8
DATA
  6
Continuous
 62
     7
100
AcDbLine
 10
211.4
 20
416.75
 30
0.0
 11
210.45
 21
418.75
 31
0.0
  0
LINE
  5
18F
330
291
100
AcDbEntity
  8
DATA
  6
Continuous
 62
     7
100
AcDbLine
 10
217.1
 20
416.75
 30
0.0
 11
211.4
 21
416.75
 31
0.0
  0
LINE
  5
190
330
291
100
AcDbEntity
  8
DATA
  6
Continuous
 62
     7
100
AcDbLine
 10
137.5
 20
475.0
 30
0.0
 11
220.5
 21
475.0
 31
0.0
  0
LINE
  5
191
330
291
100
AcDbEntity
  8
DATA
  6
Continuous
 62
     7
100
AcDbLine
 10
137.5
 20
560.0
 30
0.0
 11
220.5
 21
560.0
 31
0.0
  0
LINE
  5
192
330
291
100
AcDbEntity
  8
DATA
  6
Continuous
 62
     7
100
AcDbLine
 10
137.5
 20
475.0
 30
0.0
 11
137.5
 21
560.0
 31
0.0
  0
LINE
  5
193
330
291
100
AcDbEntity
  8
DATA
  6
Continuous
 62
     7
100
AcDbLine
 10
220.5
 20
475.0
 30
0.0
 11
220.5
 21
560.0
 31
0.0
  0
CIRCLE
  5
194
330
291
100
AcDbEntity
  8
DATA
  6
Continuous
 62
     7
100
AcDbCircle
 10
153.4912925989768
 20
435.6798323264649
 30
0.0
 40
3.900000000000005
  0
LWPOLYLINE
  5
195
330
291
100
AcDbEntity
  8
DATA
  6
Continuous
 62
     7
100
AcDbPolyline
 90
        6
 70
     1
 43
0.0
 10
150.6045412530286
 20
440.6798323264649
 10
147.7177899070805
 20
435.6798323264649
 10
150.6045412530286
 20
430.6798323264649
 10
156.3780439449249
 20
430.6798323264649
 10
159.264795290873
 20
435.6798323264649
 10
156.3780439449249
 20
440.6798323264649
  0
CIRCLE
  5
19E
330
291
100
AcDbEntity
  8
DATA
  6
Continuous
 62
     7
100
AcDbCircle
 10
153.4912925989768
 20
435.6798323264649
 30
0.0
 40
2.900000000000005
  0
CIRCLE
  5
19F
330
291
100
AcDbEntity
  8
DATA
  6
Continuous
 62
     7
100
AcDbCircle
 10
153.4912925989768
 20
435.6798323264649
 30
0.0
 40
0.75
  0
LWPOLYLINE
  5
1A0
330
291
100
AcDbEntity
  8
DATA
  6
Continuous
 62
     7
100
AcDbPolyline
 90
        6
 70
     1
 43
0.0
 10
188.2450015000135
 20
438.1151514163108
 10
191.0333891791395
 20
438.8622976431175
 10
191.7805354059462
 20
441.6506853222434
 10
189.7392939536268
 20
443.6919267745628
 10
186.9509062745009
 20
442.944780547756
 10
186.2037600476941
 20
440.15639286863
  0
CIRCLE
  5
1A9
330
291
100
AcDbEntity
  8
DATA
  6
Continuous
 62
     7
100
AcDbCircle
 10
188.9921477268202
 20
440.9035390954367
 30
0.0
 40
1.275000000000034
  0
LINE
  5
1AA
330
291
100
AcDbEntity
  8
DATA
  6
Continuous
 62
     7
100
AcDbLine
 10
196.8421477268201
 20
433.8406884266726
 30
0.0
 11
181.1421477268202
 21
433.8406884266726
 31
0.0
  0
LINE
  5
1AB
330
291
100
AcDbEntity
  8
DATA
  6
Continuous
 62
     7
100
AcDbLine
 10
196.8421477268201
 20
433.8406884266726
 30
0.0
 11
196.8421477268201
 21
429.5406884266723
 31
0.0
  0
LINE
  5
1AC
330
291
100
AcDbEntity
  8
DATA
  6
Continuous
 62
     7
100
AcDbLine
 10
181.1421477268202
 20
433.8406884266726
 30
0.0
 11
181.1421477268202
 21
429.5406884266723
 31
0.0
  0
LINE
  5
1AD
330
291
100
AcDbEntity
  8
DATA
  6
Continuous
 62
     7
100
AcDbLine
 10
196.8421477268201
 20
429.5406884266723
 30
0.0
 11
194.2421477268202
 21
427.8406884266724
 31
0.0
  0
LINE
  5
1AE
330
291
100
AcDbEntity
  8
DATA
  6
Continuous
 62
     7
100
AcDbLine
 10
181.1421477268202
 20
429.5406884266723
 30
0.0
 11
183.7421477268201
 21
427.8406884266724
 31
0.0
  0
LINE
  5
1AF
330
291
100
AcDbEntity
  8
DATA
  6
Continuous
 62
     7
100
AcDbLine
 10
194.2421477268202
 20
427.8406884266724
 30
0.0
 11
183.7421477268201
 21
427.8406884266724
 31
0.0
  0
LWPOLYLINE
  5
1B0
330
291
100
AcDbEntity
  8
DATA
  6
Continuous
 62
     7
100
AcDbPolyline
 90
        4
 70
     1
 43
0.0
 10
183.9921477268202
 20
431.5545252521797
 10
193.9921477268202
 20
431.5545252521797
 10
193.9921477268202
 20
431.0545252521797
 10
183.9921477268202
 20
431.0545252521797
  0
CIRCLE
  5
1B7
330
291
100
AcDbEntity
  8
DATA
  6
Continuous
 62
     7
100
AcDbCircle
 10
173.1142021647007
 20
432.6269528723139
 30
0.0
 40
1.400000000000133
  0
TEXT
  5
1B8
330
291
100
AcDbEntity
  8
DATA
 62
     7
100
AcDbText
 10
185.0042065528921
 20
421.6489751530865
 30
0.0
 40
1.979041992187499
  1
HDMI In
 41
0.7
 11
185.0042065528921
 21
423.6280171452739
 31
0.0
100
AcDbText
 73
     3
  0
TEXT
  5
1B9
330
291
100
AcDbEntity
  8
DATA
 62
     7
100
AcDbText
 10
170.0790503941403
 20
421.6489751530865
 30
0.0
 40
1.979041992187499
  1
Power
 41
0.7
 11
170.0790503941403
 21
423.6280171452739
 31
0.0
100
AcDbText
 73
     3
  0
TEXT
  5
1BA
330
291
100
AcDbEntity
  8
DATA
 62
     7
100
AcDbText
 10
150.1533775545399
 20
421.6489751530865
 30
0.0
 40
1.979041992187499
  1
5V DC
 41
0.7
 11
150.1533775545399
 21
423.6280171452739
 31
0.0
100
AcDbText
 73
     3
  0
LINE
  5
1BB
330
291
100
AcDbEntity
  8
DATA
  6
Continuous
 62
     7
100
AcDbLine
 10
186.2139904005964
 20
470.0
 30
0.0
 11
191.7907657588486
 21
470.0
 31
0.0
  0
LINE
  5
1BC
330
291
100
AcDbEntity
  8
DATA
  6
Continuous
 62
     7
100
AcDbLine
 10
186.2139904005964
 20
470.0
 30
0.0
 11
186.2139904005964
 21
475.0
 31
0.0
  0
LINE
  5
1BD
330
291
100
AcDbEntity
  8
DATA
  6
Continuous
 62
     7
100
AcDbLine
 10
191.7907657588486
 20
470.0
 30
0.0
 11
191.7907657588486
 21
475.0
 31
0.0
  0
ARC
  5
1BE
330
291
100
AcDbEntity
  8
DATA
  6
Continuous
 62
     7
100
AcDbCircle
 10
173.251880904158
 20
475.0205688788113
 30
0.0
 40
1.400000000000013
100
AcDbArc
 50
180.8418231053616
 51
359.1581768946372
  0
LINE
  5
1BF
330
291
100
AcDbEntity
  8
DATA
  6
Continuous
 62
     7
100
AcDbLine
 10
149.6038388845071
 20
469.0
 30
0.0
 11
157.4038388845071
 21
469.0
 31
0.0
  0
LINE
  5
1C0
330
291
100
AcDbEntity
  8
DATA
  6
Continuous
 62
     7
100
AcDbLine
 10
159.2773415764034
 20
473.5
 30
0.0
 11
159.2773415764034
 21
475.0
 31
0.0
  0
LINE
  5
1C1
330
291
100
AcDbEntity
  8
DATA
  6
Continuous
 62
     7
100
AcDbLine
 10
147.7303361926109
 20
473.5
 30
0.0
 11
147.7303361926109
 21
475.0
 31
0.0
  0
LINE
  5
1C2
330
291
100
AcDbEntity
  8
DATA
  6
Continuous
 62
     7
100
AcDbLine
 10
159.2773415764034
 20
473.5
 30
0.0
 11
147.7303361926109
 21
473.5
 31
0.0
  0
LINE
  5
1C3
330
291
100
AcDbEntity
  8
DATA
  6
Continuous
 62
     7
100
AcDbLine
 10
157.4038388845071
 20
469.0
 30
0.0
 11
157.4038388845071
 21
473.5
 31
0.0
  0
LINE
  5
1C4
330
291
100
AcDbEntity
  8
DATA
  6
Continuous
 62
     7
100
AcDbLine
 10
149.6038388845071
 20
469.0
 30
0.0
 11
149.6038388845071
 21
473.5
 31
0.0
  0
LINE
  5
1C5
330
291
100
AcDbEntity
  8
DATA
  6
Continuous
 62
     7
100
AcDbLine
 10
137.5
 20
595.7499999997941
 30
0.0
 11
137.5
 21
570.7499999997942
 31
0.0
  0
LINE
  5
1C6
330
291
100
AcDbEntity
  8
DATA
  6
Continuous
 62
     7
100
AcDbLine
 10
220.5
 20
595.7499999997941
 30
0.0
 11
220.5
 21
570.7499999997942
 31
0.0
  0
LINE
  5
1C7
330
291
100
AcDbEntity
  8
DATA
  6
Continuous
 62
     7
100
AcDbLine
 10
139.5
 20
597.7499999997941
 30
0.0
 11
149.5
 21
597.7499999997941
 31
0.0
  0
LINE
  5
1C8
330
291
100
AcDbEntity
  8
DATA
  6
Continuous
 62
     7
100
AcDbLine
 10
208.5
 20
597.7499999997941
 30
0.0
 11
218.5
 21
597.7499999997941
 31
0.0
  0
LINE
  5
1C9
330
291
100
AcDbEntity
  8
DATA
  6
Continuous
 62
     7
100
AcDbLine
 10
139.5
 20
568.7499999997942
 30
0.0
 11
218.5
 21
568.7499999997942
 31
0.0
  0
LINE
  5
1CA
330
291
100
AcDbEntity
  8
DATA
  6
Continuous
 62
     7
100
AcDbLine
 10
149.5
 20
597.7499999997941
 30
0.0
 11
149.5
 21
595.7499999997941
 31
0.0
  0
LINE
  5
1CB
330
291
100
AcDbEntity
  8
DATA
  6
Continuous
 62
     7
100
AcDbLine
 10
208.5
 20
597.7499999997941
 30
0.0
 11
208.5
 21
595.7499999997941
 31
0.0
  0
LINE
  5
1CC
330
291
100
AcDbEntity
  8
DATA
  6
Continuous
 62
     7
100
AcDbLine
 10
139.5
 20
595.7499999997941
 30
0.0
 11
218.5
 21
595.7499999997941
 31
0.0
  0
LINE
  5
1CD
330
291
100
AcDbEntity
  8
DATA
  6
Continuous
 62
     7
100
AcDbLine
 10
139.5
 20
595.7499999997941
 30
0.0
 11
139.5
 21
570.6922253237295
 31
0.0
  0
LINE
  5
1CE
330
291
100
AcDbEntity
  8
DATA
  6
Continuous
 62
     7
100
AcDbLine
 10
218.5
 20
595.7499999997941
 30
0.0
 11
218.5
 21
570.7499999997942
 31
0.0
  0
ARC
  5
1CF
330
291
100
AcDbEntity
  8
DATA
  6
Continuous
 62
     7
100
AcDbCircle
 10
139.5
 20
570.7499999997942
 30
0.0
 40
2.0
100
AcDbArc
 50
180.0
 51
270.0
  0
ARC
  5
1D0
330
291
100
AcDbEntity
  8
DATA
  6
Continuous
 62
     7
100
AcDbCircle
 10
218.5
 20
570.7499999997942
 30
0.0
 40
2.0
100
AcDbArc
 50
270.0
 51
0.0
  0
ARC
  5
1D1
330
291
100
AcDbEntity
  8
DATA
  6
Continuous
 62
     7
100
AcDbCircle
 10
139.5
 20
595.7499999997941
 30
0.0
 40
2.0
100
AcDbArc
 50
90.0
 51
180.0
  0
ARC
  5
1D2
330
291
100
AcDbEntity
  8
DATA
  6
Continuous
 62
     7
100
AcDbCircle
 10
218.5
 20
595.7499999997941
 30
0.0
 40
2.0
100
AcDbArc
 50
0.0
 51
90.0
  0
LINE
  5
1D3
330
291
100
AcDbEntity
  8
DATA
  6
Continuous
 62
     7
100
AcDbLine
 10
140.9
 20
599.7499999997941
 30
0.0
 11
139.95
 21
597.7499999997941
 31
0.0
  0
LINE
  5
1D4
330
291
100
AcDbEntity
  8
DATA
  6
Continuous
 62
     7
100
AcDbLine
 10
146.6
 20
599.7499999997941
 30
0.0
 11
147.55
 21
597.7499999997941
 31
0.0
  0
LINE
  5
1D5
330
291
100
AcDbEntity
  8
DATA
  6
Continuous
 62
     7
100
AcDbLine
 10
140.9
 20
599.7499999997941
 30
0.0
 11
146.6
 21
599.7499999997941
 31
0.0
  0
LINE
  5
1D6
330
291
100
AcDbEntity
  8
DATA
  6
Continuous
 62
     7
100
AcDbLine
 10
217.1
 20
599.7499999997941
 30
0.0
 11
218.05
 21
597.7499999997941
 31
0.0
  0
LINE
  5
1D7
330
291
100
AcDbEntity
  8
DATA
  6
Continuous
 62
     7
100
AcDbLine
 10
211.4
 20
599.7499999997941
 30
0.0
 11
210.45
 21
597.7499999997941
 31
0.0
  0
LINE
  5
1D8
330
291
100
AcDbEntity
  8
DATA
  6
Continuous
 62
     7
100
AcDbLine
 10
217.1
 20
599.7499999997941
 30
0.0
 11
211.4
 21
599.7499999997941
 31
0.0
  0
CIRCLE
  5
1D9
330
291
100
AcDbEntity
  8
DATA
  6
Continuous
 62
     7
100
AcDbCircle
 10
155.5627798295711
 20
586.749999999794
 30
0.0
 40
3.0
  0
CIRCLE
  5
1DA
330
291
100
AcDbEntity
  8
DATA
  6
Continuous
 62
     7
100
AcDbCircle
 10
155.5627798295711
 20
586.749999999794
 30
0.0
 40
2.0
  0
TEXT
  5
1DB
330
291
100
AcDbEntity
  8
DATA
 62
     7
100
AcDbText
 10
162.7513720390427
 20
594.5482279285896
 30
0.0
 40
1.979041992187499
  1
IR Blaster
 50
180.0
 41
0.7
 11
162.7513720390427
 21
592.5691859364021
 31
0.0
100
AcDbText
 73
     3
  0
LINE
  5
1DC
330
291
100
AcDbEntity
  8
DATA
  6
Continuous
 62
     7
100
AcDbLine
 10
183.1934089177887
 20
589.7376253553221
 30
0.0
 11
183.1934089177887
 21
576.4376253553221
 31
0.0
  0
LINE
  5
1DD
330
291
100
AcDbEntity
  8
DATA
  6
Continuous
 62
     7
100
AcDbLine
 10
167.4934089177889
 20
589.7376253553221
 30
0.0
 11
167.4934089177889
 21
576.4376253553221
 31
0.0
  0
LINE
  5
1DE
330
291
100
AcDbEntity
  8
DATA
  6
Continuous
 62
     7
100
AcDbLine
 10
169.1934089177888
 20
586.7376253553222
 30
0.0
 11
169.1934089177888
 21
579.437625355322
 31
0.0
  0
LINE
  5
1DF
330
291
100
AcDbEntity
  8
DATA
  6
Continuous
 62
     7
100
AcDbLine
 10
181.4934089177888
 20
586.7376253553222
 30
0.0
 11
181.4934089177888
 21
579.437625355322
 31
0.0
  0
LINE
  5
1E0
330
291
100
AcDbEntity
  8
DATA
  6
Continuous
 62
     7
100
AcDbLine
 10
169.1934089177888
 20
586.7376253553222
 30
0.0
 11
181.4934089177888
 21
586.7376253553222
 31
0.0
  0
LINE
  5
1E1
330
291
100
AcDbEntity
  8
DATA
  6
Continuous
 62
     7
100
AcDbLine
 10
173.1184089177889
 20
576.4376253553221
 30
0.0
 11
173.1184089177889
 21
577.9376253553221
 31
0.0
  0
LINE
  5
1E2
330
291
100
AcDbEntity
  8
DATA
  6
Continuous
 62
     7
100
AcDbLine
 10
177.5684089177887
 20
577.9376253553221
 30
0.0
 11
177.5684089177887
 21
576.4376253553221
 31
0.0
  0
LINE
  5
1E3
330
291
100
AcDbEntity
  8
DATA
  6
Continuous
 62
     7
100
AcDbLine
 10
171.9934089177889
 20
577.9376253553221
 30
0.0
 11
173.1184089177889
 21
577.9376253553221
 31
0.0
  0
LINE
  5
1E4
330
291
100
AcDbEntity
  8
DATA
  6
Continuous
 62
     7
100
AcDbLine
 10
177.5684089177887
 20
577.9376253553221
 30
0.0
 11
178.6934089177887
 21
577.9376253553221
 31
0.0
  0
LINE
  5
1E5
330
291
100
AcDbEntity
  8
DATA
  6
Continuous
 62
     7
100
AcDbLine
 10
169.1934089177888
 20
579.437625355322
 30
0.0
 11
171.9934089177889
 21
579.437625355322
 31
0.0
  0
LINE
  5
1E6
330
291
100
AcDbEntity
  8
DATA
  6
Continuous
 62
     7
100
AcDbLine
 10
178.6934089177887
 20
579.437625355322
 30
0.0
 11
181.4934089177888
 21
579.437625355322
 31
0.0
  0
LINE
  5
1E7
330
291
100
AcDbEntity
  8
DATA
  6
Continuous
 62
     7
100
AcDbLine
 10
171.9934089177889
 20
577.9376253553221
 30
0.0
 11
171.9934089177889
 21
579.437625355322
 31
0.0
  0
LINE
  5
1E8
330
291
100
AcDbEntity
  8
DATA
  6
Continuous
 62
     7
100
AcDbLine
 10
178.6934089177887
 20
579.437625355322
 30
0.0
 11
178.6934089177887
 21
577.9376253553221
 31
0.0
  0
LINE
  5
1E9
330
291
100
AcDbEntity
  8
DATA
  6
Continuous
 62
     7
100
AcDbLine
 10
167.4934089177889
 20
589.7376253553221
 30
0.0
 11
183.1934089177887
 21
589.7376253553221
 31
0.0
  0
LINE
  5
1EA
330
291
100
AcDbEntity
  8
DATA
  6
Continuous
 62
     7
100
AcDbLine
 10
167.4934089177889
 20
576.4376253553221
 30
0.0
 11
183.1934089177887
 21
576.4376253553221
 31
0.0
  0
LINE
  5
1EB
330
291
100
AcDbEntity
  8
DATA
  6
Continuous
 62
     7
100
AcDbLine
 10
203.1934089177887
 20
589.7376253553221
 30
0.0
 11
203.1934089177887
 21
576.4376253553221
 31
0.0
  0
LINE
  5
1EC
330
291
100
AcDbEntity
  8
DATA
  6
Continuous
 62
     7
100
AcDbLine
 10
187.4934089177889
 20
589.7376253553221
 30
0.0
 11
187.4934089177889
 21
576.4376253553221
 31
0.0
  0
LINE
  5
1ED
330
291
100
AcDbEntity
  8
DATA
  6
Continuous
 62
     7
100
AcDbLine
 10
189.1934089177888
 20
586.7376253553222
 30
0.0
 11
189.1934089177888
 21
579.437625355322
 31
0.0
  0
LINE
  5
1EE
330
291
100
AcDbEntity
  8
DATA
  6
Continuous
 62
     7
100
AcDbLine
 10
201.4934089177888
 20
586.7376253553222
 30
0.0
 11
201.4934089177888
 21
579.437625355322
 31
0.0
  0
LINE
  5
1EF
330
291
100
AcDbEntity
  8
DATA
  6
Continuous
 62
     7
100
AcDbLine
 10
189.1934089177888
 20
586.7376253553222
 30
0.0
 11
201.4934089177888
 21
586.7376253553222
 31
0.0
  0
LINE
  5
1F0
330
291
100
AcDbEntity
  8
DATA
  6
Continuous
 62
     7
100
AcDbLine
 10
193.1184089177889
 20
576.4376253553221
 30
0.0
 11
193.1184089177889
 21
577.9376253553221
 31
0.0
  0
LINE
  5
1F1
330
291
100
AcDbEntity
  8
DATA
  6
Continuous
 62
     7
100
AcDbLine
 10
197.5684089177887
 20
577.9376253553221
 30
0.0
 11
197.5684089177887
 21
576.4376253553221
 31
0.0
  0
LINE
  5
1F2
330
291
100
AcDbEntity
  8
DATA
  6
Continuous
 62
     7
100
AcDbLine
 10
191.9934089177889
 20
577.9376253553221
 30
0.0
 11
193.1184089177889
 21
577.9376253553221
 31
0.0
  0
LINE
  5
1F3
330
291
100
AcDbEntity
  8
DATA
  6
Continuous
 62
     7
100
AcDbLine
 10
197.5684089177887
 20
577.9376253553221
 30
0.0
 11
198.6934089177887
 21
577.9376253553221
 31
0.0
  0
LINE
  5
1F4
330
291
100
AcDbEntity
  8
DATA
  6
Continuous
 62
     7
100
AcDbLine
 10
189.1934089177888
 20
579.437625355322
 30
0.0
 11
191.9934089177889
 21
579.437625355322
 31
0.0
  0
LINE
  5
1F5
330
291
100
AcDbEntity
  8
DATA
  6
Continuous
 62
     7
100
AcDbLine
 10
198.6934089177887
 20
579.437625355322
 30
0.0
 11
201.4934089177888
 21
579.437625355322
 31
0.0
  0
LINE
  5
1F6
330
291
100
AcDbEntity
  8
DATA
  6
Continuous
 62
     7
100
AcDbLine
 10
191.9934089177889
 20
577.9376253553221
 30
0.0
 11
191.9934089177889
 21
579.437625355322
 31
0.0
  0
LINE
  5
1F7
330
291
100
AcDbEntity
  8
DATA
  6
Continuous
 62
     7
100
AcDbLine
 10
198.6934089177887
 20
579.437625355322
 30
0.0
 11
198.6934089177887
 21
577.9376253553221
 31
0.0
  0
LINE
  5
1F8
330
291
100
AcDbEntity
  8
DATA
  6
Continuous
 62
     7
100
AcDbLine
 10
187.4934089177889
 20
589.7376253553221
 30
0.0
 11
203.1934089177887
 21
589.7376253553221
 31
0.0
  0
LINE
  5
1F9
330
291
100
AcDbEntity
  8
DATA
  6
Continuous
 62
     7
100
AcDbLine
 10
187.4934089177889
 20
576.4376253553221
 30
0.0
 11
203.1934089177887
 21
576.4376253553221
 31
0.0
  0
TEXT
  5
1FA
330
291
100
AcDbEntity
  8
DATA
 62
     7
100
AcDbText
 10
197.9186330537073
 20
594.4260162878296
 30
0.0
 40
1.979041992187499
  1
LINK
 50
180.0
 41
0.7
 11
197.9186330537073
 21
592.4469742956421
 31
0.0
100
AcDbText
 73
     3
  0
TEXT
  5
1FB
330
291
100
AcDbEntity
  8
DATA
 62
     7
100
AcDbText
 10
181.0229692710684
 20
594.4260162878296
 30
0.0
 40
1.979041992187499
  1
Ethernet
 50
180.0
 41
0.7
 11
181.0229692710684
 21
592.4469742956421
 31
0.0
100
AcDbText
 73
     3
  0
TEXT
  5
1FC
330
291
100
AcDbEntity
  8
DATA
 62
     7
100
AcDbText
 10
189.0144202595892
 20
572.8956933271605
 30
0.0
 40
1.979041992187499
  1
CAT-5
 50
180.0
 41
0.7
 11
189.0144202595892
 21
570.916651334973
 31
0.0
100
AcDbText
 73
     3
  0
LINE
  5
1FD
330
291
100
AcDbEntity
  8
DATA
  6
Continuous
 62
     7
100
AcDbLine
 10
152.7132723356878
 20
560.7999999999999
 30
0.0
 11
152.7132723356878
 21
560.0
 31
0.0
  0
LINE
  5
1FE
330
291
100
AcDbEntity
  8
DATA
  6
Continuous
 62
     7
100
AcDbLine
 10
158.7132723356877
 20
560.7999999999999
 30
0.0
 11
158.7132723356877
 21
560.0
 31
0.0
  0
LINE
  5
1FF
330
291
100
AcDbEntity
  8
DATA
  6
Continuous
 62
     7
100
AcDbLine
 10
152.7132723356878
 20
560.7999999999999
 30
0.0
 11
158.7132723356877
 21
560.7999999999999
 31
0.0
  0
LINE
  5
200
330
291
100
AcDbEntity
  8
DATA
  6
Continuous
 62
     7
100
AcDbLine
 10
167.4751582293803
 20
560.2
 30
0.0
 11
167.4751582293803
 21
560.0
 31
0.0
  0
LINE
  5
201
330
291
100
AcDbEntity
  8
DATA
  6
Continuous
 62
     7
100
AcDbLine
 10
183.175158229379
 20
560.2
 30
0.0
 11
183.175158229379
 21
560.0
 31
0.0
  0
LINE
  5
202
330
291
100
AcDbEntity
  8
DATA
  6
Continuous
 62
     7
100
AcDbLine
 10
187.4751582293789
 20
560.2
 30
0.0
 11
187.4751582293789
 21
560.0
 31
0.0
  0
LINE
  5
203
330
291
100
AcDbEntity
  8
DATA
  6
Continuous
 62
     7
100
AcDbLine
 10
203.1751582293787
 20
560.2
 30
0.0
 11
203.1751582293787
 21
560.0
 31
0.0
  0
LINE
  5
204
330
291
100
AcDbEntity
  8
DATA
  6
Continuous
 62
     7
100
AcDbLine
 10
167.4751582293803
 20
560.2
 30
0.0
 11
183.175158229379
 21
560.2
 31
0.0
  0
LINE
  5
205
330
291
100
AcDbEntity
  8
DATA
  6
Continuous
 62
     7
100
AcDbLine
 10
187.4751582293789
 20
560.2
 30
0.0
 11
203.1751582293787
 21
560.2
 31
0.0
  0
TEXT
  5
206
330
291
100
AcDbEntity
  8
DATA
 62
     7
100
AcDbText
 10
150.4774626492784
 20
485.4441555290102
 30
0.0
 40
4.072102864583333
  1
Extender for
 41
0.7
 11
150.4774626492784
 21
489.5162583935935
 31
0.0
100
AcDbText
 73
     3
  0
TEXT
  5
207
330
291
100
AcDbEntity
  8
DATA
 62
     7
100
AcDbText
 10
185.9428898042543
 20
485.3190780389736
 30
0.0
 40
7.329785156249999
  1
HDMI
 41
0.7
 11
185.9428898042543
 21
492.6488631952237
 31
0.0
100
AcDbText
 73
     3
  0
TEXT
  5
208
330
291
100
AcDbEntity
  8
DATA
 62
     7
100
AcDbText
 10
205.3587655678436
 20
485.4441555290102
 30
0.0
 40
4.072102864583333
  1
1.3
 41
0.7
 11
205.3587655678436
 21
489.5162583935935
 31
0.0
100
AcDbText
 73
     3
  0
TEXT
  5
209
330
291
100
AcDbEntity
  8
DATA
 62
     7
100
AcDbText
 10
168.3680502839016
 20
478.790166528157
 30
0.0
 40
4.072102864583333
  1
over CAT5 w/ETH S
 41
0.7
 11
168.3680502839016
 21
482.8622693927404
 31
0.0
100
AcDbText
 73
     3
  0
LINE
  5
20A
330
291
100
AcDbEntity
  8
DATA
  6
Continuous
 62
     7
100
AcDbLine
 10
268.75
 20
418.75
 30
0.0
 11
268.75
 21
447.75
 31
0.0
  0
LINE
  5
20B
330
291
100
AcDbEntity
  8
DATA
  6
Continuous
 62
     7
100
AcDbLine
 10
268.75
 20
418.75
 30
0.0
 11
353.75
 21
418.75
 31
0.0
  0
LINE
  5
20C
330
291
100
AcDbEntity
  8
DATA
  6
Continuous
 62
     7
100
AcDbLine
 10
268.75
 20
447.75
 30
0.0
 11
352.25
 21
447.75
 31
0.0
  0
LINE
  5
20D
330
291
100
AcDbEntity
  8
DATA
  6
Continuous
 62
     7
100
AcDbLine
 10
353.75
 20
418.75
 30
0.0
 11
353.75
 21
446.25
 31
0.0
  0
LINE
  5
20E
330
291
100
AcDbEntity
  8
DATA
  6
Continuous
 62
     7
100
AcDbLine
 10
281.1841556311975
 20
416.75
 30
0.0
 11
282.1341556311976
 21
418.75
 31
0.0
  0
LINE
  5
20F
330
291
100
AcDbEntity
  8
DATA
  6
Continuous
 62
     7
100
AcDbLine
 10
275.4841556311975
 20
416.75
 30
0.0
 11
274.5341556311974
 21
418.75
 31
0.0
  0
LINE
  5
210
330
291
100
AcDbEntity
  8
DATA
  6
Continuous
 62
     7
100
AcDbLine
 10
281.1841556311975
 20
416.75
 30
0.0
 11
275.4841556311975
 21
416.75
 31
0.0
  0
LINE
  5
211
330
291
100
AcDbEntity
  8
DATA
  6
Continuous
 62
     7
100
AcDbLine
 10
338.6255691135111
 20
416.75
 30
0.0
 11
337.6755691135111
 21
418.75
 31
0.0
  0
LINE
  5
212
330
291
100
AcDbEntity
  8
DATA
  6
Continuous
 62
     7
100
AcDbLine
 10
344.3255691135111
 20
416.75
 30
0.0
 11
345.2755691135111
 21
418.75
 31
0.0
  0
LINE
  5
213
330
291
100
AcDbEntity
  8
DATA
  6
Continuous
 62
     7
100
AcDbLine
 10
338.6255691135111
 20
416.75
 30
0.0
 11
344.3255691135111
 21
416.75
 31
0.0
  0
LINE
  5
214
330
291
100
AcDbEntity
  8
DATA
  6
Continuous
 62
     7
100
AcDbLine
 10
262.7499997718962
 20
439.5589290295833
 30
0.0
 11
262.7499997718962
 21
431.7589290295834
 31
0.0
  0
LINE
  5
215
330
291
100
AcDbEntity
  8
DATA
  6
Continuous
 62
     7
100
AcDbLine
 10
267.2499997718962
 20
429.8854263376872
 30
0.0
 11
268.7499997718962
 21
429.8854263376872
 31
0.0
  0
LINE
  5
216
330
291
100
AcDbEntity
  8
DATA
  6
Continuous
 62
     7
100
AcDbLine
 10
267.2499997718962
 20
429.8854263376872
 30
0.0
 11
267.2499997718962
 21
438.1151514163108
 31
0.0
  0
LINE
  5
217
330
291
100
AcDbEntity
  8
DATA
  6
Continuous
 62
     7
100
AcDbLine
 10
262.7499997718962
 20
431.7589290295834
 30
0.0
 11
267.2499997718962
 21
431.7589290295834
 31
0.0
  0
LINE
  5
218
330
291
100
AcDbEntity
  8
DATA
  6
Continuous
 62
     7
100
AcDbLine
 10
262.7499997718962
 20
439.5589290295833
 30
0.0
 11
263.75
 21
439.5589290295833
 31
0.0
  0
LINE
  5
219
330
291
100
AcDbEntity
  8
DATA
  6
Continuous
 62
     7
100
AcDbLine
 10
354.55
 20
426.75
 30
0.0
 11
354.55
 21
432.7499999999999
 31
0.0
  0
LINE
  5
21A
330
291
100
AcDbEntity
  8
DATA
  6
Continuous
 62
     7
100
AcDbLine
 10
354.55
 20
426.75
 30
0.0
 11
353.75
 21
426.75
 31
0.0
  0
LINE
  5
21B
330
291
100
AcDbEntity
  8
DATA
  6
Continuous
 62
     7
100
AcDbLine
 10
353.95
 20
432.7499999999999
 30
0.0
 11
354.55
 21
432.7499999999999
 31
0.0
  0
LINE
  5
21C
330
291
100
AcDbEntity
  8
DATA
  6
Continuous
 62
     7
100
AcDbLine
 10
353.75
 20
440.0086405725271
 30
0.0
 11
353.95
 21
440.0086405725271
 31
0.0
  0
LINE
  5
21D
330
291
100
AcDbEntity
  8
DATA
  6
Continuous
 62
     7
100
AcDbLine
 10
353.95
 20
427.2399477036356
 30
0.0
 11
353.95
 21
440.0086405725271
 31
0.0
  0
ARC
  5
21E
330
291
100
AcDbEntity
  8
DATA
  6
Continuous
 62
     7
100
AcDbCircle
 10
352.25
 20
446.25
 30
0.0
 40
1.5
100
AcDbArc
 50
0.0
 51
90.0
  0
LINE
  5
21F
330
291
100
AcDbEntity
  8
DATA
  6
Continuous
 62
     7
100
AcDbLine
 10
263.75
 20
443.6919267745628
 30
0.0
 11
268.75
 21
443.6919267745628
 31
0.0
  0
LINE
  5
220
330
291
100
AcDbEntity
  8
DATA
  6
Continuous
 62
     7
100
AcDbLine
 10
263.75
 20
438.1151514163108
 30
0.0
 11
268.75
 21
438.1151514163108
 31
0.0
  0
LINE
  5
221
330
291
100
AcDbEntity
  8
DATA
  6
Continuous
 62
     7
100
AcDbLine
 10
263.75
 20
438.1151514163108
 30
0.0
 11
263.75
 21
443.6919267745628
 31
0.0
  0
LINE
  5
222
330
291
100
AcDbEntity
  8
DATA
  6
Continuous
 62
     7
100
AcDbLine
 10
353.95
 20
427.2399477036356
 30
0.0
 11
353.75
 21
427.2399477036356
 31
0.0
  0
LINE
  5
223
330
291
100
AcDbEntity
  8
DATA
  6
Continuous
 62
     7
100
AcDbLine
 10
156.25
 20
375.0
 30
0.0
 11
200.0
 21
375.0
 31
0.0
  0
LINE
  5
224
330
291
100
AcDbEntity
  8
DATA
  6
Continuous
 62
     7
100
AcDbLine
 10
150.0
 20
112.5
 30
0.0
 11
206.25
 21
112.5
 31
0.0
  0
ENDSEC
  0
SECTION
  2
OBJECTS
  0
DICTIONARY
  5
232
330
0
100
AcDbDictionary
281
     1
  3
ACAD_COLOR
350
288
  3
ACAD_GROUP
350
233
  3
ACAD_LAYOUT
350
287
  3
ACAD_MATERIAL
350
236
  3
ACAD_MLEADERSTYLE
350
28B
  3
ACAD_MLINESTYLE
350
284
  3
ACAD_PLOTSETTINGS
350
286
  3
ACAD_PLOTSTYLENAME
350
234
  3
ACAD_SCALELIST
350
268
  3
ACAD_TABLESTYLE
350
289
  3
ACAD_VISUALSTYLE
350
24F
  3
ACDB_RECOMPOSE_DATA
350
2BD
  3
AcDbVariableDictionary
350
2B3
  3
DWGPROPS
350
2BE
  0
DICTIONARY
  5
2A9
330
27A
100
AcDbDictionary
280
     1
281
     1
  3
ADSK_XREC_LAYER_RECONCILED
360
2AA
  0
DICTIONARY
  5
2AB
330
295
100
AcDbDictionary
280
     1
281
     1
  3
ADSK_XREC_LAYER_RECONCILED
360
2AC
  0
DICTIONARY
  5
2AD
330
2A1
100
AcDbDictionary
280
     1
281
     1
  3
ADSK_XREC_LAYER_RECONCILED
360
2AE
  0
DICTIONARY
  5
2AF
330
2A2
100
AcDbDictionary
280
     1
281
     1
  3
ADSK_XREC_LAYER_RECONCILED
360
2B0
  0
DICTIONARY
  5
2B1
330
2A3
100
AcDbDictionary
280
     1
281
     1
  3
ADSK_XREC_LAYER_RECONCILED
360
2B2
  0
DICTIONARY
  5
288
102
{ACAD_REACTORS
330
232
102
}
330
232
100
AcDbDictionary
281
     1
  0
DICTIONARY
  5
233
102
{ACAD_REACTORS
330
232
102
}
330
232
100
AcDbDictionary
281
     1
  0
DICTIONARY
  5
287
102
{ACAD_REACTORS
330
232
102
}
330
232
100
AcDbDictionary
281
     1
  3
Model
350
294
  3
レイアウト1
350
290
  0
DICTIONARY
  5
236
102
{ACAD_REACTORS
330
232
102
}
330
232
100
AcDbDictionary
281
     1
  3
ByBlock
350
23F
  3
ByLayer
350
237
  3
Global
350
247
  0
DICTIONARY
  5
28B
102
{ACAD_REACTORS
330
232
102
}
330
232
100
AcDbDictionary
281
     1
  3
Standard
350
28C
  0
DICTIONARY
  5
284
102
{ACAD_REACTORS
330
232
102
}
330
232
100
AcDbDictionary
281
     1
  3
Standard
350
285
  0
DICTIONARY
  5
286
102
{ACAD_REACTORS
330
232
102
}
330
232
100
AcDbDictionary
281
     1
  0
ACDBDICTIONARYWDFLT
  5
234
102
{ACAD_REACTORS
330
232
102
}
330
232
100
AcDbDictionary
281
     1
  3
Normal
350
235
100
AcDbDictionaryWithDefault
340
235
  0
DICTIONARY
  5
268
102
{ACAD_REACTORS
330
232
102
}
330
232
100
AcDbDictionary
281
     1
  3
A0
350
269
  3
A1
350
26A
  3
A2
350
26B
  3
A3
350
26C
  3
A4
350
26D
  3
A5
350
26E
  3
A6
350
26F
  3
A7
350
270
  3
A8
350
271
  3
A9
350
272
  3
B0
350
273
  3
B1
350
274
  3
B2
350
275
  3
B3
350
276
  3
B4
350
277
  3
B5
350
278
  3
B6
350
279
  0
DICTIONARY
  5
289
102
{ACAD_REACTORS
330
232
102
}
330
232
100
AcDbDictionary
281
     1
  3
Standard
350
28A
  0
DICTIONARY
  5
24F
102
{ACAD_REACTORS
330
232
102
}
330
232
100
AcDbDictionary
281
     1
  3
2dWireframe
350
255
  3
Basic
350
254
  3
Brighten
350
25B
  3
ColorChange
350
25F
  3
Conceptual
350
258
  3
Dim
350
25A
  3
EdgeColorOff
350
267
  3
Facepattern
350
25E
  3
Flat
350
250
  3
FlatWithEdges
350
251
  3
Gouraud
350
252
  3
GouraudWithEdges
350
253
  3
Hidden
350
257
  3
JitterOff
350
265
  3
Linepattern
350
25D
  3
OverhangOff
350
266
  3
Realistic
350
259
  3
Shaded
350
264
  3
Shaded with edges
350
263
  3
Shades of Gray
350
260
  3
Sketchy
350
261
  3
Thicken
350
25C
  3
Wireframe
350
256
  3
X-Ray
350
262
  0
XRECORD
  5
2BD
102
{ACAD_REACTORS
330
232
102
}
330
232
100
AcDbXrecord
280
     1
 90
        1
330
28A
  0
DICTIONARY
  5
2B3
102
{ACAD_REACTORS
330
232
102
}
330
232
100
AcDbDictionary
281
     1
  3
CANNOSCALE
350
2B6
  3
CMLEADERSTYLE
350
2B5
  3
CTABLESTYLE
350
2B4
  3
DIMASSOC
350
2B9
  3
INDEXCTL
350
2B8
  3
SORTENTS
350
2B7
  3
XCLIPFRAME
350
2BA
  0
XRECORD
  5
2BE
102
{ACAD_REACTORS
330
232
102
}
330
232
100
AcDbXrecord
280
     1
  1
DWGPROPS COOKIE
  2

  3

  4

  6

  7

  8
sasaki_n
  9

300
=
301
=
302
=
303
=
304
=
305
=
306
=
307
=
308
=
309
=
 40
0.0006154398148148
 41
2455418.571990741
 42
2455418.576526053
  1

 90
        0
  0
XRECORD
  5
2AA
102
{ACAD_REACTORS
330
2A9
102
}
330
2A9
100
AcDbXrecord
280
     1
290
     1
  0
XRECORD
  5
2AC
102
{ACAD_REACTORS
330
2AB
102
}
330
2AB
100
AcDbXrecord
280
     1
290
     1
  0
XRECORD
  5
2AE
102
{ACAD_REACTORS
330
2AD
102
}
330
2AD
100
AcDbXrecord
280
     1
290
     1
  0
XRECORD
  5
2B0
102
{ACAD_REACTORS
330
2AF
102
}
330
2AF
100
AcDbXrecord
280
     1
290
     1
  0
XRECORD
  5
2B2
102
{ACAD_REACTORS
330
2B1
102
}
330
2B1
100
AcDbXrecord
280
     1
290
     1
  0
LAYOUT
  5
294
102
{ACAD_XDICTIONARY
360
2F6
102
}
102
{ACAD_REACTORS
330
287
102
}
330
287
100
AcDbPlotSettings
  1

  2
DocuPrint 255-1
  4

  6

 40
0.0
 41
0.0
 42
0.0
 43
0.0
 44
0.0
 45
0.0
 46
0.0
 47
0.0
 48
0.0
 49
0.0
140
0.0
141
0.0
142
1.0
143
1.0
 70
  1712
 72
     0
 73
     0
 74
     0
  7

 75
     0
147
1.0
148
0.0
149
0.0
100
AcDbLayout
  1
Model
 70
     1
 71
     0
 10
0.0
 20
0.0
 11
12.0
 21
9.0
 12
0.0
 22
0.0
 32
0.0
 14
0.0
 24
0.0
 34
0.0
 15
0.0
 25
0.0
 35
0.0
146
0.0
 13
0.0
 23
0.0
 33
0.0
 16
1.0
 26
0.0
 36
0.0
 17
0.0
 27
1.0
 37
0.0
 76
     0
330
291
331
296
  0
LAYOUT
  5
290
102
{ACAD_XDICTIONARY
360
2F4
102
}
102
{ACAD_REACTORS
330
287
102
}
330
287
100
AcDbPlotSettings
  1

  2
DocuPrint 255-1
  4

  6

 40
0.0
 41
0.0
 42
0.0
 43
0.0
 44
0.0
 45
0.0
 46
0.0
 47
0.0
 48
0.0
 49
0.0
140
0.0
141
0.0
142
1.0
143
1.0
 70
   688
 72
     0
 73
     0
 74
     5
  7

 75
    16
147
1.0
148
0.0
149
0.0
100
AcDbLayout
  1
レイアウト1
 70
     0
 71
     1
 10
0.0
 20
0.0
 11
12.0
 21
9.0
 12
0.0
 22
0.0
 32
0.0
 14
1.000000000000000E+20
 24
1.000000000000000E+20
 34
1.000000000000000E+20
 15
-1.000000000000000E+20
 25
-1.000000000000000E+20
 35
-1.000000000000000E+20
146
0.0
 13
0.0
 23
0.0
 33
0.0
 16
1.0
 26
0.0
 36
0.0
 17
0.0
 27
1.0
 37
0.0
 76
     0
330
28D
  0
MATERIAL
  5
23F
102
{ACAD_XDICTIONARY
360
240
102
}
102
{ACAD_REACTORS
330
236
102
}
330
236
100
AcDbMaterial
  1
ByBlock
 72
     0
 43
0.0208333333333333
 43
0.0
 43
0.0
 43
0.0
 43
0.0
 43
0.0208333333333333
 43
0.0
 43
0.0
 43
0.0
 43
0.0
 43
1.0
 43
0.0
 43
0.0
 43
0.0
 43
0.0
 43
1.0
 77
     0
 47
0.0208333333333333
 47
0.0
 47
0.0
 47
0.0
 47
0.0
 47
0.0208333333333333
 47
0.0
 47
0.0
 47
0.0
 47
0.0
 47
1.0
 47
0.0
 47
0.0
 47
0.0
 47
0.0
 47
1.0
171
     0
 49
0.0208333333333333
 49
0.0
 49
0.0
 49
0.0
 49
0.0
 49
0.0208333333333333
 49
0.0
 49
0.0
 49
0.0
 49
0.0
 49
1.0
 49
0.0
 49
0.0
 49
0.0
 49
0.0
 49
1.0
175
     0
142
0.0208333333333333
142
0.0
142
0.0
142
0.0
142
0.0
142
0.0208333333333333
142
0.0
142
0.0
142
0.0
142
0.0
142
1.0
142
0.0
142
0.0
142
0.0
142
0.0
142
1.0
179
     0
144
0.0208333333333333
144
0.0
144
0.0
144
0.0
144
0.0
144
0.0208333333333333
144
0.0
144
0.0
144
0.0
144
0.0
144
1.0
144
0.0
144
0.0
144
0.0
144
0.0
144
1.0
147
0.0208333333333333
147
0.0
147
0.0
147
0.0
147
0.0
147
0.0208333333333333
147
0.0
147
0.0
147
0.0
147
0.0
147
1.0
147
0.0
147
0.0
147
0.0
147
0.0
147
1.0
  0
MATERIAL
  5
237
102
{ACAD_XDICTIONARY
360
238
102
}
102
{ACAD_REACTORS
330
236
102
}
330
236
100
AcDbMaterial
  1
ByLayer
 72
     0
 43
0.0208333333333333
 43
0.0
 43
0.0
 43
0.0
 43
0.0
 43
0.0208333333333333
 43
0.0
 43
0.0
 43
0.0
 43
0.0
 43
1.0
 43
0.0
 43
0.0
 43
0.0
 43
0.0
 43
1.0
 77
     0
 47
0.0208333333333333
 47
0.0
 47
0.0
 47
0.0
 47
0.0
 47
0.0208333333333333
 47
0.0
 47
0.0
 47
0.0
 47
0.0
 47
1.0
 47
0.0
 47
0.0
 47
0.0
 47
0.0
 47
1.0
171
     0
 49
0.0208333333333333
 49
0.0
 49
0.0
 49
0.0
 49
0.0
 49
0.0208333333333333
 49
0.0
 49
0.0
 49
0.0
 49
0.0
 49
1.0
 49
0.0
 49
0.0
 49
0.0
 49
0.0
 49
1.0
175
     0
142
0.0208333333333333
142
0.0
142
0.0
142
0.0
142
0.0
142
0.0208333333333333
142
0.0
142
0.0
142
0.0
142
0.0
142
1.0
142
0.0
142
0.0
142
0.0
142
0.0
142
1.0
179
     0
144
0.0208333333333333
144
0.0
144
0.0
144
0.0
144
0.0
144
0.0208333333333333
144
0.0
144
0.0
144
0.0
144
0.0
144
1.0
144
0.0
144
0.0
144
0.0
144
0.0
144
1.0
147
0.0208333333333333
147
0.0
147
0.0
147
0.0
147
0.0
147
0.0208333333333333
147
0.0
147
0.0
147
0.0
147
0.0
147
1.0
147
0.0
147
0.0
147
0.0
147
0.0
147
1.0
  0
MATERIAL
  5
247
102
{ACAD_XDICTIONARY
360
248
102
}
102
{ACAD_REACTORS
330
236
102
}
330
236
100
AcDbMaterial
  1
Global
 72
     0
 43
0.0208333333333333
 43
0.0
 43
0.0
 43
0.0
 43
0.0
 43
0.0208333333333333
 43
0.0
 43
0.0
 43
0.0
 43
0.0
 43
1.0
 43
0.0
 43
0.0
 43
0.0
 43
0.0
 43
1.0
 77
     0
 47
0.0208333333333333
 47
0.0
 47
0.0
 47
0.0
 47
0.0
 47
0.0208333333333333
 47
0.0
 47
0.0
 47
0.0
 47
0.0
 47
1.0
 47
0.0
 47
0.0
 47
0.0
 47
0.0
 47
1.0
171
     0
 49
0.0208333333333333
 49
0.0
 49
0.0
 49
0.0
 49
0.0
 49
0.0208333333333333
 49
0.0
 49
0.0
 49
0.0
 49
0.0
 49
1.0
 49
0.0
 49
0.0
 49
0.0
 49
0.0
 49
1.0
175
     0
142
0.0208333333333333
142
0.0
142
0.0
142
0.0
142
0.0
142
0.0208333333333333
142
0.0
142
0.0
142
0.0
142
0.0
142
1.0
142
0.0
142
0.0
142
0.0
142
0.0
142
1.0
179
     0
144
0.0208333333333333
144
0.0
144
0.0
144
0.0
144
0.0
144
0.0208333333333333
144
0.0
144
0.0
144
0.0
144
0.0
144
1.0
144
0.0
144
0.0
144
0.0
144
0.0
144
1.0
147
0.0208333333333333
147
0.0
147
0.0
147
0.0
147
0.0
147
0.0208333333333333
147
0.0
147
0.0
147
0.0
147
0.0
147
1.0
147
0.0
147
0.0
147
0.0
147
0.0
147
1.0
  0
MLEADERSTYLE
  5
28C
102
{ACAD_REACTORS
330
28B
102
}
330
28B
100
AcDbMLeaderStyle
170
     2
171
     1
172
     0
 90
        2
 40
0.0
 41
0.0
173
     1
 91
-1056964608
340
280
 92
       -2
290
     1
 42
0.09
291
     1
 43
0.36
  3
Standard
 44
0.18
300

342
27B
174
     1
178
     6
175
     1
176
     0
 93
-1056964608
 45
0.18
292
     0
297
     0
 46
0.18
 94
-1056964608
 47
1.0
 49
1.0
140
1.0
293
     1
141
0.0
294
     1
177
     0
142
1.0
295
     0
296
     0
143
0.125
1001
ACAD_MLEADERVER
1070
     2
  0
MLINESTYLE
  5
285
102
{ACAD_REACTORS
330
284
102
}
330
284
100
AcDbMlineStyle
  2
STANDARD
 70
     0
  3

 62
   256
 51
90.0
 52
90.0
 71
     2
 49
0.5
 62
   256
  6
BYLAYER
 49
-0.5
 62
   256
  6
BYLAYER
  0
ACDBPLACEHOLDER
  5
235
102
{ACAD_REACTORS
330
234
102
}
330
234
  0
SCALE
  5
269
102
{ACAD_REACTORS
330
268
102
}
330
268
100
AcDbScale
 70
     0
300
1:1
140
1.0
141
1.0
290
     1
  0
SCALE
  5
26A
102
{ACAD_REACTORS
330
268
102
}
330
268
100
AcDbScale
 70
     0
300
1/128" = 1'-0"
140
0.0078125
141
12.0
290
     0
  0
SCALE
  5
26B
102
{ACAD_REACTORS
330
268
102
}
330
268
100
AcDbScale
 70
     0
300
1/64" = 1'-0"
140
0.015625
141
12.0
290
     0
  0
SCALE
  5
26C
102
{ACAD_REACTORS
330
268
102
}
330
268
100
AcDbScale
 70
     0
300
1/32" = 1'-0"
140
0.03125
141
12.0
290
     0
  0
SCALE
  5
26D
102
{ACAD_REACTORS
330
268
102
}
330
268
100
AcDbScale
 70
     0
300
1/16" = 1'-0"
140
0.0625
141
12.0
290
     0
  0
SCALE
  5
26E
102
{ACAD_REACTORS
330
268
102
}
330
268
100
AcDbScale
 70
     0
300
3/32" = 1'-0"
140
0.09375
141
12.0
290
     0
  0
SCALE
  5
26F
102
{ACAD_REACTORS
330
268
102
}
330
268
100
AcDbScale
 70
     0
300
1/8" = 1'-0"
140
0.125
141
12.0
290
     0
  0
SCALE
  5
270
102
{ACAD_REACTORS
330
268
102
}
330
268
100
AcDbScale
 70
     0
300
3/16" = 1'-0"
140
0.1875
141
12.0
290
     0
  0
SCALE
  5
271
102
{ACAD_REACTORS
330
268
102
}
330
268
100
AcDbScale
 70
     0
300
1/4" = 1'-0"
140
0.25
141
12.0
290
     0
  0
SCALE
  5
272
102
{ACAD_REACTORS
330
268
102
}
330
268
100
AcDbScale
 70
     0
300
3/8" = 1'-0"
140
0.375
141
12.0
290
     0
  0
SCALE
  5
273
102
{ACAD_REACTORS
330
268
102
}
330
268
100
AcDbScale
 70
     0
300
1/2" = 1'-0"
140
0.5
141
12.0
290
     0
  0
SCALE
  5
274
102
{ACAD_REACTORS
330
268
102
}
330
268
100
AcDbScale
 70
     0
300
3/4" = 1'-0"
140
0.75
141
12.0
290
     0
  0
SCALE
  5
275
102
{ACAD_REACTORS
330
268
102
}
330
268
100
AcDbScale
 70
     0
300
1" = 1'-0"
140
1.0
141
12.0
290
     0
  0
SCALE
  5
276
102
{ACAD_REACTORS
330
268
102
}
330
268
100
AcDbScale
 70
     0
300
1-1/2" = 1'-0"
140
1.5
141
12.0
290
     0
  0
SCALE
  5
277
102
{ACAD_REACTORS
330
268
102
}
330
268
100
AcDbScale
 70
     0
300
3" = 1'-0"
140
3.0
141
12.0
290
     0
  0
SCALE
  5
278
102
{ACAD_REACTORS
330
268
102
}
330
268
100
AcDbScale
 70
     0
300
6" = 1'-0"
140
6.0
141
12.0
290
     0
  0
SCALE
  5
279
102
{ACAD_REACTORS
330
268
102
}
330
268
100
AcDbScale
 70
     0
300
1'-0" = 1'-0"
140
12.0
141
12.0
290
     0
  0
TABLESTYLE
  5
28A
102
{ACAD_XDICTIONARY
360
2BB
102
}
102
{ACAD_REACTORS
330
289
102
}
330
289
100
AcDbTableStyle
  3
Standard
 70
     0
 71
     0
 40
0.06
 41
0.06
280
     0
281
     0
  7
STANDARD
140
0.18
170
     2
 62
     0
 63
     7
283
     0
274
    -2
284
     1
 64
     0
275
    -2
285
     1
 65
     0
276
    -2
286
     1
 66
     0
277
    -2
287
     1
 67
     0
278
    -2
288
     1
 68
     0
279
    -2
289
     1
 69
     0
  7
STANDARD
140
0.25
170
     5
 62
     0
 63
     7
283
     0
274
    -2
284
     1
 64
     0
275
    -2
285
     1
 65
     0
276
    -2
286
     1
 66
     0
277
    -2
287
     1
 67
     0
278
    -2
288
     1
 68
     0
279
    -2
289
     1
 69
     0
  7
STANDARD
140
0.18
170
     5
 62
     0
 63
     7
283
     0
274
    -2
284
     1
 64
     0
275
    -2
285
     1
 65
     0
276
    -2
286
     1
 66
     0
277
    -2
287
     1
 67
     0
278
    -2
288
     1
 68
     0
279
    -2
289
     1
 69
     0
  0
VISUALSTYLE
  5
255
102
{ACAD_XDICTIONARY
360
2CC
102
}
102
{ACAD_REACTORS
330
24F
102
}
330
24F
100
AcDbVisualStyle
  2
2dWireframe
 70
     4
 71
     0
 72
     2
 73
     0
 90
        0
 40
-0.6
 41
-30.0
 62
     5
 63
     7
 74
     1
 91
        4
 64
     7
 65
   257
 75
     1
175
     1
 42
1.0
 92
        0
 66
   257
 43
1.0
 76
     1
 77
     6
 78
     2
 67
     7
 79
     5
170
     0
171
     0
290
     0
174
     0
 93
        1
 44
0.0
173
     0
291
     0
 45
0.0
1001
ACAD
1000
AcDbSavedByObjectVersion
1070
     0
  0
VISUALSTYLE
  5
254
102
{ACAD_XDICTIONARY
360
2CA
102
}
102
{ACAD_REACTORS
330
24F
102
}
330
24F
100
AcDbVisualStyle
  2
Basic
 70
     7
 71
     1
 72
     0
 73
     1
 90
        0
 40
-0.6
 41
-30.0
 62
     5
 63
     7
 74
     0
 91
        4
 64
     7
 65
   257
 75
     1
175
     1
 42
1.0
 92
        8
 66
     7
 43
1.0
 76
     1
 77
     6
 78
     2
 67
     7
 79
     5
170
     0
171
     0
290
     0
174
     0
 93
        1
 44
0.0
173
     0
291
     1
 45
0.0
1001
ACAD
1000
AcDbSavedByObjectVersion
1070
     0
  0
VISUALSTYLE
  5
25B
102
{ACAD_XDICTIONARY
360
2D8
102
}
102
{ACAD_REACTORS
330
24F
102
}
330
24F
100
AcDbVisualStyle
  2
Brighten
 70
    12
 71
     2
 72
     2
 73
     0
 90
        0
 40
-0.6
 41
-30.0
 62
     5
 63
     7
 74
     1
 91
        4
 64
     7
 65
   257
 75
     1
175
     1
 42
1.0
 92
        8
 66
     7
 43
1.0
 76
     1
 77
     6
 78
     2
 67
     7
 79
     5
170
     0
171
     0
290
     0
174
     0
 93
        1
 44
50.0
173
     0
291
     1
 45
0.0
1001
ACAD
1000
AcDbSavedByObjectVersion
1070
     0
  0
VISUALSTYLE
  5
25F
102
{ACAD_XDICTIONARY
360
2E0
102
}
102
{ACAD_REACTORS
330
24F
102
}
330
24F
100
AcDbVisualStyle
  2
ColorChange
 70
    16
 71
     2
 72
     2
 73
     3
 90
        0
 40
-0.6
 41
-30.0
 62
     5
 63
     8
 74
     1
 91
        4
 64
     7
 65
   257
 75
     1
175
     1
 42
1.0
 92
        8
 66
     8
 43
1.0
 76
     1
 77
     6
 78
     2
 67
     7
 79
     5
170
     0
171
     0
290
     0
174
     0
 93
        1
 44
0.0
173
     0
291
     1
 45
0.0
1001
ACAD
1000
AcDbSavedByObjectVersion
1070
     0
  0
VISUALSTYLE
  5
258
102
{ACAD_XDICTIONARY
360
2D2
102
}
102
{ACAD_REACTORS
330
24F
102
}
330
24F
100
AcDbVisualStyle
  2
Conceptual
 70
     9
 71
     3
 72
     2
 73
     0
 90
        0
 40
-0.6
 41
-30.0
 62
     5
 63
     7
 74
     2
 91
        2
 64
     7
 65
   257
 75
     1
175
     1
 42
179.0
 92
        8
 66
     7
 43
1.0
 76
     1
 77
     6
 78
     2
 67
     7
 79
     3
170
     0
171
     0
290
     0
174
     0
 93
        1
 44
0.0
173
     0
291
     0
 45
0.0
1001
ACAD
1000
AcDbSavedByObjectVersion
1070
     0
  0
VISUALSTYLE
  5
25A
102
{ACAD_XDICTIONARY
360
2D6
102
}
102
{ACAD_REACTORS
330
24F
102
}
330
24F
100
AcDbVisualStyle
  2
Dim
 70
    11
 71
     2
 72
     2
 73
     0
 90
        0
 40
-0.6
 41
-30.0
 62
     5
 63
     7
 74
     1
 91
        4
 64
     7
 65
   257
 75
     1
175
     1
 42
1.0
 92
        8
 66
     7
 43
1.0
 76
     1
 77
     6
 78
     2
 67
     7
 79
     5
170
     0
171
     0
290
     0
174
     0
 93
        1
 44
-50.0
173
     0
291
     1
 45
0.0
1001
ACAD
1000
AcDbSavedByObjectVersion
1070
     0
  0
VISUALSTYLE
  5
267
102
{ACAD_XDICTIONARY
360
2F0
102
}
102
{ACAD_REACTORS
330
24F
102
}
330
24F
100
AcDbVisualStyle
  2
EdgeColorOff
 70
    22
 71
     2
 72
     2
 73
     0
 90
        0
 40
-0.6
 41
-30.0
 62
     5
 63
     7
 74
     1
 91
        4
 64
     7
 65
   257
 75
     1
175
     1
 42
1.0
 92
        8
 66
     7
 43
1.0
 76
     1
 77
     6
 78
     2
 67
     7
 79
     5
170
     0
171
     0
290
     0
174
     0
 93
        1
 44
0.0
173
     0
291
     1
 45
0.0
1001
ACAD
1000
AcDbSavedByObjectVersion
1070
     0
  0
VISUALSTYLE
  5
25E
102
{ACAD_XDICTIONARY
360
2DE
102
}
102
{ACAD_REACTORS
330
24F
102
}
330
24F
100
AcDbVisualStyle
  2
Facepattern
 70
    15
 71
     2
 72
     2
 73
     0
 90
        0
 40
-0.6
 41
-30.0
 62
     5
 63
     7
 74
     1
 91
        4
 64
     7
 65
   257
 75
     1
175
     1
 42
1.0
 92
        8
 66
     7
 43
1.0
 76
     1
 77
     6
 78
     2
 67
     7
 79
     5
170
     0
171
     0
290
     0
174
     0
 93
        1
 44
0.0
173
     0
291
     1
 45
0.0
1001
ACAD
1000
AcDbSavedByObjectVersion
1070
     0
  0
VISUALSTYLE
  5
250
102
{ACAD_XDICTIONARY
360
2C2
102
}
102
{ACAD_REACTORS
330
24F
102
}
330
24F
100
AcDbVisualStyle
  2
Flat
 70
     0
 71
     2
 72
     1
 73
     1
 90
        2
 40
-0.6
 41
30.0
 62
     5
 63
     7
 74
     0
 91
        0
 64
     7
 65
   257
 75
     1
175
     1
 42
1.0
 92
        8
 66
     7
 43
1.0
 76
     1
 77
     6
 78
     2
 67
     7
 79
     5
170
     0
171
     0
290
     0
174
     0
 93
       13
 44
0.0
173
     0
291
     1
 45
0.0
1001
ACAD
1000
AcDbSavedByObjectVersion
1070
     0
  0
VISUALSTYLE
  5
251
102
{ACAD_XDICTIONARY
360
2C4
102
}
102
{ACAD_REACTORS
330
24F
102
}
330
24F
100
AcDbVisualStyle
  2
FlatWithEdges
 70
     1
 71
     2
 72
     1
 73
     1
 90
        2
 40
-0.6
 41
30.0
 62
     5
 63
     7
 74
     1
 91
        0
 64
     7
 65
   257
 75
     1
175
     1
 42
1.0
 92
        0
 66
   257
 43
1.0
 76
     1
 77
     6
 78
     2
 67
     7
 79
     5
170
     0
171
     0
290
     0
174
     0
 93
       13
 44
0.0
173
     0
291
     1
 45
0.0
1001
ACAD
1000
AcDbSavedByObjectVersion
1070
     0
  0
VISUALSTYLE
  5
252
102
{ACAD_XDICTIONARY
360
2C6
102
}
102
{ACAD_REACTORS
330
24F
102
}
330
24F
100
AcDbVisualStyle
  2
Gouraud
 70
     2
 71
     2
 72
     2
 73
     1
 90
        2
 40
-0.6
 41
30.0
 62
     5
 63
     7
 74
     0
 91
        0
 64
     7
 65
   257
 75
     1
175
     1
 42
1.0
 92
        0
 66
     7
 43
1.0
 76
     1
 77
     6
 78
     2
 67
     7
 79
     5
170
     0
171
     0
290
     0
174
     0
 93
       13
 44
0.0
173
     0
291
     1
 45
0.0
1001
ACAD
1000
AcDbSavedByObjectVersion
1070
     0
  0
VISUALSTYLE
  5
253
102
{ACAD_XDICTIONARY
360
2C8
102
}
102
{ACAD_REACTORS
330
24F
102
}
330
24F
100
AcDbVisualStyle
  2
GouraudWithEdges
 70
     3
 71
     2
 72
     2
 73
     1
 90
        2
 40
-0.6
 41
30.0
 62
     5
 63
     7
 74
     1
 91
        0
 64
     7
 65
   257
 75
     1
175
     1
 42
1.0
 92
        0
 66
   257
 43
1.0
 76
     1
 77
     6
 78
     2
 67
     7
 79
     5
170
     0
171
     0
290
     0
174
     0
 93
       13
 44
0.0
173
     0
291
     1
 45
0.0
1001
ACAD
1000
AcDbSavedByObjectVersion
1070
     0
  0
VISUALSTYLE
  5
257
102
{ACAD_XDICTIONARY
360
2D0
102
}
102
{ACAD_REACTORS
330
24F
102
}
330
24F
100
AcDbVisualStyle
  2
Hidden
 70
     6
 71
     1
 72
     2
 73
     2
 90
        0
 40
-0.6
 41
-30.0
 62
     5
 63
     7
 74
     2
 91
        2
 64
     7
 65
   257
 75
     2
175
     1
 42
40.0
 92
        0
 66
   257
 43
1.0
 76
     1
 77
     6
 78
     2
 67
     7
 79
     3
170
     0
171
     0
290
     0
174
     0
 93
        1
 44
0.0
173
     0
291
     0
 45
0.0
1001
ACAD
1000
AcDbSavedByObjectVersion
1070
     0
  0
VISUALSTYLE
  5
265
102
{ACAD_XDICTIONARY
360
2EC
102
}
102
{ACAD_REACTORS
330
24F
102
}
330
24F
100
AcDbVisualStyle
  2
JitterOff
 70
    20
 71
     2
 72
     2
 73
     0
 90
        0
 40
-0.6
 41
-30.0
 62
     5
 63
     7
 74
     1
 91
        4
 64
     7
 65
   257
 75
     1
175
     1
 42
1.0
 92
       10
 66
     7
 43
1.0
 76
     1
 77
     6
 78
     2
 67
     7
 79
     5
170
     0
171
     0
290
     0
174
     0
 93
        1
 44
0.0
173
     0
291
     1
 45
0.0
1001
ACAD
1000
AcDbSavedByObjectVersion
1070
     0
  0
VISUALSTYLE
  5
25D
102
{ACAD_XDICTIONARY
360
2DC
102
}
102
{ACAD_REACTORS
330
24F
102
}
330
24F
100
AcDbVisualStyle
  2
Linepattern
 70
    14
 71
     2
 72
     2
 73
     0
 90
        0
 40
-0.6
 41
-30.0
 62
     5
 63
     7
 74
     1
 91
        4
 64
     7
 65
   257
 75
     7
175
     7
 42
1.0
 92
        8
 66
     7
 43
1.0
 76
     1
 77
     6
 78
     2
 67
     7
 79
     5
170
     0
171
     0
290
     0
174
     0
 93
        1
 44
0.0
173
     0
291
     1
 45
0.0
1001
ACAD
1000
AcDbSavedByObjectVersion
1070
     0
  0
VISUALSTYLE
  5
266
102
{ACAD_XDICTIONARY
360
2EE
102
}
102
{ACAD_REACTORS
330
24F
102
}
330
24F
100
AcDbVisualStyle
  2
OverhangOff
 70
    21
 71
     2
 72
     2
 73
     0
 90
        0
 40
-0.6
 41
-30.0
 62
     5
 63
     7
 74
     1
 91
        4
 64
     7
 65
   257
 75
     1
175
     1
 42
1.0
 92
        9
 66
     7
 43
1.0
 76
     1
 77
     6
 78
     2
 67
     7
 79
     5
170
     0
171
     0
290
     0
174
     0
 93
        1
 44
0.0
173
     0
291
     1
 45
0.0
1001
ACAD
1000
AcDbSavedByObjectVersion
1070
     0
  0
VISUALSTYLE
  5
259
102
{ACAD_XDICTIONARY
360
2D4
102
}
102
{ACAD_REACTORS
330
24F
102
}
330
24F
100
AcDbVisualStyle
  2
Realistic
 70
     8
 71
     2
 72
     3
 73
     0
 90
        2
 40
-0.6
 41
30.0
 62
     5
 63
     7
 74
     0
 91
        0
 64
     7
 65
   257
 75
     1
175
     1
 42
1.0
 92
        8
 66
   257
 43
1.0
 76
     1
 77
     6
 78
     2
 67
     7
 79
     3
170
     0
171
     0
290
     0
174
     0
 93
       13
 44
0.0
173
     0
291
     0
 45
0.0
1001
ACAD
1000
AcDbSavedByObjectVersion
1070
     0
  0
VISUALSTYLE
  5
264
102
{ACAD_XDICTIONARY
360
2EA
102
}
102
{ACAD_REACTORS
330
24F
102
}
330
24F
100
AcDbVisualStyle
  2
Shaded
 70
    27
 71
     2
 72
     2
 73
     1
 90
        2
 40
-0.6
 41
30.0
 62
     5
 63
     7
 74
     0
 91
        4
 64
     7
 65
   257
 75
     1
175
     1
 42
1.0
 92
        8
 66
   257
 43
1.0
 76
     1
 77
     6
 78
     2
 67
     8
 79
     3
170
     0
171
     0
290
     0
174
     0
 93
        5
 44
0.0
173
     0
291
     0
 45
0.0
1001
ACAD
1000
AcDbSavedByObjectVersion
1070
     0
  0
VISUALSTYLE
  5
263
102
{ACAD_XDICTIONARY
360
2E8
102
}
102
{ACAD_REACTORS
330
24F
102
}
330
24F
100
AcDbVisualStyle
  2
Shaded with edges
 70
    26
 71
     2
 72
     2
 73
     1
 90
        2
 40
-0.6
 41
30.0
 62
     5
 63
     7
 74
     1
 91
       10
 64
     7
 65
   257
 75
     2
175
     1
 42
1.0
 92
        8
 66
   257
 43
1.0
 76
     1
 77
     6
 78
     2
 67
     7
 79
     3
170
     0
171
     0
290
     0
174
     0
 93
        5
 44
0.0
173
     0
291
     0
 45
0.0
1001
ACAD
1000
AcDbSavedByObjectVersion
1070
     0
  0
VISUALSTYLE
  5
260
102
{ACAD_XDICTIONARY
360
2E2
102
}
102
{ACAD_REACTORS
330
24F
102
}
330
24F
100
AcDbVisualStyle
  2
Shades of Gray
 70
    23
 71
     2
 72
     2
 73
     3
 90
        0
 40
-0.6
 41
-30.0
 62
     5
 63
     7
 74
     2
 91
        2
 64
     7
 65
     7
 75
     1
175
     1
 42
40.0
 92
        8
 66
     7
 43
1.0
 76
     1
 77
     6
 78
     2
 67
     7
 79
     3
170
     0
171
     0
290
     0
174
     0
 93
        1
 44
0.0
173
     0
291
     0
 45
0.0
1001
ACAD
1000
AcDbSavedByObjectVersion
1070
     0
  0
VISUALSTYLE
  5
261
102
{ACAD_XDICTIONARY
360
2E4
102
}
102
{ACAD_REACTORS
330
24F
102
}
330
24F
100
AcDbVisualStyle
  2
Sketchy
 70
    24
 71
     1
 72
     2
 73
     2
 90
        0
 40
-0.6
 41
-30.0
 62
     5
 63
     7
 74
     2
 91
        2
 64
     7
 65
     7
 75
     1
175
     1
 42
40.0
 92
       11
 66
     7
 43
1.0
 76
     1
 77
     6
 78
     2
 67
     7
 79
     6
170
     0
171
     0
290
     0
174
     0
 93
        1
 44
0.0
173
     0
291
     0
 45
0.0
1001
ACAD
1000
AcDbSavedByObjectVersion
1070
     0
  0
VISUALSTYLE
  5
25C
102
{ACAD_XDICTIONARY
360
2DA
102
}
102
{ACAD_REACTORS
330
24F
102
}
330
24F
100
AcDbVisualStyle
  2
Thicken
 70
    13
 71
     2
 72
     2
 73
     0
 90
        0
 40
-0.6
 41
-30.0
 62
     5
 63
     7
 74
     1
 91
        4
 64
     7
 65
   257
 75
     1
175
     1
 42
1.0
 92
       12
 66
     7
 43
1.0
 76
     1
 77
     6
 78
     2
 67
     7
 79
     5
170
     0
171
     0
290
     0
174
     0
 93
        1
 44
0.0
173
     0
291
     1
 45
0.0
1001
ACAD
1000
AcDbSavedByObjectVersion
1070
     0
  0
VISUALSTYLE
  5
256
102
{ACAD_XDICTIONARY
360
2CE
102
}
102
{ACAD_REACTORS
330
24F
102
}
330
24F
100
AcDbVisualStyle
  2
Wireframe
 70
     5
 71
     0
 72
     2
 73
     0
 90
        0
 40
-0.6
 41
-30.0
 62
     5
 63
     7
 74
     1
 91
        4
 64
     7
 65
   257
 75
     1
175
     1
 42
1.0
 92
        0
 66
   257
 43
1.0
 76
     1
 77
     6
 78
     2
 67
     7
 79
     3
170
     0
171
     0
290
     0
174
     0
 93
        1
 44
0.0
173
     0
291
     0
 45
0.0
1001
ACAD
1000
AcDbSavedByObjectVersion
1070
     0
  0
VISUALSTYLE
  5
262
102
{ACAD_XDICTIONARY
360
2E6
102
}
102
{ACAD_REACTORS
330
24F
102
}
330
24F
100
AcDbVisualStyle
  2
X-Ray
 70
    25
 71
     2
 72
     2
 73
     1
 90
        1
 40
0.5
 41
-30.0
 62
     5
 63
     7
 74
     1
 91
        0
 64
     7
 65
   257
 75
     1
175
     1
 42
1.0
 92
        8
 66
     7
 43
1.0
 76
     1
 77
     6
 78
     2
 67
     7
 79
     3
170
     0
171
     0
290
     0
174
     0
 93
       13
 44
0.0
173
     0
291
     0
 45
0.0
1001
ACAD
1000
AcDbSavedByObjectVersion
1070
     0
  0
DICTIONARYVAR
  5
2B6
102
{ACAD_REACTORS
330
2B3
102
}
330
2B3
100
DictionaryVariables
280
     0
  1
1:1
  0
DICTIONARYVAR
  5
2B5
102
{ACAD_REACTORS
330
2B3
102
}
330
2B3
100
DictionaryVariables
280
     0
  1
STANDARD
  0
DICTIONARYVAR
  5
2B4
102
{ACAD_REACTORS
330
2B3
102
}
330
2B3
100
DictionaryVariables
280
     0
  1
STANDARD
  0
DICTIONARYVAR
  5
2B9
102
{ACAD_REACTORS
330
2B3
102
}
330
2B3
100
DictionaryVariables
280
     0
  1
1
  0
DICTIONARYVAR
  5
2B8
102
{ACAD_REACTORS
330
2B3
102
}
330
2B3
100
DictionaryVariables
280
     0
  1
0
  0
DICTIONARYVAR
  5
2B7
102
{ACAD_REACTORS
330
2B3
102
}
330
2B3
100
DictionaryVariables
280
     0
  1
127
  0
DICTIONARYVAR
  5
2BA
102
{ACAD_REACTORS
330
2B3
102
}
330
2B3
100
DictionaryVariables
280
     0
  1
2
  0
DICTIONARY
  5
2F6
330
294
100
AcDbDictionary
280
     1
281
     1
  3
ACAD_XREC_ROUNDTRIP
360
2F7
  0
DICTIONARY
  5
2F4
330
290
100
AcDbDictionary
280
     1
281
     1
  3
ACAD_XREC_ROUNDTRIP
360
2F5
  0
DICTIONARY
  5
240
330
23F
100
AcDbDictionary
280
     1
281
     1
  3
ACAD_XREC_ROUNDTRIP
360
2C0
  3
BUMPTILE
360
242
  3
DIFFUSETILE
360
241
  3
OPACITYTILE
360
245
  3
REFLECTIONTILE
360
244
  3
REFRACTIONTILE
360
246
  3
SPECULARTILE
360
243
  0
DICTIONARY
  5
238
330
237
100
AcDbDictionary
280
     1
281
     1
  3
ACAD_XREC_ROUNDTRIP
360
2BF
  3
BUMPTILE
360
23A
  3
DIFFUSETILE
360
239
  3
OPACITYTILE
360
23D
  3
REFLECTIONTILE
360
23C
  3
REFRACTIONTILE
360
23E
  3
SPECULARTILE
360
23B
  0
DICTIONARY
  5
248
330
247
100
AcDbDictionary
280
     1
281
     1
  3
ACAD_XREC_ROUNDTRIP
360
2C1
  3
BUMPTILE
360
24A
  3
DIFFUSETILE
360
249
  3
OPACITYTILE
360
24D
  3
REFLECTIONTILE
360
24C
  3
REFRACTIONTILE
360
24E
  3
SPECULARTILE
360
24B
  0
DICTIONARY
  5
2BB
330
28A
100
AcDbDictionary
280
     1
281
     1
  3
ACAD_ROUNDTRIP_2008_TABLESTYLE_CELLSTYLEMAP
360
2BC
  3
ACAD_XREC_ROUNDTRIP
360
2F2
  0
DICTIONARY
  5
2CC
330
255
100
AcDbDictionary
280
     1
281
     1
  3
ACAD_XREC_ROUNDTRIP
360
2CD
  0
DICTIONARY
  5
2CA
330
254
100
AcDbDictionary
280
     1
281
     1
  3
ACAD_XREC_ROUNDTRIP
360
2CB
  0
DICTIONARY
  5
2D8
330
25B
100
AcDbDictionary
280
     1
281
     1
  3
ACAD_XREC_ROUNDTRIP
360
2D9
  0
DICTIONARY
  5
2E0
330
25F
100
AcDbDictionary
280
     1
281
     1
  3
ACAD_XREC_ROUNDTRIP
360
2E1
  0
DICTIONARY
  5
2D2
330
258
100
AcDbDictionary
280
     1
281
     1
  3
ACAD_XREC_ROUNDTRIP
360
2D3
  0
DICTIONARY
  5
2D6
330
25A
100
AcDbDictionary
280
     1
281
     1
  3
ACAD_XREC_ROUNDTRIP
360
2D7
  0
DICTIONARY
  5
2F0
330
267
100
AcDbDictionary
280
     1
281
     1
  3
ACAD_XREC_ROUNDTRIP
360
2F1
  0
DICTIONARY
  5
2DE
330
25E
100
AcDbDictionary
280
     1
281
     1
  3
ACAD_XREC_ROUNDTRIP
360
2DF
  0
DICTIONARY
  5
2C2
330
250
100
AcDbDictionary
280
     1
281
     1
  3
ACAD_XREC_ROUNDTRIP
360
2C3
  0
DICTIONARY
  5
2C4
330
251
100
AcDbDictionary
280
     1
281
     1
  3
ACAD_XREC_ROUNDTRIP
360
2C5
  0
DICTIONARY
  5
2C6
330
252
100
AcDbDictionary
280
     1
281
     1
  3
ACAD_XREC_ROUNDTRIP
360
2C7
  0
DICTIONARY
  5
2C8
330
253
100
AcDbDictionary
280
     1
281
     1
  3
ACAD_XREC_ROUNDTRIP
360
2C9
  0
DICTIONARY
  5
2D0
330
257
100
AcDbDictionary
280
     1
281
     1
  3
ACAD_XREC_ROUNDTRIP
360
2D1
  0
DICTIONARY
  5
2EC
330
265
100
AcDbDictionary
280
     1
281
     1
  3
ACAD_XREC_ROUNDTRIP
360
2ED
  0
DICTIONARY
  5
2DC
330
25D
100
AcDbDictionary
280
     1
281
     1
  3
ACAD_XREC_ROUNDTRIP
360
2DD
  0
DICTIONARY
  5
2EE
330
266
100
AcDbDictionary
280
     1
281
     1
  3
ACAD_XREC_ROUNDTRIP
360
2EF
  0
DICTIONARY
  5
2D4
330
259
100
AcDbDictionary
280
     1
281
     1
  3
ACAD_XREC_ROUNDTRIP
360
2D5
  0
DICTIONARY
  5
2EA
330
264
100
AcDbDictionary
280
     1
281
     1
  3
ACAD_XREC_ROUNDTRIP
360
2EB
  0
DICTIONARY
  5
2E8
330
263
100
AcDbDictionary
280
     1
281
     1
  3
ACAD_XREC_ROUNDTRIP
360
2E9
  0
DICTIONARY
  5
2E2
330
260
100
AcDbDictionary
280
     1
281
     1
  3
ACAD_XREC_ROUNDTRIP
360
2E3
  0
DICTIONARY
  5
2E4
330
261
100
AcDbDictionary
280
     1
281
     1
  3
ACAD_XREC_ROUNDTRIP
360
2E5
  0
DICTIONARY
  5
2DA
330
25C
100
AcDbDictionary
280
     1
281
     1
  3
ACAD_XREC_ROUNDTRIP
360
2DB
  0
DICTIONARY
  5
2CE
330
256
100
AcDbDictionary
280
     1
281
     1
  3
ACAD_XREC_ROUNDTRIP
360
2CF
  0
DICTIONARY
  5
2E6
330
262
100
AcDbDictionary
280
     1
281
     1
  3
ACAD_XREC_ROUNDTRIP
360
2E7
  0
XRECORD
  5
2F7
102
{ACAD_REACTORS
330
2F6
102
}
330
2F6
100
AcDbXrecord
280
     1
102
SHADEPLOT
 70
     0
102
SHADEPLOTRESLEVEL
 70
     2
102
SHADEPLOTCUSTOMDPI
 70
   300
  0
XRECORD
  5
2F5
102
{ACAD_REACTORS
330
2F4
102
}
330
2F4
100
AcDbXrecord
280
     1
102
SHADEPLOT
 70
     0
102
SHADEPLOTRESLEVEL
 70
     2
102
SHADEPLOTCUSTOMDPI
 70
   300
  0
XRECORD
  5
2C0
102
{ACAD_REACTORS
330
240
102
}
330
240
100
AcDbXrecord
280
     1
102
MATERIAL
148
0.0
149
0.0
149
0.0
 93
        0
 94
      127
282
     0
 72
     0
 77
     0
171
     0
175
     0
179
     0
273
     0
  0
XRECORD
  5
242
102
{ACAD_REACTORS
330
240
102
}
330
240
100
AcDbXrecord
280
     1
270
     1
271
     1
  0
XRECORD
  5
241
102
{ACAD_REACTORS
330
240
102
}
330
240
100
AcDbXrecord
280
     1
270
     1
271
     1
  0
XRECORD
  5
245
102
{ACAD_REACTORS
330
240
102
}
330
240
100
AcDbXrecord
280
     1
270
     1
271
     1
  0
XRECORD
  5
244
102
{ACAD_REACTORS
330
240
102
}
330
240
100
AcDbXrecord
280
     1
270
     1
271
     1
  0
XRECORD
  5
246
102
{ACAD_REACTORS
330
240
102
}
330
240
100
AcDbXrecord
280
     1
270
     1
271
     1
  0
XRECORD
  5
243
102
{ACAD_REACTORS
330
240
102
}
330
240
100
AcDbXrecord
280
     1
270
     1
271
     1
  0
XRECORD
  5
2BF
102
{ACAD_REACTORS
330
238
102
}
330
238
100
AcDbXrecord
280
     1
102
MATERIAL
148
0.0
149
0.0
149
0.0
 93
        0
 94
      127
282
     0
 72
     0
 77
     0
171
     0
175
     0
179
     0
273
     0
  0
XRECORD
  5
23A
102
{ACAD_REACTORS
330
238
102
}
330
238
100
AcDbXrecord
280
     1
270
     1
271
     1
  0
XRECORD
  5
239
102
{ACAD_REACTORS
330
238
102
}
330
238
100
AcDbXrecord
280
     1
270
     1
271
     1
  0
XRECORD
  5
23D
102
{ACAD_REACTORS
330
238
102
}
330
238
100
AcDbXrecord
280
     1
270
     1
271
     1
  0
XRECORD
  5
23C
102
{ACAD_REACTORS
330
238
102
}
330
238
100
AcDbXrecord
280
     1
270
     1
271
     1
  0
XRECORD
  5
23E
102
{ACAD_REACTORS
330
238
102
}
330
238
100
AcDbXrecord
280
     1
270
     1
271
     1
  0
XRECORD
  5
23B
102
{ACAD_REACTORS
330
238
102
}
330
238
100
AcDbXrecord
280
     1
270
     1
271
     1
  0
XRECORD
  5
2C1
102
{ACAD_REACTORS
330
248
102
}
330
248
100
AcDbXrecord
280
     1
102
MATERIAL
148
0.0
149
0.0
149
0.0
 93
        0
 94
      127
282
     0
 72
     0
 77
     0
171
     0
175
     0
179
     0
273
     0
  0
XRECORD
  5
24A
102
{ACAD_REACTORS
330
248
102
}
330
248
100
AcDbXrecord
280
     1
270
     1
271
     1
  0
XRECORD
  5
249
102
{ACAD_REACTORS
330
248
102
}
330
248
100
AcDbXrecord
280
     1
270
     1
271
     1
  0
XRECORD
  5
24D
102
{ACAD_REACTORS
330
248
102
}
330
248
100
AcDbXrecord
280
     1
270
     1
271
     1
  0
XRECORD
  5
24C
102
{ACAD_REACTORS
330
248
102
}
330
248
100
AcDbXrecord
280
     1
270
     1
271
     1
  0
XRECORD
  5
24E
102
{ACAD_REACTORS
330
248
102
}
330
248
100
AcDbXrecord
280
     1
270
     1
271
     1
  0
XRECORD
  5
24B
102
{ACAD_REACTORS
330
248
102
}
330
248
100
AcDbXrecord
280
     1
270
     1
271
     1
  0
CELLSTYLEMAP
  5
2BC
102
{ACAD_REACTORS
330
2BB
102
}
330
2BB
100
AcDbCellStyleMap
 90
        3
300
CELLSTYLE
  1
TABLEFORMAT_BEGIN
 90
        5
170
     1
 91
        0
 92
    32768
 62
   257
 93
        1
300
CONTENTFORMAT
  1
CONTENTFORMAT_BEGIN
 90
        0
 91
        0
 92
      512
 93
        0
300

 40
0.0
140
1.0
 94
        5
 62
     0
340
27B
144
0.25
309
CONTENTFORMAT_END
171
     0
 94
        0
309
TABLEFORMAT_END
  1
CELLSTYLE_BEGIN
 90
        1
 91
        1
300
_TITLE
309
CELLSTYLE_END
300
CELLSTYLE
  1
TABLEFORMAT_BEGIN
 90
        5
170
     1
 91
        0
 92
        0
 62
   257
 93
        1
300
CONTENTFORMAT
  1
CONTENTFORMAT_BEGIN
 90
        0
 91
        0
 92
      512
 93
        0
300

 40
0.0
140
1.0
 94
        5
 62
     0
340
27B
144
0.18
309
CONTENTFORMAT_END
171
     0
 94
        0
309
TABLEFORMAT_END
  1
CELLSTYLE_BEGIN
 90
        2
 91
        1
300
_HEADER
309
CELLSTYLE_END
300
CELLSTYLE
  1
TABLEFORMAT_BEGIN
 90
        5
170
     1
 91
        0
 92
        0
 62
   257
 93
        1
300
CONTENTFORMAT
  1
CONTENTFORMAT_BEGIN
 90
        0
 91
        0
 92
      512
 93
        0
300

 40
0.0
140
1.0
 94
        2
 62
     0
340
27B
144
0.18
309
CONTENTFORMAT_END
171
     0
 94
        0
309
TABLEFORMAT_END
  1
CELLSTYLE_BEGIN
 90
        3
 91
        2
300
_DATA
309
CELLSTYLE_END
  0
XRECORD
  5
2F2
102
{ACAD_REACTORS
330
2BB
102
}
330
2BB
100
AcDbXrecord
280
     1
102
ACAD_ROUNDTRIP_PRE2007_TABLESTYLE
 90
      512
 91
        0
  1

 92
      512
 93
        0
  2

 94
      512
 95
        0
  3

  0
XRECORD
  5
2CD
102
{ACAD_REACTORS
330
2CC
102
}
330
2CC
100
AcDbXrecord
280
     1
102
RTVSPropertyOp0
 70
     1
102
RTVSPropertyOp1
 70
     1
102
RTVSPropertyOp2
 70
     1
102
RTVSPropertyOp3
 70
     1
102
RTVSPropertyOp4
 70
     1
102
RTVSPropertyOp5
 70
     1
102
RTVSPropertyOp6
 70
     1
102
RTVSPropertyOp7
 70
     1
102
RTVSPropertyOp8
 70
     1
102
RTVSPropertyOp9
 70
     1
102
RTVSPropertyOp10
 70
     1
102
RTVSPropertyOp11
 70
     1
102
RTVSPropertyOp12
 70
     1
102
RTVSPropertyOp13
 70
     1
102
RTVSPropertyOp14
 70
     1
102
RTVSPropertyOp15
 70
     1
102
RTVSPropertyOp16
 70
     1
102
RTVSPropertyOp17
 70
     1
102
RTVSPropertyOp18
 70
     1
102
RTVSPropertyOp19
 70
     1
102
RTVSPropertyOp20
 70
     1
102
RTVSPropertyOp21
 70
     1
102
RTVSPropertyOp22
 70
     1
102
RTVSPropertyOp23
 70
     1
102
RTVSPropertyOp24
 70
     1
102
RTVSPropertyOp25
 70
     1
102
RTVSPropertyOp26
 70
     1
102
RTVSPropertyOp27
 70
     1
102
RTVSPropertyOp28
 70
     1
102
RTVSPropertyOp29
 70
     1
102
RTVSPropertyOp30
 70
     1
102
RTVSPropertyOp31
 70
     1
102
RTVSPropertyOp32
 70
     1
  0
XRECORD
  5
2CB
102
{ACAD_REACTORS
330
2CA
102
}
330
2CA
100
AcDbXrecord
280
     1
102
RTVSPropertyOp0
 70
     1
102
RTVSPropertyOp1
 70
     1
102
RTVSPropertyOp2
 70
     1
102
RTVSPropertyOp3
 70
     1
102
RTVSPropertyOp4
 70
     1
102
RTVSPropertyOp5
 70
     1
102
RTVSPropertyOp6
 70
     1
102
RTVSPropertyOp7
 70
     1
102
RTVSPropertyOp8
 70
     1
102
RTVSPropertyOp9
 70
     1
102
RTVSPropertyOp10
 70
     1
102
RTVSPropertyOp11
 70
     1
102
RTVSPropertyOp12
 70
     1
102
RTVSPropertyOp13
 70
     1
102
RTVSPropertyOp14
 70
     1
102
RTVSPropertyOp15
 70
     1
102
RTVSPropertyOp16
 70
     1
102
RTVSPropertyOp17
 70
     1
102
RTVSPropertyOp18
 70
     1
102
RTVSPropertyOp19
 70
     1
102
RTVSPropertyOp20
 70
     1
102
RTVSPropertyOp21
 70
     1
102
RTVSPropertyOp22
 70
     1
102
RTVSPropertyOp23
 70
     1
102
RTVSPropertyOp24
 70
     1
102
RTVSPropertyOp25
 70
     1
102
RTVSPropertyOp26
 70
     1
102
RTVSPropertyOp27
 70
     1
102
RTVSPropertyOp28
 70
     1
102
RTVSPropertyOp29
 70
     1
102
RTVSPropertyOp30
 70
     1
102
RTVSPropertyOp31
 70
     1
102
RTVSPropertyOp32
 70
     1
  0
XRECORD
  5
2D9
102
{ACAD_REACTORS
330
2D8
102
}
330
2D8
100
AcDbXrecord
280
     1
102
RTVSPropertyOp0
 70
     1
102
RTVSPropertyOp1
 70
     1
102
RTVSPropertyOp2
 70
     1
102
RTVSPropertyOp3
 70
     1
102
RTVSPropertyOp4
 70
     1
102
RTVSPropertyOp5
 70
     1
102
RTVSPropertyOp6
 70
     1
102
RTVSPropertyOp7
 70
     1
102
RTVSPropertyOp8
 70
     1
102
RTVSPropertyOp9
 70
     1
102
RTVSPropertyOp10
 70
     1
102
RTVSPropertyOp11
 70
     1
102
RTVSPropertyOp12
 70
     1
102
RTVSPropertyOp13
 70
     1
102
RTVSPropertyOp14
 70
     1
102
RTVSPropertyOp15
 70
     1
102
RTVSPropertyOp16
 70
     1
102
RTVSPropertyOp17
 70
     1
102
RTVSPropertyOp18
 70
     1
102
RTVSPropertyOp19
 70
     1
102
RTVSPropertyOp20
 70
     1
102
RTVSPropertyOp21
 70
     1
102
RTVSPropertyOp22
 70
     1
102
RTVSPropertyOp23
 70
     1
102
RTVSPropertyOp24
 70
     1
102
RTVSPropertyOp25
 70
     1
102
RTVSPropertyOp26
 70
     1
102
RTVSPropertyOp27
 70
     1
102
RTVSPropertyOp28
 70
     1
102
RTVSPropertyOp29
 70
     1
102
RTVSPropertyOp30
 70
     1
102
RTVSPropertyOp31
 70
     1
102
RTVSPropertyOp32
 70
     1
  0
XRECORD
  5
2E1
102
{ACAD_REACTORS
330
2E0
102
}
330
2E0
100
AcDbXrecord
280
     1
102
RTVSPropertyOp0
 70
     1
102
RTVSPropertyOp1
 70
     1
102
RTVSPropertyOp2
 70
     1
102
RTVSPropertyOp3
 70
     1
102
RTVSPropertyOp4
 70
     1
102
RTVSPropertyOp5
 70
     1
102
RTVSPropertyOp6
 70
     1
102
RTVSPropertyOp7
 70
     1
102
RTVSPropertyOp8
 70
     1
102
RTVSPropertyOp9
 70
     1
102
RTVSPropertyOp10
 70
     1
102
RTVSPropertyOp11
 70
     1
102
RTVSPropertyOp12
 70
     1
102
RTVSPropertyOp13
 70
     1
102
RTVSPropertyOp14
 70
     1
102
RTVSPropertyOp15
 70
     1
102
RTVSPropertyOp16
 70
     1
102
RTVSPropertyOp17
 70
     1
102
RTVSPropertyOp18
 70
     1
102
RTVSPropertyOp19
 70
     1
102
RTVSPropertyOp20
 70
     1
102
RTVSPropertyOp21
 70
     1
102
RTVSPropertyOp22
 70
     1
102
RTVSPropertyOp23
 70
     1
102
RTVSPropertyOp24
 70
     1
102
RTVSPropertyOp25
 70
     1
102
RTVSPropertyOp26
 70
     1
102
RTVSPropertyOp27
 70
     1
102
RTVSPropertyOp28
 70
     1
102
RTVSPropertyOp29
 70
     1
102
RTVSPropertyOp30
 70
     1
102
RTVSPropertyOp31
 70
     1
102
RTVSPropertyOp32
 70
     1
  0
XRECORD
  5
2D3
102
{ACAD_REACTORS
330
2D2
102
}
330
2D2
100
AcDbXrecord
280
     1
102
RTVSPropertyOp0
 70
     1
102
RTVSPropertyOp1
 70
     1
102
RTVSPropertyOp2
 70
     1
102
RTVSPropertyOp3
 70
     1
102
RTVSPropertyOp4
 70
     1
102
RTVSPropertyOp5
 70
     1
102
RTVSPropertyOp6
 70
     1
102
RTVSPropertyOp7
 70
     1
102
RTVSPropertyOp8
 70
     1
102
RTVSPropertyOp9
 70
     1
102
RTVSPropertyOp10
 70
     1
102
RTVSPropertyOp11
 70
     1
102
RTVSPropertyOp12
 70
     1
102
RTVSPropertyOp13
 70
     1
102
RTVSPropertyOp14
 70
     1
102
RTVSPropertyOp15
 70
     1
102
RTVSPropertyOp16
 70
     1
102
RTVSPropertyOp17
 70
     1
102
RTVSPropertyOp18
 70
     1
102
RTVSPropertyOp19
 70
     1
102
RTVSPropertyOp20
 70
     1
102
RTVSPropertyOp21
 70
     1
102
RTVSPropertyOp22
 70
     1
102
RTVSPropertyOp23
 70
     1
102
RTVSPropertyOp24
 70
     1
102
RTVSPropertyOp25
 70
     1
102
RTVSPropertyOp26
 70
     1
102
RTVSPropertyOp27
 70
     1
102
RTVSPropertyOp28
 70
     1
102
RTVSPropertyOp29
 70
     1
102
RTVSPropertyOp30
 70
     1
102
RTVSPropertyOp31
 70
     1
102
RTVSPropertyOp32
 70
     1
  0
XRECORD
  5
2D7
102
{ACAD_REACTORS
330
2D6
102
}
330
2D6
100
AcDbXrecord
280
     1
102
RTVSPropertyOp0
 70
     1
102
RTVSPropertyOp1
 70
     1
102
RTVSPropertyOp2
 70
     1
102
RTVSPropertyOp3
 70
     1
102
RTVSPropertyOp4
 70
     1
102
RTVSPropertyOp5
 70
     1
102
RTVSPropertyOp6
 70
     1
102
RTVSPropertyOp7
 70
     1
102
RTVSPropertyOp8
 70
     1
102
RTVSPropertyOp9
 70
     1
102
RTVSPropertyOp10
 70
     1
102
RTVSPropertyOp11
 70
     1
102
RTVSPropertyOp12
 70
     1
102
RTVSPropertyOp13
 70
     1
102
RTVSPropertyOp14
 70
     1
102
RTVSPropertyOp15
 70
     1
102
RTVSPropertyOp16
 70
     1
102
RTVSPropertyOp17
 70
     1
102
RTVSPropertyOp18
 70
     1
102
RTVSPropertyOp19
 70
     1
102
RTVSPropertyOp20
 70
     1
102
RTVSPropertyOp21
 70
     1
102
RTVSPropertyOp22
 70
     1
102
RTVSPropertyOp23
 70
     1
102
RTVSPropertyOp24
 70
     1
102
RTVSPropertyOp25
 70
     1
102
RTVSPropertyOp26
 70
     1
102
RTVSPropertyOp27
 70
     1
102
RTVSPropertyOp28
 70
     1
102
RTVSPropertyOp29
 70
     1
102
RTVSPropertyOp30
 70
     1
102
RTVSPropertyOp31
 70
     1
102
RTVSPropertyOp32
 70
     1
  0
XRECORD
  5
2F1
102
{ACAD_REACTORS
330
2F0
102
}
330
2F0
100
AcDbXrecord
280
     1
102
RTVSPropertyOp0
 70
     0
102
RTVSPropertyOp1
 70
     0
102
RTVSPropertyOp2
 70
     0
102
RTVSPropertyOp3
 70
     0
102
RTVSPropertyOp4
 70
     0
102
RTVSPropertyOp5
 70
     0
102
RTVSPropertyOp6
 70
     0
102
RTVSPropertyOp7
 70
     0
102
RTVSPropertyOp8
 70
     0
102
RTVSPropertyOp9
 70
     0
102
RTVSPropertyOp10
 70
     0
102
RTVSPropertyOp11
 70
     0
102
RTVSPropertyOp12
 70
     0
102
RTVSPropertyOp13
 70
     0
102
RTVSPropertyOp14
 70
     2
102
RTVSPropertyOp15
 70
     0
102
RTVSPropertyOp16
 70
     0
102
RTVSPropertyOp17
 70
     0
102
RTVSPropertyOp18
 70
     0
102
RTVSPropertyOp19
 70
     0
102
RTVSPropertyOp20
 70
     0
102
RTVSPropertyOp21
 70
     0
102
RTVSPropertyOp22
 70
     0
102
RTVSPropertyOp23
 70
     0
102
RTVSPropertyOp24
 70
     0
102
RTVSPropertyOp25
 70
     0
102
RTVSPropertyOp26
 70
     0
102
RTVSPropertyOp27
 70
     0
102
RTVSPropertyOp28
 70
     0
102
RTVSPropertyOp29
 70
     0
102
RTVSPropertyOp30
 70
     0
102
RTVSPropertyOp31
 70
     0
102
RTVSPropertyOp32
 70
     0
  0
XRECORD
  5
2DF
102
{ACAD_REACTORS
330
2DE
102
}
330
2DE
100
AcDbXrecord
280
     1
102
RTVSPropertyOp0
 70
     1
102
RTVSPropertyOp1
 70
     1
102
RTVSPropertyOp2
 70
     1
102
RTVSPropertyOp3
 70
     1
102
RTVSPropertyOp4
 70
     1
102
RTVSPropertyOp5
 70
     1
102
RTVSPropertyOp6
 70
     1
102
RTVSPropertyOp7
 70
     1
102
RTVSPropertyOp8
 70
     1
102
RTVSPropertyOp9
 70
     1
102
RTVSPropertyOp10
 70
     1
102
RTVSPropertyOp11
 70
     1
102
RTVSPropertyOp12
 70
     1
102
RTVSPropertyOp13
 70
     1
102
RTVSPropertyOp14
 70
     1
102
RTVSPropertyOp15
 70
     1
102
RTVSPropertyOp16
 70
     1
102
RTVSPropertyOp17
 70
     1
102
RTVSPropertyOp18
 70
     1
102
RTVSPropertyOp19
 70
     1
102
RTVSPropertyOp20
 70
     1
102
RTVSPropertyOp21
 70
     1
102
RTVSPropertyOp22
 70
     1
102
RTVSPropertyOp23
 70
     1
102
RTVSPropertyOp24
 70
     1
102
RTVSPropertyOp25
 70
     1
102
RTVSPropertyOp26
 70
     1
102
RTVSPropertyOp27
 70
     1
102
RTVSPropertyOp28
 70
     1
102
RTVSPropertyOp29
 70
     1
102
RTVSPropertyOp30
 70
     1
102
RTVSPropertyOp31
 70
     1
102
RTVSPropertyOp32
 70
     1
  0
XRECORD
  5
2C3
102
{ACAD_REACTORS
330
2C2
102
}
330
2C2
100
AcDbXrecord
280
     1
102
RTVSPropertyOp0
 70
     1
102
RTVSPropertyOp1
 70
     1
102
RTVSPropertyOp2
 70
     1
102
RTVSPropertyOp3
 70
     1
102
RTVSPropertyOp4
 70
     1
102
RTVSPropertyOp5
 70
     1
102
RTVSPropertyOp6
 70
     1
102
RTVSPropertyOp7
 70
     1
102
RTVSPropertyOp8
 70
     1
102
RTVSPropertyOp9
 70
     1
102
RTVSPropertyOp10
 70
     1
102
RTVSPropertyOp11
 70
     1
102
RTVSPropertyOp12
 70
     1
102
RTVSPropertyOp13
 70
     1
102
RTVSPropertyOp14
 70
     1
102
RTVSPropertyOp15
 70
     1
102
RTVSPropertyOp16
 70
     1
102
RTVSPropertyOp17
 70
     1
102
RTVSPropertyOp18
 70
     1
102
RTVSPropertyOp19
 70
     1
102
RTVSPropertyOp20
 70
     1
102
RTVSPropertyOp21
 70
     1
102
RTVSPropertyOp22
 70
     1
102
RTVSPropertyOp23
 70
     1
102
RTVSPropertyOp24
 70
     1
102
RTVSPropertyOp25
 70
     1
102
RTVSPropertyOp26
 70
     1
102
RTVSPropertyOp27
 70
     1
102
RTVSPropertyOp28
 70
     1
102
RTVSPropertyOp29
 70
     1
102
RTVSPropertyOp30
 70
     1
102
RTVSPropertyOp31
 70
     1
102
RTVSPropertyOp32
 70
     1
  0
XRECORD
  5
2C5
102
{ACAD_REACTORS
330
2C4
102
}
330
2C4
100
AcDbXrecord
280
     1
102
RTVSPropertyOp0
 70
     1
102
RTVSPropertyOp1
 70
     1
102
RTVSPropertyOp2
 70
     1
102
RTVSPropertyOp3
 70
     1
102
RTVSPropertyOp4
 70
     1
102
RTVSPropertyOp5
 70
     1
102
RTVSPropertyOp6
 70
     1
102
RTVSPropertyOp7
 70
     1
102
RTVSPropertyOp8
 70
     1
102
RTVSPropertyOp9
 70
     1
102
RTVSPropertyOp10
 70
     1
102
RTVSPropertyOp11
 70
     1
102
RTVSPropertyOp12
 70
     1
102
RTVSPropertyOp13
 70
     1
102
RTVSPropertyOp14
 70
     1
102
RTVSPropertyOp15
 70
     1
102
RTVSPropertyOp16
 70
     1
102
RTVSPropertyOp17
 70
     1
102
RTVSPropertyOp18
 70
     1
102
RTVSPropertyOp19
 70
     1
102
RTVSPropertyOp20
 70
     1
102
RTVSPropertyOp21
 70
     1
102
RTVSPropertyOp22
 70
     1
102
RTVSPropertyOp23
 70
     1
102
RTVSPropertyOp24
 70
     1
102
RTVSPropertyOp25
 70
     1
102
RTVSPropertyOp26
 70
     1
102
RTVSPropertyOp27
 70
     1
102
RTVSPropertyOp28
 70
     1
102
RTVSPropertyOp29
 70
     1
102
RTVSPropertyOp30
 70
     1
102
RTVSPropertyOp31
 70
     1
102
RTVSPropertyOp32
 70
     1
  0
XRECORD
  5
2C7
102
{ACAD_REACTORS
330
2C6
102
}
330
2C6
100
AcDbXrecord
280
     1
102
RTVSPropertyOp0
 70
     1
102
RTVSPropertyOp1
 70
     1
102
RTVSPropertyOp2
 70
     1
102
RTVSPropertyOp3
 70
     1
102
RTVSPropertyOp4
 70
     1
102
RTVSPropertyOp5
 70
     1
102
RTVSPropertyOp6
 70
     1
102
RTVSPropertyOp7
 70
     1
102
RTVSPropertyOp8
 70
     1
102
RTVSPropertyOp9
 70
     1
102
RTVSPropertyOp10
 70
     1
102
RTVSPropertyOp11
 70
     1
102
RTVSPropertyOp12
 70
     1
102
RTVSPropertyOp13
 70
     1
102
RTVSPropertyOp14
 70
     1
102
RTVSPropertyOp15
 70
     1
102
RTVSPropertyOp16
 70
     1
102
RTVSPropertyOp17
 70
     1
102
RTVSPropertyOp18
 70
     1
102
RTVSPropertyOp19
 70
     1
102
RTVSPropertyOp20
 70
     1
102
RTVSPropertyOp21
 70
     1
102
RTVSPropertyOp22
 70
     1
102
RTVSPropertyOp23
 70
     1
102
RTVSPropertyOp24
 70
     1
102
RTVSPropertyOp25
 70
     1
102
RTVSPropertyOp26
 70
     1
102
RTVSPropertyOp27
 70
     1
102
RTVSPropertyOp28
 70
     1
102
RTVSPropertyOp29
 70
     1
102
RTVSPropertyOp30
 70
     1
102
RTVSPropertyOp31
 70
     1
102
RTVSPropertyOp32
 70
     1
  0
XRECORD
  5
2C9
102
{ACAD_REACTORS
330
2C8
102
}
330
2C8
100
AcDbXrecord
280
     1
102
RTVSPropertyOp0
 70
     1
102
RTVSPropertyOp1
 70
     1
102
RTVSPropertyOp2
 70
     1
102
RTVSPropertyOp3
 70
     1
102
RTVSPropertyOp4
 70
     1
102
RTVSPropertyOp5
 70
     1
102
RTVSPropertyOp6
 70
     1
102
RTVSPropertyOp7
 70
     1
102
RTVSPropertyOp8
 70
     1
102
RTVSPropertyOp9
 70
     1
102
RTVSPropertyOp10
 70
     1
102
RTVSPropertyOp11
 70
     1
102
RTVSPropertyOp12
 70
     1
102
RTVSPropertyOp13
 70
     1
102
RTVSPropertyOp14
 70
     1
102
RTVSPropertyOp15
 70
     1
102
RTVSPropertyOp16
 70
     1
102
RTVSPropertyOp17
 70
     1
102
RTVSPropertyOp18
 70
     1
102
RTVSPropertyOp19
 70
     1
102
RTVSPropertyOp20
 70
     1
102
RTVSPropertyOp21
 70
     1
102
RTVSPropertyOp22
 70
     1
102
RTVSPropertyOp23
 70
     1
102
RTVSPropertyOp24
 70
     1
102
RTVSPropertyOp25
 70
     1
102
RTVSPropertyOp26
 70
     1
102
RTVSPropertyOp27
 70
     1
102
RTVSPropertyOp28
 70
     1
102
RTVSPropertyOp29
 70
     1
102
RTVSPropertyOp30
 70
     1
102
RTVSPropertyOp31
 70
     1
102
RTVSPropertyOp32
 70
     1
  0
XRECORD
  5
2D1
102
{ACAD_REACTORS
330
2D0
102
}
330
2D0
100
AcDbXrecord
280
     1
102
RTVSPropertyOp0
 70
     1
102
RTVSPropertyOp1
 70
     1
102
RTVSPropertyOp2
 70
     1
102
RTVSPropertyOp3
 70
     1
102
RTVSPropertyOp4
 70
     1
102
RTVSPropertyOp5
 70
     1
102
RTVSPropertyOp6
 70
     1
102
RTVSPropertyOp7
 70
     1
102
RTVSPropertyOp8
 70
     1
102
RTVSPropertyOp9
 70
     1
102
RTVSPropertyOp10
 70
     1
102
RTVSPropertyOp11
 70
     1
102
RTVSPropertyOp12
 70
     1
102
RTVSPropertyOp13
 70
     1
102
RTVSPropertyOp14
 70
     1
102
RTVSPropertyOp15
 70
     1
102
RTVSPropertyOp16
 70
     1
102
RTVSPropertyOp17
 70
     1
102
RTVSPropertyOp18
 70
     1
102
RTVSPropertyOp19
 70
     1
102
RTVSPropertyOp20
 70
     1
102
RTVSPropertyOp21
 70
     1
102
RTVSPropertyOp22
 70
     1
102
RTVSPropertyOp23
 70
     1
102
RTVSPropertyOp24
 70
     1
102
RTVSPropertyOp25
 70
     1
102
RTVSPropertyOp26
 70
     1
102
RTVSPropertyOp27
 70
     1
102
RTVSPropertyOp28
 70
     1
102
RTVSPropertyOp29
 70
     1
102
RTVSPropertyOp30
 70
     1
102
RTVSPropertyOp31
 70
     1
102
RTVSPropertyOp32
 70
     1
  0
XRECORD
  5
2ED
102
{ACAD_REACTORS
330
2EC
102
}
330
2EC
100
AcDbXrecord
280
     1
102
RTVSPropertyOp0
 70
     0
102
RTVSPropertyOp1
 70
     0
102
RTVSPropertyOp2
 70
     0
102
RTVSPropertyOp3
 70
     0
102
RTVSPropertyOp4
 70
     0
102
RTVSPropertyOp5
 70
     0
102
RTVSPropertyOp6
 70
     0
102
RTVSPropertyOp7
 70
     0
102
RTVSPropertyOp8
 70
     0
102
RTVSPropertyOp9
 70
     0
102
RTVSPropertyOp10
 70
     0
102
RTVSPropertyOp11
 70
     0
102
RTVSPropertyOp12
 70
     0
102
RTVSPropertyOp13
 70
     0
102
RTVSPropertyOp14
 70
     2
102
RTVSPropertyOp15
 70
     0
102
RTVSPropertyOp16
 70
     0
102
RTVSPropertyOp17
 70
     0
102
RTVSPropertyOp18
 70
     0
102
RTVSPropertyOp19
 70
     0
102
RTVSPropertyOp20
 70
     0
102
RTVSPropertyOp21
 70
     0
102
RTVSPropertyOp22
 70
     0
102
RTVSPropertyOp23
 70
     0
102
RTVSPropertyOp24
 70
     0
102
RTVSPropertyOp25
 70
     0
102
RTVSPropertyOp26
 70
     0
102
RTVSPropertyOp27
 70
     0
102
RTVSPropertyOp28
 70
     0
102
RTVSPropertyOp29
 70
     0
102
RTVSPropertyOp30
 70
     0
102
RTVSPropertyOp31
 70
     0
102
RTVSPropertyOp32
 70
     0
  0
XRECORD
  5
2DD
102
{ACAD_REACTORS
330
2DC
102
}
330
2DC
100
AcDbXrecord
280
     1
102
RTVSPropertyOp0
 70
     1
102
RTVSPropertyOp1
 70
     1
102
RTVSPropertyOp2
 70
     1
102
RTVSPropertyOp3
 70
     1
102
RTVSPropertyOp4
 70
     1
102
RTVSPropertyOp5
 70
     1
102
RTVSPropertyOp6
 70
     1
102
RTVSPropertyOp7
 70
     1
102
RTVSPropertyOp8
 70
     1
102
RTVSPropertyOp9
 70
     1
102
RTVSPropertyOp10
 70
     1
102
RTVSPropertyOp11
 70
     1
102
RTVSPropertyOp12
 70
     1
102
RTVSPropertyOp13
 70
     1
102
RTVSPropertyOp14
 70
     1
102
RTVSPropertyOp15
 70
     1
102
RTVSPropertyOp16
 70
     1
102
RTVSPropertyOp17
 70
     1
102
RTVSPropertyOp18
 70
     1
102
RTVSPropertyOp19
 70
     1
102
RTVSPropertyOp20
 70
     1
102
RTVSPropertyOp21
 70
     1
102
RTVSPropertyOp22
 70
     1
102
RTVSPropertyOp23
 70
     1
102
RTVSPropertyOp24
 70
     1
102
RTVSPropertyOp25
 70
     1
102
RTVSPropertyOp26
 70
     1
102
RTVSPropertyOp27
 70
     1
102
RTVSPropertyOp28
 70
     1
102
RTVSPropertyOp29
 70
     1
102
RTVSPropertyOp30
 70
     1
102
RTVSPropertyOp31
 70
     1
102
RTVSPropertyOp32
 70
     1
  0
XRECORD
  5
2EF
102
{ACAD_REACTORS
330
2EE
102
}
330
2EE
100
AcDbXrecord
280
     1
102
RTVSPropertyOp0
 70
     0
102
RTVSPropertyOp1
 70
     0
102
RTVSPropertyOp2
 70
     0
102
RTVSPropertyOp3
 70
     0
102
RTVSPropertyOp4
 70
     0
102
RTVSPropertyOp5
 70
     0
102
RTVSPropertyOp6
 70
     0
102
RTVSPropertyOp7
 70
     0
102
RTVSPropertyOp8
 70
     0
102
RTVSPropertyOp9
 70
     0
102
RTVSPropertyOp10
 70
     0
102
RTVSPropertyOp11
 70
     0
102
RTVSPropertyOp12
 70
     0
102
RTVSPropertyOp13
 70
     0
102
RTVSPropertyOp14
 70
     2
102
RTVSPropertyOp15
 70
     0
102
RTVSPropertyOp16
 70
     0
102
RTVSPropertyOp17
 70
     0
102
RTVSPropertyOp18
 70
     0
102
RTVSPropertyOp19
 70
     0
102
RTVSPropertyOp20
 70
     0
102
RTVSPropertyOp21
 70
     0
102
RTVSPropertyOp22
 70
     0
102
RTVSPropertyOp23
 70
     0
102
RTVSPropertyOp24
 70
     0
102
RTVSPropertyOp25
 70
     0
102
RTVSPropertyOp26
 70
     0
102
RTVSPropertyOp27
 70
     0
102
RTVSPropertyOp28
 70
     0
102
RTVSPropertyOp29
 70
     0
102
RTVSPropertyOp30
 70
     0
102
RTVSPropertyOp31
 70
     0
102
RTVSPropertyOp32
 70
     0
  0
XRECORD
  5
2D5
102
{ACAD_REACTORS
330
2D4
102
}
330
2D4
100
AcDbXrecord
280
     1
102
RTVSPropertyOp0
 70
     1
102
RTVSPropertyOp1
 70
     1
102
RTVSPropertyOp2
 70
     1
102
RTVSPropertyOp3
 70
     1
102
RTVSPropertyOp4
 70
     1
102
RTVSPropertyOp5
 70
     1
102
RTVSPropertyOp6
 70
     1
102
RTVSPropertyOp7
 70
     1
102
RTVSPropertyOp8
 70
     1
102
RTVSPropertyOp9
 70
     1
102
RTVSPropertyOp10
 70
     1
102
RTVSPropertyOp11
 70
     1
102
RTVSPropertyOp12
 70
     1
102
RTVSPropertyOp13
 70
     1
102
RTVSPropertyOp14
 70
     1
102
RTVSPropertyOp15
 70
     1
102
RTVSPropertyOp16
 70
     1
102
RTVSPropertyOp17
 70
     1
102
RTVSPropertyOp18
 70
     1
102
RTVSPropertyOp19
 70
     1
102
RTVSPropertyOp20
 70
     1
102
RTVSPropertyOp21
 70
     1
102
RTVSPropertyOp22
 70
     1
102
RTVSPropertyOp23
 70
     1
102
RTVSPropertyOp24
 70
     1
102
RTVSPropertyOp25
 70
     1
102
RTVSPropertyOp26
 70
     1
102
RTVSPropertyOp27
 70
     1
102
RTVSPropertyOp28
 70
     1
102
RTVSPropertyOp29
 70
     1
102
RTVSPropertyOp30
 70
     1
102
RTVSPropertyOp31
 70
     1
102
RTVSPropertyOp32
 70
     1
  0
XRECORD
  5
2EB
102
{ACAD_REACTORS
330
2EA
102
}
330
2EA
100
AcDbXrecord
280
     1
102
RTVSPropertyOp0
 70
     1
102
RTVSPropertyOp1
 70
     1
102
RTVSPropertyOp2
 70
     1
102
RTVSPropertyOp3
 70
     1
102
RTVSPropertyOp4
 70
     1
102
RTVSPropertyOp5
 70
     1
102
RTVSPropertyOp6
 70
     1
102
RTVSPropertyOp7
 70
     1
102
RTVSPropertyOp8
 70
     1
102
RTVSPropertyOp9
 70
     1
102
RTVSPropertyOp10
 70
     1
102
RTVSPropertyOp11
 70
     1
102
RTVSPropertyOp12
 70
     1
102
RTVSPropertyOp13
 70
     1
102
RTVSPropertyOp14
 70
     1
102
RTVSPropertyOp15
 70
     1
102
RTVSPropertyOp16
 70
     1
102
RTVSPropertyOp17
 70
     1
102
RTVSPropertyOp18
 70
     1
102
RTVSPropertyOp19
 70
     1
102
RTVSPropertyOp20
 70
     1
102
RTVSPropertyOp21
 70
     1
102
RTVSPropertyOp22
 70
     1
102
RTVSPropertyOp23
 70
     1
102
RTVSPropertyOp24
 70
     1
102
RTVSPropertyOp25
 70
     1
102
RTVSPropertyOp26
 70
     1
102
RTVSPropertyOp27
 70
     1
102
RTVSPropertyOp28
 70
     1
102
RTVSPropertyOp29
 70
     1
102
RTVSPropertyOp30
 70
     1
102
RTVSPropertyOp31
 70
     1
102
RTVSPropertyOp32
 70
     1
  0
XRECORD
  5
2E9
102
{ACAD_REACTORS
330
2E8
102
}
330
2E8
100
AcDbXrecord
280
     1
102
RTVSPropertyOp0
 70
     1
102
RTVSPropertyOp1
 70
     1
102
RTVSPropertyOp2
 70
     1
102
RTVSPropertyOp3
 70
     1
102
RTVSPropertyOp4
 70
     1
102
RTVSPropertyOp5
 70
     1
102
RTVSPropertyOp6
 70
     1
102
RTVSPropertyOp7
 70
     1
102
RTVSPropertyOp8
 70
     1
102
RTVSPropertyOp9
 70
     1
102
RTVSPropertyOp10
 70
     1
102
RTVSPropertyOp11
 70
     1
102
RTVSPropertyOp12
 70
     1
102
RTVSPropertyOp13
 70
     1
102
RTVSPropertyOp14
 70
     1
102
RTVSPropertyOp15
 70
     1
102
RTVSPropertyOp16
 70
     1
102
RTVSPropertyOp17
 70
     1
102
RTVSPropertyOp18
 70
     1
102
RTVSPropertyOp19
 70
     1
102
RTVSPropertyOp20
 70
     1
102
RTVSPropertyOp21
 70
     1
102
RTVSPropertyOp22
 70
     1
102
RTVSPropertyOp23
 70
     1
102
RTVSPropertyOp24
 70
     1
102
RTVSPropertyOp25
 70
     1
102
RTVSPropertyOp26
 70
     1
102
RTVSPropertyOp27
 70
     1
102
RTVSPropertyOp28
 70
     1
102
RTVSPropertyOp29
 70
     1
102
RTVSPropertyOp30
 70
     1
102
RTVSPropertyOp31
 70
     1
102
RTVSPropertyOp32
 70
     1
  0
XRECORD
  5
2E3
102
{ACAD_REACTORS
330
2E2
102
}
330
2E2
100
AcDbXrecord
280
     1
102
RTVSPropertyOp0
 70
     1
102
RTVSPropertyOp1
 70
     1
102
RTVSPropertyOp2
 70
     1
102
RTVSPropertyOp3
 70
     1
102
RTVSPropertyOp4
 70
     1
102
RTVSPropertyOp5
 70
     1
102
RTVSPropertyOp6
 70
     1
102
RTVSPropertyOp7
 70
     1
102
RTVSPropertyOp8
 70
     1
102
RTVSPropertyOp9
 70
     1
102
RTVSPropertyOp10
 70
     1
102
RTVSPropertyOp11
 70
     1
102
RTVSPropertyOp12
 70
     1
102
RTVSPropertyOp13
 70
     1
102
RTVSPropertyOp14
 70
     1
102
RTVSPropertyOp15
 70
     1
102
RTVSPropertyOp16
 70
     1
102
RTVSPropertyOp17
 70
     1
102
RTVSPropertyOp18
 70
     1
102
RTVSPropertyOp19
 70
     1
102
RTVSPropertyOp20
 70
     1
102
RTVSPropertyOp21
 70
     1
102
RTVSPropertyOp22
 70
     1
102
RTVSPropertyOp23
 70
     1
102
RTVSPropertyOp24
 70
     1
102
RTVSPropertyOp25
 70
     1
102
RTVSPropertyOp26
 70
     1
102
RTVSPropertyOp27
 70
     1
102
RTVSPropertyOp28
 70
     1
102
RTVSPropertyOp29
 70
     1
102
RTVSPropertyOp30
 70
     1
102
RTVSPropertyOp31
 70
     1
102
RTVSPropertyOp32
 70
     1
  0
XRECORD
  5
2E5
102
{ACAD_REACTORS
330
2E4
102
}
330
2E4
100
AcDbXrecord
280
     1
102
RTVSPropertyOp0
 70
     1
102
RTVSPropertyOp1
 70
     1
102
RTVSPropertyOp2
 70
     1
102
RTVSPropertyOp3
 70
     1
102
RTVSPropertyOp4
 70
     1
102
RTVSPropertyOp5
 70
     1
102
RTVSPropertyOp6
 70
     1
102
RTVSPropertyOp7
 70
     1
102
RTVSPropertyOp8
 70
     1
102
RTVSPropertyOp9
 70
     1
102
RTVSPropertyOp10
 70
     1
102
RTVSPropertyOp11
 70
     1
102
RTVSPropertyOp12
 70
     1
102
RTVSPropertyOp13
 70
     1
102
RTVSPropertyOp14
 70
     1
102
RTVSPropertyOp15
 70
     1
102
RTVSPropertyOp16
 70
     1
102
RTVSPropertyOp17
 70
     1
102
RTVSPropertyOp18
 70
     1
102
RTVSPropertyOp19
 70
     1
102
RTVSPropertyOp20
 70
     1
102
RTVSPropertyOp21
 70
     1
102
RTVSPropertyOp22
 70
     1
102
RTVSPropertyOp23
 70
     1
102
RTVSPropertyOp24
 70
     1
102
RTVSPropertyOp25
 70
     1
102
RTVSPropertyOp26
 70
     1
102
RTVSPropertyOp27
 70
     1
102
RTVSPropertyOp28
 70
     1
102
RTVSPropertyOp29
 70
     1
102
RTVSPropertyOp30
 70
     1
102
RTVSPropertyOp31
 70
     1
102
RTVSPropertyOp32
 70
     1
  0
XRECORD
  5
2DB
102
{ACAD_REACTORS
330
2DA
102
}
330
2DA
100
AcDbXrecord
280
     1
102
RTVSPropertyOp0
 70
     1
102
RTVSPropertyOp1
 70
     1
102
RTVSPropertyOp2
 70
     1
102
RTVSPropertyOp3
 70
     1
102
RTVSPropertyOp4
 70
     1
102
RTVSPropertyOp5
 70
     1
102
RTVSPropertyOp6
 70
     1
102
RTVSPropertyOp7
 70
     1
102
RTVSPropertyOp8
 70
     1
102
RTVSPropertyOp9
 70
     1
102
RTVSPropertyOp10
 70
     1
102
RTVSPropertyOp11
 70
     1
102
RTVSPropertyOp12
 70
     1
102
RTVSPropertyOp13
 70
     1
102
RTVSPropertyOp14
 70
     1
102
RTVSPropertyOp15
 70
     1
102
RTVSPropertyOp16
 70
     1
102
RTVSPropertyOp17
 70
     1
102
RTVSPropertyOp18
 70
     1
102
RTVSPropertyOp19
 70
     1
102
RTVSPropertyOp20
 70
     1
102
RTVSPropertyOp21
 70
     1
102
RTVSPropertyOp22
 70
     1
102
RTVSPropertyOp23
 70
     1
102
RTVSPropertyOp24
 70
     1
102
RTVSPropertyOp25
 70
     1
102
RTVSPropertyOp26
 70
     1
102
RTVSPropertyOp27
 70
     1
102
RTVSPropertyOp28
 70
     1
102
RTVSPropertyOp29
 70
     1
102
RTVSPropertyOp30
 70
     1
102
RTVSPropertyOp31
 70
     1
102
RTVSPropertyOp32
 70
     1
  0
XRECORD
  5
2CF
102
{ACAD_REACTORS
330
2CE
102
}
330
2CE
100
AcDbXrecord
280
     1
102
RTVSPropertyOp0
 70
     1
102
RTVSPropertyOp1
 70
     1
102
RTVSPropertyOp2
 70
     1
102
RTVSPropertyOp3
 70
     1
102
RTVSPropertyOp4
 70
     1
102
RTVSPropertyOp5
 70
     1
102
RTVSPropertyOp6
 70
     1
102
RTVSPropertyOp7
 70
     1
102
RTVSPropertyOp8
 70
     1
102
RTVSPropertyOp9
 70
     1
102
RTVSPropertyOp10
 70
     1
102
RTVSPropertyOp11
 70
     1
102
RTVSPropertyOp12
 70
     1
102
RTVSPropertyOp13
 70
     1
102
RTVSPropertyOp14
 70
     1
102
RTVSPropertyOp15
 70
     1
102
RTVSPropertyOp16
 70
     1
102
RTVSPropertyOp17
 70
     1
102
RTVSPropertyOp18
 70
     1
102
RTVSPropertyOp19
 70
     1
102
RTVSPropertyOp20
 70
     1
102
RTVSPropertyOp21
 70
     1
102
RTVSPropertyOp22
 70
     1
102
RTVSPropertyOp23
 70
     1
102
RTVSPropertyOp24
 70
     1
102
RTVSPropertyOp25
 70
     1
102
RTVSPropertyOp26
 70
     1
102
RTVSPropertyOp27
 70
     1
102
RTVSPropertyOp28
 70
     1
102
RTVSPropertyOp29
 70
     1
102
RTVSPropertyOp30
 70
     1
102
RTVSPropertyOp31
 70
     1
102
RTVSPropertyOp32
 70
     1
  0
XRECORD
  5
2E7
102
{ACAD_REACTORS
330
2E6
102
}
330
2E6
100
AcDbXrecord
280
     1
102
RTVSPropertyOp0
 70
     1
102
RTVSPropertyOp1
 70
     1
102
RTVSPropertyOp2
 70
     1
102
RTVSPropertyOp3
 70
     1
102
RTVSPropertyOp4
 70
     1
102
RTVSPropertyOp5
 70
     1
102
RTVSPropertyOp6
 70
     1
102
RTVSPropertyOp7
 70
     1
102
RTVSPropertyOp8
 70
     1
102
RTVSPropertyOp9
 70
     1
102
RTVSPropertyOp10
 70
     1
102
RTVSPropertyOp11
 70
     1
102
RTVSPropertyOp12
 70
     1
102
RTVSPropertyOp13
 70
     1
102
RTVSPropertyOp14
 70
     1
102
RTVSPropertyOp15
 70
     1
102
RTVSPropertyOp16
 70
     1
102
RTVSPropertyOp17
 70
     1
102
RTVSPropertyOp18
 70
     1
102
RTVSPropertyOp19
 70
     1
102
RTVSPropertyOp20
 70
     1
102
RTVSPropertyOp21
 70
     1
102
RTVSPropertyOp22
 70
     1
102
RTVSPropertyOp23
 70
     1
102
RTVSPropertyOp24
 70
     1
102
RTVSPropertyOp25
 70
     1
102
RTVSPropertyOp26
 70
     1
102
RTVSPropertyOp27
 70
     1
102
RTVSPropertyOp28
 70
     1
102
RTVSPropertyOp29
 70
     1
102
RTVSPropertyOp30
 70
     1
102
RTVSPropertyOp31
 70
     1
102
RTVSPropertyOp32
 70
     1
  0
ENDSEC
  0
EOF
