  0
SECTION
  2
HEADER
  9
$ACADVER
  1
AC1009
  9
$INSBASE
 10
0.0
 20
0.0
 30
0.0
  9
$EXTMIN
 10
-260.04394330079231
 20
-399.85263204255222
 30
-0.0000000349181948
  9
$EXTMAX
 10
460.0439500065188
 20
670.66615262565836
 30
0.0000000814935747
  9
$LIMMIN
 10
0.0
 20
0.0
  9
$LIMMAX
 10
0.0
 20
0.0
  9
$ORTHOMODE
 70
     0
  9
$REGENMODE
 70
     1
  9
$FILLMODE
 70
     1
  9
$QTEXTMODE
 70
     0
  9
$MIRRTEXT
 70
     1
  9
$DRAGMODE
 70
     2
  9
$LTSCALE
 40
20.32
  9
$OSMODE
 70
   231
  9
$ATTMODE
 70
     1
  9
$TEXTSIZE
 40
0.0
  9
$TRACEWID
 40
1.0
  9
$TEXTSTYLE
  7
STANDARD
  9
$CLAYER
  8
DATA
  9
$CELTYPE
  6
BYLAYER
  9
$CECOLOR
 62
   256
  9
$DIMSCALE
 40
1.0
  9
$DIMASZ
 40
0.18
  9
$DIMEXO
 40
0.0625
  9
$DIMDLI
 40
0.38
  9
$DIMRND
 40
0.0
  9
$DIMDLE
 40
0.0
  9
$DIMEXE
 40
0.18
  9
$DIMTP
 40
0.0
  9
$DIMTM
 40
0.0
  9
$DIMTXT
 40
0.18
  9
$DIMCEN
 40
0.09
  9
$DIMTSZ
 40
0.0
  9
$DIMTOL
 70
     0
  9
$DIMLIM
 70
     0
  9
$DIMTIH
 70
     1
  9
$DIMTOH
 70
     1
  9
$DIMSE1
 70
     0
  9
$DIMSE2
 70
     0
  9
$DIMTAD
 70
     0
  9
$DIMZIN
 70
     0
  9
$DIMBLK
  1

  9
$DIMASO
 70
     1
  9
$DIMSHO
 70
     1
  9
$DIMPOST
  1

  9
$DIMAPOST
  1

  9
$DIMALT
 70
     0
  9
$DIMALTD
 70
     2
  9
$DIMALTF
 40
25.399999999999999
  9
$DIMLFAC
 40
1.0
  9
$DIMTOFL
 70
     0
  9
$DIMTVP
 40
0.0
  9
$DIMTIX
 70
     0
  9
$DIMSOXD
 70
     0
  9
$DIMSAH
 70
     0
  9
$DIMBLK1
  1

  9
$DIMBLK2
  1

  9
$DIMSTYLE
  2
STANDARD
  9
$DIMCLRD
 70
     0
  9
$DIMCLRE
 70
     0
  9
$DIMCLRT
 70
     0
  9
$DIMTFAC
 40
1.0
  9
$DIMGAP
 40
0.09
  9
$LUNITS
 70
     2
  9
$LUPREC
 70
     4
  9
$SKETCHINC
 40
0.1
  9
$FILLETRAD
 40
0.0
  9
$AUNITS
 70
     0
  9
$AUPREC
 70
     0
  9
$MENU
  1
acad
  9
$ELEVATION
 40
0.0
  9
$PELEVATION
 40
0.0
  9
$THICKNESS
 40
0.0
  9
$LIMCHECK
 70
     0
  9
$BLIPMODE
 70
     0
  9
$CHAMFERA
 40
0.0
  9
$CHAMFERB
 40
0.0
  9
$SKPOLY
 70
     0
  9
$TDCREATE
 40
2456059.7243750012
  9
$TDUPDATE
 40
2456059.7575239241
  9
$TDINDWG
 40
0.0007264815
  9
$TDUSRTIMER
 40
0.0007262963
  9
$USRTIMER
 70
     1
  9
$ANGBASE
 50
0.0
  9
$ANGDIR
 70
     0
  9
$PDMODE
 70
     1
  9
$PDSIZE
 40
-2.0
  9
$PLINEWID
 40
0.0
  9
$COORDS
 70
     2
  9
$SPLFRAME
 70
     0
  9
$SPLINETYPE
 70
     6
  9
$SPLINESEGS
 70
     8
  9
$ATTDIA
 70
     0
  9
$ATTREQ
 70
     1
  9
$HANDLING
 70
     1
  9
$HANDSEED
  5
BC7
  9
$SURFTAB1
 70
     6
  9
$SURFTAB2
 70
     6
  9
$SURFTYPE
 70
     6
  9
$SURFU
 70
     6
  9
$SURFV
 70
     6
  9
$UCSNAME
  2

  9
$UCSORG
 10
0.0
 20
0.0
 30
0.0
  9
$UCSXDIR
 10
1.0
 20
0.0
 30
0.0
  9
$UCSYDIR
 10
0.0
 20
1.0
 30
0.0
  9
$PUCSNAME
  2

  9
$PUCSORG
 10
0.0
 20
0.0
 30
0.0
  9
$PUCSXDIR
 10
1.0
 20
0.0
 30
0.0
  9
$PUCSYDIR
 10
0.0
 20
1.0
 30
0.0
  9
$USERI1
 70
     0
  9
$USERI2
 70
     0
  9
$USERI3
 70
     0
  9
$USERI4
 70
     0
  9
$USERI5
 70
     0
  9
$USERR1
 40
0.0
  9
$USERR2
 40
0.0
  9
$USERR3
 40
0.0
  9
$USERR4
 40
0.0
  9
$USERR5
 40
0.0
  9
$WORLDVIEW
 70
     1
  9
$SHADEDGE
 70
     3
  9
$SHADEDIF
 70
    70
  9
$TILEMODE
 70
     1
  9
$MAXACTVP
 70
    64
  9
$PLIMCHECK
 70
     0
  9
$PEXTMIN
 10
1.0000000000000000E+020
 20
1.0000000000000000E+020
 30
1.0000000000000000E+020
  9
$PEXTMAX
 10
-1.0000000000000000E+020
 20
-1.0000000000000000E+020
 30
-1.0000000000000000E+020
  9
$PLIMMIN
 10
0.0
 20
0.0
  9
$PLIMMAX
 10
12.0
 20
9.0
  9
$UNITMODE
 70
     0
  9
$VISRETAIN
 70
     0
  9
$PLINEGEN
 70
     1
  9
$PSLTSCALE
 70
     0
  0
ENDSEC
  0
SECTION
  2
TABLES
  0
TABLE
  2
VPORT
 70
     1
  0
VPORT
  2
*ACTIVE
 70
     0
 10
0.0
 20
0.0
 11
1.0
 21
1.0
 12
100.0000033528631
 22
135.4067602915531
 13
0.0
 23
0.0
 14
1.0
 24
1.0
 15
0.0
 25
0.0
 16
0.0
 26
0.0
 36
1.0
 17
0.0
 27
0.0
 37
0.0
 40
1078.8931167516639
 41
2.1540469973890342
 42
50.0
 43
0.0
 44
0.0
 50
0.0
 51
0.0
 71
     0
 72
  2000
 73
     1
 74
     1
 75
     0
 76
     0
 77
     0
 78
     0
  0
ENDTAB
  0
TABLE
  2
LTYPE
 70
     1
  0
LTYPE
  2
CONTINUOUS
 70
     0
  3
Solid line
 72
    65
 73
     0
 40
0.0
  0
ENDTAB
  0
TABLE
  2
LAYER
 70
     5
  0
LAYER
  2
0
 70
     0
 62
     7
  6
CONTINUOUS
  0
LAYER
  2
DATA
 70
     0
 62
     7
  6
CONTINUOUS
  0
LAYER
  2
HIBINO-BASE
 70
     0
 62
     7
  6
CONTINUOUS
  0
LAYER
  2
SPEC
 70
     0
 62
     7
  6
CONTINUOUS
  0
LAYER
  2
DIMNSIONS
 70
     0
 62
     7
  6
CONTINUOUS
  0
ENDTAB
  0
TABLE
  2
STYLE
 70
     3
  0
STYLE
  2
STANDARD
 70
     0
 40
0.0
 41
1.0
 50
0.0
 71
     0
 42
0.0
  3
txt
  4
BIGFONT.SHX
  0
ENDTAB
  0
TABLE
  2
VIEW
 70
     0
  0
ENDTAB
  0
TABLE
  2
UCS
 70
     0
  0
ENDTAB
  0
TABLE
  2
APPID
 70
     4
  0
APPID
  2
ACAD
 70
     0
  0
APPID
  2
ACADANNOTATIVE
 70
     0
  0
APPID
  2
ACAD_NAV_VCDISPLAY
 70
     0
  0
APPID
  2
ACAD_MLEADERVER
 70
     0
  0
ENDTAB
  0
TABLE
  2
DIMSTYLE
 70
     2
  0
DIMSTYLE
  2
STANDARD
 70
     0
  3

  4

  5

  6

  7

 40
1.0
 41
0.18
 42
0.0625
 43
0.38
 44
0.18
 45
0.0
 46
0.0
 47
0.0
 48
0.0
140
0.18
141
0.09
142
0.0
143
25.399999999999999
144
1.0
145
0.0
146
1.0
147
0.09
 71
     0
 72
     0
 73
     1
 74
     1
 75
     0
 76
     0
 77
     0
 78
     0
170
     0
171
     2
172
     0
173
     0
174
     0
175
     0
176
     0
177
     0
178
     0
  0
ENDTAB
  0
ENDSEC
  0
SECTION
  2
BLOCKS
  0
BLOCK
  8
0
  2
$MODEL_SPACE
 70
     0
 10
0.0
 20
0.0
 30
0.0
  3
$MODEL_SPACE
  1

  0
ENDBLK
  5
99B
  8
0
  0
BLOCK
 67
     1
  8
0
  2
$PAPER_SPACE
 70
     0
 10
0.0
 20
0.0
 30
0.0
  3
$PAPER_SPACE
  1

  0
ENDBLK
  5
997
 67
     1
  8
0
  0
ENDSEC
  0
SECTION
  2
ENTITIES
  0
LINE
  5
2C
  8
HIBINO-BASE
  6
CONTINUOUS
 62
     7
 10
-260.0
 20
670.60094368459761
 30
0.0
 11
460.0
 21
670.60094368459761
 31
0.0
  0
LINE
  5
2D
  8
HIBINO-BASE
  6
CONTINUOUS
 62
     7
 10
460.0
 20
-369.39905631540228
 30
0.0
 11
-260.0
 21
-369.39905631540228
 31
0.0
  0
LINE
  5
2E
  8
HIBINO-BASE
  6
CONTINUOUS
 62
     7
 10
-260.0
 20
-369.39905631540228
 30
0.0
 11
-260.0
 21
670.60094368459761
 31
0.0
  0
LINE
  5
2F
  8
HIBINO-BASE
  6
CONTINUOUS
 62
     7
 10
460.0
 20
670.60094368459761
 30
0.0
 11
460.0
 21
-369.39905631540228
 31
0.0
  0
LINE
  5
30
  8
HIBINO-BASE
  6
CONTINUOUS
 62
     7
 10
100.0
 20
-279.39905631540228
 30
0.0
 11
460.0
 21
-279.39905631540228
 31
0.0
  0
LINE
  5
31
  8
HIBINO-BASE
  6
CONTINUOUS
 62
     7
 10
100.0
 20
-369.39905631540228
 30
0.0
 11
100.0
 21
-279.39905631540228
 31
0.0
  0
TEXT
  5
32
  8
HIBINO-BASE
 62
     7
 10
103.59999999999999
 20
-289.43382964873553
 30
0.0
 40
6.5153645833333309
  1
NOTE
 41
0.7
 11
103.59999999999999
 21
-282.91846506540219
 31
0.0
 73
     3
  0
LINE
  5
33
  8
HIBINO-BASE
  6
CONTINUOUS
 62
     7
 10
240.0
 20
-369.39905631540228
 30
0.0
 11
240.0
 21
-279.39905631540228
 31
0.0
  0
TEXT
  5
34
  8
HIBINO-BASE
 62
     7
 10
243.59999999999999
 20
-289.43382964873553
 30
0.0
 40
6.5153645833333309
  1
TITLE
 41
0.7
 11
243.59999999999999
 21
-282.91846506540219
 31
0.0
 73
     3
  0
LINE
  5
35
  8
HIBINO-BASE
  6
CONTINUOUS
 62
     7
 10
100.0
 20
-329.39905631540228
 30
0.0
 11
460.0
 21
-329.39905631540228
 31
0.0
  0
TEXT
  5
36
  8
HIBINO-BASE
 62
     7
 10
293.60000000000002
 20
-339.20854964873553
 30
0.0
 40
6.5153645833333309
  1
DRAWN
 41
0.7
 11
293.60000000000002
 21
-332.69318506540219
 31
0.0
 73
     3
  0
TEXT
  5
37
  8
HIBINO-BASE
 62
     7
 10
193.59999999999999
 20
-339.20854964873553
 30
0.0
 40
6.5153645833333309
  1
DATE
 41
0.7
 11
193.59999999999999
 21
-332.69318506540219
 31
0.0
 73
     3
  0
TEXT
  5
38
  8
HIBINO-BASE
 62
     7
 10
153.59999999999991
 20
-339.20854964873553
 30
0.0
 40
6.5153645833333309
  1
SCALE
 41
0.7
 11
153.59999999999991
 21
-332.69318506540219
 31
0.0
 73
     3
  0
TEXT
  5
39
  8
HIBINO-BASE
 62
     7
 10
243.59999999999999
 20
-339.20854964873553
 30
0.0
 40
6.5153645833333309
  1
DESIGN
 41
0.7
 11
243.59999999999999
 21
-332.69318506540219
 31
0.0
 73
     3
  0
TEXT
  5
3A
  8
HIBINO-BASE
 62
     7
 10
393.60000000000002
 20
-339.20854964873553
 30
0.0
 40
6.5153645833333309
  1
DRAWING NO.
 41
0.7
 11
393.60000000000002
 21
-332.69318506540219
 31
0.0
 73
     3
  0
TEXT
  5
3B
  8
HIBINO-BASE
 62
     7
 10
343.60000000000002
 20
-339.20854964873553
 30
0.0
 40
6.5153645833333309
  1
CHECK
 41
0.7
 11
343.60000000000002
 21
-332.69318506540219
 31
0.0
 73
     3
  0
LINE
  5
3C
  8
HIBINO-BASE
  6
CONTINUOUS
 62
     7
 10
157.5
 20
-364.39905631540228
 30
0.0
 11
172.5
 21
-349.39905631540222
 31
0.0
  0
TEXT
  5
3D
  8
HIBINO-BASE
 62
     7
 10
155.20236791530141
 20
-353.83482964873559
 30
0.0
 40
6.5153645833333309
  1
1
 41
0.7
 11
155.20236791530141
 21
-347.3194650654022
 31
0.0
 73
     3
  0
LINE
  5
3E
  8
HIBINO-BASE
  6
CONTINUOUS
 62
     7
 10
150.0
 20
-369.39905631540228
 30
0.0
 11
150.0
 21
-329.39905631540228
 31
0.0
  0
LINE
  5
3F
  8
HIBINO-BASE
  6
CONTINUOUS
 62
     7
 10
190.0
 20
-369.39905631540228
 30
0.0
 11
190.0
 21
-329.39905631540228
 31
0.0
  0
LINE
  5
40
  8
HIBINO-BASE
  6
CONTINUOUS
 62
     7
 10
290.0
 20
-329.39905631540228
 30
0.0
 11
290.0
 21
-369.39905631540228
 31
0.0
  0
LINE
  5
41
  8
HIBINO-BASE
  6
CONTINUOUS
 62
     7
 10
390.0
 20
-329.39905631540228
 30
0.0
 11
390.0
 21
-369.39905631540228
 31
0.0
  0
LINE
  5
42
  8
HIBINO-BASE
  6
CONTINUOUS
 62
     7
 10
339.99999999999989
 20
-369.39905631540228
 30
0.0
 11
339.99999999999989
 21
-329.39905631540228
 31
0.0
  0
TEXT
  5
43
  8
HIBINO-BASE
 62
     7
 10
193.42616000000001
 20
-357.94446964873549
 30
0.0
 40
6.5153645833333309
  1
'12.04.
 41
0.7
 11
193.42616000000001
 21
-351.42910506540221
 31
0.0
 73
     3
  0
TEXT
  5
44
  8
HIBINO-BASE
 62
     7
 10
296.0232400441385
 20
-357.94446964873549
 30
0.0
 40
6.5153645833333309
  1
Ootake
 41
0.7
 11
296.0232400441385
 21
-351.42910506540221
 31
0.0
 73
     3
  0
TEXT
  5
45
  8
HIBINO-BASE
 62
     7
 10
115.5333333333334
 20
-361.49505631540228
 30
0.0
 40
13.03072916666666
  1
A4
 41
0.7
 11
115.5333333333334
 21
-348.46432714873572
 31
0.0
 73
     3
  0
TEXT
  5
46
  8
HIBINO-BASE
 62
     7
 10
103.8333333333333
 20
-339.87687631540223
 30
0.0
 40
6.5153645833333309
  1
PAPER SIZE
 41
0.7
 11
103.8333333333333
 21
-333.36151173206889
 31
0.0
 73
     3
  0
TEXT
  5
47
  8
HIBINO-BASE
 62
     7
 10
-248.9614589724392
 20
-395.10001725210731
 30
0.0
 40
14.116623263888879
  1
Hibino-Intersound Corporation
 41
0.7
 11
-248.9614589724392
 21
-380.98339398821838
 31
0.0
 73
     3
  0
TEXT
  5
48
  8
HIBINO-BASE
 62
     7
 10
180.72243872085559
 20
-393.69566423894958
 30
0.0
 40
14.116623263888879
  1
ヒビノインターサウンド株式会社
 41
0.7
 11
180.72243872085559
 21
-379.57904097506071
 31
0.0
 73
     3
  0
TEXT
  5
49
  8
HIBINO-BASE
 62
     7
 10
168.75
 20
-364.94790874044361
 30
0.0
 40
6.5153645833333309
  1
4
 41
0.7
 11
168.75
 21
-358.43254415711021
 31
0.0
 73
     3
  0
LINE
  5
4A
  8
SPEC
  6
CONTINUOUS
 62
     7
 10
-230.0
 20
630.60094368459738
 30
0.0
 11
360.0
 21
630.60094368459738
 31
0.0
  0
LINE
  5
4B
  8
SPEC
  6
CONTINUOUS
 62
     7
 10
-230.0
 20
615.60094368459761
 30
0.0
 11
360.0
 21
615.60094368459761
 31
0.0
  0
LINE
  5
4C
  8
SPEC
  6
CONTINUOUS
 62
     7
 10
-230.0
 20
585.60094368459761
 30
0.0
 11
360.0
 21
585.60094368459761
 31
0.0
  0
LINE
  5
4D
  8
SPEC
  6
CONTINUOUS
 62
     7
 10
-230.0
 20
600.6009436845975
 30
0.0
 11
360.0
 21
600.6009436845975
 31
0.0
  0
LINE
  5
4E
  8
SPEC
  6
CONTINUOUS
 62
     7
 10
-230.0
 20
630.60094368459738
 30
0.0
 11
-230.0
 21
435.60094368459772
 31
0.0
  0
TEXT
  5
4F
  8
SPEC
 62
     7
 10
-225.0
 20
636.1740236845975
 30
0.0
 40
9.7730468750000004
  1
仕様
 41
0.7
 11
-225.0
 21
645.94707055959748
 31
0.0
 73
     3
  0
LINE
  5
50
  8
SPEC
  6
CONTINUOUS
 62
     7
 10
-100.0
 20
630.60094368459738
 30
0.0
 11
-100.0
 21
435.60094368459772
 31
0.0
  0
LINE
  5
51
  8
SPEC
  6
CONTINUOUS
 62
     7
 10
360.0
 20
630.60094368459738
 30
0.0
 11
360.0
 21
435.60094368459772
 31
0.0
  0
LINE
  5
52
  8
SPEC
  6
CONTINUOUS
 62
     7
 10
-230.0
 20
570.60094368459761
 30
0.0
 11
360.0
 21
570.60094368459761
 31
0.0
  0
LINE
  5
53
  8
SPEC
  6
CONTINUOUS
 62
     7
 10
-230.0
 20
555.60094368459772
 30
0.0
 11
360.0
 21
555.60094368459772
 31
0.0
  0
LINE
  5
54
  8
SPEC
  6
CONTINUOUS
 62
     7
 10
-230.0
 20
540.60094368459772
 30
0.0
 11
360.0
 21
540.60094368459772
 31
0.0
  0
LINE
  5
55
  8
SPEC
  6
CONTINUOUS
 62
     7
 10
-230.0
 20
525.60094368459772
 30
0.0
 11
360.0
 21
525.60094368459772
 31
0.0
  0
LINE
  5
56
  8
SPEC
  6
CONTINUOUS
 62
     7
 10
-230.0
 20
510.60094368459772
 30
0.0
 11
360.0
 21
510.60094368459772
 31
0.0
  0
LINE
  5
57
  8
SPEC
  6
CONTINUOUS
 62
     7
 10
-230.0
 20
495.60094368459772
 30
0.0
 11
360.0
 21
495.60094368459772
 31
0.0
  0
LINE
  5
58
  8
SPEC
  6
CONTINUOUS
 62
     7
 10
-230.0
 20
480.60094368459772
 30
0.0
 11
360.0
 21
480.60094368459772
 31
0.0
  0
LINE
  5
59
  8
SPEC
  6
CONTINUOUS
 62
     7
 10
-230.0
 20
465.60094368459772
 30
0.0
 11
360.0
 21
465.60094368459772
 31
0.0
  0
LINE
  5
5A
  8
SPEC
  6
CONTINUOUS
 62
     7
 10
-230.0
 20
450.60094368459772
 30
0.0
 11
360.0
 21
450.60094368459772
 31
0.0
  0
LINE
  5
5B
  8
SPEC
  6
CONTINUOUS
 62
     7
 10
-230.0
 20
435.60094368459772
 30
0.0
 11
360.0
 21
435.60094368459772
 31
0.0
  0
TEXT
  5
5C
  8
SPEC
 62
     7
 10
-226.79195996505041
 20
454.78414702686229
 30
0.0
 40
7.6012586805555529
  1
寸法
 41
0.7
 11
-226.79195996505041
 21
462.3854057074177
 31
0.0
 73
     3
  0
TEXT
  5
5D
  8
SPEC
 62
     7
 10
-96.281210976473602
 20
454.26532286250563
 30
0.0
 40
7.6012586805555529
  1
191(W)\U+00D730(H)\U+00D785(D)mm(突起部含まず）、送受信機共に
 41
0.7
 11
-96.281210976473602
 21
461.8665815430611
 31
0.0
 73
     3
  0
TEXT
  5
5E
  8
SPEC
 62
     7
 10
-96.397873183337524
 20
439.29895568357603
 30
0.0
 40
7.6012586805555529
  1
約290g、送受信機共に
 41
0.7
 11
-96.397873183337524
 21
446.90021436413161
 31
0.0
 73
     3
  0
TEXT
  5
5F
  8
SPEC
 62
     7
 10
-226.57932791960411
 20
440.04244985817371
 30
0.0
 40
7.6012586805555529
  1
重量
 41
0.7
 11
-226.57932791960411
 21
447.6437085387293
 31
0.0
 73
     3
  0
TEXT
  5
60
  8
SPEC
 62
     7
 10
-226.5805839756147
 20
499.58244431441938
 30
0.0
 40
7.6012586805555529
  1
動作温度
 41
0.7
 11
-226.5805839756147
 21
507.18370299497479
 31
0.0
 73
     3
  0
TEXT
  5
61
  8
SPEC
 62
     7
 10
-96.143168859509544
 20
499.58130047507842
 30
0.0
 40
7.6012586805555529
  1
0～40\U+00B0
 41
0.7
 11
-96.143168859509544
 21
507.18255915563401
 31
0.0
 73
     3
  0
TEXT
  5
62
  8
SPEC
 62
     7
 10
-226.5601905277716
 20
469.70918342011493
 30
0.0
 40
7.6012586805555529
  1
消費電力
 41
0.7
 11
-226.5601905277716
 21
477.31044210067051
 31
0.0
 73
     3
  0
TEXT
  5
63
  8
SPEC
 62
     7
 10
-226.74370079959081
 20
514.54629788934119
 30
0.0
 40
7.6012586805555529
  1
ボーレート
 41
0.7
 11
-226.74370079959081
 21
522.14755656989689
 31
0.0
 73
     3
  0
TEXT
  5
64
  8
SPEC
 62
     7
 10
-96.951412280677431
 20
469.35795602475793
 30
0.0
 40
7.6012586805555529
  1
10W、送受信機共に
 41
0.7
 11
-96.951412280677431
 21
476.95921470531351
 31
0.0
 73
     3
  0
TEXT
  5
65
  8
SPEC
 62
     7
 10
-226.7609957337132
 20
484.56663330494331
 30
0.0
 40
7.6012586805555529
  1
電源
 41
0.7
 11
-226.7609957337132
 21
492.1678919854989
 31
0.0
 73
     3
  0
TEXT
  5
66
  8
SPEC
 62
     7
 10
-96.889137884097707
 20
514.69824969225272
 30
0.0
 40
7.6012586805555529
  1
19200 bps
 41
0.7
 11
-96.889137884097707
 21
522.2995083728083
 31
0.0
 73
     3
  0
TEXT
  5
67
  8
SPEC
 62
     7
 10
-228.41011973754391
 20
574.84513240056151
 30
0.0
 40
7.6012586805555529
  1
リンク端子
 41
0.7
 11
-228.41011973754391
 21
582.4463910811171
 31
0.0
 73
     3
  0
TEXT
  5
68
  8
SPEC
 62
     7
 10
-96.432067414826705
 20
574.63372661944754
 30
0.0
 40
7.6012586805555529
  1
RJ-45
 41
0.7
 11
-96.432067414826705
 21
582.23498530000325
 31
0.0
 73
     3
  0
TEXT
  5
69
  8
SPEC
 62
     7
 10
-226.36571428490629
 20
529.6299909352872
 30
0.0
 40
7.6012586805555529
  1
RS-232端子(受信機)
 41
0.7
 11
-226.36571428490629
 21
537.23124961584278
 31
0.0
 73
     3
  0
TEXT
  5
6A
  8
SPEC
 62
     7
 10
-226.45022101935089
 20
544.76268975410687
 30
0.0
 40
7.6012586805555529
  1
RS-232端子(送信機)
 41
0.7
 11
-226.45022101935089
 21
552.36394843466257
 31
0.0
 73
     3
  0
TEXT
  5
6B
  8
SPEC
 62
     7
 10
-96.379922928070485
 20
544.23747156145976
 30
0.0
 40
7.6012586805555529
  1
D-sub9ピン　メス
 41
0.7
 11
-96.379922928070485
 21
551.83873024201534
 31
0.0
 73
     3
  0
TEXT
  5
6C
  8
SPEC
 62
     7
 10
-226.63626962640649
 20
604.35321858683983
 30
0.0
 40
7.6012586805555529
  1
入力DDC信号
 41
0.7
 11
-226.63626962640649
 21
611.95447726739542
 31
0.0
 73
     3
  0
TEXT
  5
6D
  8
SPEC
 62
     7
 10
-96.374608197414133
 20
589.56951772577577
 30
0.0
 40
7.6012586805555529
  1
5Vp-p(TTL)
 41
0.7
 11
-96.374608197414133
 21
597.17077640633147
 31
0.0
 73
     3
  0
TEXT
  5
6E
  8
SPEC
 62
     7
 10
-226.54303193831291
 20
589.36302432720265
 30
0.0
 40
7.6012586805555529
  1
入力ビデオ信号
 41
0.7
 11
-226.54303193831291
 21
596.96428300775835
 31
0.0
 73
     3
  0
TEXT
  5
6F
  8
SPEC
 62
     7
 10
-96.936955196113928
 20
604.56982222559998
 30
0.0
 40
7.6012586805555529
  1
1.2Vp-p
 41
0.7
 11
-96.936955196113928
 21
612.17108090615557
 31
0.0
 73
     3
  0
TEXT
  5
70
  8
SPEC
 62
     7
 10
-228.1786760323269
 20
619.40719227094314
 30
0.0
 40
7.6012586805555529
  1
ピクセルクロック
 41
0.7
 11
-228.1786760323269
 21
627.00845095149873
 31
0.0
 73
     3
  0
TEXT
  5
71
  8
SPEC
 62
     7
 10
-96.977791879118783
 20
619.0484933998448
 30
0.0
 40
7.6012586805555529
  1
165MHz
 41
0.7
 11
-96.977791879118783
 21
626.6497520804005
 31
0.0
 73
     3
  0
TEXT
  5
72
  8
SPEC
 62
     7
 10
-96.388871188089709
 20
529.70330646139007
 30
0.0
 40
7.6012586805555529
  1
D-sub9ピン　オス
 41
0.7
 11
-96.388871188089709
 21
537.30456514194577
 31
0.0
 73
     3
  0
TEXT
  5
73
  8
SPEC
 62
     7
 10
-226.45348325106161
 20
559.41720106174796
 30
0.0
 40
7.6012586805555529
  1
DVI端子
 41
0.7
 11
-226.45348325106161
 21
567.01845974230366
 31
0.0
 73
     3
  0
TEXT
  5
74
  8
SPEC
 62
     7
 10
-96.407337946488767
 20
559.72738061881284
 30
0.0
 40
7.6012586805555529
  1
DVI-I 29pin
 41
0.7
 11
-96.407337946488767
 21
567.32863929936855
 31
0.0
 73
     3
  0
TEXT
  5
75
  8
SPEC
 62
     7
 10
-96.346496580800064
 20
484.16622222222219
 30
0.0
 40
7.6012586805555529
  1
5V
 41
0.7
 11
-96.346496580800064
 21
491.76748090277772
 31
0.0
 73
     3
  0
TEXT
  5
76
  8
DIMNSIONS
 62
     7
 10
19.999999999999972
 20
-320.32109631540231
 30
0.0
 40
9.7730468750000004
  1
(単位：mm)
 41
0.7
 11
19.999999999999972
 21
-310.54804944040228
 31
0.0
 73
     3
  0
LINE
  5
77
  8
DIMNSIONS
  6
CONTINUOUS
 62
     7
 10
-132.71787683062999
 20
118.75
 30
0.0
 11
-158.0
 21
118.75
 31
0.0
  0
LINE
  5
78
  8
DIMNSIONS
  6
CONTINUOUS
 62
     7
 10
-120.89999999977719
 20
148.75000000007711
 30
0.0
 11
-158.0
 21
148.75000000007711
 31
0.0
  0
LINE
  5
79
  8
DIMNSIONS
  6
CONTINUOUS
 62
     7
 10
-150.0
 20
118.75
 30
0.0
 11
-150.0
 21
148.75000000007711
 31
0.0
  0
LINE
  5
7A
  8
DIMNSIONS
  6
CONTINUOUS
 62
     7
 10
-150.0
 20
118.75
 30
0.0
 11
-152.68015918060101
 21
128.75249023437499
 31
0.0
  0
LINE
  5
7B
  8
DIMNSIONS
  6
CONTINUOUS
 62
     7
 10
-150.0
 20
118.75
 30
0.0
 11
-147.31984081939899
 21
128.75249023437499
 31
0.0
  0
LINE
  5
7C
  8
DIMNSIONS
  6
CONTINUOUS
 62
     7
 10
-150.0
 20
148.75000000007711
 30
0.0
 11
-147.31984081939899
 21
138.74750976570201
 31
0.0
  0
LINE
  5
7D
  8
DIMNSIONS
  6
CONTINUOUS
 62
     7
 10
-150.0
 20
148.75000000007711
 30
0.0
 11
-152.68015918060101
 21
138.74750976570201
 31
0.0
  0
TEXT
  5
7E
  8
DIMNSIONS
 62
     7
 10
-153.9755555555555
 20
126.694444444483
 30
0.0
 40
10.85894097222222
  1
30
 50
90.0
 41
0.7
 11
-164.8344965277777
 21
126.694444444483
 31
0.0
 73
     3
  0
LINE
  5
7F
  8
DIMNSIONS
  6
CONTINUOUS
 62
     7
 10
-115.39999999977699
 20
116.4500000000771
 30
0.0
 11
-158.0
 21
116.4500000000771
 31
0.0
  0
LINE
  5
80
  8
DIMNSIONS
  6
CONTINUOUS
 62
     7
 10
-133.0
 20
118.75
 30
0.0
 11
-158.0
 21
118.75
 31
0.0
  0
LINE
  5
81
  8
DIMNSIONS
  6
CONTINUOUS
 62
     7
 10
-150.0
 20
118.75
 30
0.0
 11
-150.0
 21
116.4500000000771
 31
0.0
  0
LINE
  5
82
  8
DIMNSIONS
  6
CONTINUOUS
 62
     7
 10
-150.0
 20
116.4500000000771
 30
0.0
 11
-150.0
 21
78.833333333333343
 31
0.0
  0
LINE
  5
83
  8
DIMNSIONS
  6
CONTINUOUS
 62
     7
 10
-150.0
 20
116.4500000000771
 30
0.0
 11
-147.31984081939899
 21
106.44750976570199
 31
0.0
  0
LINE
  5
84
  8
DIMNSIONS
  6
CONTINUOUS
 62
     7
 10
-150.0
 20
116.4500000000771
 30
0.0
 11
-152.68015918060101
 21
106.44750976570199
 31
0.0
  0
LINE
  5
85
  8
DIMNSIONS
  6
CONTINUOUS
 62
     7
 10
-150.0
 20
118.75
 30
0.0
 11
-150.0
 21
138.75
 31
0.0
  0
LINE
  5
86
  8
DIMNSIONS
  6
CONTINUOUS
 62
     7
 10
-150.0
 20
118.75
 30
0.0
 11
-152.68015918060101
 21
128.75249023437499
 31
0.0
  0
LINE
  5
87
  8
DIMNSIONS
  6
CONTINUOUS
 62
     7
 10
-150.0
 20
118.75
 30
0.0
 11
-147.31984081939899
 21
128.75249023437499
 31
0.0
  0
TEXT
  5
88
  8
DIMNSIONS
 62
     7
 10
-153.9755555555555
 20
78.833333333333343
 30
0.0
 40
10.85894097222222
  1
2.3
 50
90.0
 41
0.7
 11
-164.8344965277777
 21
78.833333333333343
 31
0.0
 73
     3
  0
LINE
  5
89
  8
DIMNSIONS
  6
CONTINUOUS
 62
     7
 10
-132.9999999997772
 20
237.49999999967369
 30
0.0
 11
-183.0
 21
237.49999999967369
 31
0.0
  0
LINE
  5
8A
  8
DIMNSIONS
  6
CONTINUOUS
 62
     7
 10
-132.9999999997772
 20
322.49999999967361
 30
0.0
 11
-183.0
 21
322.49999999967361
 31
0.0
  0
LINE
  5
8B
  8
DIMNSIONS
  6
CONTINUOUS
 62
     7
 10
-175.0
 20
237.49999999967369
 30
0.0
 11
-175.0
 21
322.49999999967361
 31
0.0
  0
LINE
  5
8C
  8
DIMNSIONS
  6
CONTINUOUS
 62
     7
 10
-175.0
 20
237.49999999967369
 30
0.0
 11
-177.68015918060101
 21
247.50249023404871
 31
0.0
  0
LINE
  5
8D
  8
DIMNSIONS
  6
CONTINUOUS
 62
     7
 10
-175.0
 20
237.49999999967369
 30
0.0
 11
-172.31984081939899
 21
247.50249023404871
 31
0.0
  0
LINE
  5
8E
  8
DIMNSIONS
  6
CONTINUOUS
 62
     7
 10
-175.0
 20
322.49999999967361
 30
0.0
 11
-172.31984081939899
 21
312.49750976529862
 31
0.0
  0
LINE
  5
8F
  8
DIMNSIONS
  6
CONTINUOUS
 62
     7
 10
-175.0
 20
322.49999999967361
 30
0.0
 11
-177.68015918060101
 21
312.49750976529862
 31
0.0
  0
TEXT
  5
90
  8
DIMNSIONS
 62
     7
 10
-178.97555555555539
 20
272.94444444411812
 30
0.0
 40
10.85894097222222
  1
85
 50
90.0
 41
0.7
 11
-189.8344965277777
 21
272.94444444411812
 31
0.0
 73
     3
  0
LINE
  5
91
  8
DIMNSIONS
  6
CONTINUOUS
 62
     7
 10
-129.749999999777
 20
252.49999999967369
 30
0.0
 11
-158.0
 21
252.49999999967369
 31
0.0
  0
LINE
  5
92
  8
DIMNSIONS
  6
CONTINUOUS
 62
     7
 10
-129.749999999777
 20
279.99999999967338
 30
0.0
 11
-158.0
 21
279.99999999967338
 31
0.0
  0
LINE
  5
93
  8
DIMNSIONS
  6
CONTINUOUS
 62
     7
 10
-150.0
 20
252.49999999967369
 30
0.0
 11
-150.0
 21
191.2777777777776
 31
0.0
  0
LINE
  5
94
  8
DIMNSIONS
  6
CONTINUOUS
 62
     7
 10
-150.0
 20
252.49999999967369
 30
0.0
 11
-150.0
 21
279.99999999967338
 31
0.0
  0
LINE
  5
95
  8
DIMNSIONS
  6
CONTINUOUS
 62
     7
 10
-150.0
 20
252.49999999967369
 30
0.0
 11
-152.68015918060101
 21
262.50249023404859
 31
0.0
  0
LINE
  5
96
  8
DIMNSIONS
  6
CONTINUOUS
 62
     7
 10
-150.0
 20
252.49999999967369
 30
0.0
 11
-147.31984081939899
 21
262.50249023404859
 31
0.0
  0
LINE
  5
97
  8
DIMNSIONS
  6
CONTINUOUS
 62
     7
 10
-150.0
 20
279.99999999967338
 30
0.0
 11
-147.31984081939899
 21
269.99750976529862
 31
0.0
  0
LINE
  5
98
  8
DIMNSIONS
  6
CONTINUOUS
 62
     7
 10
-150.0
 20
279.99999999967338
 30
0.0
 11
-152.68015918060101
 21
269.99750976529862
 31
0.0
  0
TEXT
  5
99
  8
DIMNSIONS
 62
     7
 10
-153.9755555555555
 20
191.2777777777776
 30
0.0
 40
10.85894097222222
  1
27.5
 50
90.0
 41
0.7
 11
-164.8344965277777
 21
191.2777777777776
 31
0.0
 73
     3
  0
LINE
  5
9A
  8
DIMNSIONS
  6
CONTINUOUS
 62
     7
 10
-129.749999999777
 20
279.99999999967338
 30
0.0
 11
-158.0
 21
279.99999999967338
 31
0.0
  0
LINE
  5
9B
  8
DIMNSIONS
  6
CONTINUOUS
 62
     7
 10
-129.749999999777
 20
307.49999999967361
 30
0.0
 11
-158.0
 21
307.49999999967361
 31
0.0
  0
LINE
  5
9C
  8
DIMNSIONS
  6
CONTINUOUS
 62
     7
 10
-150.0
 20
307.49999999967361
 30
0.0
 11
-150.0
 21
363.72222222222217
 31
0.0
  0
LINE
  5
9D
  8
DIMNSIONS
  6
CONTINUOUS
 62
     7
 10
-150.0
 20
279.99999999967338
 30
0.0
 11
-150.0
 21
307.49999999967361
 31
0.0
  0
LINE
  5
9E
  8
DIMNSIONS
  6
CONTINUOUS
 62
     7
 10
-150.0
 20
279.99999999967338
 30
0.0
 11
-152.68015918060101
 21
290.00249023404859
 31
0.0
  0
LINE
  5
9F
  8
DIMNSIONS
  6
CONTINUOUS
 62
     7
 10
-150.0
 20
279.99999999967338
 30
0.0
 11
-147.31984081939899
 21
290.00249023404859
 31
0.0
  0
LINE
  5
A0
  8
DIMNSIONS
  6
CONTINUOUS
 62
     7
 10
-150.0
 20
307.49999999967361
 30
0.0
 11
-147.31984081939899
 21
297.49750976529862
 31
0.0
  0
LINE
  5
A1
  8
DIMNSIONS
  6
CONTINUOUS
 62
     7
 10
-150.0
 20
307.49999999967361
 30
0.0
 11
-152.68015918060101
 21
297.49750976529862
 31
0.0
  0
TEXT
  5
A2
  8
DIMNSIONS
 62
     7
 10
-153.9755555555555
 20
335.5
 30
0.0
 40
10.85894097222222
  1
27.5
 50
90.0
 41
0.7
 11
-164.8344965277777
 21
335.5
 31
0.0
 73
     3
  0
LINE
  5
A3
  8
DIMNSIONS
  6
CONTINUOUS
 62
     7
 10
-114.4999999997772
 20
229.49999999967369
 30
0.0
 11
-114.4999999997772
 21
204.5
 31
0.0
  0
LINE
  5
A4
  8
DIMNSIONS
  6
CONTINUOUS
 62
     7
 10
55.500000000222819
 20
229.49999999967369
 30
0.0
 11
55.500000000222819
 21
204.5
 31
0.0
  0
LINE
  5
A5
  8
DIMNSIONS
  6
CONTINUOUS
 62
     7
 10
-114.4999999997772
 20
212.5
 30
0.0
 11
55.500000000222819
 21
212.5
 31
0.0
  0
LINE
  5
A6
  8
DIMNSIONS
  6
CONTINUOUS
 62
     7
 10
-114.4999999997772
 20
212.5
 30
0.0
 11
-104.4975097654022
 21
215.18015918060101
 31
0.0
  0
LINE
  5
A7
  8
DIMNSIONS
  6
CONTINUOUS
 62
     7
 10
-114.4999999997772
 20
212.5
 30
0.0
 11
-104.4975097654022
 21
209.81984081939899
 31
0.0
  0
LINE
  5
A8
  8
DIMNSIONS
  6
CONTINUOUS
 62
     7
 10
55.500000000222819
 20
212.5
 30
0.0
 11
45.497509765847809
 21
209.81984081939899
 31
0.0
  0
LINE
  5
A9
  8
DIMNSIONS
  6
CONTINUOUS
 62
     7
 10
55.500000000222819
 20
212.5
 30
0.0
 11
45.497509765847809
 21
215.18015918060101
 31
0.0
  0
TEXT
  5
AA
  8
DIMNSIONS
 62
     7
 10
-40.083333333110517
 20
216.47555555555539
 30
0.0
 40
10.85894097222222
  1
170
 41
0.7
 11
-40.083333333110517
 21
227.3344965277777
 31
0.0
 73
     3
  0
LINE
  5
AB
  8
DIMNSIONS
  6
CONTINUOUS
 62
     7
 10
-119.7499999997772
 20
241.2999999996737
 30
0.0
 11
-119.7499999997772
 21
185.75
 31
0.0
  0
LINE
  5
AC
  8
DIMNSIONS
  6
CONTINUOUS
 62
     7
 10
60.750000000222812
 20
241.2999999996737
 30
0.0
 11
60.750000000222812
 21
185.75
 31
0.0
  0
LINE
  5
AD
  8
DIMNSIONS
  6
CONTINUOUS
 62
     7
 10
-119.7499999997772
 20
193.75
 30
0.0
 11
60.750000000222812
 21
193.75
 31
0.0
  0
LINE
  5
AE
  8
DIMNSIONS
  6
CONTINUOUS
 62
     7
 10
-119.7499999997772
 20
193.75
 30
0.0
 11
-109.7475097654022
 21
196.43015918060101
 31
0.0
  0
LINE
  5
AF
  8
DIMNSIONS
  6
CONTINUOUS
 62
     7
 10
-119.7499999997772
 20
193.75
 30
0.0
 11
-109.7475097654022
 21
191.06984081939891
 31
0.0
  0
LINE
  5
B0
  8
DIMNSIONS
  6
CONTINUOUS
 62
     7
 10
60.750000000222812
 20
193.75
 30
0.0
 11
50.747509765847809
 21
191.06984081939891
 31
0.0
  0
LINE
  5
B1
  8
DIMNSIONS
  6
CONTINUOUS
 62
     7
 10
60.750000000222812
 20
193.75
 30
0.0
 11
50.747509765847809
 21
196.43015918060101
 31
0.0
  0
TEXT
  5
B2
  8
DIMNSIONS
 62
     7
 10
-47.13888888866606
 20
197.72555555555539
 30
0.0
 40
10.85894097222222
  1
180.5
 41
0.7
 11
-47.13888888866606
 21
208.5844965277777
 31
0.0
 73
     3
  0
LINE
  5
B3
  8
DIMNSIONS
  6
CONTINUOUS
 62
     7
 10
-124.9999999997772
 20
229.49999999967369
 30
0.0
 11
-124.9999999997772
 21
167.0
 31
0.0
  0
LINE
  5
B4
  8
DIMNSIONS
  6
CONTINUOUS
 62
     7
 10
66.000000000222798
 20
229.49999999967369
 30
0.0
 11
66.000000000222798
 21
167.0
 31
0.0
  0
LINE
  5
B5
  8
DIMNSIONS
  6
CONTINUOUS
 62
     7
 10
-124.9999999997772
 20
175.0
 30
0.0
 11
66.000000000222798
 21
175.0
 31
0.0
  0
LINE
  5
B6
  8
DIMNSIONS
  6
CONTINUOUS
 62
     7
 10
-124.9999999997772
 20
175.0
 30
0.0
 11
-114.9975097654022
 21
177.68015918060101
 31
0.0
  0
LINE
  5
B7
  8
DIMNSIONS
  6
CONTINUOUS
 62
     7
 10
-124.9999999997772
 20
175.0
 30
0.0
 11
-114.9975097654022
 21
172.31984081939899
 31
0.0
  0
LINE
  5
B8
  8
DIMNSIONS
  6
CONTINUOUS
 62
     7
 10
66.000000000222798
 20
175.0
 30
0.0
 11
55.997509765847823
 21
172.31984081939899
 31
0.0
  0
LINE
  5
B9
  8
DIMNSIONS
  6
CONTINUOUS
 62
     7
 10
66.000000000222798
 20
175.0
 30
0.0
 11
55.997509765847823
 21
177.68015918060101
 31
0.0
  0
TEXT
  5
BA
  8
DIMNSIONS
 62
     7
 10
-40.083333333110517
 20
178.97555555555539
 30
0.0
 40
10.85894097222222
  1
191
 41
0.7
 11
-40.083333333110517
 21
189.8344965277777
 31
0.0
 73
     3
  0
LINE
  5
BB
  8
DIMNSIONS
  6
CONTINUOUS
 62
     7
 10
-114.50000000007699
 20
-126.74999999996641
 30
0.0
 11
-114.50000000007699
 21
-151.75
 31
0.0
  0
LINE
  5
BC
  8
DIMNSIONS
  6
CONTINUOUS
 62
     7
 10
55.499999999922849
 20
-126.74999999996641
 30
0.0
 11
55.499999999922849
 21
-151.75
 31
0.0
  0
LINE
  5
BD
  8
DIMNSIONS
  6
CONTINUOUS
 62
     7
 10
-114.50000000007699
 20
-143.75
 30
0.0
 11
55.499999999922849
 21
-143.75
 31
0.0
  0
LINE
  5
BE
  8
DIMNSIONS
  6
CONTINUOUS
 62
     7
 10
-114.50000000007699
 20
-143.75
 30
0.0
 11
-104.49750976570211
 21
-141.06984081939899
 31
0.0
  0
LINE
  5
BF
  8
DIMNSIONS
  6
CONTINUOUS
 62
     7
 10
-114.50000000007699
 20
-143.75
 30
0.0
 11
-104.49750976570211
 21
-146.43015918060101
 31
0.0
  0
LINE
  5
C0
  8
DIMNSIONS
  6
CONTINUOUS
 62
     7
 10
55.499999999922849
 20
-143.75
 30
0.0
 11
45.497509765547839
 21
-146.43015918060101
 31
0.0
  0
LINE
  5
C1
  8
DIMNSIONS
  6
CONTINUOUS
 62
     7
 10
55.499999999922849
 20
-143.75
 30
0.0
 11
45.497509765547839
 21
-141.06984081939899
 31
0.0
  0
TEXT
  5
C2
  8
DIMNSIONS
 62
     7
 10
-40.083333333410494
 20
-139.7744444444445
 30
0.0
 40
10.85894097222222
  1
170
 41
0.7
 11
-40.083333333410494
 21
-128.9155034722223
 31
0.0
 73
     3
  0
LINE
  5
C3
  8
DIMNSIONS
  6
CONTINUOUS
 62
     7
 10
-119.7499999997772
 20
-114.94999999996691
 30
0.0
 11
-119.7499999997772
 21
-170.5
 31
0.0
  0
LINE
  5
C4
  8
DIMNSIONS
  6
CONTINUOUS
 62
     7
 10
60.750000000222812
 20
-114.94999999996681
 30
0.0
 11
60.750000000222812
 21
-170.5
 31
0.0
  0
LINE
  5
C5
  8
DIMNSIONS
  6
CONTINUOUS
 62
     7
 10
-119.7499999997772
 20
-162.5
 30
0.0
 11
60.750000000222812
 21
-162.5
 31
0.0
  0
LINE
  5
C6
  8
DIMNSIONS
  6
CONTINUOUS
 62
     7
 10
-119.7499999997772
 20
-162.5
 30
0.0
 11
-109.7475097654022
 21
-159.81984081939899
 31
0.0
  0
LINE
  5
C7
  8
DIMNSIONS
  6
CONTINUOUS
 62
     7
 10
-119.7499999997772
 20
-162.5
 30
0.0
 11
-109.7475097654022
 21
-165.18015918060101
 31
0.0
  0
LINE
  5
C8
  8
DIMNSIONS
  6
CONTINUOUS
 62
     7
 10
60.750000000222812
 20
-162.5
 30
0.0
 11
50.747509765847809
 21
-165.18015918060101
 31
0.0
  0
LINE
  5
C9
  8
DIMNSIONS
  6
CONTINUOUS
 62
     7
 10
60.750000000222812
 20
-162.5
 30
0.0
 11
50.747509765847809
 21
-159.81984081939899
 31
0.0
  0
TEXT
  5
CA
  8
DIMNSIONS
 62
     7
 10
-47.13888888866606
 20
-158.5244444444445
 30
0.0
 40
10.85894097222222
  1
180.5
 41
0.7
 11
-47.13888888866606
 21
-147.6655034722223
 31
0.0
 73
     3
  0
LINE
  5
CB
  8
DIMNSIONS
  6
CONTINUOUS
 62
     7
 10
-125.00000000007699
 20
-126.74999999996641
 30
0.0
 11
-125.00000000007699
 21
-189.25
 31
0.0
  0
LINE
  5
CC
  8
DIMNSIONS
  6
CONTINUOUS
 62
     7
 10
65.999999999922835
 20
-126.74999999996641
 30
0.0
 11
65.999999999922835
 21
-189.25
 31
0.0
  0
LINE
  5
CD
  8
DIMNSIONS
  6
CONTINUOUS
 62
     7
 10
-125.00000000007699
 20
-181.25
 30
0.0
 11
65.999999999922835
 21
-181.25
 31
0.0
  0
LINE
  5
CE
  8
DIMNSIONS
  6
CONTINUOUS
 62
     7
 10
-125.00000000007699
 20
-181.25
 30
0.0
 11
-114.99750976570211
 21
-178.56984081939899
 31
0.0
  0
LINE
  5
CF
  8
DIMNSIONS
  6
CONTINUOUS
 62
     7
 10
-125.00000000007699
 20
-181.25
 30
0.0
 11
-114.99750976570211
 21
-183.93015918060101
 31
0.0
  0
LINE
  5
D0
  8
DIMNSIONS
  6
CONTINUOUS
 62
     7
 10
65.999999999922835
 20
-181.25
 30
0.0
 11
55.997509765547839
 21
-183.93015918060101
 31
0.0
  0
LINE
  5
D1
  8
DIMNSIONS
  6
CONTINUOUS
 62
     7
 10
65.999999999922835
 20
-181.25
 30
0.0
 11
55.997509765547839
 21
-178.56984081939899
 31
0.0
  0
TEXT
  5
D2
  8
DIMNSIONS
 62
     7
 10
-40.083333333410494
 20
-177.2744444444445
 30
0.0
 40
10.85894097222222
  1
191
 41
0.7
 11
-40.083333333410494
 21
-166.4155034722223
 31
0.0
 73
     3
  0
LINE
  5
D3
  8
DIMNSIONS
  6
CONTINUOUS
 62
     7
 10
-133.00000000007711
 20
-237.4999999998669
 30
0.0
 11
-158.0
 21
-237.4999999998669
 31
0.0
  0
LINE
  5
D4
  8
DIMNSIONS
  6
CONTINUOUS
 62
     7
 10
-120.9000000000771
 20
-207.4999999998667
 30
0.0
 11
-158.0
 21
-207.4999999998667
 31
0.0
  0
LINE
  5
D5
  8
DIMNSIONS
  6
CONTINUOUS
 62
     7
 10
-150.0
 20
-237.4999999998669
 30
0.0
 11
-150.0
 21
-207.4999999998667
 31
0.0
  0
LINE
  5
D6
  8
DIMNSIONS
  6
CONTINUOUS
 62
     7
 10
-150.0
 20
-237.4999999998669
 30
0.0
 11
-152.68015918060101
 21
-227.497509765492
 31
0.0
  0
LINE
  5
D7
  8
DIMNSIONS
  6
CONTINUOUS
 62
     7
 10
-150.0
 20
-237.4999999998669
 30
0.0
 11
-147.31984081939899
 21
-227.497509765492
 31
0.0
  0
LINE
  5
D8
  8
DIMNSIONS
  6
CONTINUOUS
 62
     7
 10
-150.0
 20
-207.4999999998667
 30
0.0
 11
-147.31984081939899
 21
-217.50249023424169
 31
0.0
  0
LINE
  5
D9
  8
DIMNSIONS
  6
CONTINUOUS
 62
     7
 10
-150.0
 20
-207.4999999998667
 30
0.0
 11
-152.68015918060101
 21
-217.50249023424169
 31
0.0
  0
TEXT
  5
DA
  8
DIMNSIONS
 62
     7
 10
-153.9755555555555
 20
-229.55555555542239
 30
0.0
 40
10.85894097222222
  1
30
 50
90.0
 41
0.7
 11
-164.8344965277777
 21
-229.55555555542239
 31
0.0
 73
     3
  0
LINE
  5
DB
  8
DIMNSIONS
  6
CONTINUOUS
 62
     7
 10
-115.4000000000771
 20
-239.79999999986691
 30
0.0
 11
-158.0
 21
-239.79999999986691
 31
0.0
  0
LINE
  5
DC
  8
DIMNSIONS
  6
CONTINUOUS
 62
     7
 10
-133.0
 20
-237.5
 30
0.0
 11
-158.0
 21
-237.5
 31
0.0
  0
LINE
  5
DD
  8
DIMNSIONS
  6
CONTINUOUS
 62
     7
 10
-150.0
 20
-237.5
 30
0.0
 11
-150.0
 21
-239.79999999986691
 31
0.0
  0
LINE
  5
DE
  8
DIMNSIONS
  6
CONTINUOUS
 62
     7
 10
-150.0
 20
-239.79999999986691
 30
0.0
 11
-150.0
 21
-271.16666666666669
 31
0.0
  0
LINE
  5
DF
  8
DIMNSIONS
  6
CONTINUOUS
 62
     7
 10
-150.0
 20
-239.79999999986691
 30
0.0
 11
-147.31984081939899
 21
-249.8024902342419
 31
0.0
  0
LINE
  5
E0
  8
DIMNSIONS
  6
CONTINUOUS
 62
     7
 10
-150.0
 20
-239.79999999986691
 30
0.0
 11
-152.68015918060101
 21
-249.8024902342419
 31
0.0
  0
LINE
  5
E1
  8
DIMNSIONS
  6
CONTINUOUS
 62
     7
 10
-150.0
 20
-237.5
 30
0.0
 11
-150.0
 21
-217.5
 31
0.0
  0
LINE
  5
E2
  8
DIMNSIONS
  6
CONTINUOUS
 62
     7
 10
-150.0
 20
-237.5
 30
0.0
 11
-152.68015918060101
 21
-227.49750976562501
 31
0.0
  0
LINE
  5
E3
  8
DIMNSIONS
  6
CONTINUOUS
 62
     7
 10
-150.0
 20
-237.5
 30
0.0
 11
-147.31984081939899
 21
-227.49750976562501
 31
0.0
  0
TEXT
  5
E4
  8
DIMNSIONS
 62
     7
 10
-153.9755555555555
 20
-271.16666666666657
 30
0.0
 40
10.85894097222222
  1
2.3
 50
90.0
 41
0.7
 11
-164.8344965277777
 21
-271.16666666666657
 31
0.0
 73
     3
  0
LINE
  5
E5
  8
DIMNSIONS
  6
CONTINUOUS
 62
     7
 10
-133.00000000007711
 20
-118.74999999996641
 30
0.0
 11
-183.0
 21
-118.74999999996641
 31
0.0
  0
LINE
  5
E6
  8
DIMNSIONS
  6
CONTINUOUS
 62
     7
 10
-133.00000000007711
 20
-33.749999999967287
 30
0.0
 11
-183.0
 21
-33.749999999967287
 31
0.0
  0
LINE
  5
E7
  8
DIMNSIONS
  6
CONTINUOUS
 62
     7
 10
-175.0
 20
-118.74999999996641
 30
0.0
 11
-175.0
 21
-33.749999999967287
 31
0.0
  0
LINE
  5
E8
  8
DIMNSIONS
  6
CONTINUOUS
 62
     7
 10
-175.0
 20
-118.74999999996641
 30
0.0
 11
-177.68015918060101
 21
-108.7475097655915
 31
0.0
  0
LINE
  5
E9
  8
DIMNSIONS
  6
CONTINUOUS
 62
     7
 10
-175.0
 20
-118.74999999996641
 30
0.0
 11
-172.31984081939899
 21
-108.7475097655915
 31
0.0
  0
LINE
  5
EA
  8
DIMNSIONS
  6
CONTINUOUS
 62
     7
 10
-175.0
 20
-33.749999999967287
 30
0.0
 11
-172.31984081939899
 21
-43.752490234342282
 31
0.0
  0
LINE
  5
EB
  8
DIMNSIONS
  6
CONTINUOUS
 62
     7
 10
-175.0
 20
-33.749999999967287
 30
0.0
 11
-177.68015918060101
 21
-43.752490234342282
 31
0.0
  0
TEXT
  5
EC
  8
DIMNSIONS
 62
     7
 10
-178.97555555555539
 20
-83.305555555522403
 30
0.0
 40
10.85894097222222
  1
85
 50
90.0
 41
0.7
 11
-189.8344965277777
 21
-83.305555555522403
 31
0.0
 73
     3
  0
LINE
  5
ED
  8
DIMNSIONS
  6
CONTINUOUS
 62
     7
 10
-129.75000000007711
 20
-76.249999999967343
 30
0.0
 11
-158.0
 21
-76.249999999967343
 31
0.0
  0
LINE
  5
EE
  8
DIMNSIONS
  6
CONTINUOUS
 62
     7
 10
-129.75000000007711
 20
-48.749999999967351
 30
0.0
 11
-158.0
 21
-48.749999999967351
 31
0.0
  0
LINE
  5
EF
  8
DIMNSIONS
  6
CONTINUOUS
 62
     7
 10
-150.0
 20
-48.749999999967351
 30
0.0
 11
-150.0
 21
-0.4185456675322712
 31
0.0
  0
LINE
  5
F0
  8
DIMNSIONS
  6
CONTINUOUS
 62
     7
 10
-150.0
 20
-76.249999999967343
 30
0.0
 11
-150.0
 21
-48.749999999967351
 31
0.0
  0
LINE
  5
F1
  8
DIMNSIONS
  6
CONTINUOUS
 62
     7
 10
-150.0
 20
-76.249999999967343
 30
0.0
 11
-152.68015918060101
 21
-66.247509765592355
 31
0.0
  0
LINE
  5
F2
  8
DIMNSIONS
  6
CONTINUOUS
 62
     7
 10
-150.0
 20
-76.249999999967343
 30
0.0
 11
-147.31984081939899
 21
-66.247509765592355
 31
0.0
  0
LINE
  5
F3
  8
DIMNSIONS
  6
CONTINUOUS
 62
     7
 10
-150.0
 20
-48.749999999967351
 30
0.0
 11
-147.31984081939899
 21
-58.752490234342318
 31
0.0
  0
LINE
  5
F4
  8
DIMNSIONS
  6
CONTINUOUS
 62
     7
 10
-150.0
 20
-48.749999999967351
 30
0.0
 11
-152.68015918060101
 21
-58.752490234342318
 31
0.0
  0
TEXT
  5
F5
  8
DIMNSIONS
 62
     7
 10
-153.9755555555555
 20
-28.640767889754471
 30
0.0
 40
10.85894097222222
  1
27.5
 50
90.0
 41
0.7
 11
-164.8344965277777
 21
-28.640767889754471
 31
0.0
 73
     3
  0
LINE
  5
F6
  8
DIMNSIONS
  6
CONTINUOUS
 62
     7
 10
-129.75000000007711
 20
-103.7499999999669
 30
0.0
 11
-158.0
 21
-103.7499999999669
 31
0.0
  0
LINE
  5
F7
  8
DIMNSIONS
  6
CONTINUOUS
 62
     7
 10
-129.75000000007711
 20
-76.249999999967343
 30
0.0
 11
-158.0
 21
-76.249999999967343
 31
0.0
  0
LINE
  5
F8
  8
DIMNSIONS
  6
CONTINUOUS
 62
     7
 10
-150.0
 20
-103.7499999999669
 30
0.0
 11
-150.0
 21
-159.4722222222222
 31
0.0
  0
LINE
  5
F9
  8
DIMNSIONS
  6
CONTINUOUS
 62
     7
 10
-150.0
 20
-103.7499999999669
 30
0.0
 11
-150.0
 21
-76.249999999967343
 31
0.0
  0
LINE
  5
FA
  8
DIMNSIONS
  6
CONTINUOUS
 62
     7
 10
-150.0
 20
-103.7499999999669
 30
0.0
 11
-152.68015918060101
 21
-93.747509765591943
 31
0.0
  0
LINE
  5
FB
  8
DIMNSIONS
  6
CONTINUOUS
 62
     7
 10
-150.0
 20
-103.7499999999669
 30
0.0
 11
-147.31984081939899
 21
-93.747509765591943
 31
0.0
  0
LINE
  5
FC
  8
DIMNSIONS
  6
CONTINUOUS
 62
     7
 10
-150.0
 20
-76.249999999967343
 30
0.0
 11
-147.31984081939899
 21
-86.252490234342346
 31
0.0
  0
LINE
  5
FD
  8
DIMNSIONS
  6
CONTINUOUS
 62
     7
 10
-150.0
 20
-76.249999999967343
 30
0.0
 11
-152.68015918060101
 21
-86.252490234342346
 31
0.0
  0
TEXT
  5
FE
  8
DIMNSIONS
 62
     7
 10
-153.9755555555555
 20
-159.47222222222209
 30
0.0
 40
10.85894097222222
  1
27.5
 50
90.0
 41
0.7
 11
-164.8344965277777
 21
-159.47222222222209
 31
0.0
 73
     3
  0
LINE
  5
FF
  8
DIMNSIONS
  6
CONTINUOUS
 62
     7
 10
-107.3999999996413
 20
231.49999999949759
 30
0.0
 11
-183.0
 21
231.49999999949759
 31
0.0
  0
LINE
  5
100
  8
DIMNSIONS
  6
CONTINUOUS
 62
     7
 10
-132.9999999997772
 20
237.49999999967369
 30
0.0
 11
-183.0
 21
237.49999999967369
 31
0.0
  0
LINE
  5
101
  8
DIMNSIONS
  6
CONTINUOUS
 62
     7
 10
-175.0
 20
237.49999999967369
 30
0.0
 11
-175.0
 21
231.49999999949759
 31
0.0
  0
LINE
  5
102
  8
DIMNSIONS
  6
CONTINUOUS
 62
     7
 10
-175.0
 20
231.49999999949759
 30
0.0
 11
-175.0
 21
211.6944444444444
 31
0.0
  0
LINE
  5
103
  8
DIMNSIONS
  6
CONTINUOUS
 62
     7
 10
-175.0
 20
231.49999999949759
 30
0.0
 11
-172.31984081939899
 21
221.4975097651226
 31
0.0
  0
LINE
  5
104
  8
DIMNSIONS
  6
CONTINUOUS
 62
     7
 10
-175.0
 20
231.49999999949759
 30
0.0
 11
-177.68015918060101
 21
221.4975097651226
 31
0.0
  0
LINE
  5
105
  8
DIMNSIONS
  6
CONTINUOUS
 62
     7
 10
-175.0
 20
237.49999999967369
 30
0.0
 11
-175.0
 21
257.49999999967372
 31
0.0
  0
LINE
  5
106
  8
DIMNSIONS
  6
CONTINUOUS
 62
     7
 10
-175.0
 20
237.49999999967369
 30
0.0
 11
-177.68015918060101
 21
247.50249023404871
 31
0.0
  0
LINE
  5
107
  8
DIMNSIONS
  6
CONTINUOUS
 62
     7
 10
-175.0
 20
237.49999999967369
 30
0.0
 11
-172.31984081939899
 21
247.50249023404871
 31
0.0
  0
TEXT
  5
108
  8
DIMNSIONS
 62
     7
 10
-178.97555555555539
 20
211.6944444444444
 30
0.0
 40
10.85894097222222
  1
6
 50
90.0
 41
0.7
 11
-189.8344965277777
 21
211.6944444444444
 31
0.0
 73
     3
  0
LINE
  5
109
  8
DIMNSIONS
  6
CONTINUOUS
 62
     7
 10
30.56450643174534
 20
-124.75
 30
0.0
 11
-183.0
 21
-124.75
 31
0.0
  0
LINE
  5
10A
  8
DIMNSIONS
  6
CONTINUOUS
 62
     7
 10
-133.00000000007711
 20
-118.74999999996641
 30
0.0
 11
-183.0
 21
-118.74999999996641
 31
0.0
  0
LINE
  5
10B
  8
DIMNSIONS
  6
CONTINUOUS
 62
     7
 10
-175.0
 20
-118.74999999996641
 30
0.0
 11
-175.0
 21
-124.75
 31
0.0
  0
LINE
  5
10C
  8
DIMNSIONS
  6
CONTINUOUS
 62
     7
 10
-175.0
 20
-124.75
 30
0.0
 11
-175.0
 21
-144.55555555555549
 31
0.0
  0
LINE
  5
10D
  8
DIMNSIONS
  6
CONTINUOUS
 62
     7
 10
-175.0
 20
-124.75
 30
0.0
 11
-172.31984081939899
 21
-134.75249023437499
 31
0.0
  0
LINE
  5
10E
  8
DIMNSIONS
  6
CONTINUOUS
 62
     7
 10
-175.0
 20
-124.75
 30
0.0
 11
-177.68015918060101
 21
-134.75249023437499
 31
0.0
  0
LINE
  5
10F
  8
DIMNSIONS
  6
CONTINUOUS
 62
     7
 10
-175.0
 20
-118.74999999996641
 30
0.0
 11
-175.0
 21
-98.749999999966462
 31
0.0
  0
LINE
  5
110
  8
DIMNSIONS
  6
CONTINUOUS
 62
     7
 10
-175.0
 20
-118.74999999996641
 30
0.0
 11
-177.68015918060101
 21
-108.7475097655915
 31
0.0
  0
LINE
  5
111
  8
DIMNSIONS
  6
CONTINUOUS
 62
     7
 10
-175.0
 20
-118.74999999996641
 30
0.0
 11
-172.31984081939899
 21
-108.7475097655915
 31
0.0
  0
TEXT
  5
112
  8
DIMNSIONS
 62
     7
 10
-178.97555555555539
 20
-144.55555555555549
 30
0.0
 40
10.85894097222222
  1
6
 50
90.0
 41
0.7
 11
-189.8344965277777
 21
-144.55555555555549
 31
0.0
 73
     3
  0
TEXT
  5
113
  8
DATA
 62
     7
 10
299.55238842640642
 20
-323.93285141258309
 30
0.0
 40
9.7730468750000004
  1
GTB-DVIKVM-ELR-BLK
 41
0.7
 11
299.55238842640642
 21
-314.15980453758311
 31
0.0
 73
     3
  0
TEXT
  5
114
  8
DATA
 62
     7
 10
299.85079614213549
 20
-292.961376547481
 30
0.0
 40
9.7730468750000004
  1
Gefen
 41
0.7
 11
299.85079614213549
 21
-283.18832967248107
 31
0.0
 73
     3
  0
TEXT
  5
115
  8
DATA
 62
     7
 10
293.27790719697038
 20
-306.93421223726892
 30
0.0
 40
6.5153748437499992
  1
DVIKVM延長機
 41
0.7
 11
293.27790719697038
 21
-300.41883739351891
 31
0.0
 73
     3
  0
TEXT
  5
116
  8
DATA
 62
     7
 10
-220.0
 20
-352.44705631540222
 30
0.0
 40
6.5153645833333309
  1
仕様および外観は予告なく変更されることがありますので、ご了承ください。
 41
0.7
 11
-220.0
 21
-345.93169173206888
 31
0.0
 73
     3
  0
LINE
  5
117
  8
DATA
  6
CONTINUOUS
 62
     7
 10
-250.0
 20
62.5
 30
0.0
 11
456.25
 21
62.5
 31
0.0
  0
LINE
  5
118
  8
DATA
  6
CONTINUOUS
 62
     7
 10
66.000000000222812
 20
237.49999999967369
 30
0.0
 11
-124.9999999997772
 21
237.49999999967369
 31
0.0
  0
LINE
  5
119
  8
DATA
  6
CONTINUOUS
 62
     7
 10
66.000000000222812
 20
322.49999999967361
 30
0.0
 11
66.000000000222812
 21
237.49999999967369
 31
0.0
  0
LINE
  5
11A
  8
DATA
  6
CONTINUOUS
 62
     7
 10
-124.9999999997772
 20
322.49999999967361
 30
0.0
 11
66.000000000222812
 21
322.49999999967361
 31
0.0
  0
LINE
  5
11B
  8
DATA
  6
CONTINUOUS
 62
     7
 10
-124.9999999997772
 20
237.49999999967369
 30
0.0
 11
-124.9999999997772
 21
322.49999999967361
 31
0.0
  0
LINE
  5
11C
  8
DATA
  6
CONTINUOUS
 62
     7
 10
55.500000000222819
 20
322.49999999967361
 30
0.0
 11
55.500000000222819
 21
237.49999999967369
 31
0.0
  0
LINE
  5
11D
  8
DATA
  6
CONTINUOUS
 62
     7
 10
-114.4999999997772
 20
322.49999999967361
 30
0.0
 11
-114.4999999997772
 21
237.49999999967369
 31
0.0
  0
LINE
  5
11E
  8
DATA
  6
CONTINUOUS
 62
     7
 10
-117.7499999997772
 20
281.19999999967359
 30
0.0
 11
-117.7499999997772
 21
278.79999999967362
 31
0.0
  0
LINE
  5
11F
  8
DATA
  6
CONTINUOUS
 62
     7
 10
-121.7499999997772
 20
278.79999999967362
 30
0.0
 11
-121.7499999997772
 21
281.19999999967359
 31
0.0
  0
ARC
  5
120
  8
DATA
  6
CONTINUOUS
 62
     7
 10
-119.7499999997772
 20
278.79999999967362
 30
0.0
 40
2.0
 50
180.0
 51
0.0
  0
ARC
  5
121
  8
DATA
  6
CONTINUOUS
 62
     7
 10
-119.7499999997772
 20
281.19999999967359
 30
0.0
 40
2.0
 50
0.0
 51
180.0
  0
LINE
  5
122
  8
DATA
  6
CONTINUOUS
 62
     7
 10
-117.7499999997772
 20
253.69999999967359
 30
0.0
 11
-117.7499999997772
 21
251.2999999996737
 31
0.0
  0
LINE
  5
123
  8
DATA
  6
CONTINUOUS
 62
     7
 10
-121.7499999997772
 20
251.2999999996737
 30
0.0
 11
-121.7499999997772
 21
253.69999999967359
 31
0.0
  0
ARC
  5
124
  8
DATA
  6
CONTINUOUS
 62
     7
 10
-119.7499999997772
 20
251.2999999996737
 30
0.0
 40
2.0
 50
180.0
 51
0.0
  0
ARC
  5
125
  8
DATA
  6
CONTINUOUS
 62
     7
 10
-119.7499999997772
 20
253.69999999967359
 30
0.0
 40
2.0
 50
0.0
 51
180.0
  0
LINE
  5
126
  8
DATA
  6
CONTINUOUS
 62
     7
 10
-117.7499999997772
 20
308.69999999967359
 30
0.0
 11
-117.7499999997772
 21
306.29999999967362
 31
0.0
  0
LINE
  5
127
  8
DATA
  6
CONTINUOUS
 62
     7
 10
-121.7499999997772
 20
306.29999999967362
 30
0.0
 11
-121.7499999997772
 21
308.69999999967359
 31
0.0
  0
ARC
  5
128
  8
DATA
  6
CONTINUOUS
 62
     7
 10
-119.7499999997772
 20
306.29999999967362
 30
0.0
 40
2.0
 50
180.0000000000008
 51
359.9999999999992
  0
ARC
  5
129
  8
DATA
  6
CONTINUOUS
 62
     7
 10
-119.7499999997772
 20
308.69999999967359
 30
0.0
 40
2.0
 50
0.0
 51
180.0
  0
LINE
  5
12A
  8
DATA
  6
CONTINUOUS
 62
     7
 10
62.750000000222819
 20
281.19999999967359
 30
0.0
 11
62.750000000222819
 21
278.79999999967362
 31
0.0
  0
LINE
  5
12B
  8
DATA
  6
CONTINUOUS
 62
     7
 10
58.750000000222819
 20
278.79999999967362
 30
0.0
 11
58.750000000222819
 21
281.19999999967359
 31
0.0
  0
ARC
  5
12C
  8
DATA
  6
CONTINUOUS
 62
     7
 10
60.750000000222812
 20
278.79999999967362
 30
0.0
 40
2.0
 50
180.0000000000008
 51
359.9999999999992
  0
ARC
  5
12D
  8
DATA
  6
CONTINUOUS
 62
     7
 10
60.750000000222812
 20
281.19999999967359
 30
0.0
 40
2.0
 50
0.0
 51
180.0
  0
LINE
  5
12E
  8
DATA
  6
CONTINUOUS
 62
     7
 10
62.750000000222819
 20
253.69999999967359
 30
0.0
 11
62.750000000222819
 21
251.2999999996737
 31
0.0
  0
LINE
  5
12F
  8
DATA
  6
CONTINUOUS
 62
     7
 10
58.750000000222819
 20
251.2999999996737
 30
0.0
 11
58.750000000222819
 21
253.69999999967359
 31
0.0
  0
ARC
  5
130
  8
DATA
  6
CONTINUOUS
 62
     7
 10
60.750000000222812
 20
251.2999999996737
 30
0.0
 40
2.0
 50
180.0
 51
0.0
  0
ARC
  5
131
  8
DATA
  6
CONTINUOUS
 62
     7
 10
60.750000000222812
 20
253.69999999967359
 30
0.0
 40
2.0
 50
0.0
 51
180.0
  0
LINE
  5
132
  8
DATA
  6
CONTINUOUS
 62
     7
 10
62.750000000222819
 20
308.69999999967359
 30
0.0
 11
62.750000000222819
 21
306.29999999967362
 31
0.0
  0
LINE
  5
133
  8
DATA
  6
CONTINUOUS
 62
     7
 10
58.750000000222819
 20
306.29999999967362
 30
0.0
 11
58.750000000222819
 21
308.69999999967359
 31
0.0
  0
ARC
  5
134
  8
DATA
  6
CONTINUOUS
 62
     7
 10
60.750000000222812
 20
306.29999999967362
 30
0.0
 40
2.0
 50
180.0000000000008
 51
359.9999999999992
  0
ARC
  5
135
  8
DATA
  6
CONTINUOUS
 62
     7
 10
60.750000000222812
 20
308.69999999967359
 30
0.0
 40
2.0
 50
0.0
 51
180.0
  0
TEXT
  5
136
  8
DATA
 62
     7
 10
91.032420447123855
 20
348.38683911412892
 30
0.0
 40
10.85894097222222
  1
6-6.4\U+00D74
 41
0.7
 11
91.032420447123855
 21
359.24578008635109
 31
0.0
 73
     3
  0
LINE
  5
137
  8
DATA
  6
CONTINUOUS
 62
     7
 10
66.000000000222798
 20
118.75000000007699
 30
0.0
 11
55.500000000222819
 21
118.75000000007699
 31
0.0
  0
LINE
  5
138
  8
DATA
  6
CONTINUOUS
 62
     7
 10
53.900000000222761
 20
118.75000000007699
 30
0.0
 11
-112.89999999977719
 21
118.75000000007699
 31
0.0
  0
LINE
  5
139
  8
DATA
  6
CONTINUOUS
 62
     7
 10
-114.4999999997772
 20
118.75000000007699
 30
0.0
 11
-124.9999999997772
 21
118.75000000007699
 31
0.0
  0
LINE
  5
13A
  8
DATA
  6
CONTINUOUS
 62
     7
 10
53.900000000222761
 20
148.75000000007711
 30
0.0
 11
-112.89999999977719
 21
148.75000000007711
 31
0.0
  0
LINE
  5
13B
  8
DATA
  6
CONTINUOUS
 62
     7
 10
66.000000000222798
 20
120.3500000000771
 30
0.0
 11
57.100000000222813
 21
120.3500000000771
 31
0.0
  0
LINE
  5
13C
  8
DATA
  6
CONTINUOUS
 62
     7
 10
-116.0999999997772
 20
120.3500000000771
 30
0.0
 11
-124.9999999997772
 21
120.3500000000771
 31
0.0
  0
LINE
  5
13D
  8
DATA
  6
CONTINUOUS
 62
     7
 10
-124.9999999997772
 20
120.3500000000771
 30
0.0
 11
-124.9999999997772
 21
118.75000000007699
 31
0.0
  0
LINE
  5
13E
  8
DATA
  6
CONTINUOUS
 62
     7
 10
66.000000000222798
 20
120.3500000000771
 30
0.0
 11
66.000000000222798
 21
118.75000000007699
 31
0.0
  0
LINE
  5
13F
  8
DATA
  6
CONTINUOUS
 62
     7
 10
-114.4999999997772
 20
147.15000000007711
 30
0.0
 11
-114.4999999997772
 21
121.9500000000772
 31
0.0
  0
LINE
  5
140
  8
DATA
  6
CONTINUOUS
 62
     7
 10
55.500000000222819
 20
147.15000000007711
 30
0.0
 11
55.500000000222819
 21
121.9500000000772
 31
0.0
  0
LINE
  5
141
  8
DATA
  6
CONTINUOUS
 62
     7
 10
53.900000000222761
 20
145.55000000007709
 30
0.0
 11
53.900000000222761
 21
118.75000000007699
 31
0.0
  0
LINE
  5
142
  8
DATA
  6
CONTINUOUS
 62
     7
 10
-112.89999999977719
 20
145.55000000007709
 30
0.0
 11
-112.89999999977719
 21
118.75000000007699
 31
0.0
  0
ARC
  5
143
  8
DATA
  6
CONTINUOUS
 62
     7
 10
-116.0999999997772
 20
121.9500000000772
 30
0.0
 40
1.6000000000000221
 50
270.0
 51
0.0
  0
ARC
  5
144
  8
DATA
  6
CONTINUOUS
 62
     7
 10
-114.4999999997772
 20
120.3500000000771
 30
0.0
 40
1.6000000000000221
 50
270.0
 51
0.0
  0
ARC
  5
145
  8
DATA
  6
CONTINUOUS
 62
     7
 10
55.500000000222791
 20
120.3500000000771
 30
0.0
 40
1.6000000000000221
 50
180.0
 51
270.0
  0
ARC
  5
146
  8
DATA
  6
CONTINUOUS
 62
     7
 10
57.100000000222813
 20
121.9500000000772
 30
0.0
 40
1.6000000000000221
 50
180.0
 51
270.0
  0
LINE
  5
147
  8
DATA
  6
CONTINUOUS
 62
     7
 10
52.300000000222823
 20
147.15000000007711
 30
0.0
 11
-111.2999999997772
 21
147.15000000007711
 31
0.0
  0
ARC
  5
148
  8
DATA
  6
CONTINUOUS
 62
     7
 10
-111.2999999997772
 20
145.5500000000772
 30
0.0
 40
1.599999999999965
 50
90.0
 51
180.00000000000099
  0
ARC
  5
149
  8
DATA
  6
CONTINUOUS
 62
     7
 10
-112.89999999977719
 20
147.15000000007711
 30
0.0
 40
1.6000000000000221
 50
90.0
 51
179.99999999999901
  0
ARC
  5
14A
  8
DATA
  6
CONTINUOUS
 62
     7
 10
52.300000000222823
 20
145.55000000007709
 30
0.0
 40
1.599999999999965
 50
0.0
 51
90.0
  0
ARC
  5
14B
  8
DATA
  6
CONTINUOUS
 62
     7
 10
53.900000000222761
 20
147.15000000007711
 30
0.0
 40
1.6000000000000221
 50
0.0
 51
90.0
  0
CIRCLE
  5
14C
  8
DATA
  6
CONTINUOUS
 62
     7
 10
-95.499999999777188
 20
135.25000000007711
 30
0.0
 40
3.75
  0
CIRCLE
  5
14D
  8
DATA
  6
CONTINUOUS
 62
     7
 10
-95.499999999777188
 20
135.25000000007711
 30
0.0
 40
0.75
  0
CIRCLE
  5
14E
  8
DATA
  6
CONTINUOUS
 62
     7
 10
-95.499999999777188
 20
135.25000000007711
 30
0.0
 40
5.5
  0
POLYLINE
  5
14F
  8
DATA
  6
CONTINUOUS
 62
     7
 66
     1
 10
0.0
 20
0.0
 30
0.0
 70
     1
  0
VERTEX
  5
9BA
  8
DATA
  6
CONTINUOUS
 62
     7
 10
-100.9999999997772
 20
135.25000000007711
 30
0.0
  0
VERTEX
  5
9BB
  8
DATA
  6
CONTINUOUS
 62
     7
 10
-98.249999999777202
 20
130.48686027926269
 30
0.0
  0
VERTEX
  5
9BC
  8
DATA
  6
CONTINUOUS
 62
     7
 10
-92.749999999777188
 20
130.48686027926269
 30
0.0
  0
VERTEX
  5
9BD
  8
DATA
  6
CONTINUOUS
 62
     7
 10
-89.999999999777188
 20
135.25000000007711
 30
0.0
  0
VERTEX
  5
9BE
  8
DATA
  6
CONTINUOUS
 62
     7
 10
-92.749999999777188
 20
140.0131397208915
 30
0.0
  0
VERTEX
  5
9BF
  8
DATA
  6
CONTINUOUS
 62
     7
 10
-98.249999999777202
 20
140.0131397208915
 30
0.0
  0
SEQEND
  5
9C0
  8
DATA
  6
CONTINUOUS
 62
     7
  0
CIRCLE
  5
158
  8
DATA
  6
CONTINUOUS
 62
     7
 10
-2.4194676753015321
 20
131.19313729151929
 30
0.0
 40
1.17500000000001
  0
POLYLINE
  5
159
  8
DATA
  6
CONTINUOUS
 62
     7
 66
     1
 10
0.0
 20
0.0
 30
0.0
 70
     1
  0
VERTEX
  5
9C1
  8
DATA
  6
CONTINUOUS
 62
     7
 10
-2.4194676753015321
 20
133.89313729151911
 30
0.0
  0
VERTEX
  5
9C2
  8
DATA
  6
CONTINUOUS
 62
     7
 10
-4.7577362655192843
 20
132.543137291519
 30
0.0
  0
VERTEX
  5
9C3
  8
DATA
  6
CONTINUOUS
 62
     7
 10
-4.7577362655192843
 20
129.8431372915195
 30
0.0
  0
VERTEX
  5
9C4
  8
DATA
  6
CONTINUOUS
 62
     7
 10
-2.4194676753015321
 20
128.4931372915195
 30
0.0
  0
VERTEX
  5
9C5
  8
DATA
  6
CONTINUOUS
 62
     7
 10
-0.0811990850835542
 20
129.8431372915195
 30
0.0
  0
VERTEX
  5
9C6
  8
DATA
  6
CONTINUOUS
 62
     7
 10
-0.0811990850835542
 20
132.543137291519
 30
0.0
  0
SEQEND
  5
9C7
  8
DATA
  6
CONTINUOUS
 62
     7
  0
CIRCLE
  5
162
  8
DATA
  6
CONTINUOUS
 62
     7
 10
-27.419467675301551
 20
131.19313729151929
 30
0.0
 40
1.17500000000001
  0
POLYLINE
  5
163
  8
DATA
  6
CONTINUOUS
 62
     7
 66
     1
 10
0.0
 20
0.0
 30
0.0
 70
     1
  0
VERTEX
  5
9C8
  8
DATA
  6
CONTINUOUS
 62
     7
 10
-27.41946767530154
 20
133.89313729151911
 30
0.0
  0
VERTEX
  5
9C9
  8
DATA
  6
CONTINUOUS
 62
     7
 10
-29.757736265519451
 20
132.543137291519
 30
0.0
  0
VERTEX
  5
9CA
  8
DATA
  6
CONTINUOUS
 62
     7
 10
-29.757736265519451
 20
129.8431372915195
 30
0.0
  0
VERTEX
  5
9CB
  8
DATA
  6
CONTINUOUS
 62
     7
 10
-27.41946767530154
 20
128.4931372915195
 30
0.0
  0
VERTEX
  5
9CC
  8
DATA
  6
CONTINUOUS
 62
     7
 10
-25.081199085083561
 20
129.8431372915195
 30
0.0
  0
VERTEX
  5
9CD
  8
DATA
  6
CONTINUOUS
 62
     7
 10
-25.081199085083561
 20
132.543137291519
 30
0.0
  0
SEQEND
  5
9CE
  8
DATA
  6
CONTINUOUS
 62
     7
  0
LINE
  5
16C
  8
DATA
  6
CONTINUOUS
 62
     7
 10
-9.3177044651128131
 20
127.19313729151941
 30
0.0
 11
-20.521230885490031
 21
127.19313729151941
 31
0.0
  0
LINE
  5
16D
  8
DATA
  6
CONTINUOUS
 62
     7
 10
-21.33373088548991
 20
135.19313729151901
 30
0.0
 11
-8.5052044651128114
 21
135.19313729151901
 31
0.0
  0
LINE
  5
16E
  8
DATA
  6
CONTINUOUS
 62
     7
 10
-21.904447732741581
 20
128.37700965913641
 30
0.0
 11
-22.71694773274147
 21
133.577009659136
 31
0.0
  0
LINE
  5
16F
  8
DATA
  6
CONTINUOUS
 62
     7
 10
-7.1219876178612491
 20
133.577009659136
 30
0.0
 11
-7.9344876178612491
 21
128.37700965913641
 31
0.0
  0
CIRCLE
  5
170
  8
DATA
  6
CONTINUOUS
 62
     7
 10
-14.94609744577634
 20
132.82944546267279
 30
0.0
 40
0.5
  0
ARC
  5
171
  8
DATA
  6
CONTINUOUS
 62
     7
 10
-21.333730885489931
 20
133.793137291519
 30
0.0
 40
1.399999999999977
 50
89.999999999999389
 51
188.88065915052059
  0
ARC
  5
172
  8
DATA
  6
CONTINUOUS
 62
     7
 10
-8.5052044651128114
 20
133.793137291519
 30
0.0
 40
1.400000000000019
 50
351.11934084947939
 51
90.0
  0
ARC
  5
173
  8
DATA
  6
CONTINUOUS
 62
     7
 10
-20.521230885490041
 20
128.5931372915195
 30
0.0
 40
1.4000000000000281
 50
188.88065915052289
 51
270.0
  0
ARC
  5
174
  8
DATA
  6
CONTINUOUS
 62
     7
 10
-9.3177044651128131
 20
128.5931372915195
 30
0.0
 40
1.400000000000146
 50
270.0
 51
351.11934084947723
  0
CIRCLE
  5
175
  8
DATA
  6
CONTINUOUS
 62
     7
 10
-17.446097445776338
 20
132.82944546267279
 30
0.0
 40
0.5
  0
CIRCLE
  5
176
  8
DATA
  6
CONTINUOUS
 62
     7
 10
-19.94609744577636
 20
132.82944546267279
 30
0.0
 40
0.5
  0
CIRCLE
  5
177
  8
DATA
  6
CONTINUOUS
 62
     7
 10
-12.44609744577634
 20
132.82944546267279
 30
0.0
 40
0.5
  0
CIRCLE
  5
178
  8
DATA
  6
CONTINUOUS
 62
     7
 10
-9.9460974457763456
 20
132.82944546267279
 30
0.0
 40
0.5
  0
CIRCLE
  5
179
  8
DATA
  6
CONTINUOUS
 62
     7
 10
-16.141608621847588
 20
129.21092504391049
 30
0.0
 40
0.5
  0
CIRCLE
  5
17A
  8
DATA
  6
CONTINUOUS
 62
     7
 10
-18.641608621847588
 20
129.21092504391049
 30
0.0
 40
0.5
  0
CIRCLE
  5
17B
  8
DATA
  6
CONTINUOUS
 62
     7
 10
-13.64160862184759
 20
129.21092504391049
 30
0.0
 40
0.5
  0
CIRCLE
  5
17C
  8
DATA
  6
CONTINUOUS
 62
     7
 10
-11.14160862184759
 20
129.21092504391049
 30
0.0
 40
0.5
  0
CIRCLE
  5
17D
  8
DATA
  6
CONTINUOUS
 62
     7
 10
-70.500291650972414
 20
131.17524615867831
 30
0.0
 40
1.1750000000001251
  0
POLYLINE
  5
17E
  8
DATA
  6
CONTINUOUS
 62
     7
 66
     1
 10
0.0
 20
0.0
 30
0.0
 70
     1
  0
VERTEX
  5
9CF
  8
DATA
  6
CONTINUOUS
 62
     7
 10
-70.500291650972414
 20
133.87524615867829
 30
0.0
  0
VERTEX
  5
9D0
  8
DATA
  6
CONTINUOUS
 62
     7
 10
-72.838560241190351
 20
132.52524615867841
 30
0.0
  0
VERTEX
  5
9D1
  8
DATA
  6
CONTINUOUS
 62
     7
 10
-72.838560241190351
 20
129.82524615867831
 30
0.0
  0
VERTEX
  5
9D2
  8
DATA
  6
CONTINUOUS
 62
     7
 10
-70.500291650972414
 20
128.4752461586784
 30
0.0
  0
VERTEX
  5
9D3
  8
DATA
  6
CONTINUOUS
 62
     7
 10
-68.162023060754208
 20
129.82524615867831
 30
0.0
  0
VERTEX
  5
9D4
  8
DATA
  6
CONTINUOUS
 62
     7
 10
-68.162023060754208
 20
132.52524615867841
 30
0.0
  0
SEQEND
  5
9D5
  8
DATA
  6
CONTINUOUS
 62
     7
  0
CIRCLE
  5
187
  8
DATA
  6
CONTINUOUS
 62
     7
 10
-38.00029165097196
 20
131.17524615867831
 30
0.0
 40
1.1750000000000671
  0
POLYLINE
  5
188
  8
DATA
  6
CONTINUOUS
 62
     7
 66
     1
 10
0.0
 20
0.0
 30
0.0
 70
     1
  0
VERTEX
  5
9D6
  8
DATA
  6
CONTINUOUS
 62
     7
 10
-38.00029165097196
 20
133.87524615867829
 30
0.0
  0
VERTEX
  5
9D7
  8
DATA
  6
CONTINUOUS
 62
     7
 10
-40.338560241189882
 20
132.52524615867841
 30
0.0
  0
VERTEX
  5
9D8
  8
DATA
  6
CONTINUOUS
 62
     7
 10
-40.338560241189882
 20
129.82524615867831
 30
0.0
  0
VERTEX
  5
9D9
  8
DATA
  6
CONTINUOUS
 62
     7
 10
-38.00029165097196
 20
128.4752461586784
 30
0.0
  0
VERTEX
  5
9DA
  8
DATA
  6
CONTINUOUS
 62
     7
 10
-35.66202306075391
 20
129.82524615867831
 30
0.0
  0
VERTEX
  5
9DB
  8
DATA
  6
CONTINUOUS
 62
     7
 10
-35.66202306075391
 20
132.52524615867841
 30
0.0
  0
SEQEND
  5
9DC
  8
DATA
  6
CONTINUOUS
 62
     7
  0
LINE
  5
191
  8
DATA
  6
CONTINUOUS
 62
     7
 10
-65.200196538163695
 20
135.10024615867829
 30
0.0
 11
-43.300386763780111
 21
135.10024615867829
 31
0.0
  0
LINE
  5
192
  8
DATA
  6
CONTINUOUS
 62
     7
 10
-43.859303961232392
 20
127.25024615867839
 30
0.0
 11
-64.64127934071135
 21
127.25024615867839
 31
0.0
  0
POLYLINE
  5
193
  8
DATA
  6
CONTINUOUS
 62
     7
 66
     1
 10
0.0
 20
0.0
 30
0.0
 70
     1
  0
VERTEX
  5
9DD
  8
DATA
  6
CONTINUOUS
 62
     7
 10
-65.250357822151202
 20
131.94024615867829
 30
0.0
  0
VERTEX
  5
9DE
  8
DATA
  6
CONTINUOUS
 62
     7
 10
-63.720357822151172
 20
131.94024615867829
 30
0.0
  0
VERTEX
  5
9DF
  8
DATA
  6
CONTINUOUS
 62
     7
 10
-63.720357822151172
 20
130.4102461586784
 30
0.0
  0
VERTEX
  5
9E0
  8
DATA
  6
CONTINUOUS
 62
     7
 10
-65.250357822151202
 20
130.4102461586784
 30
0.0
  0
SEQEND
  5
9E1
  8
DATA
  6
CONTINUOUS
 62
     7
  0
POLYLINE
  5
19A
  8
DATA
  6
CONTINUOUS
 62
     7
 66
     1
 10
0.0
 20
0.0
 30
0.0
 70
     1
  0
VERTEX
  5
9E2
  8
DATA
  6
CONTINUOUS
 62
     7
 10
-63.250357822151202
 20
131.94024615867829
 30
0.0
  0
VERTEX
  5
9E3
  8
DATA
  6
CONTINUOUS
 62
     7
 10
-61.720357822151222
 20
131.94024615867829
 30
0.0
  0
VERTEX
  5
9E4
  8
DATA
  6
CONTINUOUS
 62
     7
 10
-61.720357822151222
 20
130.4102461586784
 30
0.0
  0
VERTEX
  5
9E5
  8
DATA
  6
CONTINUOUS
 62
     7
 10
-63.250357822151202
 20
130.4102461586784
 30
0.0
  0
SEQEND
  5
9E6
  8
DATA
  6
CONTINUOUS
 62
     7
  0
POLYLINE
  5
1A1
  8
DATA
  6
CONTINUOUS
 62
     7
 66
     1
 10
0.0
 20
0.0
 30
0.0
 70
     1
  0
VERTEX
  5
9E7
  8
DATA
  6
CONTINUOUS
 62
     7
 10
-61.250357822151202
 20
131.94024615867829
 30
0.0
  0
VERTEX
  5
9E8
  8
DATA
  6
CONTINUOUS
 62
     7
 10
-59.720357822151222
 20
131.94024615867829
 30
0.0
  0
VERTEX
  5
9E9
  8
DATA
  6
CONTINUOUS
 62
     7
 10
-59.720357822151222
 20
130.4102461586784
 30
0.0
  0
VERTEX
  5
9EA
  8
DATA
  6
CONTINUOUS
 62
     7
 10
-61.250357822151202
 20
130.4102461586784
 30
0.0
  0
SEQEND
  5
9EB
  8
DATA
  6
CONTINUOUS
 62
     7
  0
POLYLINE
  5
1A8
  8
DATA
  6
CONTINUOUS
 62
     7
 66
     1
 10
0.0
 20
0.0
 30
0.0
 70
     1
  0
VERTEX
  5
9EC
  8
DATA
  6
CONTINUOUS
 62
     7
 10
-59.250357822151202
 20
131.94024615867829
 30
0.0
  0
VERTEX
  5
9ED
  8
DATA
  6
CONTINUOUS
 62
     7
 10
-57.720357822151222
 20
131.94024615867829
 30
0.0
  0
VERTEX
  5
9EE
  8
DATA
  6
CONTINUOUS
 62
     7
 10
-57.720357822151222
 20
130.4102461586784
 30
0.0
  0
VERTEX
  5
9EF
  8
DATA
  6
CONTINUOUS
 62
     7
 10
-59.250357822151202
 20
130.4102461586784
 30
0.0
  0
SEQEND
  5
9F0
  8
DATA
  6
CONTINUOUS
 62
     7
  0
POLYLINE
  5
1AF
  8
DATA
  6
CONTINUOUS
 62
     7
 66
     1
 10
0.0
 20
0.0
 30
0.0
 70
     1
  0
VERTEX
  5
9F1
  8
DATA
  6
CONTINUOUS
 62
     7
 10
-57.250357822151202
 20
131.94024615867829
 30
0.0
  0
VERTEX
  5
9F2
  8
DATA
  6
CONTINUOUS
 62
     7
 10
-55.720357822151222
 20
131.94024615867829
 30
0.0
  0
VERTEX
  5
9F3
  8
DATA
  6
CONTINUOUS
 62
     7
 10
-55.720357822151222
 20
130.4102461586784
 30
0.0
  0
VERTEX
  5
9F4
  8
DATA
  6
CONTINUOUS
 62
     7
 10
-57.250357822151202
 20
130.4102461586784
 30
0.0
  0
SEQEND
  5
9F5
  8
DATA
  6
CONTINUOUS
 62
     7
  0
POLYLINE
  5
1B6
  8
DATA
  6
CONTINUOUS
 62
     7
 66
     1
 10
0.0
 20
0.0
 30
0.0
 70
     1
  0
VERTEX
  5
9F6
  8
DATA
  6
CONTINUOUS
 62
     7
 10
-55.250357822151202
 20
131.94024615867829
 30
0.0
  0
VERTEX
  5
9F7
  8
DATA
  6
CONTINUOUS
 62
     7
 10
-53.720357822151222
 20
131.94024615867829
 30
0.0
  0
VERTEX
  5
9F8
  8
DATA
  6
CONTINUOUS
 62
     7
 10
-53.720357822151222
 20
130.4102461586784
 30
0.0
  0
VERTEX
  5
9F9
  8
DATA
  6
CONTINUOUS
 62
     7
 10
-55.250357822151202
 20
130.4102461586784
 30
0.0
  0
SEQEND
  5
9FA
  8
DATA
  6
CONTINUOUS
 62
     7
  0
POLYLINE
  5
1BD
  8
DATA
  6
CONTINUOUS
 62
     7
 66
     1
 10
0.0
 20
0.0
 30
0.0
 70
     1
  0
VERTEX
  5
9FB
  8
DATA
  6
CONTINUOUS
 62
     7
 10
-53.250357822151202
 20
131.94024615867829
 30
0.0
  0
VERTEX
  5
9FC
  8
DATA
  6
CONTINUOUS
 62
     7
 10
-51.720357822151222
 20
131.94024615867829
 30
0.0
  0
VERTEX
  5
9FD
  8
DATA
  6
CONTINUOUS
 62
     7
 10
-51.720357822151222
 20
130.4102461586784
 30
0.0
  0
VERTEX
  5
9FE
  8
DATA
  6
CONTINUOUS
 62
     7
 10
-53.250357822151202
 20
130.4102461586784
 30
0.0
  0
SEQEND
  5
9FF
  8
DATA
  6
CONTINUOUS
 62
     7
  0
POLYLINE
  5
1C4
  8
DATA
  6
CONTINUOUS
 62
     7
 66
     1
 10
0.0
 20
0.0
 30
0.0
 70
     1
  0
VERTEX
  5
A00
  8
DATA
  6
CONTINUOUS
 62
     7
 10
-51.250357822151202
 20
131.94024615867829
 30
0.0
  0
VERTEX
  5
A01
  8
DATA
  6
CONTINUOUS
 62
     7
 10
-49.720357822151222
 20
131.94024615867829
 30
0.0
  0
VERTEX
  5
A02
  8
DATA
  6
CONTINUOUS
 62
     7
 10
-49.720357822151222
 20
130.4102461586784
 30
0.0
  0
VERTEX
  5
A03
  8
DATA
  6
CONTINUOUS
 62
     7
 10
-51.250357822151202
 20
130.4102461586784
 30
0.0
  0
SEQEND
  5
A04
  8
DATA
  6
CONTINUOUS
 62
     7
  0
POLYLINE
  5
1CB
  8
DATA
  6
CONTINUOUS
 62
     7
 66
     1
 10
0.0
 20
0.0
 30
0.0
 70
     1
  0
VERTEX
  5
A05
  8
DATA
  6
CONTINUOUS
 62
     7
 10
-65.250357822151202
 20
133.94024615867829
 30
0.0
  0
VERTEX
  5
A06
  8
DATA
  6
CONTINUOUS
 62
     7
 10
-63.720357822151172
 20
133.94024615867829
 30
0.0
  0
VERTEX
  5
A07
  8
DATA
  6
CONTINUOUS
 62
     7
 10
-63.720357822151172
 20
132.4102461586784
 30
0.0
  0
VERTEX
  5
A08
  8
DATA
  6
CONTINUOUS
 62
     7
 10
-65.250357822151202
 20
132.4102461586784
 30
0.0
  0
SEQEND
  5
A09
  8
DATA
  6
CONTINUOUS
 62
     7
  0
POLYLINE
  5
1D2
  8
DATA
  6
CONTINUOUS
 62
     7
 66
     1
 10
0.0
 20
0.0
 30
0.0
 70
     1
  0
VERTEX
  5
A0A
  8
DATA
  6
CONTINUOUS
 62
     7
 10
-63.250357822151202
 20
133.94024615867829
 30
0.0
  0
VERTEX
  5
A0B
  8
DATA
  6
CONTINUOUS
 62
     7
 10
-61.720357822151222
 20
133.94024615867829
 30
0.0
  0
VERTEX
  5
A0C
  8
DATA
  6
CONTINUOUS
 62
     7
 10
-61.720357822151222
 20
132.4102461586784
 30
0.0
  0
VERTEX
  5
A0D
  8
DATA
  6
CONTINUOUS
 62
     7
 10
-63.250357822151202
 20
132.4102461586784
 30
0.0
  0
SEQEND
  5
A0E
  8
DATA
  6
CONTINUOUS
 62
     7
  0
POLYLINE
  5
1D9
  8
DATA
  6
CONTINUOUS
 62
     7
 66
     1
 10
0.0
 20
0.0
 30
0.0
 70
     1
  0
VERTEX
  5
A0F
  8
DATA
  6
CONTINUOUS
 62
     7
 10
-61.250357822151202
 20
133.94024615867829
 30
0.0
  0
VERTEX
  5
A10
  8
DATA
  6
CONTINUOUS
 62
     7
 10
-59.720357822151222
 20
133.94024615867829
 30
0.0
  0
VERTEX
  5
A11
  8
DATA
  6
CONTINUOUS
 62
     7
 10
-59.720357822151222
 20
132.4102461586784
 30
0.0
  0
VERTEX
  5
A12
  8
DATA
  6
CONTINUOUS
 62
     7
 10
-61.250357822151202
 20
132.4102461586784
 30
0.0
  0
SEQEND
  5
A13
  8
DATA
  6
CONTINUOUS
 62
     7
  0
POLYLINE
  5
1E0
  8
DATA
  6
CONTINUOUS
 62
     7
 66
     1
 10
0.0
 20
0.0
 30
0.0
 70
     1
  0
VERTEX
  5
A14
  8
DATA
  6
CONTINUOUS
 62
     7
 10
-59.250357822151202
 20
133.94024615867829
 30
0.0
  0
VERTEX
  5
A15
  8
DATA
  6
CONTINUOUS
 62
     7
 10
-57.720357822151222
 20
133.94024615867829
 30
0.0
  0
VERTEX
  5
A16
  8
DATA
  6
CONTINUOUS
 62
     7
 10
-57.720357822151222
 20
132.4102461586784
 30
0.0
  0
VERTEX
  5
A17
  8
DATA
  6
CONTINUOUS
 62
     7
 10
-59.250357822151202
 20
132.4102461586784
 30
0.0
  0
SEQEND
  5
A18
  8
DATA
  6
CONTINUOUS
 62
     7
  0
POLYLINE
  5
1E7
  8
DATA
  6
CONTINUOUS
 62
     7
 66
     1
 10
0.0
 20
0.0
 30
0.0
 70
     1
  0
VERTEX
  5
A19
  8
DATA
  6
CONTINUOUS
 62
     7
 10
-57.250357822151202
 20
133.94024615867829
 30
0.0
  0
VERTEX
  5
A1A
  8
DATA
  6
CONTINUOUS
 62
     7
 10
-55.720357822151222
 20
133.94024615867829
 30
0.0
  0
VERTEX
  5
A1B
  8
DATA
  6
CONTINUOUS
 62
     7
 10
-55.720357822151222
 20
132.4102461586784
 30
0.0
  0
VERTEX
  5
A1C
  8
DATA
  6
CONTINUOUS
 62
     7
 10
-57.250357822151202
 20
132.4102461586784
 30
0.0
  0
SEQEND
  5
A1D
  8
DATA
  6
CONTINUOUS
 62
     7
  0
POLYLINE
  5
1EE
  8
DATA
  6
CONTINUOUS
 62
     7
 66
     1
 10
0.0
 20
0.0
 30
0.0
 70
     1
  0
VERTEX
  5
A1E
  8
DATA
  6
CONTINUOUS
 62
     7
 10
-55.250357822151202
 20
133.94024615867829
 30
0.0
  0
VERTEX
  5
A1F
  8
DATA
  6
CONTINUOUS
 62
     7
 10
-53.720357822151222
 20
133.94024615867829
 30
0.0
  0
VERTEX
  5
A20
  8
DATA
  6
CONTINUOUS
 62
     7
 10
-53.720357822151222
 20
132.4102461586784
 30
0.0
  0
VERTEX
  5
A21
  8
DATA
  6
CONTINUOUS
 62
     7
 10
-55.250357822151202
 20
132.4102461586784
 30
0.0
  0
SEQEND
  5
A22
  8
DATA
  6
CONTINUOUS
 62
     7
  0
POLYLINE
  5
1F5
  8
DATA
  6
CONTINUOUS
 62
     7
 66
     1
 10
0.0
 20
0.0
 30
0.0
 70
     1
  0
VERTEX
  5
A23
  8
DATA
  6
CONTINUOUS
 62
     7
 10
-53.250357822151202
 20
133.94024615867829
 30
0.0
  0
VERTEX
  5
A24
  8
DATA
  6
CONTINUOUS
 62
     7
 10
-51.720357822151222
 20
133.94024615867829
 30
0.0
  0
VERTEX
  5
A25
  8
DATA
  6
CONTINUOUS
 62
     7
 10
-51.720357822151222
 20
132.4102461586784
 30
0.0
  0
VERTEX
  5
A26
  8
DATA
  6
CONTINUOUS
 62
     7
 10
-53.250357822151202
 20
132.4102461586784
 30
0.0
  0
SEQEND
  5
A27
  8
DATA
  6
CONTINUOUS
 62
     7
  0
POLYLINE
  5
1FC
  8
DATA
  6
CONTINUOUS
 62
     7
 66
     1
 10
0.0
 20
0.0
 30
0.0
 70
     1
  0
VERTEX
  5
A28
  8
DATA
  6
CONTINUOUS
 62
     7
 10
-51.250357822151202
 20
133.94024615867829
 30
0.0
  0
VERTEX
  5
A29
  8
DATA
  6
CONTINUOUS
 62
     7
 10
-49.720357822151222
 20
133.94024615867829
 30
0.0
  0
VERTEX
  5
A2A
  8
DATA
  6
CONTINUOUS
 62
     7
 10
-49.720357822151222
 20
132.4102461586784
 30
0.0
  0
VERTEX
  5
A2B
  8
DATA
  6
CONTINUOUS
 62
     7
 10
-51.250357822151202
 20
132.4102461586784
 30
0.0
  0
SEQEND
  5
A2C
  8
DATA
  6
CONTINUOUS
 62
     7
  0
POLYLINE
  5
203
  8
DATA
  6
CONTINUOUS
 62
     7
 66
     1
 10
0.0
 20
0.0
 30
0.0
 70
     1
  0
VERTEX
  5
A2D
  8
DATA
  6
CONTINUOUS
 62
     7
 10
-65.250357822151202
 20
129.94024615867829
 30
0.0
  0
VERTEX
  5
A2E
  8
DATA
  6
CONTINUOUS
 62
     7
 10
-63.720357822151172
 20
129.94024615867829
 30
0.0
  0
VERTEX
  5
A2F
  8
DATA
  6
CONTINUOUS
 62
     7
 10
-63.720357822151172
 20
128.41024615867829
 30
0.0
  0
VERTEX
  5
A30
  8
DATA
  6
CONTINUOUS
 62
     7
 10
-65.250357822151202
 20
128.41024615867829
 30
0.0
  0
SEQEND
  5
A31
  8
DATA
  6
CONTINUOUS
 62
     7
  0
POLYLINE
  5
20A
  8
DATA
  6
CONTINUOUS
 62
     7
 66
     1
 10
0.0
 20
0.0
 30
0.0
 70
     1
  0
VERTEX
  5
A32
  8
DATA
  6
CONTINUOUS
 62
     7
 10
-63.250357822151202
 20
129.94024615867829
 30
0.0
  0
VERTEX
  5
A33
  8
DATA
  6
CONTINUOUS
 62
     7
 10
-61.720357822151222
 20
129.94024615867829
 30
0.0
  0
VERTEX
  5
A34
  8
DATA
  6
CONTINUOUS
 62
     7
 10
-61.720357822151222
 20
128.41024615867829
 30
0.0
  0
VERTEX
  5
A35
  8
DATA
  6
CONTINUOUS
 62
     7
 10
-63.250357822151202
 20
128.41024615867829
 30
0.0
  0
SEQEND
  5
A36
  8
DATA
  6
CONTINUOUS
 62
     7
  0
POLYLINE
  5
211
  8
DATA
  6
CONTINUOUS
 62
     7
 66
     1
 10
0.0
 20
0.0
 30
0.0
 70
     1
  0
VERTEX
  5
A37
  8
DATA
  6
CONTINUOUS
 62
     7
 10
-61.250357822151202
 20
129.94024615867829
 30
0.0
  0
VERTEX
  5
A38
  8
DATA
  6
CONTINUOUS
 62
     7
 10
-59.720357822151222
 20
129.94024615867829
 30
0.0
  0
VERTEX
  5
A39
  8
DATA
  6
CONTINUOUS
 62
     7
 10
-59.720357822151222
 20
128.41024615867829
 30
0.0
  0
VERTEX
  5
A3A
  8
DATA
  6
CONTINUOUS
 62
     7
 10
-61.250357822151202
 20
128.41024615867829
 30
0.0
  0
SEQEND
  5
A3B
  8
DATA
  6
CONTINUOUS
 62
     7
  0
POLYLINE
  5
218
  8
DATA
  6
CONTINUOUS
 62
     7
 66
     1
 10
0.0
 20
0.0
 30
0.0
 70
     1
  0
VERTEX
  5
A3C
  8
DATA
  6
CONTINUOUS
 62
     7
 10
-59.250357822151202
 20
129.94024615867829
 30
0.0
  0
VERTEX
  5
A3D
  8
DATA
  6
CONTINUOUS
 62
     7
 10
-57.720357822151222
 20
129.94024615867829
 30
0.0
  0
VERTEX
  5
A3E
  8
DATA
  6
CONTINUOUS
 62
     7
 10
-57.720357822151222
 20
128.41024615867829
 30
0.0
  0
VERTEX
  5
A3F
  8
DATA
  6
CONTINUOUS
 62
     7
 10
-59.250357822151202
 20
128.41024615867829
 30
0.0
  0
SEQEND
  5
A40
  8
DATA
  6
CONTINUOUS
 62
     7
  0
POLYLINE
  5
21F
  8
DATA
  6
CONTINUOUS
 62
     7
 66
     1
 10
0.0
 20
0.0
 30
0.0
 70
     1
  0
VERTEX
  5
A41
  8
DATA
  6
CONTINUOUS
 62
     7
 10
-57.250357822151202
 20
129.94024615867829
 30
0.0
  0
VERTEX
  5
A42
  8
DATA
  6
CONTINUOUS
 62
     7
 10
-55.720357822151222
 20
129.94024615867829
 30
0.0
  0
VERTEX
  5
A43
  8
DATA
  6
CONTINUOUS
 62
     7
 10
-55.720357822151222
 20
128.41024615867829
 30
0.0
  0
VERTEX
  5
A44
  8
DATA
  6
CONTINUOUS
 62
     7
 10
-57.250357822151202
 20
128.41024615867829
 30
0.0
  0
SEQEND
  5
A45
  8
DATA
  6
CONTINUOUS
 62
     7
  0
POLYLINE
  5
226
  8
DATA
  6
CONTINUOUS
 62
     7
 66
     1
 10
0.0
 20
0.0
 30
0.0
 70
     1
  0
VERTEX
  5
A46
  8
DATA
  6
CONTINUOUS
 62
     7
 10
-55.250357822151202
 20
129.94024615867829
 30
0.0
  0
VERTEX
  5
A47
  8
DATA
  6
CONTINUOUS
 62
     7
 10
-53.720357822151222
 20
129.94024615867829
 30
0.0
  0
VERTEX
  5
A48
  8
DATA
  6
CONTINUOUS
 62
     7
 10
-53.720357822151222
 20
128.41024615867829
 30
0.0
  0
VERTEX
  5
A49
  8
DATA
  6
CONTINUOUS
 62
     7
 10
-55.250357822151202
 20
128.41024615867829
 30
0.0
  0
SEQEND
  5
A4A
  8
DATA
  6
CONTINUOUS
 62
     7
  0
POLYLINE
  5
22D
  8
DATA
  6
CONTINUOUS
 62
     7
 66
     1
 10
0.0
 20
0.0
 30
0.0
 70
     1
  0
VERTEX
  5
A4B
  8
DATA
  6
CONTINUOUS
 62
     7
 10
-53.250357822151202
 20
129.94024615867829
 30
0.0
  0
VERTEX
  5
A4C
  8
DATA
  6
CONTINUOUS
 62
     7
 10
-51.720357822151222
 20
129.94024615867829
 30
0.0
  0
VERTEX
  5
A4D
  8
DATA
  6
CONTINUOUS
 62
     7
 10
-51.720357822151222
 20
128.41024615867829
 30
0.0
  0
VERTEX
  5
A4E
  8
DATA
  6
CONTINUOUS
 62
     7
 10
-53.250357822151202
 20
128.41024615867829
 30
0.0
  0
SEQEND
  5
A4F
  8
DATA
  6
CONTINUOUS
 62
     7
  0
POLYLINE
  5
234
  8
DATA
  6
CONTINUOUS
 62
     7
 66
     1
 10
0.0
 20
0.0
 30
0.0
 70
     1
  0
VERTEX
  5
A50
  8
DATA
  6
CONTINUOUS
 62
     7
 10
-51.250357822151202
 20
129.94024615867829
 30
0.0
  0
VERTEX
  5
A51
  8
DATA
  6
CONTINUOUS
 62
     7
 10
-49.720357822151222
 20
129.94024615867829
 30
0.0
  0
VERTEX
  5
A52
  8
DATA
  6
CONTINUOUS
 62
     7
 10
-49.720357822151222
 20
128.41024615867829
 30
0.0
  0
VERTEX
  5
A53
  8
DATA
  6
CONTINUOUS
 62
     7
 10
-51.250357822151202
 20
128.41024615867829
 30
0.0
  0
SEQEND
  5
A54
  8
DATA
  6
CONTINUOUS
 62
     7
  0
POLYLINE
  5
23B
  8
DATA
  6
CONTINUOUS
 62
     7
 66
     1
 10
0.0
 20
0.0
 30
0.0
  0
VERTEX
  5
A55
  8
DATA
  6
CONTINUOUS
 62
     7
 10
-45.700291650971778
 20
131.57524615867831
 30
0.0
  0
VERTEX
  5
A56
  8
DATA
  6
CONTINUOUS
 62
     7
 10
-43.600291650971741
 20
131.57524615867831
 30
0.0
  0
VERTEX
  5
A57
  8
DATA
  6
CONTINUOUS
 62
     7
 10
-43.600291650971741
 20
130.77524615867841
 30
0.0
  0
VERTEX
  5
A58
  8
DATA
  6
CONTINUOUS
 62
     7
 10
-45.700291650971778
 20
130.77524615867841
 30
0.0
  0
SEQEND
  5
A59
  8
DATA
  6
CONTINUOUS
 62
     7
  0
POLYLINE
  5
242
  8
DATA
  6
CONTINUOUS
 62
     7
 66
     1
 10
0.0
 20
0.0
 30
0.0
  0
VERTEX
  5
A5A
  8
DATA
  6
CONTINUOUS
 62
     7
 10
-46.500291650971782
 20
130.77524615867841
 30
0.0
  0
VERTEX
  5
A5B
  8
DATA
  6
CONTINUOUS
 62
     7
 10
-48.600291650971812
 20
130.77524615867841
 30
0.0
  0
VERTEX
  5
A5C
  8
DATA
  6
CONTINUOUS
 62
     7
 10
-48.600291650971812
 20
131.57524615867831
 30
0.0
  0
VERTEX
  5
A5D
  8
DATA
  6
CONTINUOUS
 62
     7
 10
-46.500291650971782
 20
131.57524615867831
 30
0.0
  0
SEQEND
  5
A5E
  8
DATA
  6
CONTINUOUS
 62
     7
  0
POLYLINE
  5
249
  8
DATA
  6
CONTINUOUS
 62
     7
 66
     1
 10
0.0
 20
0.0
 30
0.0
  0
VERTEX
  5
A5F
  8
DATA
  6
CONTINUOUS
 62
     7
 10
-45.700291650971778
 20
130.77524615867841
 30
0.0
  0
VERTEX
  5
A60
  8
DATA
  6
CONTINUOUS
 62
     7
 10
-45.700291650971778
 20
128.67524615867831
 30
0.0
  0
VERTEX
  5
A61
  8
DATA
  6
CONTINUOUS
 62
     7
 10
-46.500291650971782
 20
128.67524615867831
 30
0.0
  0
VERTEX
  5
A62
  8
DATA
  6
CONTINUOUS
 62
     7
 10
-46.500291650971782
 20
130.77524615867841
 30
0.0
  0
SEQEND
  5
A63
  8
DATA
  6
CONTINUOUS
 62
     7
  0
POLYLINE
  5
250
  8
DATA
  6
CONTINUOUS
 62
     7
 66
     1
 10
0.0
 20
0.0
 30
0.0
  0
VERTEX
  5
A64
  8
DATA
  6
CONTINUOUS
 62
     7
 10
-46.500291650971782
 20
131.57524615867831
 30
0.0
  0
VERTEX
  5
A65
  8
DATA
  6
CONTINUOUS
 62
     7
 10
-46.500291650971782
 20
133.67524615867831
 30
0.0
  0
VERTEX
  5
A66
  8
DATA
  6
CONTINUOUS
 62
     7
 10
-45.700291650971778
 20
133.67524615867831
 30
0.0
  0
VERTEX
  5
A67
  8
DATA
  6
CONTINUOUS
 62
     7
 10
-45.700291650971778
 20
131.57524615867831
 30
0.0
  0
SEQEND
  5
A68
  8
DATA
  6
CONTINUOUS
 62
     7
  0
POLYLINE
  5
257
  8
DATA
  6
CONTINUOUS
 62
     7
 66
     1
 10
0.0
 20
0.0
 30
0.0
 70
     1
  0
VERTEX
  5
A69
  8
DATA
  6
CONTINUOUS
 62
     7
 10
-47.960576081443541
 20
132.93467396932829
 30
0.0
  0
VERTEX
  5
A6A
  8
DATA
  6
CONTINUOUS
 62
     7
 10
-46.960576081443541
 20
132.93467396932829
 30
0.0
  0
VERTEX
  5
A6B
  8
DATA
  6
CONTINUOUS
 62
     7
 10
-46.960576081443541
 20
131.93467396932829
 30
0.0
  0
VERTEX
  5
A6C
  8
DATA
  6
CONTINUOUS
 62
     7
 10
-47.960576081443541
 20
131.93467396932829
 30
0.0
  0
SEQEND
  5
A6D
  8
DATA
  6
CONTINUOUS
 62
     7
  0
POLYLINE
  5
25E
  8
DATA
  6
CONTINUOUS
 62
     7
 66
     1
 10
0.0
 20
0.0
 30
0.0
 70
     1
  0
VERTEX
  5
A6E
  8
DATA
  6
CONTINUOUS
 62
     7
 10
-45.240007220500097
 20
132.93467396932829
 30
0.0
  0
VERTEX
  5
A6F
  8
DATA
  6
CONTINUOUS
 62
     7
 10
-44.24000722050009
 20
132.93467396932829
 30
0.0
  0
VERTEX
  5
A70
  8
DATA
  6
CONTINUOUS
 62
     7
 10
-44.24000722050009
 20
131.93467396932829
 30
0.0
  0
VERTEX
  5
A71
  8
DATA
  6
CONTINUOUS
 62
     7
 10
-45.240007220500097
 20
131.93467396932829
 30
0.0
  0
SEQEND
  5
A72
  8
DATA
  6
CONTINUOUS
 62
     7
  0
POLYLINE
  5
265
  8
DATA
  6
CONTINUOUS
 62
     7
 66
     1
 10
0.0
 20
0.0
 30
0.0
 70
     1
  0
VERTEX
  5
A73
  8
DATA
  6
CONTINUOUS
 62
     7
 10
-47.960576081443541
 20
130.41581834802841
 30
0.0
  0
VERTEX
  5
A74
  8
DATA
  6
CONTINUOUS
 62
     7
 10
-46.960576081443541
 20
130.41581834802841
 30
0.0
  0
VERTEX
  5
A75
  8
DATA
  6
CONTINUOUS
 62
     7
 10
-46.960576081443541
 20
129.41581834802841
 30
0.0
  0
VERTEX
  5
A76
  8
DATA
  6
CONTINUOUS
 62
     7
 10
-47.960576081443541
 20
129.41581834802841
 30
0.0
  0
SEQEND
  5
A77
  8
DATA
  6
CONTINUOUS
 62
     7
  0
POLYLINE
  5
26C
  8
DATA
  6
CONTINUOUS
 62
     7
 66
     1
 10
0.0
 20
0.0
 30
0.0
 70
     1
  0
VERTEX
  5
A78
  8
DATA
  6
CONTINUOUS
 62
     7
 10
-45.240007220500097
 20
130.41581834802841
 30
0.0
  0
VERTEX
  5
A79
  8
DATA
  6
CONTINUOUS
 62
     7
 10
-44.24000722050009
 20
130.41581834802841
 30
0.0
  0
VERTEX
  5
A7A
  8
DATA
  6
CONTINUOUS
 62
     7
 10
-44.24000722050009
 20
129.41581834802841
 30
0.0
  0
VERTEX
  5
A7B
  8
DATA
  6
CONTINUOUS
 62
     7
 10
-45.240007220500097
 20
129.41581834802841
 30
0.0
  0
SEQEND
  5
A7C
  8
DATA
  6
CONTINUOUS
 62
     7
  0
LINE
  5
273
  8
DATA
  6
CONTINUOUS
 62
     7
 10
-66.195663468919179
 20
134.00513785319211
 30
0.0
 11
-65.636746271466833
 21
128.15513785319209
 31
0.0
  0
LINE
  5
274
  8
DATA
  6
CONTINUOUS
 62
     7
 10
-42.304919833024698
 20
134.00513785319211
 30
0.0
 11
-42.863837030476972
 21
128.1551378531922
 31
0.0
  0
ARC
  5
275
  8
DATA
  6
CONTINUOUS
 62
     7
 10
-65.200196538163695
 20
134.1002461586784
 30
0.0
 40
0.9999999999999431
 50
90.0
 51
185.45755348510701
  0
ARC
  5
276
  8
DATA
  6
CONTINUOUS
 62
     7
 10
-43.300386763780047
 20
134.10024615867829
 30
0.0
 40
0.9999999999999703
 50
354.54244651489557
 51
90.000000000003297
  0
ARC
  5
277
  8
DATA
  6
CONTINUOUS
 62
     7
 10
-64.64127934071135
 20
128.25024615867841
 30
0.0
 40
1.000000000000087
 50
185.45755348510701
 51
270.0
  0
ARC
  5
278
  8
DATA
  6
CONTINUOUS
 62
     7
 10
-43.859303961232392
 20
128.25024615867841
 30
0.0
 40
1.0
 50
270.0
 51
354.5424465148958
  0
TEXT
  5
279
  8
DATA
 62
     7
 10
-23.252595176773081
 20
239.19628667781609
 30
0.0
 40
3.078125
  1
RS232 In
 41
0.7
 11
-23.252595176773081
 21
242.27441167781609
 31
0.0
 73
     3
  0
POLYLINE
  5
27A
  8
DATA
  6
CONTINUOUS
 62
     7
 66
     1
 10
0.0
 20
0.0
 30
0.0
 70
     1
  0
VERTEX
  5
A7D
  8
DATA
  6
CONTINUOUS
 62
     7
 10
23.994945687569601
 20
138.78788077474391
 30
0.0
  0
VERTEX
  5
A7E
  8
DATA
  6
CONTINUOUS
 62
     7
 10
35.494945687569611
 20
138.78788077474391
 30
0.0
  0
VERTEX
  5
A7F
  8
DATA
  6
CONTINUOUS
 62
     7
 10
35.494945687569611
 20
127.2878807747439
 30
0.0
  0
VERTEX
  5
A80
  8
DATA
  6
CONTINUOUS
 62
     7
 10
23.994945687569601
 20
127.2878807747439
 30
0.0
  0
SEQEND
  5
A81
  8
DATA
  6
CONTINUOUS
 62
     7
  0
POLYLINE
  5
281
  8
DATA
  6
CONTINUOUS
 62
     7
 66
     1
 10
0.0
 20
0.0
 30
0.0
  0
VERTEX
  5
A82
  8
DATA
  6
CONTINUOUS
 62
     7
 10
34.044945687569609
 20
136.13788077474391
 30
0.0
  0
VERTEX
  5
A83
  8
DATA
  6
CONTINUOUS
 62
     7
 10
34.044945687569609
 20
128.7378807747439
 30
0.0
  0
VERTEX
  5
A84
  8
DATA
  6
CONTINUOUS
 62
     7
 10
25.444945687569589
 20
128.7378807747439
 30
0.0
  0
VERTEX
  5
A85
  8
DATA
  6
CONTINUOUS
 62
     7
 10
25.444945687569589
 20
136.13788077474391
 30
0.0
  0
SEQEND
  5
A86
  8
DATA
  6
CONTINUOUS
 62
     7
  0
LINE
  5
288
  8
DATA
  6
CONTINUOUS
 62
     7
 10
26.644945687569571
 20
137.33788077474389
 30
0.0
 11
32.84494568756962
 21
137.33788077474389
 31
0.0
  0
POLYLINE
  5
289
  8
DATA
  6
CONTINUOUS
 62
     7
 66
     1
 10
0.0
 20
0.0
 30
0.0
 70
     1
  0
VERTEX
  5
A87
  8
DATA
  6
CONTINUOUS
 62
     7
 10
26.744945687569611
 20
135.03788077474391
 30
0.0
  0
VERTEX
  5
A88
  8
DATA
  6
CONTINUOUS
 62
     7
 10
32.744945687569597
 20
135.03788077474391
 30
0.0
  0
VERTEX
  5
A89
  8
DATA
  6
CONTINUOUS
 62
     7
 10
32.744945687569597
 20
131.0378807747438
 30
0.0
  0
VERTEX
  5
A8A
  8
DATA
  6
CONTINUOUS
 62
     7
 10
26.744945687569611
 20
131.0378807747438
 30
0.0
  0
SEQEND
  5
A8B
  8
DATA
  6
CONTINUOUS
 62
     7
  0
LINE
  5
290
  8
DATA
  6
CONTINUOUS
 62
     7
 10
32.84494568756962
 20
137.33788077474389
 30
0.0
 11
34.044945687569609
 21
136.13788077474391
 31
0.0
  0
LINE
  5
291
  8
DATA
  6
CONTINUOUS
 62
     7
 10
26.644945687569571
 20
137.33788077474389
 30
0.0
 11
25.444945687569589
 21
136.13788077474391
 31
0.0
  0
TEXT
  5
292
  8
DATA
 62
     7
 10
23.904008660675672
 20
239.26713659383969
 30
0.0
 40
3.078125
  1
USB In
 41
0.7
 11
23.904008660675672
 21
242.34526159383969
 31
0.0
 73
     3
  0
CIRCLE
  5
293
  8
DATA
  6
CONTINUOUS
 62
     7
 10
21.072928267603832
 20
130.1639692767381
 30
0.0
 40
1.30000000000001
  0
CIRCLE
  5
294
  8
DATA
  6
CONTINUOUS
 62
     7
 10
-86.779241222066815
 20
131.29093133020481
 30
0.0
 40
1.300000000000153
  0
TEXT
  5
295
  8
DATA
 62
     7
 10
-60.741006923596323
 20
239.25570693765309
 30
0.0
 40
3.078125
  1
DVI In
 41
0.7
 11
-60.741006923596323
 21
242.33383193765309
 31
0.0
 73
     3
  0
TEXT
  5
296
  8
DATA
 62
     7
 10
-102.92245494693491
 20
239.34161741737361
 30
0.0
 40
3.078125
  1
5V DC
 41
0.7
 11
-102.92245494693491
 21
242.41974241737361
 31
0.0
 73
     3
  0
TEXT
  5
297
  8
DATA
 62
     7
 10
-89.373905613044798
 20
239.32582161107689
 30
0.0
 40
3.078125
  1
Power
 41
0.7
 11
-89.373905613044798
 21
242.40394661107689
 31
0.0
 73
     3
  0
TEXT
  5
298
  8
DATA
 62
     7
 10
14.11557143504568
 20
239.23684523516431
 30
0.0
 40
3.078125
  1
Host
 41
0.7
 11
14.11557143504568
 21
242.31497023516431
 31
0.0
 73
     3
  0
LINE
  5
299
  8
DATA
  6
CONTINUOUS
 62
     7
 10
66.000000000222798
 20
386.25000000004633
 30
0.0
 11
55.500000000222819
 21
386.25000000004633
 31
0.0
  0
LINE
  5
29A
  8
DATA
  6
CONTINUOUS
 62
     7
 10
53.900000000222761
 20
386.25000000004633
 30
0.0
 11
-112.89999999977719
 21
386.25000000004633
 31
0.0
  0
LINE
  5
29B
  8
DATA
  6
CONTINUOUS
 62
     7
 10
-114.4999999997772
 20
386.25000000004633
 30
0.0
 11
-124.9999999997772
 21
386.25000000004633
 31
0.0
  0
LINE
  5
29C
  8
DATA
  6
CONTINUOUS
 62
     7
 10
53.900000000222761
 20
356.25000000004621
 30
0.0
 11
-112.89999999977719
 21
356.25000000004621
 31
0.0
  0
LINE
  5
29D
  8
DATA
  6
CONTINUOUS
 62
     7
 10
66.000000000222798
 20
384.65000000004608
 30
0.0
 11
57.100000000222813
 21
384.65000000004608
 31
0.0
  0
LINE
  5
29E
  8
DATA
  6
CONTINUOUS
 62
     7
 10
-116.0999999997772
 20
384.65000000004608
 30
0.0
 11
-124.9999999997772
 21
384.65000000004608
 31
0.0
  0
LINE
  5
29F
  8
DATA
  6
CONTINUOUS
 62
     7
 10
-124.9999999997772
 20
384.65000000004608
 30
0.0
 11
-124.9999999997772
 21
386.25000000004633
 31
0.0
  0
LINE
  5
2A0
  8
DATA
  6
CONTINUOUS
 62
     7
 10
66.000000000222798
 20
384.65000000004608
 30
0.0
 11
66.000000000222798
 21
386.25000000004633
 31
0.0
  0
LINE
  5
2A1
  8
DATA
  6
CONTINUOUS
 62
     7
 10
-114.4999999997772
 20
357.85000000004601
 30
0.0
 11
-114.4999999997772
 21
383.05000000004611
 31
0.0
  0
LINE
  5
2A2
  8
DATA
  6
CONTINUOUS
 62
     7
 10
55.500000000222819
 20
357.85000000004601
 30
0.0
 11
55.500000000222819
 21
383.05000000004611
 31
0.0
  0
LINE
  5
2A3
  8
DATA
  6
CONTINUOUS
 62
     7
 10
53.900000000222761
 20
359.45000000004609
 30
0.0
 11
53.900000000222761
 21
386.25000000004633
 31
0.0
  0
LINE
  5
2A4
  8
DATA
  6
CONTINUOUS
 62
     7
 10
-112.89999999977719
 20
359.45000000004609
 30
0.0
 11
-112.89999999977719
 21
386.25000000004633
 31
0.0
  0
ARC
  5
2A5
  8
DATA
  6
CONTINUOUS
 62
     7
 10
-116.0999999997772
 20
383.05000000004611
 30
0.0
 40
1.6000000000000221
 50
0.0
 51
90.0
  0
ARC
  5
2A6
  8
DATA
  6
CONTINUOUS
 62
     7
 10
-114.4999999997771
 20
384.65000000004608
 30
0.0
 40
1.599999999999965
 50
0.0
 51
90.0
  0
ARC
  5
2A7
  8
DATA
  6
CONTINUOUS
 62
     7
 10
55.500000000222819
 20
384.65000000004608
 30
0.0
 40
1.600000000000078
 50
90.0
 51
180.0
  0
ARC
  5
2A8
  8
DATA
  6
CONTINUOUS
 62
     7
 10
57.100000000222842
 20
383.05000000004611
 30
0.0
 40
1.60000000000005
 50
90.0
 51
180.0
  0
LINE
  5
2A9
  8
DATA
  6
CONTINUOUS
 62
     7
 10
52.300000000222823
 20
357.85000000004601
 30
0.0
 11
-111.2999999997772
 21
357.85000000004601
 31
0.0
  0
ARC
  5
2AA
  8
DATA
  6
CONTINUOUS
 62
     7
 10
-111.2999999997771
 20
359.45000000004597
 30
0.0
 40
1.6000000000000221
 50
179.99999999999801
 51
270.0
  0
ARC
  5
2AB
  8
DATA
  6
CONTINUOUS
 62
     7
 10
-112.89999999977719
 20
357.85000000004601
 30
0.0
 40
1.599999999999965
 50
180.0
 51
270.0
  0
ARC
  5
2AC
  8
DATA
  6
CONTINUOUS
 62
     7
 10
52.30000000022283
 20
359.45000000004609
 30
0.0
 40
1.599999999999965
 50
270.0
 51
0.0
  0
ARC
  5
2AD
  8
DATA
  6
CONTINUOUS
 62
     7
 10
53.900000000222789
 20
357.85000000004601
 30
0.0
 40
1.6000000000000221
 50
270.0
 51
0.0
  0
LINE
  5
2AE
  8
DATA
  6
CONTINUOUS
 62
     7
 10
-65.793265576047759
 20
378.25182238819713
 30
0.0
 11
-65.793265576047759
 21
364.95182238819712
 31
0.0
  0
LINE
  5
2AF
  8
DATA
  6
CONTINUOUS
 62
     7
 10
-81.493265576047662
 20
378.25182238819713
 30
0.0
 11
-81.493265576047662
 21
364.95182238819712
 31
0.0
  0
LINE
  5
2B0
  8
DATA
  6
CONTINUOUS
 62
     7
 10
-81.493265576047662
 20
364.95182238819712
 30
0.0
 11
-65.793265576047759
 21
364.95182238819712
 31
0.0
  0
LINE
  5
2B1
  8
DATA
  6
CONTINUOUS
 62
     7
 10
-81.493265576047662
 20
378.25182238819713
 30
0.0
 11
-65.793265576047759
 21
378.25182238819713
 31
0.0
  0
LINE
  5
2B2
  8
DATA
  6
CONTINUOUS
 62
     7
 10
-79.79326557604773
 20
375.25182238819713
 30
0.0
 11
-67.493265576047676
 21
375.25182238819713
 31
0.0
  0
LINE
  5
2B3
  8
DATA
  6
CONTINUOUS
 62
     7
 10
-79.79326557604773
 20
375.25182238819713
 30
0.0
 11
-79.79326557604773
 21
367.95182238819712
 31
0.0
  0
LINE
  5
2B4
  8
DATA
  6
CONTINUOUS
 62
     7
 10
-67.493265576047676
 20
375.25182238819713
 30
0.0
 11
-67.493265576047676
 21
367.95182238819712
 31
0.0
  0
LINE
  5
2B5
  8
DATA
  6
CONTINUOUS
 62
     7
 10
-75.868265576047662
 20
364.95182238819712
 30
0.0
 11
-75.868265576047662
 21
366.45182238819712
 31
0.0
  0
LINE
  5
2B6
  8
DATA
  6
CONTINUOUS
 62
     7
 10
-71.418265576047759
 20
366.45182238819712
 30
0.0
 11
-71.418265576047759
 21
364.95182238819712
 31
0.0
  0
LINE
  5
2B7
  8
DATA
  6
CONTINUOUS
 62
     7
 10
-76.993265576047662
 20
366.45182238819712
 30
0.0
 11
-75.868265576047662
 21
366.45182238819712
 31
0.0
  0
LINE
  5
2B8
  8
DATA
  6
CONTINUOUS
 62
     7
 10
-71.418265576047759
 20
366.45182238819712
 30
0.0
 11
-70.293265576047745
 21
366.45182238819712
 31
0.0
  0
LINE
  5
2B9
  8
DATA
  6
CONTINUOUS
 62
     7
 10
-79.79326557604773
 20
367.95182238819712
 30
0.0
 11
-76.993265576047662
 21
367.95182238819712
 31
0.0
  0
LINE
  5
2BA
  8
DATA
  6
CONTINUOUS
 62
     7
 10
-70.293265576047745
 20
367.95182238819712
 30
0.0
 11
-67.493265576047676
 21
367.95182238819712
 31
0.0
  0
LINE
  5
2BB
  8
DATA
  6
CONTINUOUS
 62
     7
 10
-76.993265576047662
 20
366.45182238819712
 30
0.0
 11
-76.993265576047662
 21
367.95182238819712
 31
0.0
  0
LINE
  5
2BC
  8
DATA
  6
CONTINUOUS
 62
     7
 10
-70.293265576047745
 20
367.95182238819712
 30
0.0
 11
-70.293265576047745
 21
366.45182238819712
 31
0.0
  0
TEXT
  5
2BD
  8
DATA
 62
     7
 10
-65.286058630043286
 20
320.60948109847561
 30
0.0
 40
3.121945529513888
  1
Ethernet 
 50
180.0
 41
0.7
 11
-65.286058630043286
 21
317.48753556896168
 31
0.0
 73
     3
  0
LINE
  5
2BE
  8
DATA
  6
CONTINUOUS
 62
     7
 10
-33.793265576047723
 20
378.25182238819713
 30
0.0
 11
-33.793265576047723
 21
364.95182238819712
 31
0.0
  0
LINE
  5
2BF
  8
DATA
  6
CONTINUOUS
 62
     7
 10
-49.493265576047662
 20
378.25182238819713
 30
0.0
 11
-49.493265576047662
 21
364.95182238819712
 31
0.0
  0
LINE
  5
2C0
  8
DATA
  6
CONTINUOUS
 62
     7
 10
-49.493265576047662
 20
364.95182238819712
 30
0.0
 11
-33.793265576047723
 21
364.95182238819712
 31
0.0
  0
LINE
  5
2C1
  8
DATA
  6
CONTINUOUS
 62
     7
 10
-49.493265576047662
 20
378.25182238819713
 30
0.0
 11
-33.793265576047723
 21
378.25182238819713
 31
0.0
  0
LINE
  5
2C2
  8
DATA
  6
CONTINUOUS
 62
     7
 10
-47.793265576047737
 20
375.25182238819713
 30
0.0
 11
-35.493265576047648
 21
375.25182238819713
 31
0.0
  0
LINE
  5
2C3
  8
DATA
  6
CONTINUOUS
 62
     7
 10
-47.793265576047737
 20
375.25182238819713
 30
0.0
 11
-47.793265576047737
 21
367.95182238819712
 31
0.0
  0
LINE
  5
2C4
  8
DATA
  6
CONTINUOUS
 62
     7
 10
-35.493265576047648
 20
375.25182238819713
 30
0.0
 11
-35.493265576047648
 21
367.95182238819712
 31
0.0
  0
LINE
  5
2C5
  8
DATA
  6
CONTINUOUS
 62
     7
 10
-43.868265576047662
 20
364.95182238819712
 30
0.0
 11
-43.868265576047662
 21
366.45182238819712
 31
0.0
  0
LINE
  5
2C6
  8
DATA
  6
CONTINUOUS
 62
     7
 10
-39.418265576047752
 20
366.45182238819712
 30
0.0
 11
-39.418265576047752
 21
364.95182238819712
 31
0.0
  0
LINE
  5
2C7
  8
DATA
  6
CONTINUOUS
 62
     7
 10
-44.993265576047662
 20
366.45182238819712
 30
0.0
 11
-43.868265576047662
 21
366.45182238819712
 31
0.0
  0
LINE
  5
2C8
  8
DATA
  6
CONTINUOUS
 62
     7
 10
-39.418265576047752
 20
366.45182238819712
 30
0.0
 11
-38.293265576047752
 21
366.45182238819712
 31
0.0
  0
LINE
  5
2C9
  8
DATA
  6
CONTINUOUS
 62
     7
 10
-47.793265576047737
 20
367.95182238819712
 30
0.0
 11
-44.993265576047662
 21
367.95182238819712
 31
0.0
  0
LINE
  5
2CA
  8
DATA
  6
CONTINUOUS
 62
     7
 10
-38.293265576047752
 20
367.95182238819712
 30
0.0
 11
-35.493265576047648
 21
367.95182238819712
 31
0.0
  0
LINE
  5
2CB
  8
DATA
  6
CONTINUOUS
 62
     7
 10
-44.993265576047662
 20
366.45182238819712
 30
0.0
 11
-44.993265576047662
 21
367.95182238819712
 31
0.0
  0
LINE
  5
2CC
  8
DATA
  6
CONTINUOUS
 62
     7
 10
-38.293265576047752
 20
367.95182238819712
 30
0.0
 11
-38.293265576047752
 21
366.45182238819712
 31
0.0
  0
LINE
  5
2CD
  8
DATA
  6
CONTINUOUS
 62
     7
 10
25.506734423952349
 20
364.95182238819712
 30
0.0
 11
25.506734423952349
 21
378.25182238819713
 31
0.0
  0
LINE
  5
2CE
  8
DATA
  6
CONTINUOUS
 62
     7
 10
41.206734423952277
 20
364.95182238819712
 30
0.0
 11
41.206734423952277
 21
378.25182238819713
 31
0.0
  0
LINE
  5
2CF
  8
DATA
  6
CONTINUOUS
 62
     7
 10
41.206734423952277
 20
378.25182238819713
 30
0.0
 11
25.506734423952349
 21
378.25182238819713
 31
0.0
  0
LINE
  5
2D0
  8
DATA
  6
CONTINUOUS
 62
     7
 10
41.206734423952277
 20
364.95182238819712
 30
0.0
 11
25.506734423952349
 21
364.95182238819712
 31
0.0
  0
LINE
  5
2D1
  8
DATA
  6
CONTINUOUS
 62
     7
 10
39.506734423952352
 20
366.9204717388028
 30
0.0
 11
27.206734423952291
 21
366.9204717388028
 31
0.0
  0
LINE
  5
2D2
  8
DATA
  6
CONTINUOUS
 62
     7
 10
39.506734423952352
 20
366.9204717388028
 30
0.0
 11
39.506734423952352
 21
376.75182238819713
 31
0.0
  0
LINE
  5
2D3
  8
DATA
  6
CONTINUOUS
 62
     7
 10
27.206734423952291
 20
366.9204717388028
 30
0.0
 11
27.206734423952291
 21
376.75182238819713
 31
0.0
  0
LINE
  5
2D4
  8
DATA
  6
CONTINUOUS
 62
     7
 10
35.581734423952277
 20
378.25182238819713
 30
0.0
 11
35.581734423952277
 21
376.75182238819713
 31
0.0
  0
LINE
  5
2D5
  8
DATA
  6
CONTINUOUS
 62
     7
 10
31.131734423952349
 20
376.75182238819713
 30
0.0
 11
31.131734423952349
 21
378.25182238819713
 31
0.0
  0
LINE
  5
2D6
  8
DATA
  6
CONTINUOUS
 62
     7
 10
39.506734423952352
 20
376.75182238819713
 30
0.0
 11
35.581734423952277
 21
376.75182238819713
 31
0.0
  0
LINE
  5
2D7
  8
DATA
  6
CONTINUOUS
 62
     7
 10
31.131734423952349
 20
376.75182238819713
 30
0.0
 11
27.206734423952291
 21
376.75182238819713
 31
0.0
  0
LINE
  5
2D8
  8
DATA
  6
CONTINUOUS
 62
     7
 10
31.131734423952349
 20
376.75182238819713
 30
0.0
 11
31.131734423952349
 21
374.25182238819713
 31
0.0
  0
LINE
  5
2D9
  8
DATA
  6
CONTINUOUS
 62
     7
 10
35.581734423952277
 20
376.75182238819713
 30
0.0
 11
35.581734423952277
 21
374.30182238819702
 31
0.0
  0
LINE
  5
2DA
  8
DATA
  6
CONTINUOUS
 62
     7
 10
31.131734423952349
 20
374.25182238819713
 30
0.0
 11
27.206734423952291
 21
374.25182238819713
 31
0.0
  0
LINE
  5
2DB
  8
DATA
  6
CONTINUOUS
 62
     7
 10
35.581734423952277
 20
374.30182238819702
 30
0.0
 11
39.506734423952352
 21
374.30182238819702
 31
0.0
  0
TEXT
  5
2DC
  8
DATA
 62
     7
 10
-28.02953515402011
 20
320.61626749824592
 30
0.0
 40
3.121945529513888
  1
DVI-RS232 Link 
 50
180.0
 41
0.7
 11
-28.02953515402011
 21
317.49432196873198
 31
0.0
 73
     3
  0
TEXT
  5
2DD
  8
DATA
 62
     7
 10
42.635311243789808
 20
320.700786153671
 30
0.0
 40
3.121945529513888
  1
USB Link 
 50
180.0
 41
0.7
 11
42.635311243789808
 21
317.57884062415712
 31
0.0
 73
     3
  0
LINE
  5
2DE
  8
DATA
  6
CONTINUOUS
 62
     7
 10
-107.39999999977699
 20
116.4500000000771
 30
0.0
 11
-108.64999999977699
 21
118.75000000007699
 31
0.0
  0
LINE
  5
2DF
  8
DATA
  6
CONTINUOUS
 62
     7
 10
-100.3499999997772
 20
118.75000000007699
 30
0.0
 11
-101.5999999997772
 21
116.4500000000771
 31
0.0
  0
LINE
  5
2E0
  8
DATA
  6
CONTINUOUS
 62
     7
 10
-101.5999999997772
 20
116.4500000000771
 30
0.0
 11
-107.4399999997772
 21
116.4500000000771
 31
0.0
  0
LINE
  5
2E1
  8
DATA
  6
CONTINUOUS
 62
     7
 10
42.600000000222828
 20
116.4500000000771
 30
0.0
 11
41.350000000222828
 21
118.75000000007699
 31
0.0
  0
LINE
  5
2E2
  8
DATA
  6
CONTINUOUS
 62
     7
 10
49.650000000222782
 20
118.75000000007699
 30
0.0
 11
48.400000000222782
 21
116.4500000000771
 31
0.0
  0
LINE
  5
2E3
  8
DATA
  6
CONTINUOUS
 62
     7
 10
48.400000000222782
 20
116.4500000000771
 30
0.0
 11
42.560000000222807
 21
116.4500000000771
 31
0.0
  0
LINE
  5
2E4
  8
DATA
  6
CONTINUOUS
 62
     7
 10
65.999999999922835
 20
-118.74999999996641
 30
0.0
 11
-125.00000000007699
 21
-118.74999999996641
 31
0.0
  0
LINE
  5
2E5
  8
DATA
  6
CONTINUOUS
 62
     7
 10
65.999999999922835
 20
-33.749999999967287
 30
0.0
 11
65.999999999922835
 21
-118.74999999996641
 31
0.0
  0
LINE
  5
2E6
  8
DATA
  6
CONTINUOUS
 62
     7
 10
-125.00000000007699
 20
-33.749999999967287
 30
0.0
 11
65.999999999922835
 21
-33.749999999967287
 31
0.0
  0
LINE
  5
2E7
  8
DATA
  6
CONTINUOUS
 62
     7
 10
-125.00000000007699
 20
-118.74999999996641
 30
0.0
 11
-125.00000000007699
 21
-33.749999999967287
 31
0.0
  0
LINE
  5
2E8
  8
DATA
  6
CONTINUOUS
 62
     7
 10
55.499999999922849
 20
-33.749999999967287
 30
0.0
 11
55.499999999922849
 21
-118.74999999996641
 31
0.0
  0
LINE
  5
2E9
  8
DATA
  6
CONTINUOUS
 62
     7
 10
-114.50000000007699
 20
-33.749999999967287
 30
0.0
 11
-114.50000000007699
 21
-118.74999999996641
 31
0.0
  0
LINE
  5
2EA
  8
DATA
  6
CONTINUOUS
 62
     7
 10
-117.75000000007709
 20
-75.049999999967341
 30
0.0
 11
-117.75000000007709
 21
-77.449999999967332
 31
0.0
  0
LINE
  5
2EB
  8
DATA
  6
CONTINUOUS
 62
     7
 10
-121.75000000007699
 20
-77.449999999967332
 30
0.0
 11
-121.75000000007699
 21
-75.049999999967341
 31
0.0
  0
ARC
  5
2EC
  8
DATA
  6
CONTINUOUS
 62
     7
 10
-119.75000000007699
 20
-77.449999999967332
 30
0.0
 40
2.0
 50
180.0
 51
0.0
  0
ARC
  5
2ED
  8
DATA
  6
CONTINUOUS
 62
     7
 10
-119.75000000007699
 20
-75.049999999967341
 30
0.0
 40
2.0
 50
0.0
 51
180.0
  0
LINE
  5
2EE
  8
DATA
  6
CONTINUOUS
 62
     7
 10
-117.75000000007709
 20
-102.549999999967
 30
0.0
 11
-117.75000000007709
 21
-104.94999999996691
 31
0.0
  0
LINE
  5
2EF
  8
DATA
  6
CONTINUOUS
 62
     7
 10
-121.75000000007699
 20
-104.94999999996691
 30
0.0
 11
-121.75000000007699
 21
-102.549999999967
 31
0.0
  0
ARC
  5
2F0
  8
DATA
  6
CONTINUOUS
 62
     7
 10
-119.75000000007699
 20
-104.94999999996691
 30
0.0
 40
2.0
 50
180.0
 51
0.0
  0
ARC
  5
2F1
  8
DATA
  6
CONTINUOUS
 62
     7
 10
-119.75000000007699
 20
-102.549999999967
 30
0.0
 40
2.0
 50
0.0
 51
180.0
  0
LINE
  5
2F2
  8
DATA
  6
CONTINUOUS
 62
     7
 10
-117.75000000007709
 20
-47.549999999967348
 30
0.0
 11
-117.75000000007709
 21
-49.949999999967318
 31
0.0
  0
LINE
  5
2F3
  8
DATA
  6
CONTINUOUS
 62
     7
 10
-121.75000000007699
 20
-49.949999999967318
 30
0.0
 11
-121.75000000007699
 21
-47.549999999967348
 31
0.0
  0
ARC
  5
2F4
  8
DATA
  6
CONTINUOUS
 62
     7
 10
-119.75000000007699
 20
-49.949999999967318
 30
0.0
 40
2.0
 50
180.0
 51
0.0
  0
ARC
  5
2F5
  8
DATA
  6
CONTINUOUS
 62
     7
 10
-119.75000000007699
 20
-47.549999999967348
 30
0.0
 40
2.0
 50
0.0
 51
180.0
  0
LINE
  5
2F6
  8
DATA
  6
CONTINUOUS
 62
     7
 10
62.749999999922849
 20
-75.049999999967341
 30
0.0
 11
62.749999999922849
 21
-77.449999999967332
 31
0.0
  0
LINE
  5
2F7
  8
DATA
  6
CONTINUOUS
 62
     7
 10
58.749999999922849
 20
-77.449999999967332
 30
0.0
 11
58.749999999922849
 21
-75.049999999967341
 31
0.0
  0
ARC
  5
2F8
  8
DATA
  6
CONTINUOUS
 62
     7
 10
60.749999999922849
 20
-77.449999999967275
 30
0.0
 40
2.0
 50
180.00000000000159
 51
359.99999999999841
  0
ARC
  5
2F9
  8
DATA
  6
CONTINUOUS
 62
     7
 10
60.749999999922849
 20
-75.049999999967298
 30
0.0
 40
2.0
 50
0.0
 51
180.0
  0
LINE
  5
2FA
  8
DATA
  6
CONTINUOUS
 62
     7
 10
62.749999999922849
 20
-102.549999999967
 30
0.0
 11
62.749999999922849
 21
-104.94999999996691
 31
0.0
  0
LINE
  5
2FB
  8
DATA
  6
CONTINUOUS
 62
     7
 10
58.749999999922849
 20
-104.94999999996691
 30
0.0
 11
58.749999999922849
 21
-102.549999999967
 31
0.0
  0
ARC
  5
2FC
  8
DATA
  6
CONTINUOUS
 62
     7
 10
60.749999999922849
 20
-104.94999999996681
 30
0.0
 40
2.0
 50
180.00000000000159
 51
359.99999999999841
  0
ARC
  5
2FD
  8
DATA
  6
CONTINUOUS
 62
     7
 10
60.749999999922849
 20
-102.5499999999669
 30
0.0
 40
2.0
 50
0.0
 51
180.0
  0
LINE
  5
2FE
  8
DATA
  6
CONTINUOUS
 62
     7
 10
62.749999999922849
 20
-47.549999999967348
 30
0.0
 11
62.749999999922849
 21
-49.949999999967318
 31
0.0
  0
LINE
  5
2FF
  8
DATA
  6
CONTINUOUS
 62
     7
 10
58.749999999922849
 20
-49.949999999967318
 30
0.0
 11
58.749999999922849
 21
-47.549999999967348
 31
0.0
  0
ARC
  5
300
  8
DATA
  6
CONTINUOUS
 62
     7
 10
60.749999999922849
 20
-49.949999999967318
 30
0.0
 40
2.0
 50
180.0
 51
0.0
  0
ARC
  5
301
  8
DATA
  6
CONTINUOUS
 62
     7
 10
60.749999999922849
 20
-47.549999999967348
 30
0.0
 40
2.0
 50
0.0
 51
180.0
  0
LINE
  5
302
  8
DATA
  6
CONTINUOUS
 62
     7
 10
65.999999999922835
 20
-237.4999999998669
 30
0.0
 11
55.499999999922849
 21
-237.4999999998669
 31
0.0
  0
LINE
  5
303
  8
DATA
  6
CONTINUOUS
 62
     7
 10
53.899999999922819
 20
-237.4999999998669
 30
0.0
 11
-112.9000000000771
 21
-237.4999999998669
 31
0.0
  0
LINE
  5
304
  8
DATA
  6
CONTINUOUS
 62
     7
 10
-114.50000000007699
 20
-237.4999999998669
 30
0.0
 11
-125.00000000007699
 21
-237.4999999998669
 31
0.0
  0
LINE
  5
305
  8
DATA
  6
CONTINUOUS
 62
     7
 10
53.899999999922819
 20
-207.4999999998667
 30
0.0
 11
-112.9000000000771
 21
-207.4999999998667
 31
0.0
  0
LINE
  5
306
  8
DATA
  6
CONTINUOUS
 62
     7
 10
65.999999999922835
 20
-235.89999999986691
 30
0.0
 11
57.099999999922872
 21
-235.89999999986691
 31
0.0
  0
LINE
  5
307
  8
DATA
  6
CONTINUOUS
 62
     7
 10
-116.1000000000771
 20
-235.89999999986691
 30
0.0
 11
-125.00000000007699
 21
-235.89999999986691
 31
0.0
  0
LINE
  5
308
  8
DATA
  6
CONTINUOUS
 62
     7
 10
-125.00000000007699
 20
-235.89999999986691
 30
0.0
 11
-125.00000000007699
 21
-237.4999999998669
 31
0.0
  0
LINE
  5
309
  8
DATA
  6
CONTINUOUS
 62
     7
 10
65.999999999922835
 20
-235.89999999986691
 30
0.0
 11
65.999999999922835
 21
-237.4999999998669
 31
0.0
  0
LINE
  5
30A
  8
DATA
  6
CONTINUOUS
 62
     7
 10
-114.50000000007699
 20
-209.0999999998667
 30
0.0
 11
-114.50000000007699
 21
-234.29999999986691
 31
0.0
  0
LINE
  5
30B
  8
DATA
  6
CONTINUOUS
 62
     7
 10
55.499999999922849
 20
-209.0999999998667
 30
0.0
 11
55.499999999922849
 21
-234.29999999986691
 31
0.0
  0
LINE
  5
30C
  8
DATA
  6
CONTINUOUS
 62
     7
 10
53.899999999922819
 20
-210.69999999986669
 30
0.0
 11
53.899999999922819
 21
-237.4999999998669
 31
0.0
  0
LINE
  5
30D
  8
DATA
  6
CONTINUOUS
 62
     7
 10
-112.9000000000771
 20
-210.69999999986669
 30
0.0
 11
-112.9000000000771
 21
-237.4999999998669
 31
0.0
  0
ARC
  5
30E
  8
DATA
  6
CONTINUOUS
 62
     7
 10
-116.1000000000771
 20
-234.29999999986691
 30
0.0
 40
1.6000000000000221
 50
270.0
 51
0.0
  0
ARC
  5
30F
  8
DATA
  6
CONTINUOUS
 62
     7
 10
-114.50000000007699
 20
-235.89999999986691
 30
0.0
 40
1.6000000000000221
 50
270.0
 51
0.0
  0
ARC
  5
310
  8
DATA
  6
CONTINUOUS
 62
     7
 10
55.499999999922878
 20
-235.89999999986691
 30
0.0
 40
1.6000000000000221
 50
180.0
 51
270.0
  0
ARC
  5
311
  8
DATA
  6
CONTINUOUS
 62
     7
 10
57.099999999922879
 20
-234.29999999986691
 30
0.0
 40
1.6000000000000221
 50
180.0
 51
270.0
  0
LINE
  5
312
  8
DATA
  6
CONTINUOUS
 62
     7
 10
52.299999999922861
 20
-209.0999999998667
 30
0.0
 11
-111.30000000007711
 21
-209.0999999998667
 31
0.0
  0
ARC
  5
313
  8
DATA
  6
CONTINUOUS
 62
     7
 10
-111.30000000007711
 20
-210.69999999986669
 30
0.0
 40
1.599999999999965
 50
90.0
 51
180.0000000000021
  0
ARC
  5
314
  8
DATA
  6
CONTINUOUS
 62
     7
 10
-112.9000000000771
 20
-209.0999999998667
 30
0.0
 40
1.6000000000000221
 50
90.0
 51
180.0
  0
ARC
  5
315
  8
DATA
  6
CONTINUOUS
 62
     7
 10
52.299999999922861
 20
-210.69999999986669
 30
0.0
 40
1.599999999999965
 50
0.0
 51
90.0
  0
ARC
  5
316
  8
DATA
  6
CONTINUOUS
 62
     7
 10
53.899999999922819
 20
-209.0999999998667
 30
0.0
 40
1.6000000000000221
 50
0.0
 51
90.0
  0
CIRCLE
  5
317
  8
DATA
  6
CONTINUOUS
 62
     7
 10
42.502230055203853
 20
-220.9999999998669
 30
0.0
 40
3.7500000000000551
  0
CIRCLE
  5
318
  8
DATA
  6
CONTINUOUS
 62
     7
 10
42.502230055203853
 20
-220.9999999998669
 30
0.0
 40
0.75
  0
CIRCLE
  5
319
  8
DATA
  6
CONTINUOUS
 62
     7
 10
42.502230055203853
 20
-220.9999999998669
 30
0.0
 40
5.500000000000056
  0
POLYLINE
  5
31A
  8
DATA
  6
CONTINUOUS
 62
     7
 66
     1
 10
0.0
 20
0.0
 30
0.0
 70
     1
  0
VERTEX
  5
A8C
  8
DATA
  6
CONTINUOUS
 62
     7
 10
37.002230055203817
 20
-220.9999999998669
 30
0.0
  0
VERTEX
  5
A8D
  8
DATA
  6
CONTINUOUS
 62
     7
 10
39.752230055203817
 20
-225.76313972068129
 30
0.0
  0
VERTEX
  5
A8E
  8
DATA
  6
CONTINUOUS
 62
     7
 10
45.25223005520381
 20
-225.76313972068129
 30
0.0
  0
VERTEX
  5
A8F
  8
DATA
  6
CONTINUOUS
 62
     7
 10
48.00223005520381
 20
-220.9999999998669
 30
0.0
  0
VERTEX
  5
A90
  8
DATA
  6
CONTINUOUS
 62
     7
 10
45.25223005520381
 20
-216.23686027905239
 30
0.0
  0
VERTEX
  5
A91
  8
DATA
  6
CONTINUOUS
 62
     7
 10
39.752230055203817
 20
-216.23686027905239
 30
0.0
  0
SEQEND
  5
A92
  8
DATA
  6
CONTINUOUS
 62
     7
  0
CIRCLE
  5
323
  8
DATA
  6
CONTINUOUS
 62
     7
 10
-24.544532060329061
 20
-225.05686270842469
 30
0.0
 40
1.17500000000001
  0
POLYLINE
  5
324
  8
DATA
  6
CONTINUOUS
 62
     7
 66
     1
 10
0.0
 20
0.0
 30
0.0
 70
     1
  0
VERTEX
  5
A93
  8
DATA
  6
CONTINUOUS
 62
     7
 10
-24.544532060329079
 20
-222.35686270842501
 30
0.0
  0
VERTEX
  5
A94
  8
DATA
  6
CONTINUOUS
 62
     7
 10
-26.88280065054683
 20
-223.70686270842489
 30
0.0
  0
VERTEX
  5
A95
  8
DATA
  6
CONTINUOUS
 62
     7
 10
-26.88280065054683
 20
-226.4068627084244
 30
0.0
  0
VERTEX
  5
A96
  8
DATA
  6
CONTINUOUS
 62
     7
 10
-24.544532060329079
 20
-227.75686270842451
 30
0.0
  0
VERTEX
  5
A97
  8
DATA
  6
CONTINUOUS
 62
     7
 10
-22.206263470111079
 20
-226.4068627084244
 30
0.0
  0
VERTEX
  5
A98
  8
DATA
  6
CONTINUOUS
 62
     7
 10
-22.206263470111079
 20
-223.70686270842489
 30
0.0
  0
SEQEND
  5
A99
  8
DATA
  6
CONTINUOUS
 62
     7
  0
CIRCLE
  5
32D
  8
DATA
  6
CONTINUOUS
 62
     7
 10
-49.54453206032845
 20
-225.05686270842469
 30
0.0
 40
1.17500000000001
  0
POLYLINE
  5
32E
  8
DATA
  6
CONTINUOUS
 62
     7
 66
     1
 10
0.0
 20
0.0
 30
0.0
 70
     1
  0
VERTEX
  5
A9A
  8
DATA
  6
CONTINUOUS
 62
     7
 10
-49.54453206032845
 20
-222.35686270842501
 30
0.0
  0
VERTEX
  5
A9B
  8
DATA
  6
CONTINUOUS
 62
     7
 10
-51.882800650546372
 20
-223.70686270842489
 30
0.0
  0
VERTEX
  5
A9C
  8
DATA
  6
CONTINUOUS
 62
     7
 10
-51.882800650546372
 20
-226.4068627084244
 30
0.0
  0
VERTEX
  5
A9D
  8
DATA
  6
CONTINUOUS
 62
     7
 10
-49.54453206032845
 20
-227.75686270842451
 30
0.0
  0
VERTEX
  5
A9E
  8
DATA
  6
CONTINUOUS
 62
     7
 10
-47.206263470110457
 20
-226.4068627084244
 30
0.0
  0
VERTEX
  5
A9F
  8
DATA
  6
CONTINUOUS
 62
     7
 10
-47.206263470110457
 20
-223.70686270842489
 30
0.0
  0
SEQEND
  5
AA0
  8
DATA
  6
CONTINUOUS
 62
     7
  0
LINE
  5
337
  8
DATA
  6
CONTINUOUS
 62
     7
 10
-31.442768850140361
 20
-229.0568627084246
 30
0.0
 11
-42.646295270516937
 21
-229.0568627084246
 31
0.0
  0
LINE
  5
338
  8
DATA
  6
CONTINUOUS
 62
     7
 10
-43.458795270516809
 20
-221.05686270842489
 30
0.0
 11
-30.630268850140361
 21
-221.05686270842489
 31
0.0
  0
LINE
  5
339
  8
DATA
  6
CONTINUOUS
 62
     7
 10
-44.029512117768512
 20
-227.8729903408076
 30
0.0
 11
-44.842012117768391
 21
-222.67299034080801
 31
0.0
  0
LINE
  5
33A
  8
DATA
  6
CONTINUOUS
 62
     7
 10
-29.2470520028888
 20
-222.67299034080801
 30
0.0
 11
-30.0595520028888
 21
-227.8729903408076
 31
0.0
  0
CIRCLE
  5
33B
  8
DATA
  6
CONTINUOUS
 62
     7
 10
-37.071161830803263
 20
-223.42055453727119
 30
0.0
 40
0.4999999999997158
  0
ARC
  5
33C
  8
DATA
  6
CONTINUOUS
 62
     7
 10
-43.458795270516809
 20
-222.45686270842489
 30
0.0
 40
1.399999999999977
 50
90.0
 51
188.88065915052059
  0
ARC
  5
33D
  8
DATA
  6
CONTINUOUS
 62
     7
 10
-30.630268850140361
 20
-222.45686270842489
 30
0.0
 40
1.400000000000019
 50
351.11934084947939
 51
90.0
  0
ARC
  5
33E
  8
DATA
  6
CONTINUOUS
 62
     7
 10
-42.646295270516937
 20
-227.65686270842451
 30
0.0
 40
1.400000000000019
 50
188.88065915052059
 51
270.0
  0
ARC
  5
33F
  8
DATA
  6
CONTINUOUS
 62
     7
 10
-31.442768850140361
 20
-227.65686270842451
 30
0.0
 40
1.4000000000000901
 50
270.0
 51
351.1193408494795
  0
CIRCLE
  5
340
  8
DATA
  6
CONTINUOUS
 62
     7
 10
-39.571161830803263
 20
-223.42055453727119
 30
0.0
 40
0.5
  0
CIRCLE
  5
341
  8
DATA
  6
CONTINUOUS
 62
     7
 10
-42.071161830803263
 20
-223.42055453727119
 30
0.0
 40
0.5
  0
CIRCLE
  5
342
  8
DATA
  6
CONTINUOUS
 62
     7
 10
-34.571161830804002
 20
-223.42055453727119
 30
0.0
 40
0.500000000000057
  0
CIRCLE
  5
343
  8
DATA
  6
CONTINUOUS
 62
     7
 10
-32.071161830803888
 20
-223.42055453727119
 30
0.0
 40
0.5
  0
CIRCLE
  5
344
  8
DATA
  6
CONTINUOUS
 62
     7
 10
-38.266673006874491
 20
-227.03907495603349
 30
0.0
 40
0.5
  0
CIRCLE
  5
345
  8
DATA
  6
CONTINUOUS
 62
     7
 10
-40.766673006874491
 20
-227.03907495603349
 30
0.0
 40
0.5
  0
CIRCLE
  5
346
  8
DATA
  6
CONTINUOUS
 62
     7
 10
-35.766673006875422
 20
-227.03907495603349
 30
0.0
 40
0.500000000000057
  0
CIRCLE
  5
347
  8
DATA
  6
CONTINUOUS
 62
     7
 10
-33.266673006875138
 20
-227.03907495603349
 30
0.0
 40
0.5
  0
CIRCLE
  5
348
  8
DATA
  6
CONTINUOUS
 62
     7
 10
-10.069503786330261
 20
-225.0747538412657
 30
0.0
 40
1.1750000000000671
  0
POLYLINE
  5
349
  8
DATA
  6
CONTINUOUS
 62
     7
 66
     1
 10
0.0
 20
0.0
 30
0.0
 70
     1
  0
VERTEX
  5
AA1
  8
DATA
  6
CONTINUOUS
 62
     7
 10
-10.069503786330261
 20
-222.37475384126569
 30
0.0
  0
VERTEX
  5
AA2
  8
DATA
  6
CONTINUOUS
 62
     7
 10
-12.407772376548181
 20
-223.72475384126571
 30
0.0
  0
VERTEX
  5
AA3
  8
DATA
  6
CONTINUOUS
 62
     7
 10
-12.407772376548181
 20
-226.4247538412657
 30
0.0
  0
VERTEX
  5
AA4
  8
DATA
  6
CONTINUOUS
 62
     7
 10
-10.069503786330261
 20
-227.77475384126561
 30
0.0
  0
VERTEX
  5
AA5
  8
DATA
  6
CONTINUOUS
 62
     7
 10
-7.731235196112106
 20
-226.4247538412657
 30
0.0
  0
VERTEX
  5
AA6
  8
DATA
  6
CONTINUOUS
 62
     7
 10
-7.731235196112106
 20
-223.72475384126571
 30
0.0
  0
SEQEND
  5
AA7
  8
DATA
  6
CONTINUOUS
 62
     7
  0
CIRCLE
  5
352
  8
DATA
  6
CONTINUOUS
 62
     7
 10
22.43049621367021
 20
-225.0747538412657
 30
0.0
 40
1.1750000000000671
  0
POLYLINE
  5
353
  8
DATA
  6
CONTINUOUS
 62
     7
 66
     1
 10
0.0
 20
0.0
 30
0.0
 70
     1
  0
VERTEX
  5
AA8
  8
DATA
  6
CONTINUOUS
 62
     7
 10
22.43049621367021
 20
-222.37475384126569
 30
0.0
  0
VERTEX
  5
AA9
  8
DATA
  6
CONTINUOUS
 62
     7
 10
20.092227623452281
 20
-223.72475384126571
 30
0.0
  0
VERTEX
  5
AAA
  8
DATA
  6
CONTINUOUS
 62
     7
 10
20.092227623452281
 20
-226.4247538412657
 30
0.0
  0
VERTEX
  5
AAB
  8
DATA
  6
CONTINUOUS
 62
     7
 10
22.43049621367021
 20
-227.77475384126561
 30
0.0
  0
VERTEX
  5
AAC
  8
DATA
  6
CONTINUOUS
 62
     7
 10
24.768764803888232
 20
-226.4247538412657
 30
0.0
  0
VERTEX
  5
AAD
  8
DATA
  6
CONTINUOUS
 62
     7
 10
24.768764803888232
 20
-223.72475384126571
 30
0.0
  0
SEQEND
  5
AAE
  8
DATA
  6
CONTINUOUS
 62
     7
  0
LINE
  5
35C
  8
DATA
  6
CONTINUOUS
 62
     7
 10
-4.7694086735215961
 20
-221.14975384126561
 30
0.0
 11
17.130401100861992
 21
-221.14975384126561
 31
0.0
  0
LINE
  5
35D
  8
DATA
  6
CONTINUOUS
 62
     7
 10
16.57148390340971
 20
-228.99975384126569
 30
0.0
 11
-4.2104914760692083
 21
-228.99975384126569
 31
0.0
  0
POLYLINE
  5
35E
  8
DATA
  6
CONTINUOUS
 62
     7
 66
     1
 10
0.0
 20
0.0
 30
0.0
 70
     1
  0
VERTEX
  5
AAF
  8
DATA
  6
CONTINUOUS
 62
     7
 10
-4.819569957509044
 20
-224.30975384126569
 30
0.0
  0
VERTEX
  5
AB0
  8
DATA
  6
CONTINUOUS
 62
     7
 10
-3.2895699575090722
 20
-224.30975384126569
 30
0.0
  0
VERTEX
  5
AB1
  8
DATA
  6
CONTINUOUS
 62
     7
 10
-3.2895699575090722
 20
-225.83975384126569
 30
0.0
  0
VERTEX
  5
AB2
  8
DATA
  6
CONTINUOUS
 62
     7
 10
-4.819569957509044
 20
-225.83975384126569
 30
0.0
  0
SEQEND
  5
AB3
  8
DATA
  6
CONTINUOUS
 62
     7
  0
POLYLINE
  5
365
  8
DATA
  6
CONTINUOUS
 62
     7
 66
     1
 10
0.0
 20
0.0
 30
0.0
 70
     1
  0
VERTEX
  5
AB4
  8
DATA
  6
CONTINUOUS
 62
     7
 10
-2.819569957509044
 20
-224.30975384126569
 30
0.0
  0
VERTEX
  5
AB5
  8
DATA
  6
CONTINUOUS
 62
     7
 10
-1.2895699575090731
 20
-224.30975384126569
 30
0.0
  0
VERTEX
  5
AB6
  8
DATA
  6
CONTINUOUS
 62
     7
 10
-1.2895699575090731
 20
-225.83975384126569
 30
0.0
  0
VERTEX
  5
AB7
  8
DATA
  6
CONTINUOUS
 62
     7
 10
-2.819569957509044
 20
-225.83975384126569
 30
0.0
  0
SEQEND
  5
AB8
  8
DATA
  6
CONTINUOUS
 62
     7
  0
POLYLINE
  5
36C
  8
DATA
  6
CONTINUOUS
 62
     7
 66
     1
 10
0.0
 20
0.0
 30
0.0
 70
     1
  0
VERTEX
  5
AB9
  8
DATA
  6
CONTINUOUS
 62
     7
 10
-0.8195699575090458
 20
-224.30975384126569
 30
0.0
  0
VERTEX
  5
ABA
  8
DATA
  6
CONTINUOUS
 62
     7
 10
0.7104300424909269
 20
-224.30975384126569
 30
0.0
  0
VERTEX
  5
ABB
  8
DATA
  6
CONTINUOUS
 62
     7
 10
0.7104300424909269
 20
-225.83975384126569
 30
0.0
  0
VERTEX
  5
ABC
  8
DATA
  6
CONTINUOUS
 62
     7
 10
-0.8195699575090458
 20
-225.83975384126569
 30
0.0
  0
SEQEND
  5
ABD
  8
DATA
  6
CONTINUOUS
 62
     7
  0
POLYLINE
  5
373
  8
DATA
  6
CONTINUOUS
 62
     7
 66
     1
 10
0.0
 20
0.0
 30
0.0
 70
     1
  0
VERTEX
  5
ABE
  8
DATA
  6
CONTINUOUS
 62
     7
 10
1.180430042490954
 20
-224.30975384126569
 30
0.0
  0
VERTEX
  5
ABF
  8
DATA
  6
CONTINUOUS
 62
     7
 10
2.710430042490926
 20
-224.30975384126569
 30
0.0
  0
VERTEX
  5
AC0
  8
DATA
  6
CONTINUOUS
 62
     7
 10
2.710430042490926
 20
-225.83975384126569
 30
0.0
  0
VERTEX
  5
AC1
  8
DATA
  6
CONTINUOUS
 62
     7
 10
1.180430042490954
 20
-225.83975384126569
 30
0.0
  0
SEQEND
  5
AC2
  8
DATA
  6
CONTINUOUS
 62
     7
  0
POLYLINE
  5
37A
  8
DATA
  6
CONTINUOUS
 62
     7
 66
     1
 10
0.0
 20
0.0
 30
0.0
 70
     1
  0
VERTEX
  5
AC3
  8
DATA
  6
CONTINUOUS
 62
     7
 10
3.1804300424909542
 20
-224.30975384126569
 30
0.0
  0
VERTEX
  5
AC4
  8
DATA
  6
CONTINUOUS
 62
     7
 10
4.710430042490926
 20
-224.30975384126569
 30
0.0
  0
VERTEX
  5
AC5
  8
DATA
  6
CONTINUOUS
 62
     7
 10
4.710430042490926
 20
-225.83975384126569
 30
0.0
  0
VERTEX
  5
AC6
  8
DATA
  6
CONTINUOUS
 62
     7
 10
3.1804300424909542
 20
-225.83975384126569
 30
0.0
  0
SEQEND
  5
AC7
  8
DATA
  6
CONTINUOUS
 62
     7
  0
POLYLINE
  5
381
  8
DATA
  6
CONTINUOUS
 62
     7
 66
     1
 10
0.0
 20
0.0
 30
0.0
 70
     1
  0
VERTEX
  5
AC8
  8
DATA
  6
CONTINUOUS
 62
     7
 10
5.1804300424909524
 20
-224.30975384126569
 30
0.0
  0
VERTEX
  5
AC9
  8
DATA
  6
CONTINUOUS
 62
     7
 10
6.710430042490926
 20
-224.30975384126569
 30
0.0
  0
VERTEX
  5
ACA
  8
DATA
  6
CONTINUOUS
 62
     7
 10
6.710430042490926
 20
-225.83975384126569
 30
0.0
  0
VERTEX
  5
ACB
  8
DATA
  6
CONTINUOUS
 62
     7
 10
5.1804300424909524
 20
-225.83975384126569
 30
0.0
  0
SEQEND
  5
ACC
  8
DATA
  6
CONTINUOUS
 62
     7
  0
POLYLINE
  5
388
  8
DATA
  6
CONTINUOUS
 62
     7
 66
     1
 10
0.0
 20
0.0
 30
0.0
 70
     1
  0
VERTEX
  5
ACD
  8
DATA
  6
CONTINUOUS
 62
     7
 10
7.1804300424909524
 20
-224.30975384126569
 30
0.0
  0
VERTEX
  5
ACE
  8
DATA
  6
CONTINUOUS
 62
     7
 10
8.7104300424909287
 20
-224.30975384126569
 30
0.0
  0
VERTEX
  5
ACF
  8
DATA
  6
CONTINUOUS
 62
     7
 10
8.7104300424909287
 20
-225.83975384126569
 30
0.0
  0
VERTEX
  5
AD0
  8
DATA
  6
CONTINUOUS
 62
     7
 10
7.1804300424909524
 20
-225.83975384126569
 30
0.0
  0
SEQEND
  5
AD1
  8
DATA
  6
CONTINUOUS
 62
     7
  0
POLYLINE
  5
38F
  8
DATA
  6
CONTINUOUS
 62
     7
 66
     1
 10
0.0
 20
0.0
 30
0.0
 70
     1
  0
VERTEX
  5
AD2
  8
DATA
  6
CONTINUOUS
 62
     7
 10
9.1804300424909542
 20
-224.30975384126569
 30
0.0
  0
VERTEX
  5
AD3
  8
DATA
  6
CONTINUOUS
 62
     7
 10
10.71043004249093
 20
-224.30975384126569
 30
0.0
  0
VERTEX
  5
AD4
  8
DATA
  6
CONTINUOUS
 62
     7
 10
10.71043004249093
 20
-225.83975384126569
 30
0.0
  0
VERTEX
  5
AD5
  8
DATA
  6
CONTINUOUS
 62
     7
 10
9.1804300424909542
 20
-225.83975384126569
 30
0.0
  0
SEQEND
  5
AD6
  8
DATA
  6
CONTINUOUS
 62
     7
  0
POLYLINE
  5
396
  8
DATA
  6
CONTINUOUS
 62
     7
 66
     1
 10
0.0
 20
0.0
 30
0.0
 70
     1
  0
VERTEX
  5
AD7
  8
DATA
  6
CONTINUOUS
 62
     7
 10
-4.819569957509044
 20
-222.30975384126569
 30
0.0
  0
VERTEX
  5
AD8
  8
DATA
  6
CONTINUOUS
 62
     7
 10
-3.2895699575090722
 20
-222.30975384126569
 30
0.0
  0
VERTEX
  5
AD9
  8
DATA
  6
CONTINUOUS
 62
     7
 10
-3.2895699575090722
 20
-223.83975384126569
 30
0.0
  0
VERTEX
  5
ADA
  8
DATA
  6
CONTINUOUS
 62
     7
 10
-4.819569957509044
 20
-223.83975384126569
 30
0.0
  0
SEQEND
  5
ADB
  8
DATA
  6
CONTINUOUS
 62
     7
  0
POLYLINE
  5
39D
  8
DATA
  6
CONTINUOUS
 62
     7
 66
     1
 10
0.0
 20
0.0
 30
0.0
 70
     1
  0
VERTEX
  5
ADC
  8
DATA
  6
CONTINUOUS
 62
     7
 10
-2.819569957509044
 20
-222.30975384126569
 30
0.0
  0
VERTEX
  5
ADD
  8
DATA
  6
CONTINUOUS
 62
     7
 10
-1.2895699575090731
 20
-222.30975384126569
 30
0.0
  0
VERTEX
  5
ADE
  8
DATA
  6
CONTINUOUS
 62
     7
 10
-1.2895699575090731
 20
-223.83975384126569
 30
0.0
  0
VERTEX
  5
ADF
  8
DATA
  6
CONTINUOUS
 62
     7
 10
-2.819569957509044
 20
-223.83975384126569
 30
0.0
  0
SEQEND
  5
AE0
  8
DATA
  6
CONTINUOUS
 62
     7
  0
POLYLINE
  5
3A4
  8
DATA
  6
CONTINUOUS
 62
     7
 66
     1
 10
0.0
 20
0.0
 30
0.0
 70
     1
  0
VERTEX
  5
AE1
  8
DATA
  6
CONTINUOUS
 62
     7
 10
-0.8195699575090458
 20
-222.30975384126569
 30
0.0
  0
VERTEX
  5
AE2
  8
DATA
  6
CONTINUOUS
 62
     7
 10
0.7104300424909269
 20
-222.30975384126569
 30
0.0
  0
VERTEX
  5
AE3
  8
DATA
  6
CONTINUOUS
 62
     7
 10
0.7104300424909269
 20
-223.83975384126569
 30
0.0
  0
VERTEX
  5
AE4
  8
DATA
  6
CONTINUOUS
 62
     7
 10
-0.8195699575090458
 20
-223.83975384126569
 30
0.0
  0
SEQEND
  5
AE5
  8
DATA
  6
CONTINUOUS
 62
     7
  0
POLYLINE
  5
3AB
  8
DATA
  6
CONTINUOUS
 62
     7
 66
     1
 10
0.0
 20
0.0
 30
0.0
 70
     1
  0
VERTEX
  5
AE6
  8
DATA
  6
CONTINUOUS
 62
     7
 10
1.180430042490954
 20
-222.30975384126569
 30
0.0
  0
VERTEX
  5
AE7
  8
DATA
  6
CONTINUOUS
 62
     7
 10
2.710430042490926
 20
-222.30975384126569
 30
0.0
  0
VERTEX
  5
AE8
  8
DATA
  6
CONTINUOUS
 62
     7
 10
2.710430042490926
 20
-223.83975384126569
 30
0.0
  0
VERTEX
  5
AE9
  8
DATA
  6
CONTINUOUS
 62
     7
 10
1.180430042490954
 20
-223.83975384126569
 30
0.0
  0
SEQEND
  5
AEA
  8
DATA
  6
CONTINUOUS
 62
     7
  0
POLYLINE
  5
3B2
  8
DATA
  6
CONTINUOUS
 62
     7
 66
     1
 10
0.0
 20
0.0
 30
0.0
 70
     1
  0
VERTEX
  5
AEB
  8
DATA
  6
CONTINUOUS
 62
     7
 10
3.1804300424909542
 20
-222.30975384126569
 30
0.0
  0
VERTEX
  5
AEC
  8
DATA
  6
CONTINUOUS
 62
     7
 10
4.710430042490926
 20
-222.30975384126569
 30
0.0
  0
VERTEX
  5
AED
  8
DATA
  6
CONTINUOUS
 62
     7
 10
4.710430042490926
 20
-223.83975384126569
 30
0.0
  0
VERTEX
  5
AEE
  8
DATA
  6
CONTINUOUS
 62
     7
 10
3.1804300424909542
 20
-223.83975384126569
 30
0.0
  0
SEQEND
  5
AEF
  8
DATA
  6
CONTINUOUS
 62
     7
  0
POLYLINE
  5
3B9
  8
DATA
  6
CONTINUOUS
 62
     7
 66
     1
 10
0.0
 20
0.0
 30
0.0
 70
     1
  0
VERTEX
  5
AF0
  8
DATA
  6
CONTINUOUS
 62
     7
 10
5.1804300424909524
 20
-222.30975384126569
 30
0.0
  0
VERTEX
  5
AF1
  8
DATA
  6
CONTINUOUS
 62
     7
 10
6.710430042490926
 20
-222.30975384126569
 30
0.0
  0
VERTEX
  5
AF2
  8
DATA
  6
CONTINUOUS
 62
     7
 10
6.710430042490926
 20
-223.83975384126569
 30
0.0
  0
VERTEX
  5
AF3
  8
DATA
  6
CONTINUOUS
 62
     7
 10
5.1804300424909524
 20
-223.83975384126569
 30
0.0
  0
SEQEND
  5
AF4
  8
DATA
  6
CONTINUOUS
 62
     7
  0
POLYLINE
  5
3C0
  8
DATA
  6
CONTINUOUS
 62
     7
 66
     1
 10
0.0
 20
0.0
 30
0.0
 70
     1
  0
VERTEX
  5
AF5
  8
DATA
  6
CONTINUOUS
 62
     7
 10
7.1804300424909524
 20
-222.30975384126569
 30
0.0
  0
VERTEX
  5
AF6
  8
DATA
  6
CONTINUOUS
 62
     7
 10
8.7104300424909287
 20
-222.30975384126569
 30
0.0
  0
VERTEX
  5
AF7
  8
DATA
  6
CONTINUOUS
 62
     7
 10
8.7104300424909287
 20
-223.83975384126569
 30
0.0
  0
VERTEX
  5
AF8
  8
DATA
  6
CONTINUOUS
 62
     7
 10
7.1804300424909524
 20
-223.83975384126569
 30
0.0
  0
SEQEND
  5
AF9
  8
DATA
  6
CONTINUOUS
 62
     7
  0
POLYLINE
  5
3C7
  8
DATA
  6
CONTINUOUS
 62
     7
 66
     1
 10
0.0
 20
0.0
 30
0.0
 70
     1
  0
VERTEX
  5
AFA
  8
DATA
  6
CONTINUOUS
 62
     7
 10
9.1804300424909542
 20
-222.30975384126569
 30
0.0
  0
VERTEX
  5
AFB
  8
DATA
  6
CONTINUOUS
 62
     7
 10
10.71043004249093
 20
-222.30975384126569
 30
0.0
  0
VERTEX
  5
AFC
  8
DATA
  6
CONTINUOUS
 62
     7
 10
10.71043004249093
 20
-223.83975384126569
 30
0.0
  0
VERTEX
  5
AFD
  8
DATA
  6
CONTINUOUS
 62
     7
 10
9.1804300424909542
 20
-223.83975384126569
 30
0.0
  0
SEQEND
  5
AFE
  8
DATA
  6
CONTINUOUS
 62
     7
  0
POLYLINE
  5
3CE
  8
DATA
  6
CONTINUOUS
 62
     7
 66
     1
 10
0.0
 20
0.0
 30
0.0
 70
     1
  0
VERTEX
  5
AFF
  8
DATA
  6
CONTINUOUS
 62
     7
 10
-4.819569957509044
 20
-226.30975384126569
 30
0.0
  0
VERTEX
  5
B00
  8
DATA
  6
CONTINUOUS
 62
     7
 10
-3.2895699575090722
 20
-226.30975384126569
 30
0.0
  0
VERTEX
  5
B01
  8
DATA
  6
CONTINUOUS
 62
     7
 10
-3.2895699575090722
 20
-227.83975384126569
 30
0.0
  0
VERTEX
  5
B02
  8
DATA
  6
CONTINUOUS
 62
     7
 10
-4.819569957509044
 20
-227.83975384126569
 30
0.0
  0
SEQEND
  5
B03
  8
DATA
  6
CONTINUOUS
 62
     7
  0
POLYLINE
  5
3D5
  8
DATA
  6
CONTINUOUS
 62
     7
 66
     1
 10
0.0
 20
0.0
 30
0.0
 70
     1
  0
VERTEX
  5
B04
  8
DATA
  6
CONTINUOUS
 62
     7
 10
-2.819569957509044
 20
-226.30975384126569
 30
0.0
  0
VERTEX
  5
B05
  8
DATA
  6
CONTINUOUS
 62
     7
 10
-1.2895699575090731
 20
-226.30975384126569
 30
0.0
  0
VERTEX
  5
B06
  8
DATA
  6
CONTINUOUS
 62
     7
 10
-1.2895699575090731
 20
-227.83975384126569
 30
0.0
  0
VERTEX
  5
B07
  8
DATA
  6
CONTINUOUS
 62
     7
 10
-2.819569957509044
 20
-227.83975384126569
 30
0.0
  0
SEQEND
  5
B08
  8
DATA
  6
CONTINUOUS
 62
     7
  0
POLYLINE
  5
3DC
  8
DATA
  6
CONTINUOUS
 62
     7
 66
     1
 10
0.0
 20
0.0
 30
0.0
 70
     1
  0
VERTEX
  5
B09
  8
DATA
  6
CONTINUOUS
 62
     7
 10
-0.8195699575090458
 20
-226.30975384126569
 30
0.0
  0
VERTEX
  5
B0A
  8
DATA
  6
CONTINUOUS
 62
     7
 10
0.7104300424909269
 20
-226.30975384126569
 30
0.0
  0
VERTEX
  5
B0B
  8
DATA
  6
CONTINUOUS
 62
     7
 10
0.7104300424909269
 20
-227.83975384126569
 30
0.0
  0
VERTEX
  5
B0C
  8
DATA
  6
CONTINUOUS
 62
     7
 10
-0.8195699575090458
 20
-227.83975384126569
 30
0.0
  0
SEQEND
  5
B0D
  8
DATA
  6
CONTINUOUS
 62
     7
  0
POLYLINE
  5
3E3
  8
DATA
  6
CONTINUOUS
 62
     7
 66
     1
 10
0.0
 20
0.0
 30
0.0
 70
     1
  0
VERTEX
  5
B0E
  8
DATA
  6
CONTINUOUS
 62
     7
 10
1.180430042490954
 20
-226.30975384126569
 30
0.0
  0
VERTEX
  5
B0F
  8
DATA
  6
CONTINUOUS
 62
     7
 10
2.710430042490926
 20
-226.30975384126569
 30
0.0
  0
VERTEX
  5
B10
  8
DATA
  6
CONTINUOUS
 62
     7
 10
2.710430042490926
 20
-227.83975384126569
 30
0.0
  0
VERTEX
  5
B11
  8
DATA
  6
CONTINUOUS
 62
     7
 10
1.180430042490954
 20
-227.83975384126569
 30
0.0
  0
SEQEND
  5
B12
  8
DATA
  6
CONTINUOUS
 62
     7
  0
POLYLINE
  5
3EA
  8
DATA
  6
CONTINUOUS
 62
     7
 66
     1
 10
0.0
 20
0.0
 30
0.0
 70
     1
  0
VERTEX
  5
B13
  8
DATA
  6
CONTINUOUS
 62
     7
 10
3.1804300424909542
 20
-226.30975384126569
 30
0.0
  0
VERTEX
  5
B14
  8
DATA
  6
CONTINUOUS
 62
     7
 10
4.710430042490926
 20
-226.30975384126569
 30
0.0
  0
VERTEX
  5
B15
  8
DATA
  6
CONTINUOUS
 62
     7
 10
4.710430042490926
 20
-227.83975384126569
 30
0.0
  0
VERTEX
  5
B16
  8
DATA
  6
CONTINUOUS
 62
     7
 10
3.1804300424909542
 20
-227.83975384126569
 30
0.0
  0
SEQEND
  5
B17
  8
DATA
  6
CONTINUOUS
 62
     7
  0
POLYLINE
  5
3F1
  8
DATA
  6
CONTINUOUS
 62
     7
 66
     1
 10
0.0
 20
0.0
 30
0.0
 70
     1
  0
VERTEX
  5
B18
  8
DATA
  6
CONTINUOUS
 62
     7
 10
5.1804300424909524
 20
-226.30975384126569
 30
0.0
  0
VERTEX
  5
B19
  8
DATA
  6
CONTINUOUS
 62
     7
 10
6.710430042490926
 20
-226.30975384126569
 30
0.0
  0
VERTEX
  5
B1A
  8
DATA
  6
CONTINUOUS
 62
     7
 10
6.710430042490926
 20
-227.83975384126569
 30
0.0
  0
VERTEX
  5
B1B
  8
DATA
  6
CONTINUOUS
 62
     7
 10
5.1804300424909524
 20
-227.83975384126569
 30
0.0
  0
SEQEND
  5
B1C
  8
DATA
  6
CONTINUOUS
 62
     7
  0
POLYLINE
  5
3F8
  8
DATA
  6
CONTINUOUS
 62
     7
 66
     1
 10
0.0
 20
0.0
 30
0.0
 70
     1
  0
VERTEX
  5
B1D
  8
DATA
  6
CONTINUOUS
 62
     7
 10
7.1804300424909524
 20
-226.30975384126569
 30
0.0
  0
VERTEX
  5
B1E
  8
DATA
  6
CONTINUOUS
 62
     7
 10
8.7104300424909287
 20
-226.30975384126569
 30
0.0
  0
VERTEX
  5
B1F
  8
DATA
  6
CONTINUOUS
 62
     7
 10
8.7104300424909287
 20
-227.83975384126569
 30
0.0
  0
VERTEX
  5
B20
  8
DATA
  6
CONTINUOUS
 62
     7
 10
7.1804300424909524
 20
-227.83975384126569
 30
0.0
  0
SEQEND
  5
B21
  8
DATA
  6
CONTINUOUS
 62
     7
  0
POLYLINE
  5
3FF
  8
DATA
  6
CONTINUOUS
 62
     7
 66
     1
 10
0.0
 20
0.0
 30
0.0
 70
     1
  0
VERTEX
  5
B22
  8
DATA
  6
CONTINUOUS
 62
     7
 10
9.1804300424909542
 20
-226.30975384126569
 30
0.0
  0
VERTEX
  5
B23
  8
DATA
  6
CONTINUOUS
 62
     7
 10
10.71043004249093
 20
-226.30975384126569
 30
0.0
  0
VERTEX
  5
B24
  8
DATA
  6
CONTINUOUS
 62
     7
 10
10.71043004249093
 20
-227.83975384126569
 30
0.0
  0
VERTEX
  5
B25
  8
DATA
  6
CONTINUOUS
 62
     7
 10
9.1804300424909542
 20
-227.83975384126569
 30
0.0
  0
SEQEND
  5
B26
  8
DATA
  6
CONTINUOUS
 62
     7
  0
POLYLINE
  5
406
  8
DATA
  6
CONTINUOUS
 62
     7
 66
     1
 10
0.0
 20
0.0
 30
0.0
  0
VERTEX
  5
B27
  8
DATA
  6
CONTINUOUS
 62
     7
 10
14.73049621367038
 20
-224.6747538412657
 30
0.0
  0
VERTEX
  5
B28
  8
DATA
  6
CONTINUOUS
 62
     7
 10
16.830496213670401
 20
-224.6747538412657
 30
0.0
  0
VERTEX
  5
B29
  8
DATA
  6
CONTINUOUS
 62
     7
 10
16.830496213670401
 20
-225.47475384126571
 30
0.0
  0
VERTEX
  5
B2A
  8
DATA
  6
CONTINUOUS
 62
     7
 10
14.73049621367038
 20
-225.47475384126571
 30
0.0
  0
SEQEND
  5
B2B
  8
DATA
  6
CONTINUOUS
 62
     7
  0
POLYLINE
  5
40D
  8
DATA
  6
CONTINUOUS
 62
     7
 66
     1
 10
0.0
 20
0.0
 30
0.0
  0
VERTEX
  5
B2C
  8
DATA
  6
CONTINUOUS
 62
     7
 10
13.93049621367031
 20
-225.47475384126571
 30
0.0
  0
VERTEX
  5
B2D
  8
DATA
  6
CONTINUOUS
 62
     7
 10
11.83049621367028
 20
-225.47475384126571
 30
0.0
  0
VERTEX
  5
B2E
  8
DATA
  6
CONTINUOUS
 62
     7
 10
11.83049621367028
 20
-224.6747538412657
 30
0.0
  0
VERTEX
  5
B2F
  8
DATA
  6
CONTINUOUS
 62
     7
 10
13.93049621367031
 20
-224.6747538412657
 30
0.0
  0
SEQEND
  5
B30
  8
DATA
  6
CONTINUOUS
 62
     7
  0
POLYLINE
  5
414
  8
DATA
  6
CONTINUOUS
 62
     7
 66
     1
 10
0.0
 20
0.0
 30
0.0
  0
VERTEX
  5
B31
  8
DATA
  6
CONTINUOUS
 62
     7
 10
14.73049621367038
 20
-225.47475384126571
 30
0.0
  0
VERTEX
  5
B32
  8
DATA
  6
CONTINUOUS
 62
     7
 10
14.73049621367038
 20
-227.5747538412657
 30
0.0
  0
VERTEX
  5
B33
  8
DATA
  6
CONTINUOUS
 62
     7
 10
13.93049621367031
 20
-227.5747538412657
 30
0.0
  0
VERTEX
  5
B34
  8
DATA
  6
CONTINUOUS
 62
     7
 10
13.93049621367031
 20
-225.47475384126571
 30
0.0
  0
SEQEND
  5
B35
  8
DATA
  6
CONTINUOUS
 62
     7
  0
POLYLINE
  5
41B
  8
DATA
  6
CONTINUOUS
 62
     7
 66
     1
 10
0.0
 20
0.0
 30
0.0
  0
VERTEX
  5
B36
  8
DATA
  6
CONTINUOUS
 62
     7
 10
13.93049621367031
 20
-224.6747538412657
 30
0.0
  0
VERTEX
  5
B37
  8
DATA
  6
CONTINUOUS
 62
     7
 10
13.93049621367031
 20
-222.5747538412657
 30
0.0
  0
VERTEX
  5
B38
  8
DATA
  6
CONTINUOUS
 62
     7
 10
14.73049621367038
 20
-222.5747538412657
 30
0.0
  0
VERTEX
  5
B39
  8
DATA
  6
CONTINUOUS
 62
     7
 10
14.73049621367038
 20
-224.6747538412657
 30
0.0
  0
SEQEND
  5
B3A
  8
DATA
  6
CONTINUOUS
 62
     7
  0
POLYLINE
  5
422
  8
DATA
  6
CONTINUOUS
 62
     7
 66
     1
 10
0.0
 20
0.0
 30
0.0
 70
     1
  0
VERTEX
  5
B3B
  8
DATA
  6
CONTINUOUS
 62
     7
 10
12.47021178319862
 20
-223.31532603061569
 30
0.0
  0
VERTEX
  5
B3C
  8
DATA
  6
CONTINUOUS
 62
     7
 10
13.47021178319862
 20
-223.31532603061569
 30
0.0
  0
VERTEX
  5
B3D
  8
DATA
  6
CONTINUOUS
 62
     7
 10
13.47021178319862
 20
-224.31532603061569
 30
0.0
  0
VERTEX
  5
B3E
  8
DATA
  6
CONTINUOUS
 62
     7
 10
12.47021178319862
 20
-224.31532603061569
 30
0.0
  0
SEQEND
  5
B3F
  8
DATA
  6
CONTINUOUS
 62
     7
  0
POLYLINE
  5
429
  8
DATA
  6
CONTINUOUS
 62
     7
 66
     1
 10
0.0
 20
0.0
 30
0.0
 70
     1
  0
VERTEX
  5
B40
  8
DATA
  6
CONTINUOUS
 62
     7
 10
15.190780644142061
 20
-223.31532603061569
 30
0.0
  0
VERTEX
  5
B41
  8
DATA
  6
CONTINUOUS
 62
     7
 10
16.190780644142059
 20
-223.31532603061569
 30
0.0
  0
VERTEX
  5
B42
  8
DATA
  6
CONTINUOUS
 62
     7
 10
16.190780644142059
 20
-224.31532603061569
 30
0.0
  0
VERTEX
  5
B43
  8
DATA
  6
CONTINUOUS
 62
     7
 10
15.190780644142061
 20
-224.31532603061569
 30
0.0
  0
SEQEND
  5
B44
  8
DATA
  6
CONTINUOUS
 62
     7
  0
POLYLINE
  5
430
  8
DATA
  6
CONTINUOUS
 62
     7
 66
     1
 10
0.0
 20
0.0
 30
0.0
 70
     1
  0
VERTEX
  5
B45
  8
DATA
  6
CONTINUOUS
 62
     7
 10
12.47021178319862
 20
-225.8341816519156
 30
0.0
  0
VERTEX
  5
B46
  8
DATA
  6
CONTINUOUS
 62
     7
 10
13.47021178319862
 20
-225.8341816519156
 30
0.0
  0
VERTEX
  5
B47
  8
DATA
  6
CONTINUOUS
 62
     7
 10
13.47021178319862
 20
-226.8341816519156
 30
0.0
  0
VERTEX
  5
B48
  8
DATA
  6
CONTINUOUS
 62
     7
 10
12.47021178319862
 20
-226.8341816519156
 30
0.0
  0
SEQEND
  5
B49
  8
DATA
  6
CONTINUOUS
 62
     7
  0
POLYLINE
  5
437
  8
DATA
  6
CONTINUOUS
 62
     7
 66
     1
 10
0.0
 20
0.0
 30
0.0
 70
     1
  0
VERTEX
  5
B4A
  8
DATA
  6
CONTINUOUS
 62
     7
 10
15.190780644142061
 20
-225.8341816519156
 30
0.0
  0
VERTEX
  5
B4B
  8
DATA
  6
CONTINUOUS
 62
     7
 10
16.190780644142059
 20
-225.8341816519156
 30
0.0
  0
VERTEX
  5
B4C
  8
DATA
  6
CONTINUOUS
 62
     7
 10
16.190780644142059
 20
-226.8341816519156
 30
0.0
  0
VERTEX
  5
B4D
  8
DATA
  6
CONTINUOUS
 62
     7
 10
15.190780644142061
 20
-226.8341816519156
 30
0.0
  0
SEQEND
  5
B4E
  8
DATA
  6
CONTINUOUS
 62
     7
  0
LINE
  5
43E
  8
DATA
  6
CONTINUOUS
 62
     7
 10
-5.7648756042770639
 20
-222.24486214675201
 30
0.0
 11
-5.205958406824676
 21
-228.09486214675201
 31
0.0
  0
LINE
  5
43F
  8
DATA
  6
CONTINUOUS
 62
     7
 10
18.12586803161744
 20
-222.24486214675201
 30
0.0
 11
17.56695083416518
 21
-228.09486214675189
 31
0.0
  0
ARC
  5
440
  8
DATA
  6
CONTINUOUS
 62
     7
 10
-4.7694086735215961
 20
-222.14975384126561
 30
0.0
 40
1.0
 50
90.0
 51
185.4575534851038
  0
ARC
  5
441
  8
DATA
  6
CONTINUOUS
 62
     7
 10
17.130401100862102
 20
-222.14975384126561
 30
0.0
 40
0.9999999999999703
 50
354.54244651489557
 51
90.000000000006537
  0
ARC
  5
442
  8
DATA
  6
CONTINUOUS
 62
     7
 10
-4.2104914760692083
 20
-227.99975384126569
 30
0.0
 40
1.000000000000083
 50
185.4575534851038
 51
270.0
  0
ARC
  5
443
  8
DATA
  6
CONTINUOUS
 62
     7
 10
16.57148390340971
 20
-227.99975384126569
 30
0.0
 40
1.0
 50
270.0
 51
354.54244651489608
  0
TEXT
  5
444
  8
DATA
 62
     7
 10
-46.423419855375172
 20
-117.0537133218242
 30
0.0
 40
3.078125
  1
RS232 Out
 41
0.7
 11
-46.423419855375172
 21
-113.9755883218242
 31
0.0
 73
     3
  0
TEXT
  5
445
  8
DATA
 62
     7
 10
-87.50003246700517
 20
-116.9828634058005
 30
0.0
 40
3.078125
  1
USB Out
 41
0.7
 11
-87.50003246700517
 21
-113.9047384058005
 31
0.0
 73
     3
  0
CIRCLE
  5
446
  8
DATA
  6
CONTINUOUS
 62
     7
 10
31.390303554513519
 20
-226.08603072320599
 30
0.0
 40
1.3000000000000671
  0
CIRCLE
  5
447
  8
DATA
  6
CONTINUOUS
 62
     7
 10
-93.447724326269736
 20
-225.48920656938441
 30
0.0
 40
1.3000000000001251
  0
TEXT
  5
448
  8
DATA
 62
     7
 10
-0.581443518291238
 20
-116.99429306198719
 30
0.0
 40
3.078125
  1
DVI Out
 41
0.7
 11
-0.5814435182912378
 21
-113.91616806198719
 31
0.0
 73
     3
  0
TEXT
  5
449
  8
DATA
 62
     7
 10
37.61743654416
 20
-116.9083825822667
 30
0.0
 40
3.078125
  1
5V DC
 41
0.7
 11
37.61743654416
 21
-113.8302575822667
 31
0.0
 73
     3
  0
TEXT
  5
44A
  8
DATA
 62
     7
 10
26.479335164863571
 20
-116.92417838856331
 30
0.0
 40
3.078125
  1
Power
 41
0.7
 11
26.479335164863571
 21
-113.84605338856331
 31
0.0
 73
     3
  0
TEXT
  5
44B
  8
DATA
 62
     7
 10
-98.384428565254282
 20
-117.013154764476
 30
0.0
 40
3.078125
  1
Host
 41
0.7
 11
-98.384428565254282
 21
-113.935029764476
 31
0.0
 73
     3
  0
LINE
  5
44C
  8
DATA
  6
CONTINUOUS
 62
     7
 10
65.999999999922835
 20
29.999999999640071
 30
0.0
 11
55.499999999922849
 21
29.999999999640071
 31
0.0
  0
LINE
  5
44D
  8
DATA
  6
CONTINUOUS
 62
     7
 10
53.899999999922819
 20
29.999999999640071
 30
0.0
 11
-112.9000000000771
 21
29.999999999640071
 31
0.0
  0
LINE
  5
44E
  8
DATA
  6
CONTINUOUS
 62
     7
 10
-114.50000000007699
 20
29.999999999640071
 30
0.0
 11
-125.00000000007699
 21
29.999999999640071
 31
0.0
  0
LINE
  5
44F
  8
DATA
  6
CONTINUOUS
 62
     7
 10
53.899999999922819
 20
-0.0000000003600462
 30
0.0
 11
-112.9000000000771
 21
-0.0000000003600462
 31
0.0
  0
LINE
  5
450
  8
DATA
  6
CONTINUOUS
 62
     7
 10
65.999999999922835
 20
28.399999999640048
 30
0.0
 11
57.099999999922872
 21
28.399999999640048
 31
0.0
  0
LINE
  5
451
  8
DATA
  6
CONTINUOUS
 62
     7
 10
-116.1000000000771
 20
28.399999999640048
 30
0.0
 11
-125.00000000007699
 21
28.399999999640048
 31
0.0
  0
LINE
  5
452
  8
DATA
  6
CONTINUOUS
 62
     7
 10
-125.00000000007699
 20
28.399999999640048
 30
0.0
 11
-125.00000000007699
 21
29.999999999640071
 31
0.0
  0
LINE
  5
453
  8
DATA
  6
CONTINUOUS
 62
     7
 10
65.999999999922835
 20
28.399999999640048
 30
0.0
 11
65.999999999922835
 21
29.999999999640071
 31
0.0
  0
LINE
  5
454
  8
DATA
  6
CONTINUOUS
 62
     7
 10
-114.50000000007699
 20
1.5999999996399761
 30
0.0
 11
-114.50000000007699
 21
26.799999999640018
 31
0.0
  0
LINE
  5
455
  8
DATA
  6
CONTINUOUS
 62
     7
 10
55.499999999922849
 20
1.5999999996399761
 30
0.0
 11
55.499999999922849
 21
26.799999999640018
 31
0.0
  0
LINE
  5
456
  8
DATA
  6
CONTINUOUS
 62
     7
 10
53.899999999922819
 20
3.1999999996399411
 30
0.0
 11
53.899999999922819
 21
29.999999999640071
 31
0.0
  0
LINE
  5
457
  8
DATA
  6
CONTINUOUS
 62
     7
 10
-112.9000000000771
 20
3.1999999996399411
 30
0.0
 11
-112.9000000000771
 21
29.999999999640071
 31
0.0
  0
ARC
  5
458
  8
DATA
  6
CONTINUOUS
 62
     7
 10
-116.1000000000771
 20
26.799999999640018
 30
0.0
 40
1.599999999999965
 50
0.0
 51
90.0
  0
ARC
  5
459
  8
DATA
  6
CONTINUOUS
 62
     7
 10
-114.50000000007719
 20
28.399999999640048
 30
0.0
 40
1.6000000000000221
 50
0.0
 51
90.0
  0
ARC
  5
45A
  8
DATA
  6
CONTINUOUS
 62
     7
 10
55.499999999922821
 20
28.399999999640048
 30
0.0
 40
1.6000000000000221
 50
90.0
 51
180.0
  0
ARC
  5
45B
  8
DATA
  6
CONTINUOUS
 62
     7
 10
57.099999999922851
 20
26.799999999640018
 30
0.0
 40
1.6000000000000221
 50
90.0
 51
180.0
  0
LINE
  5
45C
  8
DATA
  6
CONTINUOUS
 62
     7
 10
52.299999999922861
 20
1.5999999996399761
 30
0.0
 11
-111.30000000007711
 21
1.5999999996399761
 31
0.0
  0
ARC
  5
45D
  8
DATA
  6
CONTINUOUS
 62
     7
 10
-111.3000000000772
 20
3.1999999996398838
 30
0.0
 40
1.599999999999965
 50
179.99999999999801
 51
270.0
  0
ARC
  5
45E
  8
DATA
  6
CONTINUOUS
 62
     7
 10
-112.9000000000771
 20
1.5999999996399761
 30
0.0
 40
1.6000000000000221
 50
180.0
 51
270.0
  0
ARC
  5
45F
  8
DATA
  6
CONTINUOUS
 62
     7
 10
52.299999999922832
 20
3.1999999996399411
 30
0.0
 40
1.599999999999965
 50
270.0
 51
0.0
  0
ARC
  5
460
  8
DATA
  6
CONTINUOUS
 62
     7
 10
53.899999999922798
 20
1.5999999996399761
 30
0.0
 40
1.6000000000000221
 50
270.0
 51
0.0
  0
LINE
  5
461
  8
DATA
  6
CONTINUOUS
 62
     7
 10
-21.80624145938096
 20
22.00182238779098
 30
0.0
 11
-21.80624145938096
 21
8.7018223877910277
 31
0.0
  0
LINE
  5
462
  8
DATA
  6
CONTINUOUS
 62
     7
 10
-37.506241459380917
 20
22.00182238779098
 30
0.0
 11
-37.506241459380917
 21
8.7018223877910277
 31
0.0
  0
LINE
  5
463
  8
DATA
  6
CONTINUOUS
 62
     7
 10
-37.506241459380917
 20
8.7018223877910277
 30
0.0
 11
-21.80624145938096
 21
8.7018223877910277
 31
0.0
  0
LINE
  5
464
  8
DATA
  6
CONTINUOUS
 62
     7
 10
-37.506241459380917
 20
22.00182238779098
 30
0.0
 11
-21.80624145938096
 21
22.00182238779098
 31
0.0
  0
LINE
  5
465
  8
DATA
  6
CONTINUOUS
 62
     7
 10
-35.806241459380992
 20
19.00182238779098
 30
0.0
 11
-23.506241459380892
 21
19.00182238779098
 31
0.0
  0
LINE
  5
466
  8
DATA
  6
CONTINUOUS
 62
     7
 10
-35.806241459380992
 20
19.00182238779098
 30
0.0
 11
-35.806241459380992
 21
11.701822387791021
 31
0.0
  0
LINE
  5
467
  8
DATA
  6
CONTINUOUS
 62
     7
 10
-23.506241459380892
 20
19.00182238779098
 30
0.0
 11
-23.506241459380892
 21
11.701822387791021
 31
0.0
  0
LINE
  5
468
  8
DATA
  6
CONTINUOUS
 62
     7
 10
-31.88124145938092
 20
8.7018223877910277
 30
0.0
 11
-31.88124145938092
 21
10.201822387791021
 31
0.0
  0
LINE
  5
469
  8
DATA
  6
CONTINUOUS
 62
     7
 10
-27.43124145938096
 20
10.201822387791021
 30
0.0
 11
-27.43124145938096
 21
8.7018223877910277
 31
0.0
  0
LINE
  5
46A
  8
DATA
  6
CONTINUOUS
 62
     7
 10
-33.006241459380931
 20
10.201822387791021
 30
0.0
 11
-31.88124145938092
 21
10.201822387791021
 31
0.0
  0
LINE
  5
46B
  8
DATA
  6
CONTINUOUS
 62
     7
 10
-27.43124145938096
 20
10.201822387791021
 30
0.0
 11
-26.30624145938096
 21
10.201822387791021
 31
0.0
  0
LINE
  5
46C
  8
DATA
  6
CONTINUOUS
 62
     7
 10
-35.806241459380992
 20
11.701822387791021
 30
0.0
 11
-33.006241459380931
 21
11.701822387791021
 31
0.0
  0
LINE
  5
46D
  8
DATA
  6
CONTINUOUS
 62
     7
 10
-26.30624145938096
 20
11.701822387791021
 30
0.0
 11
-23.506241459380892
 21
11.701822387791021
 31
0.0
  0
LINE
  5
46E
  8
DATA
  6
CONTINUOUS
 62
     7
 10
-33.006241459380931
 20
10.201822387791021
 30
0.0
 11
-33.006241459380931
 21
11.701822387791021
 31
0.0
  0
LINE
  5
46F
  8
DATA
  6
CONTINUOUS
 62
     7
 10
-26.30624145938096
 20
11.701822387791021
 30
0.0
 11
-26.30624145938096
 21
10.201822387791021
 31
0.0
  0
TEXT
  5
470
  8
DATA
 62
     7
 10
20.93709676560109
 20
-35.640518901165251
 30
0.0
 40
3.121945529513888
  1
Ethernet 
 50
180.0
 41
0.7
 11
20.93709676560109
 21
-38.762464430679131
 31
0.0
 73
     3
  0
LINE
  5
471
  8
DATA
  6
CONTINUOUS
 62
     7
 10
19.32834253527453
 20
22.00182238779098
 30
0.0
 11
19.32834253527453
 21
8.7018223877910277
 31
0.0
  0
LINE
  5
472
  8
DATA
  6
CONTINUOUS
 62
     7
 10
3.6283425352745962
 20
22.00182238779098
 30
0.0
 11
3.6283425352745962
 21
8.7018223877910277
 31
0.0
  0
LINE
  5
473
  8
DATA
  6
CONTINUOUS
 62
     7
 10
3.6283425352745962
 20
8.7018223877910277
 30
0.0
 11
19.32834253527453
 21
8.7018223877910277
 31
0.0
  0
LINE
  5
474
  8
DATA
  6
CONTINUOUS
 62
     7
 10
3.6283425352745962
 20
22.00182238779098
 30
0.0
 11
19.32834253527453
 21
22.00182238779098
 31
0.0
  0
LINE
  5
475
  8
DATA
  6
CONTINUOUS
 62
     7
 10
5.3283425352745279
 20
19.00182238779098
 30
0.0
 11
17.628342535274601
 21
19.00182238779098
 31
0.0
  0
LINE
  5
476
  8
DATA
  6
CONTINUOUS
 62
     7
 10
5.3283425352745279
 20
19.00182238779098
 30
0.0
 11
5.3283425352745279
 21
11.701822387791021
 31
0.0
  0
LINE
  5
477
  8
DATA
  6
CONTINUOUS
 62
     7
 10
17.628342535274601
 20
19.00182238779098
 30
0.0
 11
17.628342535274601
 21
11.701822387791021
 31
0.0
  0
LINE
  5
478
  8
DATA
  6
CONTINUOUS
 62
     7
 10
9.2533425352745944
 20
8.7018223877910277
 30
0.0
 11
9.2533425352745944
 21
10.201822387791021
 31
0.0
  0
LINE
  5
479
  8
DATA
  6
CONTINUOUS
 62
     7
 10
13.70334253527453
 20
10.201822387791021
 30
0.0
 11
13.70334253527453
 21
8.7018223877910277
 31
0.0
  0
LINE
  5
47A
  8
DATA
  6
CONTINUOUS
 62
     7
 10
8.1283425352745944
 20
10.201822387791021
 30
0.0
 11
9.2533425352745944
 21
10.201822387791021
 31
0.0
  0
LINE
  5
47B
  8
DATA
  6
CONTINUOUS
 62
     7
 10
13.70334253527453
 20
10.201822387791021
 30
0.0
 11
14.82834253527453
 21
10.201822387791021
 31
0.0
  0
LINE
  5
47C
  8
DATA
  6
CONTINUOUS
 62
     7
 10
5.3283425352745279
 20
11.701822387791021
 30
0.0
 11
8.1283425352745944
 21
11.701822387791021
 31
0.0
  0
LINE
  5
47D
  8
DATA
  6
CONTINUOUS
 62
     7
 10
14.82834253527453
 20
11.701822387791021
 30
0.0
 11
17.628342535274601
 21
11.701822387791021
 31
0.0
  0
LINE
  5
47E
  8
DATA
  6
CONTINUOUS
 62
     7
 10
8.1283425352745944
 20
10.201822387791021
 30
0.0
 11
8.1283425352745944
 21
11.701822387791021
 31
0.0
  0
LINE
  5
47F
  8
DATA
  6
CONTINUOUS
 62
     7
 10
14.82834253527453
 20
11.701822387791021
 30
0.0
 11
14.82834253527453
 21
10.201822387791021
 31
0.0
  0
LINE
  5
480
  8
DATA
  6
CONTINUOUS
 62
     7
 10
-88.557461520536492
 20
8.7018223877910277
 30
0.0
 11
-88.557461520536492
 21
22.00182238779098
 31
0.0
  0
LINE
  5
481
  8
DATA
  6
CONTINUOUS
 62
     7
 10
-72.857461520536575
 20
8.7018223877910277
 30
0.0
 11
-72.857461520536575
 21
22.00182238779098
 31
0.0
  0
LINE
  5
482
  8
DATA
  6
CONTINUOUS
 62
     7
 10
-72.857461520536575
 20
22.00182238779098
 30
0.0
 11
-88.557461520536492
 21
22.00182238779098
 31
0.0
  0
LINE
  5
483
  8
DATA
  6
CONTINUOUS
 62
     7
 10
-72.857461520536575
 20
8.7018223877910277
 30
0.0
 11
-88.557461520536492
 21
8.7018223877910277
 31
0.0
  0
LINE
  5
484
  8
DATA
  6
CONTINUOUS
 62
     7
 10
-74.557461520536492
 20
10.67047173839671
 30
0.0
 11
-86.857461520536575
 21
10.67047173839671
 31
0.0
  0
LINE
  5
485
  8
DATA
  6
CONTINUOUS
 62
     7
 10
-74.557461520536492
 20
10.67047173839671
 30
0.0
 11
-74.557461520536492
 21
20.50182238779098
 31
0.0
  0
LINE
  5
486
  8
DATA
  6
CONTINUOUS
 62
     7
 10
-86.857461520536575
 20
10.67047173839671
 30
0.0
 11
-86.857461520536575
 21
20.50182238779098
 31
0.0
  0
LINE
  5
487
  8
DATA
  6
CONTINUOUS
 62
     7
 10
-78.482461520536575
 20
22.00182238779098
 30
0.0
 11
-78.482461520536575
 21
20.50182238779098
 31
0.0
  0
LINE
  5
488
  8
DATA
  6
CONTINUOUS
 62
     7
 10
-82.932461520536492
 20
20.50182238779098
 30
0.0
 11
-82.932461520536492
 21
22.00182238779098
 31
0.0
  0
LINE
  5
489
  8
DATA
  6
CONTINUOUS
 62
     7
 10
-74.557461520536492
 20
20.50182238779098
 30
0.0
 11
-78.482461520536575
 21
20.50182238779098
 31
0.0
  0
LINE
  5
48A
  8
DATA
  6
CONTINUOUS
 62
     7
 10
-82.932461520536492
 20
20.50182238779098
 30
0.0
 11
-86.857461520536575
 21
20.50182238779098
 31
0.0
  0
LINE
  5
48B
  8
DATA
  6
CONTINUOUS
 62
     7
 10
-82.932461520536492
 20
20.50182238779098
 30
0.0
 11
-82.932461520536492
 21
18.00182238779098
 31
0.0
  0
LINE
  5
48C
  8
DATA
  6
CONTINUOUS
 62
     7
 10
-78.482461520536575
 20
20.50182238779098
 30
0.0
 11
-78.482461520536575
 21
18.051822387790921
 31
0.0
  0
LINE
  5
48D
  8
DATA
  6
CONTINUOUS
 62
     7
 10
-82.932461520536492
 20
18.00182238779098
 30
0.0
 11
-86.857461520536575
 21
18.00182238779098
 31
0.0
  0
LINE
  5
48E
  8
DATA
  6
CONTINUOUS
 62
     7
 10
-78.482461520536575
 20
18.051822387790921
 30
0.0
 11
-74.557461520536492
 21
18.051822387790921
 31
0.0
  0
TEXT
  5
48F
  8
DATA
 62
     7
 10
-16.472104874075349
 20
-35.633732501395052
 30
0.0
 40
3.121945529513888
  1
DVI-RS232 Link 
 50
180.0
 41
0.7
 11
-16.472104874075349
 21
-38.755678030908939
 31
0.0
 73
     3
  0
TEXT
  5
490
  8
DATA
 62
     7
 10
-72.924752538986453
 20
-35.549213845969838
 30
0.0
 40
3.121945529513888
  1
USB Link 
 50
180.0
 41
0.7
 11
-72.924752538986453
 21
-38.671159375483732
 31
0.0
 73
     3
  0
LINE
  5
491
  8
DATA
  6
CONTINUOUS
 62
     7
 10
172.5000000000224
 20
-207.49999999970339
 30
0.0
 11
87.500000000023206
 21
-207.49999999970339
 31
0.0
  0
LINE
  5
492
  8
DATA
  6
CONTINUOUS
 62
     7
 10
172.5000000000224
 20
-237.49999999970331
 30
0.0
 11
87.500000000023206
 21
-237.49999999970331
 31
0.0
  0
LINE
  5
493
  8
DATA
  6
CONTINUOUS
 62
     7
 10
172.5000000000224
 20
-207.49999999970339
 30
0.0
 11
172.5000000000224
 21
-237.49999999970331
 31
0.0
  0
LINE
  5
494
  8
DATA
  6
CONTINUOUS
 62
     7
 10
87.500000000023206
 20
-207.49999999970339
 30
0.0
 11
87.500000000023206
 21
-237.49999999970331
 31
0.0
  0
LINE
  5
495
  8
DATA
  6
CONTINUOUS
 62
     7
 10
172.5000000000224
 20
-235.89999999970351
 30
0.0
 11
87.500000000023206
 21
-235.89999999970351
 31
0.0
  0
CIRCLE
  5
496
  8
DATA
  6
CONTINUOUS
 62
     7
 10
155.00000000002291
 20
-230.8999999997034
 30
0.0
 40
2.499999999999885
  0
LINE
  5
497
  8
DATA
  6
CONTINUOUS
 62
     7
 10
156.25000000002291
 20
-230.8999999997034
 30
0.0
 11
153.75000000002291
 21
-230.8999999997034
 31
0.0
  0
LINE
  5
498
  8
DATA
  6
CONTINUOUS
 62
     7
 10
155.00000000002279
 20
-229.64999999970351
 30
0.0
 11
155.00000000002279
 21
-232.14999999970351
 31
0.0
  0
CIRCLE
  5
499
  8
DATA
  6
CONTINUOUS
 62
     7
 10
105.00000000002331
 20
-230.8999999997034
 30
0.0
 40
2.5
  0
LINE
  5
49A
  8
DATA
  6
CONTINUOUS
 62
     7
 10
106.25000000002321
 20
-230.8999999997034
 30
0.0
 11
103.75000000002321
 21
-230.8999999997034
 31
0.0
  0
LINE
  5
49B
  8
DATA
  6
CONTINUOUS
 62
     7
 10
105.00000000002321
 20
-229.64999999970351
 30
0.0
 11
105.00000000002321
 21
-232.14999999970351
 31
0.0
  0
LINE
  5
49C
  8
DATA
  6
CONTINUOUS
 62
     7
 10
-107.4000000000771
 20
-239.79999999986691
 30
0.0
 11
-108.6500000000771
 21
-237.4999999998669
 31
0.0
  0
LINE
  5
49D
  8
DATA
  6
CONTINUOUS
 62
     7
 10
-100.3500000000771
 20
-237.4999999998669
 30
0.0
 11
-101.6000000000771
 21
-239.79999999986691
 31
0.0
  0
LINE
  5
49E
  8
DATA
  6
CONTINUOUS
 62
     7
 10
-101.6000000000771
 20
-239.79999999986691
 30
0.0
 11
-107.44000000007711
 21
-239.79999999986691
 31
0.0
  0
LINE
  5
49F
  8
DATA
  6
CONTINUOUS
 62
     7
 10
42.599999999922851
 20
-239.79999999986691
 30
0.0
 11
41.349999999922851
 21
-237.4999999998669
 31
0.0
  0
LINE
  5
4A0
  8
DATA
  6
CONTINUOUS
 62
     7
 10
49.649999999922819
 20
-237.4999999998669
 30
0.0
 11
48.399999999922819
 21
-239.79999999986691
 31
0.0
  0
LINE
  5
4A1
  8
DATA
  6
CONTINUOUS
 62
     7
 10
48.399999999922819
 20
-239.79999999986691
 30
0.0
 11
42.559999999922852
 21
-239.79999999986691
 31
0.0
  0
LINE
  5
4A2
  8
DATA
  6
CONTINUOUS
 62
     7
 10
160.53545016682759
 20
-239.7999999997034
 30
0.0
 11
159.28545016682759
 21
-237.49999999970331
 31
0.0
  0
LINE
  5
4A3
  8
DATA
  6
CONTINUOUS
 62
     7
 10
167.5854501668274
 20
-237.49999999970331
 30
0.0
 11
166.3354501668274
 21
-239.7999999997034
 31
0.0
  0
LINE
  5
4A4
  8
DATA
  6
CONTINUOUS
 62
     7
 10
166.3354501668274
 20
-239.7999999997034
 30
0.0
 11
160.4954501668276
 21
-239.7999999997034
 31
0.0
  0
LINE
  5
4A5
  8
DATA
  6
CONTINUOUS
 62
     7
 10
93.815450166828086
 20
-239.7999999997034
 30
0.0
 11
92.565450166828086
 21
-237.49999999970331
 31
0.0
  0
LINE
  5
4A6
  8
DATA
  6
CONTINUOUS
 62
     7
 10
100.8654501668281
 20
-237.49999999970331
 30
0.0
 11
99.615450166828083
 21
-239.7999999997034
 31
0.0
  0
LINE
  5
4A7
  8
DATA
  6
CONTINUOUS
 62
     7
 10
99.615450166828083
 20
-239.7999999997034
 30
0.0
 11
93.775450166828037
 21
-239.7999999997034
 31
0.0
  0
LINE
  5
4A8
  8
DATA
  6
CONTINUOUS
 62
     7
 10
-84.398735914521652
 20
-228.4838991374765
 30
0.0
 11
-89.498735914521617
 21
-228.4838991374765
 31
0.0
  0
LINE
  5
4A9
  8
DATA
  6
CONTINUOUS
 62
     7
 10
-89.498735914521617
 20
-215.9838991374765
 30
0.0
 11
-84.398735914521652
 21
-215.9838991374765
 31
0.0
  0
LINE
  5
4AA
  8
DATA
  6
CONTINUOUS
 62
     7
 10
-89.498735914521617
 20
-228.4838991374765
 30
0.0
 11
-89.498735914521617
 21
-215.9838991374765
 31
0.0
  0
LINE
  5
4AB
  8
DATA
  6
CONTINUOUS
 62
     7
 10
-84.398735914521652
 20
-228.4838991374765
 30
0.0
 11
-84.398735914521652
 21
-215.9838991374765
 31
0.0
  0
LINE
  5
4AC
  8
DATA
  6
CONTINUOUS
 62
     7
 10
-86.798735914521615
 20
-227.9838991374765
 30
0.0
 11
-86.798735914521615
 21
-216.4838991374765
 31
0.0
  0
LINE
  5
4AD
  8
DATA
  6
CONTINUOUS
 62
     7
 10
-88.098735914521654
 20
-227.9838991374765
 30
0.0
 11
-88.098735914521654
 21
-216.4838991374765
 31
0.0
  0
LINE
  5
4AE
  8
DATA
  6
CONTINUOUS
 62
     7
 10
-86.798735914621659
 20
-222.8217548281207
 30
0.0
 11
-86.723735914621614
 21
-222.8217548281207
 31
0.0
  0
LINE
  5
4AF
  8
DATA
  6
CONTINUOUS
 62
     7
 10
-86.798735914621659
 20
-224.07175482812079
 30
0.0
 11
-86.723735914621614
 21
-224.07175482812079
 31
0.0
  0
LINE
  5
4B0
  8
DATA
  6
CONTINUOUS
 62
     7
 10
-86.723735914621614
 20
-224.07175482812079
 30
0.0
 11
-86.723735914621614
 21
-222.8217548281207
 31
0.0
  0
LINE
  5
4B1
  8
DATA
  6
CONTINUOUS
 62
     7
 10
-86.798735914621659
 20
-221.6460434468321
 30
0.0
 11
-86.723735914621614
 21
-221.6460434468321
 31
0.0
  0
LINE
  5
4B2
  8
DATA
  6
CONTINUOUS
 62
     7
 10
-86.798735914621659
 20
-220.3960434468321
 30
0.0
 11
-86.723735914621614
 21
-220.3960434468321
 31
0.0
  0
LINE
  5
4B3
  8
DATA
  6
CONTINUOUS
 62
     7
 10
-86.723735914621614
 20
-220.3960434468321
 30
0.0
 11
-86.723735914621614
 21
-221.6460434468321
 31
0.0
  0
LINE
  5
4B4
  8
DATA
  6
CONTINUOUS
 62
     7
 10
-86.798735914621659
 20
-225.2417548281208
 30
0.0
 11
-86.723735914621614
 21
-225.2417548281208
 31
0.0
  0
LINE
  5
4B5
  8
DATA
  6
CONTINUOUS
 62
     7
 10
-86.798735914621659
 20
-226.4917548281208
 30
0.0
 11
-86.723735914621614
 21
-226.4917548281208
 31
0.0
  0
LINE
  5
4B6
  8
DATA
  6
CONTINUOUS
 62
     7
 10
-86.723735914621614
 20
-226.4917548281208
 30
0.0
 11
-86.723735914621614
 21
-225.2417548281208
 31
0.0
  0
LINE
  5
4B7
  8
DATA
  6
CONTINUOUS
 62
     7
 10
-86.798735914621659
 20
-219.22604344683211
 30
0.0
 11
-86.723735914621614
 21
-219.22604344683211
 31
0.0
  0
LINE
  5
4B8
  8
DATA
  6
CONTINUOUS
 62
     7
 10
-86.798735914621659
 20
-217.97604344683211
 30
0.0
 11
-86.723735914621614
 21
-217.97604344683211
 31
0.0
  0
LINE
  5
4B9
  8
DATA
  6
CONTINUOUS
 62
     7
 10
-86.723735914621614
 20
-217.97604344683211
 30
0.0
 11
-86.723735914621614
 21
-219.22604344683211
 31
0.0
  0
LINE
  5
4BA
  8
DATA
  6
CONTINUOUS
 62
     7
 10
-86.798735914521615
 20
-227.9838991374765
 30
0.0
 11
-88.098735914521654
 21
-227.9838991374765
 31
0.0
  0
LINE
  5
4BB
  8
DATA
  6
CONTINUOUS
 62
     7
 10
-86.798735914521615
 20
-216.4838991374765
 30
0.0
 11
-88.098735914521654
 21
-216.4838991374765
 31
0.0
  0
LINE
  5
4BC
  8
DATA
  6
CONTINUOUS
 62
     7
 10
-75.398735914521652
 20
-228.4838991374765
 30
0.0
 11
-80.498735914521674
 21
-228.4838991374765
 31
0.0
  0
LINE
  5
4BD
  8
DATA
  6
CONTINUOUS
 62
     7
 10
-80.498735914521674
 20
-215.9838991374765
 30
0.0
 11
-75.398735914521652
 21
-215.9838991374765
 31
0.0
  0
LINE
  5
4BE
  8
DATA
  6
CONTINUOUS
 62
     7
 10
-80.498735914521674
 20
-228.4838991374765
 30
0.0
 11
-80.498735914521674
 21
-215.9838991374765
 31
0.0
  0
LINE
  5
4BF
  8
DATA
  6
CONTINUOUS
 62
     7
 10
-75.398735914521652
 20
-228.4838991374765
 30
0.0
 11
-75.398735914521652
 21
-215.9838991374765
 31
0.0
  0
LINE
  5
4C0
  8
DATA
  6
CONTINUOUS
 62
     7
 10
-77.798735914521629
 20
-227.9838991374765
 30
0.0
 11
-77.798735914521629
 21
-216.4838991374765
 31
0.0
  0
LINE
  5
4C1
  8
DATA
  6
CONTINUOUS
 62
     7
 10
-79.09873591452164
 20
-227.9838991374765
 30
0.0
 11
-79.09873591452164
 21
-216.4838991374765
 31
0.0
  0
LINE
  5
4C2
  8
DATA
  6
CONTINUOUS
 62
     7
 10
-77.798735914621659
 20
-222.8217548281207
 30
0.0
 11
-77.723735914621614
 21
-222.8217548281207
 31
0.0
  0
LINE
  5
4C3
  8
DATA
  6
CONTINUOUS
 62
     7
 10
-77.798735914621659
 20
-224.07175482812079
 30
0.0
 11
-77.723735914621614
 21
-224.07175482812079
 31
0.0
  0
LINE
  5
4C4
  8
DATA
  6
CONTINUOUS
 62
     7
 10
-77.723735914621614
 20
-224.07175482812079
 30
0.0
 11
-77.723735914621614
 21
-222.8217548281207
 31
0.0
  0
LINE
  5
4C5
  8
DATA
  6
CONTINUOUS
 62
     7
 10
-77.798735914621659
 20
-221.6460434468321
 30
0.0
 11
-77.723735914621614
 21
-221.6460434468321
 31
0.0
  0
LINE
  5
4C6
  8
DATA
  6
CONTINUOUS
 62
     7
 10
-77.798735914621659
 20
-220.3960434468321
 30
0.0
 11
-77.723735914621614
 21
-220.3960434468321
 31
0.0
  0
LINE
  5
4C7
  8
DATA
  6
CONTINUOUS
 62
     7
 10
-77.723735914621614
 20
-220.3960434468321
 30
0.0
 11
-77.723735914621614
 21
-221.6460434468321
 31
0.0
  0
LINE
  5
4C8
  8
DATA
  6
CONTINUOUS
 62
     7
 10
-77.798735914621659
 20
-225.2417548281208
 30
0.0
 11
-77.723735914621614
 21
-225.2417548281208
 31
0.0
  0
LINE
  5
4C9
  8
DATA
  6
CONTINUOUS
 62
     7
 10
-77.798735914621659
 20
-226.4917548281208
 30
0.0
 11
-77.723735914621614
 21
-226.4917548281208
 31
0.0
  0
LINE
  5
4CA
  8
DATA
  6
CONTINUOUS
 62
     7
 10
-77.723735914621614
 20
-226.4917548281208
 30
0.0
 11
-77.723735914621614
 21
-225.2417548281208
 31
0.0
  0
LINE
  5
4CB
  8
DATA
  6
CONTINUOUS
 62
     7
 10
-77.798735914621659
 20
-219.22604344683211
 30
0.0
 11
-77.723735914621614
 21
-219.22604344683211
 31
0.0
  0
LINE
  5
4CC
  8
DATA
  6
CONTINUOUS
 62
     7
 10
-77.798735914621659
 20
-217.97604344683211
 30
0.0
 11
-77.723735914621614
 21
-217.97604344683211
 31
0.0
  0
LINE
  5
4CD
  8
DATA
  6
CONTINUOUS
 62
     7
 10
-77.723735914621614
 20
-217.97604344683211
 30
0.0
 11
-77.723735914621614
 21
-219.22604344683211
 31
0.0
  0
LINE
  5
4CE
  8
DATA
  6
CONTINUOUS
 62
     7
 10
-77.798735914521629
 20
-227.9838991374765
 30
0.0
 11
-79.09873591452164
 21
-227.9838991374765
 31
0.0
  0
LINE
  5
4CF
  8
DATA
  6
CONTINUOUS
 62
     7
 10
-77.798735914521629
 20
-216.4838991374765
 30
0.0
 11
-79.09873591452164
 21
-216.4838991374765
 31
0.0
  0
LINE
  5
4D0
  8
DATA
  6
CONTINUOUS
 62
     7
 10
-107.39999999977699
 20
388.54999999990281
 30
0.0
 11
-108.64999999977699
 21
386.2499999999028
 31
0.0
  0
LINE
  5
4D1
  8
DATA
  6
CONTINUOUS
 62
     7
 10
-100.3499999997772
 20
386.2499999999028
 30
0.0
 11
-101.5999999997772
 21
388.54999999990281
 31
0.0
  0
LINE
  5
4D2
  8
DATA
  6
CONTINUOUS
 62
     7
 10
-101.5999999997772
 20
388.54999999990281
 30
0.0
 11
-107.4399999997772
 21
388.54999999990281
 31
0.0
  0
LINE
  5
4D3
  8
DATA
  6
CONTINUOUS
 62
     7
 10
42.600000000222828
 20
388.54999999990281
 30
0.0
 11
41.350000000222828
 21
386.2499999999028
 31
0.0
  0
LINE
  5
4D4
  8
DATA
  6
CONTINUOUS
 62
     7
 10
49.650000000222782
 20
386.2499999999028
 30
0.0
 11
48.400000000222782
 21
388.54999999990281
 31
0.0
  0
LINE
  5
4D5
  8
DATA
  6
CONTINUOUS
 62
     7
 10
48.400000000222782
 20
388.54999999990281
 30
0.0
 11
42.560000000222807
 21
388.54999999990281
 31
0.0
  0
LINE
  5
4D6
  8
DATA
  6
CONTINUOUS
 62
     7
 10
-107.4000000000771
 20
32.299999999496549
 30
0.0
 11
-108.6500000000771
 21
29.999999999496541
 31
0.0
  0
LINE
  5
4D7
  8
DATA
  6
CONTINUOUS
 62
     7
 10
-100.3500000000771
 20
29.999999999496541
 30
0.0
 11
-101.6000000000771
 21
32.299999999496549
 31
0.0
  0
LINE
  5
4D8
  8
DATA
  6
CONTINUOUS
 62
     7
 10
-101.6000000000771
 20
32.299999999496549
 30
0.0
 11
-107.44000000007711
 21
32.299999999496549
 31
0.0
  0
LINE
  5
4D9
  8
DATA
  6
CONTINUOUS
 62
     7
 10
42.599999999922851
 20
32.299999999496549
 30
0.0
 11
41.349999999922851
 21
29.999999999496541
 31
0.0
  0
LINE
  5
4DA
  8
DATA
  6
CONTINUOUS
 62
     7
 10
49.649999999922819
 20
29.999999999496541
 30
0.0
 11
48.399999999922819
 21
32.299999999496549
 31
0.0
  0
LINE
  5
4DB
  8
DATA
  6
CONTINUOUS
 62
     7
 10
48.399999999922819
 20
32.299999999496549
 30
0.0
 11
42.559999999922852
 21
32.299999999496549
 31
0.0
  0
TEXT
  5
4DC
  8
DATA
 62
     7
 10
-98.431534645062698
 20
79.372675887360117
 30
0.0
 40
10.85894097222222
  1
DVIKVM ELR S(送信機）
 41
0.7
 11
-98.431534645062698
 21
90.231616859582346
 31
0.0
 73
     3
  0
TEXT
  5
4DD
  8
DATA
 62
     7
 10
-98.812110586099223
 20
-277.80104066512331
 30
0.0
 40
10.85894097222222
  1
DVIKVM ELR R(受信機)
 41
0.7
 11
-98.812110586099223
 21
-266.94209969290108
 31
0.0
 73
     3
  0
LINE
  5
4DE
  8
DATA
  6
CONTINUOUS
 62
     7
 10
87.499999999625246
 20
148.74999999977359
 30
0.0
 11
172.4999999996252
 21
148.74999999977359
 31
0.0
  0
LINE
  5
4DF
  8
DATA
  6
CONTINUOUS
 62
     7
 10
87.499999999625246
 20
118.74999999977361
 30
0.0
 11
172.4999999996252
 21
118.74999999977361
 31
0.0
  0
LINE
  5
4E0
  8
DATA
  6
CONTINUOUS
 62
     7
 10
87.499999999625246
 20
148.74999999977359
 30
0.0
 11
87.499999999625246
 21
118.74999999977361
 31
0.0
  0
LINE
  5
4E1
  8
DATA
  6
CONTINUOUS
 62
     7
 10
172.4999999996252
 20
148.74999999977359
 30
0.0
 11
172.4999999996252
 21
118.74999999977361
 31
0.0
  0
LINE
  5
4E2
  8
DATA
  6
CONTINUOUS
 62
     7
 10
87.499999999625246
 20
120.3499999997736
 30
0.0
 11
172.4999999996252
 21
120.3499999997736
 31
0.0
  0
CIRCLE
  5
4E3
  8
DATA
  6
CONTINUOUS
 62
     7
 10
104.9999999996252
 20
125.3499999997736
 30
0.0
 40
2.499999999999996
  0
LINE
  5
4E4
  8
DATA
  6
CONTINUOUS
 62
     7
 10
103.7499999996252
 20
125.3499999997736
 30
0.0
 11
106.2499999996252
 21
125.3499999997736
 31
0.0
  0
LINE
  5
4E5
  8
DATA
  6
CONTINUOUS
 62
     7
 10
104.9999999996252
 20
126.5999999997736
 30
0.0
 11
104.9999999996252
 21
124.0999999997736
 31
0.0
  0
CIRCLE
  5
4E6
  8
DATA
  6
CONTINUOUS
 62
     7
 10
154.99999999962509
 20
125.3499999997736
 30
0.0
 40
2.5
  0
LINE
  5
4E7
  8
DATA
  6
CONTINUOUS
 62
     7
 10
153.74999999962509
 20
125.3499999997736
 30
0.0
 11
156.2499999996252
 21
125.3499999997736
 31
0.0
  0
LINE
  5
4E8
  8
DATA
  6
CONTINUOUS
 62
     7
 10
154.99999999962509
 20
126.5999999997736
 30
0.0
 11
154.99999999962509
 21
124.0999999997736
 31
0.0
  0
LINE
  5
4E9
  8
DATA
  6
CONTINUOUS
 62
     7
 10
99.46454983282041
 20
116.4499999997736
 30
0.0
 11
100.7145498328204
 21
118.74999999977361
 31
0.0
  0
LINE
  5
4EA
  8
DATA
  6
CONTINUOUS
 62
     7
 10
92.414549832820413
 20
118.74999999977361
 30
0.0
 11
93.664549832820413
 21
116.4499999997736
 31
0.0
  0
LINE
  5
4EB
  8
DATA
  6
CONTINUOUS
 62
     7
 10
93.664549832820413
 20
116.4499999997736
 30
0.0
 11
99.50454983282043
 21
116.4499999997736
 31
0.0
  0
LINE
  5
4EC
  8
DATA
  6
CONTINUOUS
 62
     7
 10
166.18454983282041
 20
116.4499999997736
 30
0.0
 11
167.43454983282041
 21
118.74999999977361
 31
0.0
  0
LINE
  5
4ED
  8
DATA
  6
CONTINUOUS
 62
     7
 10
159.1345498328204
 20
118.74999999977361
 30
0.0
 11
160.3845498328204
 21
116.4499999997736
 31
0.0
  0
LINE
  5
4EE
  8
DATA
  6
CONTINUOUS
 62
     7
 10
160.3845498328204
 20
116.4499999997736
 30
0.0
 11
166.2245498328204
 21
116.4499999997736
 31
0.0
  0
LINE
  5
4EF
  8
DATA
  6
CONTINUOUS
 62
     7
 10
61.200000000000003
 20
310.64871752671547
 30
0.0
 11
81.25
 21
343.75
 31
0.0
  0
LINE
  5
4F0
  8
DATA
  6
CONTINUOUS
 62
     7
 10
61.200000000000003
 20
310.64871752671547
 30
0.0
 11
65.044105363911811
 21
323.22221962199541
 31
0.0
  0
LINE
  5
4F1
  8
DATA
  6
CONTINUOUS
 62
     7
 10
61.200000000000003
 20
310.64871752671547
 30
0.0
 11
70.815843947611583
 21
319.61563707380878
 31
0.0
  0
LINE
  5
4F2
  8
DATA
  6
CONTINUOUS
 62
     7
 10
81.25
 20
343.75
 30
0.0
 11
162.5
 21
343.75
 31
0.0
  0
TEXT
  5
4F3
  8
DATA
 62
     7
 10
91.032420447123855
 20
-7.8631608858711033
 30
0.0
 40
10.85894097222222
  1
6-6.4\U+00D74
 41
0.7
 11
91.032420447123855
 21
2.9957800863511181
 31
0.0
 73
     3
  0
LINE
  5
4F4
  8
DATA
  6
CONTINUOUS
 62
     7
 10
61.200000000000003
 20
-45.601282473284471
 30
0.0
 11
81.25
 21
-12.5
 31
0.0
  0
LINE
  5
4F5
  8
DATA
  6
CONTINUOUS
 62
     7
 10
61.200000000000003
 20
-45.601282473284471
 30
0.0
 11
65.044105363911811
 21
-33.0277803780046
 31
0.0
  0
LINE
  5
4F6
  8
DATA
  6
CONTINUOUS
 62
     7
 10
61.200000000000003
 20
-45.601282473284471
 30
0.0
 11
70.815843947611583
 21
-36.634362926191137
 31
0.0
  0
LINE
  5
4F7
  8
DATA
  6
CONTINUOUS
 62
     7
 10
81.25
 20
-12.5
 30
0.0
 11
162.5
 21
-12.5
 31
0.0
  0
LINE
  5
4F8
  8
DATA
  6
CONTINUOUS
 62
     7
 10
378.50000000022283
 20
237.49999999967369
 30
0.0
 11
187.5000000002228
 21
237.49999999967369
 31
0.0
  0
LINE
  5
4F9
  8
DATA
  6
CONTINUOUS
 62
     7
 10
378.50000000022283
 20
322.49999999967361
 30
0.0
 11
378.50000000022283
 21
237.49999999967369
 31
0.0
  0
LINE
  5
4FA
  8
DATA
  6
CONTINUOUS
 62
     7
 10
187.5000000002228
 20
322.49999999967361
 30
0.0
 11
378.50000000022283
 21
322.49999999967361
 31
0.0
  0
LINE
  5
4FB
  8
DATA
  6
CONTINUOUS
 62
     7
 10
187.5000000002228
 20
237.49999999967369
 30
0.0
 11
187.5000000002228
 21
322.49999999967361
 31
0.0
  0
LINE
  5
4FC
  8
DATA
  6
CONTINUOUS
 62
     7
 10
368.00000000022283
 20
322.49999999967361
 30
0.0
 11
368.00000000022283
 21
237.49999999967369
 31
0.0
  0
LINE
  5
4FD
  8
DATA
  6
CONTINUOUS
 62
     7
 10
198.0000000002228
 20
322.49999999967361
 30
0.0
 11
198.0000000002228
 21
237.49999999967369
 31
0.0
  0
LINE
  5
4FE
  8
DATA
  6
CONTINUOUS
 62
     7
 10
194.7500000002228
 20
281.19999999967359
 30
0.0
 11
194.7500000002228
 21
278.79999999967362
 31
0.0
  0
LINE
  5
4FF
  8
DATA
  6
CONTINUOUS
 62
     7
 10
190.7500000002228
 20
278.79999999967362
 30
0.0
 11
190.7500000002228
 21
281.19999999967359
 31
0.0
  0
ARC
  5
500
  8
DATA
  6
CONTINUOUS
 62
     7
 10
192.7500000002228
 20
278.79999999967362
 30
0.0
 40
2.0
 50
180.0
 51
0.0
  0
ARC
  5
501
  8
DATA
  6
CONTINUOUS
 62
     7
 10
192.7500000002228
 20
281.19999999967359
 30
0.0
 40
2.0
 50
0.0
 51
180.0
  0
LINE
  5
502
  8
DATA
  6
CONTINUOUS
 62
     7
 10
194.7500000002228
 20
253.69999999967359
 30
0.0
 11
194.7500000002228
 21
251.2999999996737
 31
0.0
  0
LINE
  5
503
  8
DATA
  6
CONTINUOUS
 62
     7
 10
190.7500000002228
 20
251.2999999996737
 30
0.0
 11
190.7500000002228
 21
253.69999999967359
 31
0.0
  0
ARC
  5
504
  8
DATA
  6
CONTINUOUS
 62
     7
 10
192.7500000002228
 20
251.2999999996737
 30
0.0
 40
2.0
 50
180.0
 51
0.0
  0
ARC
  5
505
  8
DATA
  6
CONTINUOUS
 62
     7
 10
192.7500000002228
 20
253.69999999967359
 30
0.0
 40
2.0
 50
0.0
 51
180.0
  0
LINE
  5
506
  8
DATA
  6
CONTINUOUS
 62
     7
 10
194.7500000002228
 20
308.69999999967359
 30
0.0
 11
194.7500000002228
 21
306.29999999967362
 31
0.0
  0
LINE
  5
507
  8
DATA
  6
CONTINUOUS
 62
     7
 10
190.7500000002228
 20
306.29999999967362
 30
0.0
 11
190.7500000002228
 21
308.69999999967359
 31
0.0
  0
ARC
  5
508
  8
DATA
  6
CONTINUOUS
 62
     7
 10
192.7500000002228
 20
306.29999999967362
 30
0.0
 40
2.0
 50
180.0000000000008
 51
359.9999999999992
  0
ARC
  5
509
  8
DATA
  6
CONTINUOUS
 62
     7
 10
192.7500000002228
 20
308.69999999967359
 30
0.0
 40
2.0
 50
0.0
 51
180.0
  0
LINE
  5
50A
  8
DATA
  6
CONTINUOUS
 62
     7
 10
375.25000000022283
 20
281.19999999967359
 30
0.0
 11
375.25000000022283
 21
278.79999999967362
 31
0.0
  0
LINE
  5
50B
  8
DATA
  6
CONTINUOUS
 62
     7
 10
371.25000000022283
 20
278.79999999967362
 30
0.0
 11
371.25000000022283
 21
281.19999999967359
 31
0.0
  0
ARC
  5
50C
  8
DATA
  6
CONTINUOUS
 62
     7
 10
373.25000000022283
 20
278.79999999967362
 30
0.0
 40
2.0
 50
180.0000000000008
 51
359.9999999999992
  0
ARC
  5
50D
  8
DATA
  6
CONTINUOUS
 62
     7
 10
373.25000000022283
 20
281.19999999967359
 30
0.0
 40
2.0
 50
0.0
 51
180.0
  0
LINE
  5
50E
  8
DATA
  6
CONTINUOUS
 62
     7
 10
375.25000000022283
 20
253.69999999967359
 30
0.0
 11
375.25000000022283
 21
251.2999999996737
 31
0.0
  0
LINE
  5
50F
  8
DATA
  6
CONTINUOUS
 62
     7
 10
371.25000000022283
 20
251.2999999996737
 30
0.0
 11
371.25000000022283
 21
253.69999999967359
 31
0.0
  0
ARC
  5
510
  8
DATA
  6
CONTINUOUS
 62
     7
 10
373.25000000022283
 20
251.2999999996737
 30
0.0
 40
2.0
 50
180.0
 51
0.0
  0
ARC
  5
511
  8
DATA
  6
CONTINUOUS
 62
     7
 10
373.25000000022283
 20
253.69999999967359
 30
0.0
 40
2.0
 50
0.0
 51
180.0
  0
LINE
  5
512
  8
DATA
  6
CONTINUOUS
 62
     7
 10
375.25000000022283
 20
308.69999999967359
 30
0.0
 11
375.25000000022283
 21
306.29999999967362
 31
0.0
  0
LINE
  5
513
  8
DATA
  6
CONTINUOUS
 62
     7
 10
371.25000000022283
 20
306.29999999967362
 30
0.0
 11
371.25000000022283
 21
308.69999999967359
 31
0.0
  0
ARC
  5
514
  8
DATA
  6
CONTINUOUS
 62
     7
 10
373.25000000022283
 20
306.29999999967362
 30
0.0
 40
2.0
 50
180.0000000000008
 51
359.9999999999992
  0
ARC
  5
515
  8
DATA
  6
CONTINUOUS
 62
     7
 10
373.25000000022283
 20
308.69999999967359
 30
0.0
 40
2.0
 50
0.0
 51
180.0
  0
LINE
  5
516
  8
DATA
  6
CONTINUOUS
 62
     7
 10
378.49999999992292
 20
-118.74999999996641
 30
0.0
 11
187.49999999992281
 21
-118.74999999996641
 31
0.0
  0
LINE
  5
517
  8
DATA
  6
CONTINUOUS
 62
     7
 10
378.49999999992292
 20
-33.749999999967287
 30
0.0
 11
378.49999999992292
 21
-118.74999999996641
 31
0.0
  0
LINE
  5
518
  8
DATA
  6
CONTINUOUS
 62
     7
 10
187.49999999992281
 20
-33.749999999967287
 30
0.0
 11
378.49999999992292
 21
-33.749999999967287
 31
0.0
  0
LINE
  5
519
  8
DATA
  6
CONTINUOUS
 62
     7
 10
187.49999999992281
 20
-118.74999999996641
 30
0.0
 11
187.49999999992281
 21
-33.749999999967287
 31
0.0
  0
LINE
  5
51A
  8
DATA
  6
CONTINUOUS
 62
     7
 10
367.99999999992292
 20
-33.749999999967287
 30
0.0
 11
367.99999999992292
 21
-118.74999999996641
 31
0.0
  0
LINE
  5
51B
  8
DATA
  6
CONTINUOUS
 62
     7
 10
197.99999999992281
 20
-33.749999999967287
 30
0.0
 11
197.99999999992281
 21
-118.74999999996641
 31
0.0
  0
LINE
  5
51C
  8
DATA
  6
CONTINUOUS
 62
     7
 10
194.74999999992281
 20
-75.049999999967341
 30
0.0
 11
194.74999999992281
 21
-77.449999999967332
 31
0.0
  0
LINE
  5
51D
  8
DATA
  6
CONTINUOUS
 62
     7
 10
190.74999999992281
 20
-77.449999999967332
 30
0.0
 11
190.74999999992281
 21
-75.049999999967341
 31
0.0
  0
ARC
  5
51E
  8
DATA
  6
CONTINUOUS
 62
     7
 10
192.74999999992281
 20
-77.449999999967332
 30
0.0
 40
2.0
 50
180.0
 51
0.0
  0
ARC
  5
51F
  8
DATA
  6
CONTINUOUS
 62
     7
 10
192.74999999992281
 20
-75.049999999967341
 30
0.0
 40
2.0
 50
0.0
 51
180.0
  0
LINE
  5
520
  8
DATA
  6
CONTINUOUS
 62
     7
 10
194.74999999992281
 20
-102.549999999967
 30
0.0
 11
194.74999999992281
 21
-104.94999999996691
 31
0.0
  0
LINE
  5
521
  8
DATA
  6
CONTINUOUS
 62
     7
 10
190.74999999992281
 20
-104.94999999996691
 30
0.0
 11
190.74999999992281
 21
-102.549999999967
 31
0.0
  0
ARC
  5
522
  8
DATA
  6
CONTINUOUS
 62
     7
 10
192.74999999992281
 20
-104.94999999996691
 30
0.0
 40
2.0
 50
180.0
 51
0.0
  0
ARC
  5
523
  8
DATA
  6
CONTINUOUS
 62
     7
 10
192.74999999992281
 20
-102.549999999967
 30
0.0
 40
2.0
 50
0.0
 51
180.0
  0
LINE
  5
524
  8
DATA
  6
CONTINUOUS
 62
     7
 10
194.74999999992281
 20
-47.549999999967348
 30
0.0
 11
194.74999999992281
 21
-49.949999999967318
 31
0.0
  0
LINE
  5
525
  8
DATA
  6
CONTINUOUS
 62
     7
 10
190.74999999992281
 20
-49.949999999967318
 30
0.0
 11
190.74999999992281
 21
-47.549999999967348
 31
0.0
  0
ARC
  5
526
  8
DATA
  6
CONTINUOUS
 62
     7
 10
192.74999999992281
 20
-49.949999999967318
 30
0.0
 40
2.0
 50
180.0
 51
0.0
  0
ARC
  5
527
  8
DATA
  6
CONTINUOUS
 62
     7
 10
192.74999999992281
 20
-47.549999999967348
 30
0.0
 40
2.0
 50
0.0
 51
180.0
  0
LINE
  5
528
  8
DATA
  6
CONTINUOUS
 62
     7
 10
375.24999999992292
 20
-75.049999999967341
 30
0.0
 11
375.24999999992292
 21
-77.449999999967332
 31
0.0
  0
LINE
  5
529
  8
DATA
  6
CONTINUOUS
 62
     7
 10
371.24999999992281
 20
-77.449999999967332
 30
0.0
 11
371.24999999992281
 21
-75.049999999967341
 31
0.0
  0
ARC
  5
52A
  8
DATA
  6
CONTINUOUS
 62
     7
 10
373.24999999992281
 20
-77.449999999967275
 30
0.0
 40
2.0
 50
180.00000000000159
 51
359.99999999999841
  0
ARC
  5
52B
  8
DATA
  6
CONTINUOUS
 62
     7
 10
373.24999999992281
 20
-75.049999999967298
 30
0.0
 40
2.0
 50
0.0
 51
180.0
  0
LINE
  5
52C
  8
DATA
  6
CONTINUOUS
 62
     7
 10
375.24999999992292
 20
-102.549999999967
 30
0.0
 11
375.24999999992292
 21
-104.94999999996691
 31
0.0
  0
LINE
  5
52D
  8
DATA
  6
CONTINUOUS
 62
     7
 10
371.24999999992281
 20
-104.94999999996691
 30
0.0
 11
371.24999999992281
 21
-102.549999999967
 31
0.0
  0
ARC
  5
52E
  8
DATA
  6
CONTINUOUS
 62
     7
 10
373.24999999992281
 20
-104.94999999996681
 30
0.0
 40
2.0
 50
180.00000000000159
 51
359.99999999999841
  0
ARC
  5
52F
  8
DATA
  6
CONTINUOUS
 62
     7
 10
373.24999999992281
 20
-102.5499999999669
 30
0.0
 40
2.0
 50
0.0
 51
180.0
  0
LINE
  5
530
  8
DATA
  6
CONTINUOUS
 62
     7
 10
375.24999999992292
 20
-47.549999999967348
 30
0.0
 11
375.24999999992292
 21
-49.949999999967318
 31
0.0
  0
LINE
  5
531
  8
DATA
  6
CONTINUOUS
 62
     7
 10
371.24999999992281
 20
-49.949999999967318
 30
0.0
 11
371.24999999992281
 21
-47.549999999967348
 31
0.0
  0
ARC
  5
532
  8
DATA
  6
CONTINUOUS
 62
     7
 10
373.24999999992281
 20
-49.949999999967318
 30
0.0
 40
2.0
 50
180.0
 51
0.0
  0
ARC
  5
533
  8
DATA
  6
CONTINUOUS
 62
     7
 10
373.24999999992281
 20
-47.549999999967348
 30
0.0
 40
2.0
 50
0.0
 51
180.0
  0
LINE
  5
534
  8
DATA
  6
CONTINUOUS
 62
     7
 10
-72.838560241190351
 20
232.49999999967369
 30
0.0
 11
-72.838560241190351
 21
237.49999999967369
 31
0.0
  0
LINE
  5
535
  8
DATA
  6
CONTINUOUS
 62
     7
 10
-68.162023060754208
 20
232.49999999967369
 30
0.0
 11
-68.162023060754208
 21
237.49999999967369
 31
0.0
  0
LINE
  5
536
  8
DATA
  6
CONTINUOUS
 62
     7
 10
-39.817567802160838
 20
232.49999999967369
 30
0.0
 11
-39.817567802160838
 21
237.49999999967369
 31
0.0
  0
LINE
  5
537
  8
DATA
  6
CONTINUOUS
 62
     7
 10
-35.66202306075391
 20
232.49999999967369
 30
0.0
 11
-35.66202306075391
 21
237.49999999967369
 31
0.0
  0
LINE
  5
538
  8
DATA
  6
CONTINUOUS
 62
     7
 10
-35.66202306075391
 20
232.49999999967369
 30
0.0
 11
-39.817567802160838
 21
232.49999999967369
 31
0.0
  0
LINE
  5
539
  8
DATA
  6
CONTINUOUS
 62
     7
 10
-42.311663452128002
 20
232.49999999967369
 30
0.0
 11
-66.199406041770729
 21
232.49999999967369
 31
0.0
  0
LINE
  5
53A
  8
DATA
  6
CONTINUOUS
 62
     7
 10
-68.162023060754208
 20
232.49999999967369
 30
0.0
 11
-72.838560241190351
 21
232.49999999967369
 31
0.0
  0
LINE
  5
53B
  8
DATA
  6
CONTINUOUS
 62
     7
 10
-66.199406041770729
 20
232.49999999967369
 30
0.0
 11
-66.199406041770729
 21
237.49999999967369
 31
0.0
  0
LINE
  5
53C
  8
DATA
  6
CONTINUOUS
 62
     7
 10
-42.311663452128002
 20
232.49999999967369
 30
0.0
 11
-42.311663452128002
 21
237.49999999967369
 31
0.0
  0
LINE
  5
53D
  8
DATA
  6
CONTINUOUS
 62
     7
 10
-29.757736265519451
 20
232.49999999967369
 30
0.0
 11
-25.081199085083561
 21
232.49999999967369
 31
0.0
  0
LINE
  5
53E
  8
DATA
  6
CONTINUOUS
 62
     7
 10
-22.709965439986249
 20
232.49999999967369
 30
0.0
 11
-7.1264736108954594
 21
232.49999999967369
 31
0.0
  0
LINE
  5
53F
  8
DATA
  6
CONTINUOUS
 62
     7
 10
-4.7577362655192843
 20
232.49999999967369
 30
0.0
 11
-0.0811990850835542
 21
232.49999999967369
 31
0.0
  0
LINE
  5
540
  8
DATA
  6
CONTINUOUS
 62
     7
 10
-29.757736265519451
 20
237.49999999967369
 30
0.0
 11
-29.757736265519451
 21
232.49999999967369
 31
0.0
  0
LINE
  5
541
  8
DATA
  6
CONTINUOUS
 62
     7
 10
-25.081199085083561
 20
237.49999999967369
 30
0.0
 11
-25.081199085083561
 21
232.49999999967369
 31
0.0
  0
LINE
  5
542
  8
DATA
  6
CONTINUOUS
 62
     7
 10
-22.709965439986249
 20
237.49999999967369
 30
0.0
 11
-22.709965439986249
 21
232.49999999967369
 31
0.0
  0
LINE
  5
543
  8
DATA
  6
CONTINUOUS
 62
     7
 10
-7.1264736108954594
 20
237.49999999967369
 30
0.0
 11
-7.1264736108954594
 21
232.49999999967369
 31
0.0
  0
LINE
  5
544
  8
DATA
  6
CONTINUOUS
 62
     7
 10
-4.7577362655192843
 20
237.49999999967369
 30
0.0
 11
-4.7577362655192843
 21
232.49999999967369
 31
0.0
  0
LINE
  5
545
  8
DATA
  6
CONTINUOUS
 62
     7
 10
-0.0811990850835542
 20
237.49999999967369
 30
0.0
 11
-0.0811990850835542
 21
232.49999999967369
 31
0.0
  0
LINE
  5
546
  8
DATA
  6
CONTINUOUS
 62
     7
 10
-90.996745143799515
 20
235.49999999949759
 30
0.0
 11
-90.996745143799515
 21
237.49999999949759
 31
0.0
  0
LINE
  5
547
  8
DATA
  6
CONTINUOUS
 62
     7
 10
-91.599999999641398
 20
231.49999999949759
 30
0.0
 11
-91.599999999641398
 21
235.49999999949759
 31
0.0
  0
LINE
  5
548
  8
DATA
  6
CONTINUOUS
 62
     7
 10
-99.399999999641366
 20
231.49999999949759
 30
0.0
 11
-99.399999999641366
 21
235.49999999949759
 31
0.0
  0
LINE
  5
549
  8
DATA
  6
CONTINUOUS
 62
     7
 10
-100.00325485548321
 20
235.49999999949759
 30
0.0
 11
-100.00325485548321
 21
237.49999999949759
 31
0.0
  0
LINE
  5
54A
  8
DATA
  6
CONTINUOUS
 62
     7
 10
-90.996745143799515
 20
235.49999999949759
 30
0.0
 11
-100.00325485548321
 21
235.49999999949759
 31
0.0
  0
LINE
  5
54B
  8
DATA
  6
CONTINUOUS
 62
     7
 10
-91.599999999641398
 20
231.49999999949759
 30
0.0
 11
-99.399999999641366
 21
231.49999999949759
 31
0.0
  0
LINE
  5
54C
  8
DATA
  6
CONTINUOUS
 62
     7
 10
-95.499999999641403
 20
235.49999999949759
 30
0.0
 11
-95.499999999641403
 21
237.49999999949759
 31
0.0
  0
LINE
  5
54D
  8
DATA
  6
CONTINUOUS
 62
     7
 10
-81.493265576047662
 20
322.79999999967362
 30
0.0
 11
-81.493265576047662
 21
322.49999999967361
 31
0.0
  0
LINE
  5
54E
  8
DATA
  6
CONTINUOUS
 62
     7
 10
-65.793265576047759
 20
322.79999999967362
 30
0.0
 11
-65.793265576047759
 21
322.49999999967361
 31
0.0
  0
LINE
  5
54F
  8
DATA
  6
CONTINUOUS
 62
     7
 10
-49.493265576047662
 20
322.79999999967362
 30
0.0
 11
-49.493265576047662
 21
322.49999999967361
 31
0.0
  0
LINE
  5
550
  8
DATA
  6
CONTINUOUS
 62
     7
 10
-33.793265576047723
 20
322.79999999967362
 30
0.0
 11
-33.793265576047723
 21
322.49999999967361
 31
0.0
  0
LINE
  5
551
  8
DATA
  6
CONTINUOUS
 62
     7
 10
25.506734423952349
 20
322.79999999967362
 30
0.0
 11
25.506734423952349
 21
322.49999999967361
 31
0.0
  0
LINE
  5
552
  8
DATA
  6
CONTINUOUS
 62
     7
 10
41.206734423952277
 20
322.79999999967362
 30
0.0
 11
41.206734423952277
 21
322.49999999967361
 31
0.0
  0
LINE
  5
553
  8
DATA
  6
CONTINUOUS
 62
     7
 10
-81.493265576047662
 20
322.79999999967362
 30
0.0
 11
-65.793265576047759
 21
322.79999999967362
 31
0.0
  0
LINE
  5
554
  8
DATA
  6
CONTINUOUS
 62
     7
 10
-49.493265576047662
 20
322.79999999967362
 30
0.0
 11
-33.793265576047723
 21
322.79999999967362
 31
0.0
  0
LINE
  5
555
  8
DATA
  6
CONTINUOUS
 62
     7
 10
25.506734423952349
 20
322.79999999967362
 30
0.0
 11
41.206734423952277
 21
322.79999999967362
 31
0.0
  0
LINE
  5
556
  8
DATA
  6
CONTINUOUS
 62
     7
 10
-88.557461520536492
 20
-33.449999999967289
 30
0.0
 11
-88.557461520536492
 21
-33.749999999967287
 31
0.0
  0
LINE
  5
557
  8
DATA
  6
CONTINUOUS
 62
     7
 10
-72.857461520536575
 20
-33.449999999967289
 30
0.0
 11
-72.857461520536575
 21
-33.749999999967287
 31
0.0
  0
LINE
  5
558
  8
DATA
  6
CONTINUOUS
 62
     7
 10
-37.506241459380917
 20
-33.449999999967289
 30
0.0
 11
-37.506241459380917
 21
-33.749999999967287
 31
0.0
  0
LINE
  5
559
  8
DATA
  6
CONTINUOUS
 62
     7
 10
-21.80624145938096
 20
-33.449999999967289
 30
0.0
 11
-21.80624145938096
 21
-33.749999999967287
 31
0.0
  0
LINE
  5
55A
  8
DATA
  6
CONTINUOUS
 62
     7
 10
3.6283425352745962
 20
-33.449999999967289
 30
0.0
 11
3.6283425352745962
 21
-33.749999999967287
 31
0.0
  0
LINE
  5
55B
  8
DATA
  6
CONTINUOUS
 62
     7
 10
19.32834253527453
 20
-33.449999999967289
 30
0.0
 11
19.32834253527453
 21
-33.749999999967287
 31
0.0
  0
LINE
  5
55C
  8
DATA
  6
CONTINUOUS
 62
     7
 10
-88.557461520536492
 20
-33.449999999967289
 30
0.0
 11
-72.857461520536575
 21
-33.449999999967289
 31
0.0
  0
LINE
  5
55D
  8
DATA
  6
CONTINUOUS
 62
     7
 10
-37.506241459380917
 20
-33.449999999967289
 30
0.0
 11
-21.80624145938096
 21
-33.449999999967289
 31
0.0
  0
LINE
  5
55E
  8
DATA
  6
CONTINUOUS
 62
     7
 10
3.6283425352745962
 20
-33.449999999967289
 30
0.0
 11
19.32834253527453
 21
-33.449999999967289
 31
0.0
  0
LINE
  5
55F
  8
DATA
  6
CONTINUOUS
 62
     7
 10
24.768764803888232
 20
-123.74999999996641
 30
0.0
 11
20.092227623452281
 21
-123.74999999996641
 31
0.0
  0
LINE
  5
560
  8
DATA
  6
CONTINUOUS
 62
     7
 10
18.098710461951669
 20
-123.74999999996641
 30
0.0
 11
-5.7644208197551707
 21
-123.74999999996641
 31
0.0
  0
LINE
  5
561
  8
DATA
  6
CONTINUOUS
 62
     7
 10
-7.731235196112106
 20
-123.74999999996641
 30
0.0
 11
-12.407772376548181
 21
-123.74999999996641
 31
0.0
  0
LINE
  5
562
  8
DATA
  6
CONTINUOUS
 62
     7
 10
-22.206263470111079
 20
-123.74999999996641
 30
0.0
 11
-26.88280065054683
 21
-123.74999999996641
 31
0.0
  0
LINE
  5
563
  8
DATA
  6
CONTINUOUS
 62
     7
 10
-29.234353250417069
 20
-123.74999999996641
 30
0.0
 11
-44.857640019725793
 21
-123.74999999996641
 31
0.0
  0
LINE
  5
564
  8
DATA
  6
CONTINUOUS
 62
     7
 10
-47.206263470110457
 20
-123.74999999996641
 30
0.0
 11
-51.882800650546372
 21
-123.74999999996641
 31
0.0
  0
LINE
  5
565
  8
DATA
  6
CONTINUOUS
 62
     7
 10
-51.882800650546372
 20
-118.74999999996641
 30
0.0
 11
-51.882800650546372
 21
-123.74999999996641
 31
0.0
  0
LINE
  5
566
  8
DATA
  6
CONTINUOUS
 62
     7
 10
-47.206263470110457
 20
-118.74999999996641
 30
0.0
 11
-47.206263470110457
 21
-123.74999999996641
 31
0.0
  0
LINE
  5
567
  8
DATA
  6
CONTINUOUS
 62
     7
 10
-26.88280065054683
 20
-118.74999999996641
 30
0.0
 11
-26.88280065054683
 21
-123.74999999996641
 31
0.0
  0
LINE
  5
568
  8
DATA
  6
CONTINUOUS
 62
     7
 10
-22.206263470111079
 20
-118.74999999996641
 30
0.0
 11
-22.206263470111079
 21
-123.74999999996641
 31
0.0
  0
LINE
  5
569
  8
DATA
  6
CONTINUOUS
 62
     7
 10
-44.857640019725793
 20
-118.74999999996641
 30
0.0
 11
-44.857640019725793
 21
-123.74999999996641
 31
0.0
  0
LINE
  5
56A
  8
DATA
  6
CONTINUOUS
 62
     7
 10
-29.234353250417069
 20
-118.74999999996641
 30
0.0
 11
-29.234353250417069
 21
-123.74999999996641
 31
0.0
  0
LINE
  5
56B
  8
DATA
  6
CONTINUOUS
 62
     7
 10
-12.407772376548181
 20
-118.74999999996641
 30
0.0
 11
-12.407772376548181
 21
-123.74999999996641
 31
0.0
  0
LINE
  5
56C
  8
DATA
  6
CONTINUOUS
 62
     7
 10
-7.731235196112106
 20
-118.74999999996641
 30
0.0
 11
-7.731235196112106
 21
-123.74999999996641
 31
0.0
  0
LINE
  5
56D
  8
DATA
  6
CONTINUOUS
 62
     7
 10
-5.7644208197551707
 20
-118.74999999996641
 30
0.0
 11
-5.7644208197551707
 21
-123.74999999996641
 31
0.0
  0
LINE
  5
56E
  8
DATA
  6
CONTINUOUS
 62
     7
 10
18.098710461951669
 20
-118.74999999996641
 30
0.0
 11
18.098710461951669
 21
-123.74999999996641
 31
0.0
  0
LINE
  5
56F
  8
DATA
  6
CONTINUOUS
 62
     7
 10
20.092227623452281
 20
-118.74999999996641
 30
0.0
 11
20.092227623452281
 21
-123.74999999996641
 31
0.0
  0
LINE
  5
570
  8
DATA
  6
CONTINUOUS
 62
     7
 10
24.768764803888232
 20
-118.74999999996641
 30
0.0
 11
24.768764803888232
 21
-123.74999999996641
 31
0.0
  0
LINE
  5
571
  8
DATA
  6
CONTINUOUS
 62
     7
 10
46.967761287587109
 20
-120.75
 30
0.0
 11
46.967761287587109
 21
-118.75
 31
0.0
  0
LINE
  5
572
  8
DATA
  6
CONTINUOUS
 62
     7
 10
46.364506431745212
 20
-124.75
 30
0.0
 11
46.364506431745212
 21
-120.75
 31
0.0
  0
LINE
  5
573
  8
DATA
  6
CONTINUOUS
 62
     7
 10
38.56450643174535
 20
-124.75
 30
0.0
 11
38.56450643174535
 21
-120.75
 31
0.0
  0
LINE
  5
574
  8
DATA
  6
CONTINUOUS
 62
     7
 10
37.961251575903468
 20
-120.75
 30
0.0
 11
37.961251575903468
 21
-118.75
 31
0.0
  0
LINE
  5
575
  8
DATA
  6
CONTINUOUS
 62
     7
 10
46.967761287587109
 20
-120.75
 30
0.0
 11
37.961251575903468
 21
-120.75
 31
0.0
  0
LINE
  5
576
  8
DATA
  6
CONTINUOUS
 62
     7
 10
46.364506431745212
 20
-124.75
 30
0.0
 11
38.56450643174535
 21
-124.75
 31
0.0
  0
LINE
  5
577
  8
DATA
  6
CONTINUOUS
 62
     7
 10
42.464506431745242
 20
-120.75
 30
0.0
 11
42.464506431745242
 21
-118.75
 31
0.0
  0
CIRCLE
  5
578
  8
DATA
  6
CONTINUOUS
 62
     7
 10
207.98000000022279
 20
313.3045498328687
 30
0.0
 40
4.1500000000000039
  0
CIRCLE
  5
579
  8
DATA
  6
CONTINUOUS
 62
     7
 10
207.98000000022279
 20
313.3045498328687
 30
0.0
 40
2.9000000000000039
  0
CIRCLE
  5
57A
  8
DATA
  6
CONTINUOUS
 62
     7
 10
358.0199999999229
 20
313.3045498328687
 30
0.0
 40
4.1499999999999764
  0
CIRCLE
  5
57B
  8
DATA
  6
CONTINUOUS
 62
     7
 10
358.0199999999229
 20
313.3045498328687
 30
0.0
 40
2.8999999999999759
  0
CIRCLE
  5
57C
  8
DATA
  6
CONTINUOUS
 62
     7
 10
358.0199999999229
 20
246.58454983286879
 30
0.0
 40
4.1499999999999764
  0
CIRCLE
  5
57D
  8
DATA
  6
CONTINUOUS
 62
     7
 10
358.0199999999229
 20
246.58454983286879
 30
0.0
 40
2.8999999999999759
  0
CIRCLE
  5
57E
  8
DATA
  6
CONTINUOUS
 62
     7
 10
207.98000000022279
 20
246.58454983286879
 30
0.0
 40
4.1500000000000039
  0
CIRCLE
  5
57F
  8
DATA
  6
CONTINUOUS
 62
     7
 10
207.98000000022279
 20
246.58454983286879
 30
0.0
 40
2.9000000000000039
  0
CIRCLE
  5
580
  8
DATA
  6
CONTINUOUS
 62
     7
 10
207.98000000022279
 20
-42.83454983299869
 30
0.0
 40
4.1500000000000039
  0
CIRCLE
  5
581
  8
DATA
  6
CONTINUOUS
 62
     7
 10
207.98000000022279
 20
-42.83454983299869
 30
0.0
 40
2.9000000000000039
  0
CIRCLE
  5
582
  8
DATA
  6
CONTINUOUS
 62
     7
 10
358.0199999999229
 20
-42.83454983299869
 30
0.0
 40
4.1499999999999764
  0
CIRCLE
  5
583
  8
DATA
  6
CONTINUOUS
 62
     7
 10
358.0199999999229
 20
-42.83454983299869
 30
0.0
 40
2.8999999999999759
  0
CIRCLE
  5
584
  8
DATA
  6
CONTINUOUS
 62
     7
 10
207.98000000022279
 20
-109.55454983299811
 30
0.0
 40
4.1500000000000039
  0
CIRCLE
  5
585
  8
DATA
  6
CONTINUOUS
 62
     7
 10
207.98000000022279
 20
-109.55454983299811
 30
0.0
 40
2.9000000000000039
  0
CIRCLE
  5
586
  8
DATA
  6
CONTINUOUS
 62
     7
 10
358.0199999999229
 20
-109.55454983299811
 30
0.0
 40
4.1499999999999764
  0
CIRCLE
  5
587
  8
DATA
  6
CONTINUOUS
 62
     7
 10
358.0199999999229
 20
-109.55454983299811
 30
0.0
 40
2.8999999999999759
  0
LINE
  5
588
  8
DATA
  6
CONTINUOUS
 62
     7
 10
304.05444380371802
 20
-86.236389049070524
 30
0.0
 11
291.45444380371799
 21
-86.236389049070524
 31
0.0
  0
LINE
  5
589
  8
DATA
  6
CONTINUOUS
 62
     7
 10
304.05444380371802
 20
-93.736389049070524
 30
0.0
 11
291.45444380371799
 21
-93.736389049070524
 31
0.0
  0
LINE
  5
58A
  8
DATA
  6
CONTINUOUS
 62
     7
 10
291.45444380371799
 20
-86.236389049070524
 30
0.0
 11
291.45444380371799
 21
-93.736389049070524
 31
0.0
  0
LINE
  5
58B
  8
DATA
  6
CONTINUOUS
 62
     7
 10
304.05444380371802
 20
-86.236389049070524
 30
0.0
 11
304.05444380371802
 21
-93.736389049070524
 31
0.0
  0
POLYLINE
  5
58C
  8
DATA
  6
CONTINUOUS
 62
     7
 66
     1
 10
0.0
 20
0.0
 30
0.0
 70
     1
  0
VERTEX
  5
B4F
  8
DATA
  6
CONTINUOUS
 62
     7
 10
295.95444380371799
 20
-89.05689709680189
 30
0.0
  0
VERTEX
  5
B50
  8
DATA
  6
CONTINUOUS
 62
     7
 10
297.05444380371802
 20
-89.05689709680189
 30
0.0
  0
VERTEX
  5
B51
  8
DATA
  6
CONTINUOUS
 62
     7
 10
297.05444380371802
 20
-90.156897096801856
 30
0.0
  0
VERTEX
  5
B52
  8
DATA
  6
CONTINUOUS
 62
     7
 10
295.95444380371799
 20
-90.156897096801856
 30
0.0
  0
SEQEND
  5
B53
  8
DATA
  6
CONTINUOUS
 62
     7
  0
POLYLINE
  5
593
  8
DATA
  6
CONTINUOUS
 62
     7
 66
     1
 10
0.0
 20
0.0
 30
0.0
 70
     1
  0
VERTEX
  5
B54
  8
DATA
  6
CONTINUOUS
 62
     7
 10
293.45444380371799
 20
-89.05689709680189
 30
0.0
  0
VERTEX
  5
B55
  8
DATA
  6
CONTINUOUS
 62
     7
 10
294.55444380371802
 20
-89.05689709680189
 30
0.0
  0
VERTEX
  5
B56
  8
DATA
  6
CONTINUOUS
 62
     7
 10
294.55444380371802
 20
-90.156897096801856
 30
0.0
  0
VERTEX
  5
B57
  8
DATA
  6
CONTINUOUS
 62
     7
 10
293.45444380371799
 20
-90.156897096801856
 30
0.0
  0
SEQEND
  5
B58
  8
DATA
  6
CONTINUOUS
 62
     7
  0
LINE
  5
59A
  8
DATA
  6
CONTINUOUS
 62
     7
 10
293.45444380371799
 20
-91.406897096801856
 30
0.0
 11
294.55444380371802
 21
-91.406897096801856
 31
0.0
  0
LINE
  5
59B
  8
DATA
  6
CONTINUOUS
 62
     7
 10
295.95444380371799
 20
-91.406897096801856
 30
0.0
 11
297.05444380371802
 21
-91.406897096801856
 31
0.0
  0
LINE
  5
59C
  8
DATA
  6
CONTINUOUS
 62
     7
 10
293.45444380371799
 20
-90.156897096801927
 30
0.0
 11
293.45444380371799
 21
-91.406897096801856
 31
0.0
  0
LINE
  5
59D
  8
DATA
  6
CONTINUOUS
 62
     7
 10
294.55444380371802
 20
-90.156897096801927
 30
0.0
 11
294.55444380371802
 21
-91.406897096801856
 31
0.0
  0
LINE
  5
59E
  8
DATA
  6
CONTINUOUS
 62
     7
 10
295.95444380371799
 20
-90.156897096801927
 30
0.0
 11
295.95444380371799
 21
-91.406897096801856
 31
0.0
  0
LINE
  5
59F
  8
DATA
  6
CONTINUOUS
 62
     7
 10
297.05444380371802
 20
-90.156897096801927
 30
0.0
 11
297.05444380371802
 21
-91.406897096801856
 31
0.0
  0
POLYLINE
  5
5A0
  8
DATA
  6
CONTINUOUS
 62
     7
 66
     1
 10
0.0
 20
0.0
 30
0.0
 70
     1
  0
VERTEX
  5
B59
  8
DATA
  6
CONTINUOUS
 62
     7
 10
298.45444380371799
 20
-89.05689709680189
 30
0.0
  0
VERTEX
  5
B5A
  8
DATA
  6
CONTINUOUS
 62
     7
 10
299.55444380371807
 20
-89.05689709680189
 30
0.0
  0
VERTEX
  5
B5B
  8
DATA
  6
CONTINUOUS
 62
     7
 10
299.55444380371807
 20
-90.156897096801856
 30
0.0
  0
VERTEX
  5
B5C
  8
DATA
  6
CONTINUOUS
 62
     7
 10
298.45444380371799
 20
-90.156897096801856
 30
0.0
  0
SEQEND
  5
B5D
  8
DATA
  6
CONTINUOUS
 62
     7
  0
POLYLINE
  5
5A7
  8
DATA
  6
CONTINUOUS
 62
     7
 66
     1
 10
0.0
 20
0.0
 30
0.0
 70
     1
  0
VERTEX
  5
B5E
  8
DATA
  6
CONTINUOUS
 62
     7
 10
300.95444380371811
 20
-89.05689709680189
 30
0.0
  0
VERTEX
  5
B5F
  8
DATA
  6
CONTINUOUS
 62
     7
 10
302.05444380371807
 20
-89.05689709680189
 30
0.0
  0
VERTEX
  5
B60
  8
DATA
  6
CONTINUOUS
 62
     7
 10
302.05444380371807
 20
-90.156897096801856
 30
0.0
  0
VERTEX
  5
B61
  8
DATA
  6
CONTINUOUS
 62
     7
 10
300.95444380371811
 20
-90.156897096801856
 30
0.0
  0
SEQEND
  5
B62
  8
DATA
  6
CONTINUOUS
 62
     7
  0
LINE
  5
5AE
  8
DATA
  6
CONTINUOUS
 62
     7
 10
302.05444380371802
 20
-91.406897096801856
 30
0.0
 11
300.95444380371811
 21
-91.406897096801856
 31
0.0
  0
LINE
  5
5AF
  8
DATA
  6
CONTINUOUS
 62
     7
 10
299.55444380371802
 20
-91.406897096801856
 30
0.0
 11
298.45444380371799
 21
-91.406897096801856
 31
0.0
  0
LINE
  5
5B0
  8
DATA
  6
CONTINUOUS
 62
     7
 10
302.05444380371802
 20
-90.156897096801927
 30
0.0
 11
302.05444380371802
 21
-91.406897096801856
 31
0.0
  0
LINE
  5
5B1
  8
DATA
  6
CONTINUOUS
 62
     7
 10
300.95444380371811
 20
-90.156897096801927
 30
0.0
 11
300.95444380371811
 21
-91.406897096801856
 31
0.0
  0
LINE
  5
5B2
  8
DATA
  6
CONTINUOUS
 62
     7
 10
299.55444380371802
 20
-90.156897096801927
 30
0.0
 11
299.55444380371802
 21
-91.406897096801856
 31
0.0
  0
LINE
  5
5B3
  8
DATA
  6
CONTINUOUS
 62
     7
 10
298.45444380371799
 20
-90.156897096801927
 30
0.0
 11
298.45444380371799
 21
-91.406897096801856
 31
0.0
  0
TEXT
  5
5B4
  8
DATA
 62
     7
 10
301.97777713706768
 20
-87.092289780682421
 30
0.0
 40
1.303072916666665
  1
1
 50
180.0
 41
0.7
 11
301.97777713706768
 21
-88.395362697349086
 31
0.0
 73
     3
  0
TEXT
  5
5B5
  8
DATA
 62
     7
 10
299.47777713706779
 20
-87.092289780682421
 30
0.0
 40
1.303072916666665
  1
2
 50
180.0
 41
0.7
 11
299.47777713706779
 21
-88.395362697349086
 31
0.0
 73
     3
  0
TEXT
  5
5B6
  8
DATA
 62
     7
 10
296.97777713706768
 20
-87.092289780682421
 30
0.0
 40
1.303072916666665
  1
3
 50
180.0
 41
0.7
 11
296.97777713706768
 21
-88.395362697349086
 31
0.0
 73
     3
  0
TEXT
  5
5B7
  8
DATA
 62
     7
 10
294.47777713706768
 20
-87.092289780682421
 30
0.0
 40
1.303072916666665
  1
4
 50
180.0
 41
0.7
 11
294.47777713706768
 21
-88.395362697349086
 31
0.0
 73
     3
  0
TEXT
  5
5B8
  8
DATA
 62
     7
 10
301.080123639416
 20
-92.054128235299359
 30
0.0
 40
1.303072916666665
  1
ON
 50
180.0
 41
0.7
 11
301.080123639416
 21
-93.357201151966024
 31
0.0
 73
     3
  0
LINE
  5
5B9
  8
DATA
  6
CONTINUOUS
 62
     7
 10
280.10137319005099
 20
299.9979402149234
 30
0.0
 11
272.50137319005108
 21
299.9979402149234
 31
0.0
  0
LINE
  5
5BA
  8
DATA
  6
CONTINUOUS
 62
     7
 10
280.10137319005099
 20
292.49794021492352
 30
0.0
 11
272.50137319005108
 21
292.49794021492352
 31
0.0
  0
LINE
  5
5BB
  8
DATA
  6
CONTINUOUS
 62
     7
 10
280.10137319005099
 20
299.9979402149234
 30
0.0
 11
280.10137319005099
 21
292.49794021492352
 31
0.0
  0
POLYLINE
  5
5BC
  8
DATA
  6
CONTINUOUS
 62
     7
 66
     1
 10
0.0
 20
0.0
 30
0.0
 70
     1
  0
VERTEX
  5
B63
  8
DATA
  6
CONTINUOUS
 62
     7
 10
274.50137319005108
 20
297.17743216719208
 30
0.0
  0
VERTEX
  5
B64
  8
DATA
  6
CONTINUOUS
 62
     7
 10
275.60137319005111
 20
297.17743216719208
 30
0.0
  0
VERTEX
  5
B65
  8
DATA
  6
CONTINUOUS
 62
     7
 10
275.60137319005111
 20
296.077432167192
 30
0.0
  0
VERTEX
  5
B66
  8
DATA
  6
CONTINUOUS
 62
     7
 10
274.50137319005108
 20
296.077432167192
 30
0.0
  0
SEQEND
  5
B67
  8
DATA
  6
CONTINUOUS
 62
     7
  0
POLYLINE
  5
5C3
  8
DATA
  6
CONTINUOUS
 62
     7
 66
     1
 10
0.0
 20
0.0
 30
0.0
 70
     1
  0
VERTEX
  5
B68
  8
DATA
  6
CONTINUOUS
 62
     7
 10
277.00137319005108
 20
297.17743216719208
 30
0.0
  0
VERTEX
  5
B69
  8
DATA
  6
CONTINUOUS
 62
     7
 10
278.10137319005111
 20
297.17743216719208
 30
0.0
  0
VERTEX
  5
B6A
  8
DATA
  6
CONTINUOUS
 62
     7
 10
278.10137319005111
 20
296.077432167192
 30
0.0
  0
VERTEX
  5
B6B
  8
DATA
  6
CONTINUOUS
 62
     7
 10
277.00137319005108
 20
296.077432167192
 30
0.0
  0
SEQEND
  5
B6C
  8
DATA
  6
CONTINUOUS
 62
     7
  0
LINE
  5
5CA
  8
DATA
  6
CONTINUOUS
 62
     7
 10
278.10137319005099
 20
294.82743216719211
 30
0.0
 11
277.00137319005103
 21
294.82743216719211
 31
0.0
  0
LINE
  5
5CB
  8
DATA
  6
CONTINUOUS
 62
     7
 10
275.60137319005099
 20
294.82743216719211
 30
0.0
 11
274.50137319005103
 21
294.82743216719211
 31
0.0
  0
LINE
  5
5CC
  8
DATA
  6
CONTINUOUS
 62
     7
 10
278.10137319005099
 20
296.077432167192
 30
0.0
 11
278.10137319005099
 21
294.82743216719211
 31
0.0
  0
LINE
  5
5CD
  8
DATA
  6
CONTINUOUS
 62
     7
 10
277.00137319005103
 20
296.077432167192
 30
0.0
 11
277.00137319005103
 21
294.82743216719211
 31
0.0
  0
LINE
  5
5CE
  8
DATA
  6
CONTINUOUS
 62
     7
 10
275.60137319005099
 20
296.077432167192
 30
0.0
 11
275.60137319005099
 21
294.82743216719211
 31
0.0
  0
LINE
  5
5CF
  8
DATA
  6
CONTINUOUS
 62
     7
 10
274.50137319005103
 20
296.077432167192
 30
0.0
 11
274.50137319005103
 21
294.82743216719211
 31
0.0
  0
TEXT
  5
5D0
  8
DATA
 62
     7
 10
278.02470652340082
 20
299.14203948331152
 30
0.0
 40
1.303072916666665
  1
1
 50
180.0
 41
0.7
 11
278.02470652340082
 21
297.8389665666449
 31
0.0
 73
     3
  0
TEXT
  5
5D1
  8
DATA
 62
     7
 10
275.52470652340082
 20
299.14203948331152
 30
0.0
 40
1.303072916666665
  1
2
 50
180.0
 41
0.7
 11
275.52470652340082
 21
297.8389665666449
 31
0.0
 73
     3
  0
TEXT
  5
5D2
  8
DATA
 62
     7
 10
277.12705302574898
 20
294.18020102869468
 30
0.0
 40
1.303072916666665
  1
ON
 50
180.0
 41
0.7
 11
277.12705302574898
 21
292.877128112028
 31
0.0
 73
     3
  0
LINE
  5
5D3
  8
DATA
  6
CONTINUOUS
 62
     7
 10
272.50137319005108
 20
299.9979402149234
 30
0.0
 11
272.50137319005108
 21
292.49794021492352
 31
0.0
  0
LINE
  5
5D4
  8
DATA
  6
CONTINUOUS
 62
     7
 10
340.70113020926908
 20
-141.9760510653272
 30
0.0
 11
271.40113020926913
 21
-141.9760510653272
 31
0.0
  0
LINE
  5
5D5
  8
DATA
  6
CONTINUOUS
 62
     7
 10
340.70113020926908
 20
-183.22605106532791
 30
0.0
 11
271.40113020926913
 21
-183.22605106532791
 31
0.0
  0
LINE
  5
5D6
  8
DATA
  6
CONTINUOUS
 62
     7
 10
271.40113020926913
 20
-141.9760510653272
 30
0.0
 11
271.40113020926913
 21
-183.22605106532791
 31
0.0
  0
LINE
  5
5D7
  8
DATA
  6
CONTINUOUS
 62
     7
 10
340.70113020926908
 20
-141.9760510653272
 30
0.0
 11
340.70113020926908
 21
-183.22605106532791
 31
0.0
  0
POLYLINE
  5
5D8
  8
DATA
  6
CONTINUOUS
 62
     7
 66
     1
 10
0.0
 20
0.0
 30
0.0
 70
     1
  0
VERTEX
  5
B6D
  8
DATA
  6
CONTINUOUS
 62
     7
 10
296.15113020926901
 20
-157.48884532785041
 30
0.0
  0
VERTEX
  5
B6E
  8
DATA
  6
CONTINUOUS
 62
     7
 10
302.20113020926891
 20
-157.48884532785041
 30
0.0
  0
VERTEX
  5
B6F
  8
DATA
  6
CONTINUOUS
 62
     7
 10
302.20113020926891
 20
-163.5388453278504
 30
0.0
  0
VERTEX
  5
B70
  8
DATA
  6
CONTINUOUS
 62
     7
 10
296.15113020926901
 20
-163.5388453278504
 30
0.0
  0
SEQEND
  5
B71
  8
DATA
  6
CONTINUOUS
 62
     7
  0
POLYLINE
  5
5DF
  8
DATA
  6
CONTINUOUS
 62
     7
 66
     1
 10
0.0
 20
0.0
 30
0.0
 70
     1
  0
VERTEX
  5
B72
  8
DATA
  6
CONTINUOUS
 62
     7
 10
282.40113020926901
 20
-157.48884532785041
 30
0.0
  0
VERTEX
  5
B73
  8
DATA
  6
CONTINUOUS
 62
     7
 10
288.45113020926908
 20
-157.48884532785041
 30
0.0
  0
VERTEX
  5
B74
  8
DATA
  6
CONTINUOUS
 62
     7
 10
288.45113020926908
 20
-163.5388453278504
 30
0.0
  0
VERTEX
  5
B75
  8
DATA
  6
CONTINUOUS
 62
     7
 10
282.40113020926901
 20
-163.5388453278504
 30
0.0
  0
SEQEND
  5
B76
  8
DATA
  6
CONTINUOUS
 62
     7
  0
LINE
  5
5E6
  8
DATA
  6
CONTINUOUS
 62
     7
 10
282.40113020926901
 20
-170.4138453278504
 30
0.0
 11
288.45113020926908
 21
-170.4138453278504
 31
0.0
  0
LINE
  5
5E7
  8
DATA
  6
CONTINUOUS
 62
     7
 10
296.15113020926901
 20
-170.4138453278504
 30
0.0
 11
302.20113020926891
 21
-170.4138453278504
 31
0.0
  0
LINE
  5
5E8
  8
DATA
  6
CONTINUOUS
 62
     7
 10
282.40113020926901
 20
-163.53884532785051
 30
0.0
 11
282.40113020926901
 21
-170.4138453278504
 31
0.0
  0
LINE
  5
5E9
  8
DATA
  6
CONTINUOUS
 62
     7
 10
288.45113020926908
 20
-163.53884532785051
 30
0.0
 11
288.45113020926908
 21
-170.4138453278504
 31
0.0
  0
LINE
  5
5EA
  8
DATA
  6
CONTINUOUS
 62
     7
 10
296.15113020926901
 20
-163.53884532785051
 30
0.0
 11
296.15113020926901
 21
-170.4138453278504
 31
0.0
  0
LINE
  5
5EB
  8
DATA
  6
CONTINUOUS
 62
     7
 10
302.20113020926891
 20
-163.53884532785051
 30
0.0
 11
302.20113020926891
 21
-170.4138453278504
 31
0.0
  0
POLYLINE
  5
5EC
  8
DATA
  6
CONTINUOUS
 62
     7
 66
     1
 10
0.0
 20
0.0
 30
0.0
 70
     1
  0
VERTEX
  5
B77
  8
DATA
  6
CONTINUOUS
 62
     7
 10
309.90113020926918
 20
-157.48884532785041
 30
0.0
  0
VERTEX
  5
B78
  8
DATA
  6
CONTINUOUS
 62
     7
 10
315.95113020926919
 20
-157.48884532785041
 30
0.0
  0
VERTEX
  5
B79
  8
DATA
  6
CONTINUOUS
 62
     7
 10
315.95113020926919
 20
-163.5388453278504
 30
0.0
  0
VERTEX
  5
B7A
  8
DATA
  6
CONTINUOUS
 62
     7
 10
309.90113020926918
 20
-163.5388453278504
 30
0.0
  0
SEQEND
  5
B7B
  8
DATA
  6
CONTINUOUS
 62
     7
  0
POLYLINE
  5
5F3
  8
DATA
  6
CONTINUOUS
 62
     7
 66
     1
 10
0.0
 20
0.0
 30
0.0
 70
     1
  0
VERTEX
  5
B7C
  8
DATA
  6
CONTINUOUS
 62
     7
 10
323.65113020926918
 20
-157.48884532785041
 30
0.0
  0
VERTEX
  5
B7D
  8
DATA
  6
CONTINUOUS
 62
     7
 10
329.70113020926919
 20
-157.48884532785041
 30
0.0
  0
VERTEX
  5
B7E
  8
DATA
  6
CONTINUOUS
 62
     7
 10
329.70113020926919
 20
-163.5388453278504
 30
0.0
  0
VERTEX
  5
B7F
  8
DATA
  6
CONTINUOUS
 62
     7
 10
323.65113020926918
 20
-163.5388453278504
 30
0.0
  0
SEQEND
  5
B80
  8
DATA
  6
CONTINUOUS
 62
     7
  0
LINE
  5
5FA
  8
DATA
  6
CONTINUOUS
 62
     7
 10
329.70113020926908
 20
-170.4138453278504
 30
0.0
 11
323.65113020926901
 21
-170.4138453278504
 31
0.0
  0
LINE
  5
5FB
  8
DATA
  6
CONTINUOUS
 62
     7
 10
315.95113020926908
 20
-170.4138453278504
 30
0.0
 11
309.90113020926901
 21
-170.4138453278504
 31
0.0
  0
LINE
  5
5FC
  8
DATA
  6
CONTINUOUS
 62
     7
 10
329.70113020926908
 20
-163.53884532785051
 30
0.0
 11
329.70113020926908
 21
-170.4138453278504
 31
0.0
  0
LINE
  5
5FD
  8
DATA
  6
CONTINUOUS
 62
     7
 10
323.65113020926901
 20
-163.53884532785051
 30
0.0
 11
323.65113020926901
 21
-170.4138453278504
 31
0.0
  0
LINE
  5
5FE
  8
DATA
  6
CONTINUOUS
 62
     7
 10
315.95113020926908
 20
-163.53884532785051
 30
0.0
 11
315.95113020926908
 21
-170.4138453278504
 31
0.0
  0
LINE
  5
5FF
  8
DATA
  6
CONTINUOUS
 62
     7
 10
309.90113020926901
 20
-163.53884532785051
 30
0.0
 11
309.90113020926901
 21
-170.4138453278504
 31
0.0
  0
TEXT
  5
600
  8
DATA
 62
     7
 10
329.27946354269289
 20
-146.68350508919309
 30
0.0
 40
7.1669010416666659
  1
1
 50
180.0
 41
0.7
 11
329.27946354269289
 21
-153.8504061308598
 31
0.0
 73
     3
  0
TEXT
  5
601
  8
DATA
 62
     7
 10
315.52946354269301
 20
-146.68350508919309
 30
0.0
 40
7.1669010416666659
  1
2
 50
180.0
 41
0.7
 11
315.52946354269301
 21
-153.8504061308598
 31
0.0
 73
     3
  0
TEXT
  5
602
  8
DATA
 62
     7
 10
301.77946354269301
 20
-146.68350508919309
 30
0.0
 40
7.1669010416666659
  1
3
 50
180.0
 41
0.7
 11
301.77946354269301
 21
-153.8504061308598
 31
0.0
 73
     3
  0
TEXT
  5
603
  8
DATA
 62
     7
 10
288.02946354269301
 20
-146.68350508919309
 30
0.0
 40
7.1669010416666659
  1
4
 50
180.0
 41
0.7
 11
288.02946354269301
 21
-153.8504061308598
 31
0.0
 73
     3
  0
TEXT
  5
604
  8
DATA
 62
     7
 10
324.34236930560832
 20
-173.97361658958661
 30
0.0
 40
7.1669010416666659
  1
ON
 50
180.0
 41
0.7
 11
324.34236930560832
 21
-181.14051763125329
 31
0.0
 73
     3
  0
TEXT
  5
605
  8
DATA
 62
     7
 10
230.94187719674679
 20
-207.84266826926441
 30
0.0
 40
10.85894097222222
  1
ディツプスイッチ拡大図
 41
0.7
 11
230.94187719674679
 21
-196.98372729704221
 31
0.0
 73
     3
  0
LINE
  5
606
  8
DATA
  6
CONTINUOUS
 62
     7
 10
225.0
 20
-212.5
 30
0.0
 11
393.75
 21
-212.5
 31
0.0
  0
LINE
  5
607
  8
DATA
  6
CONTINUOUS
 62
     7
 10
340.70113020926908
 20
214.2739489346728
 30
0.0
 11
298.90113020926918
 21
214.2739489346728
 31
0.0
  0
LINE
  5
608
  8
DATA
  6
CONTINUOUS
 62
     7
 10
340.70113020926908
 20
173.02394893467209
 30
0.0
 11
298.90113020926918
 21
173.02394893467209
 31
0.0
  0
LINE
  5
609
  8
DATA
  6
CONTINUOUS
 62
     7
 10
340.70113020926908
 20
214.2739489346728
 30
0.0
 11
340.70113020926908
 21
173.02394893467209
 31
0.0
  0
POLYLINE
  5
60A
  8
DATA
  6
CONTINUOUS
 62
     7
 66
     1
 10
0.0
 20
0.0
 30
0.0
 70
     1
  0
VERTEX
  5
B81
  8
DATA
  6
CONTINUOUS
 62
     7
 10
309.90113020926918
 20
198.76115467214959
 30
0.0
  0
VERTEX
  5
B82
  8
DATA
  6
CONTINUOUS
 62
     7
 10
315.95113020926919
 20
198.76115467214959
 30
0.0
  0
VERTEX
  5
B83
  8
DATA
  6
CONTINUOUS
 62
     7
 10
315.95113020926919
 20
192.7111546721496
 30
0.0
  0
VERTEX
  5
B84
  8
DATA
  6
CONTINUOUS
 62
     7
 10
309.90113020926918
 20
192.7111546721496
 30
0.0
  0
SEQEND
  5
B85
  8
DATA
  6
CONTINUOUS
 62
     7
  0
POLYLINE
  5
611
  8
DATA
  6
CONTINUOUS
 62
     7
 66
     1
 10
0.0
 20
0.0
 30
0.0
 70
     1
  0
VERTEX
  5
B86
  8
DATA
  6
CONTINUOUS
 62
     7
 10
323.65113020926918
 20
198.76115467214959
 30
0.0
  0
VERTEX
  5
B87
  8
DATA
  6
CONTINUOUS
 62
     7
 10
329.70113020926919
 20
198.76115467214959
 30
0.0
  0
VERTEX
  5
B88
  8
DATA
  6
CONTINUOUS
 62
     7
 10
329.70113020926919
 20
192.7111546721496
 30
0.0
  0
VERTEX
  5
B89
  8
DATA
  6
CONTINUOUS
 62
     7
 10
323.65113020926918
 20
192.7111546721496
 30
0.0
  0
SEQEND
  5
B8A
  8
DATA
  6
CONTINUOUS
 62
     7
  0
LINE
  5
618
  8
DATA
  6
CONTINUOUS
 62
     7
 10
329.70113020926908
 20
185.8361546721496
 30
0.0
 11
323.65113020926901
 21
185.8361546721496
 31
0.0
  0
LINE
  5
619
  8
DATA
  6
CONTINUOUS
 62
     7
 10
315.95113020926908
 20
185.8361546721496
 30
0.0
 11
309.90113020926901
 21
185.8361546721496
 31
0.0
  0
LINE
  5
61A
  8
DATA
  6
CONTINUOUS
 62
     7
 10
329.70113020926908
 20
192.71115467214941
 30
0.0
 11
329.70113020926908
 21
185.8361546721496
 31
0.0
  0
LINE
  5
61B
  8
DATA
  6
CONTINUOUS
 62
     7
 10
323.65113020926901
 20
192.71115467214941
 30
0.0
 11
323.65113020926901
 21
185.8361546721496
 31
0.0
  0
LINE
  5
61C
  8
DATA
  6
CONTINUOUS
 62
     7
 10
315.95113020926908
 20
192.71115467214941
 30
0.0
 11
315.95113020926908
 21
185.8361546721496
 31
0.0
  0
LINE
  5
61D
  8
DATA
  6
CONTINUOUS
 62
     7
 10
309.90113020926901
 20
192.71115467214941
 30
0.0
 11
309.90113020926901
 21
185.8361546721496
 31
0.0
  0
TEXT
  5
61E
  8
DATA
 62
     7
 10
329.27946354269289
 20
209.5664949108068
 30
0.0
 40
7.1669010416666659
  1
1
 50
180.0
 41
0.7
 11
329.27946354269289
 21
202.39959386914009
 31
0.0
 73
     3
  0
TEXT
  5
61F
  8
DATA
 62
     7
 10
315.52946354269301
 20
209.5664949108068
 30
0.0
 40
7.1669010416666659
  1
2
 50
180.0
 41
0.7
 11
315.52946354269301
 21
202.39959386914009
 31
0.0
 73
     3
  0
TEXT
  5
620
  8
DATA
 62
     7
 10
324.34236930560832
 20
182.2763834104133
 30
0.0
 40
7.1669010416666659
  1
ON
 50
180.0
 41
0.7
 11
324.34236930560832
 21
175.1094823687466
 31
0.0
 73
     3
  0
TEXT
  5
621
  8
DATA
 62
     7
 10
241.7232100155739
 20
147.5660256304806
 30
0.0
 40
10.85894097222222
  1
ディツプスイッチ拡大図
 41
0.7
 11
241.7232100155739
 21
158.4249666027028
 31
0.0
 73
     3
  0
LINE
  5
622
  8
DATA
  6
CONTINUOUS
 62
     7
 10
237.5
 20
143.75
 30
0.0
 11
406.25
 21
143.75
 31
0.0
  0
LINE
  5
623
  8
DATA
  6
CONTINUOUS
 62
     7
 10
298.90113020926918
 20
173.02394893467209
 30
0.0
 11
298.90113020926918
 21
214.2739489346728
 31
0.0
  0
LINE
  5
624
  8
DATA
  6
CONTINUOUS
 62
     7
 10
326.33856024189032
 20
232.49999999967369
 30
0.0
 11
326.33856024189032
 21
237.49999999967369
 31
0.0
  0
LINE
  5
625
  8
DATA
  6
CONTINUOUS
 62
     7
 10
321.66202306145419
 20
232.49999999967369
 30
0.0
 11
321.66202306145419
 21
237.49999999967369
 31
0.0
  0
LINE
  5
626
  8
DATA
  6
CONTINUOUS
 62
     7
 10
293.31756780286088
 20
232.49999999967369
 30
0.0
 11
293.31756780286088
 21
237.49999999967369
 31
0.0
  0
LINE
  5
627
  8
DATA
  6
CONTINUOUS
 62
     7
 10
289.16202306145391
 20
232.49999999967369
 30
0.0
 11
289.16202306145391
 21
237.49999999967369
 31
0.0
  0
LINE
  5
628
  8
DATA
  6
CONTINUOUS
 62
     7
 10
289.16202306145391
 20
232.49999999967369
 30
0.0
 11
293.31756780286088
 21
232.49999999967369
 31
0.0
  0
LINE
  5
629
  8
DATA
  6
CONTINUOUS
 62
     7
 10
295.81166345282799
 20
232.49999999967369
 30
0.0
 11
319.6994060424708
 21
232.49999999967369
 31
0.0
  0
LINE
  5
62A
  8
DATA
  6
CONTINUOUS
 62
     7
 10
321.66202306145419
 20
232.49999999967369
 30
0.0
 11
326.33856024189032
 21
232.49999999967369
 31
0.0
  0
LINE
  5
62B
  8
DATA
  6
CONTINUOUS
 62
     7
 10
319.6994060424708
 20
232.49999999967369
 30
0.0
 11
319.6994060424708
 21
237.49999999967369
 31
0.0
  0
LINE
  5
62C
  8
DATA
  6
CONTINUOUS
 62
     7
 10
295.81166345282799
 20
232.49999999967369
 30
0.0
 11
295.81166345282799
 21
237.49999999967369
 31
0.0
  0
LINE
  5
62D
  8
DATA
  6
CONTINUOUS
 62
     7
 10
283.25773626621952
 20
232.49999999967369
 30
0.0
 11
278.58119908578362
 21
232.49999999967369
 31
0.0
  0
LINE
  5
62E
  8
DATA
  6
CONTINUOUS
 62
     7
 10
276.20996544068629
 20
232.49999999967369
 30
0.0
 11
260.62647361159549
 21
232.49999999967369
 31
0.0
  0
LINE
  5
62F
  8
DATA
  6
CONTINUOUS
 62
     7
 10
258.25773626621941
 20
232.49999999967369
 30
0.0
 11
253.5811990857836
 21
232.49999999967369
 31
0.0
  0
LINE
  5
630
  8
DATA
  6
CONTINUOUS
 62
     7
 10
283.25773626621952
 20
237.49999999967369
 30
0.0
 11
283.25773626621952
 21
232.49999999967369
 31
0.0
  0
LINE
  5
631
  8
DATA
  6
CONTINUOUS
 62
     7
 10
278.58119908578362
 20
237.49999999967369
 30
0.0
 11
278.58119908578362
 21
232.49999999967369
 31
0.0
  0
LINE
  5
632
  8
DATA
  6
CONTINUOUS
 62
     7
 10
276.20996544068629
 20
237.49999999967369
 30
0.0
 11
276.20996544068629
 21
232.49999999967369
 31
0.0
  0
LINE
  5
633
  8
DATA
  6
CONTINUOUS
 62
     7
 10
260.62647361159549
 20
237.49999999967369
 30
0.0
 11
260.62647361159549
 21
232.49999999967369
 31
0.0
  0
LINE
  5
634
  8
DATA
  6
CONTINUOUS
 62
     7
 10
258.25773626621941
 20
237.49999999967369
 30
0.0
 11
258.25773626621941
 21
232.49999999967369
 31
0.0
  0
LINE
  5
635
  8
DATA
  6
CONTINUOUS
 62
     7
 10
253.5811990857836
 20
237.49999999967369
 30
0.0
 11
253.5811990857836
 21
232.49999999967369
 31
0.0
  0
LINE
  5
636
  8
DATA
  6
CONTINUOUS
 62
     7
 10
344.49674514449958
 20
235.49999999949759
 30
0.0
 11
344.49674514449958
 21
237.49999999949759
 31
0.0
  0
LINE
  5
637
  8
DATA
  6
CONTINUOUS
 62
     7
 10
345.10000000034142
 20
231.49999999949759
 30
0.0
 11
345.10000000034142
 21
235.49999999949759
 31
0.0
  0
LINE
  5
638
  8
DATA
  6
CONTINUOUS
 62
     7
 10
352.90000000034132
 20
231.49999999949759
 30
0.0
 11
352.90000000034132
 21
235.49999999949759
 31
0.0
  0
LINE
  5
639
  8
DATA
  6
CONTINUOUS
 62
     7
 10
353.50325485618322
 20
235.49999999949759
 30
0.0
 11
353.50325485618322
 21
237.49999999949759
 31
0.0
  0
LINE
  5
63A
  8
DATA
  6
CONTINUOUS
 62
     7
 10
344.49674514449958
 20
235.49999999949759
 30
0.0
 11
353.50325485618322
 21
235.49999999949759
 31
0.0
  0
LINE
  5
63B
  8
DATA
  6
CONTINUOUS
 62
     7
 10
345.10000000034142
 20
231.49999999949759
 30
0.0
 11
352.90000000034132
 21
231.49999999949759
 31
0.0
  0
LINE
  5
63C
  8
DATA
  6
CONTINUOUS
 62
     7
 10
349.00000000034129
 20
235.49999999949759
 30
0.0
 11
349.00000000034129
 21
237.49999999949759
 31
0.0
  0
LINE
  5
63D
  8
DATA
  6
CONTINUOUS
 62
     7
 10
228.7312351961117
 20
-123.74999999996641
 30
0.0
 11
233.4077723765476
 21
-123.74999999996641
 31
0.0
  0
LINE
  5
63E
  8
DATA
  6
CONTINUOUS
 62
     7
 10
235.4012895380483
 20
-123.74999999996641
 30
0.0
 11
259.264420819755
 21
-123.74999999996641
 31
0.0
  0
LINE
  5
63F
  8
DATA
  6
CONTINUOUS
 62
     7
 10
261.23123519611198
 20
-123.74999999996641
 30
0.0
 11
265.90777237654811
 21
-123.74999999996641
 31
0.0
  0
LINE
  5
640
  8
DATA
  6
CONTINUOUS
 62
     7
 10
275.70626347011103
 20
-123.74999999996641
 30
0.0
 11
280.38280065054681
 21
-123.74999999996641
 31
0.0
  0
LINE
  5
641
  8
DATA
  6
CONTINUOUS
 62
     7
 10
282.73435325041709
 20
-123.74999999996641
 30
0.0
 11
298.35764001972569
 21
-123.74999999996641
 31
0.0
  0
LINE
  5
642
  8
DATA
  6
CONTINUOUS
 62
     7
 10
300.7062634701104
 20
-123.74999999996641
 30
0.0
 11
305.3828006505463
 21
-123.74999999996641
 31
0.0
  0
LINE
  5
643
  8
DATA
  6
CONTINUOUS
 62
     7
 10
305.3828006505463
 20
-118.74999999996641
 30
0.0
 11
305.3828006505463
 21
-123.74999999996641
 31
0.0
  0
LINE
  5
644
  8
DATA
  6
CONTINUOUS
 62
     7
 10
300.7062634701104
 20
-118.74999999996641
 30
0.0
 11
300.7062634701104
 21
-123.74999999996641
 31
0.0
  0
LINE
  5
645
  8
DATA
  6
CONTINUOUS
 62
     7
 10
280.38280065054681
 20
-118.74999999996641
 30
0.0
 11
280.38280065054681
 21
-123.74999999996641
 31
0.0
  0
LINE
  5
646
  8
DATA
  6
CONTINUOUS
 62
     7
 10
275.70626347011103
 20
-118.74999999996641
 30
0.0
 11
275.70626347011103
 21
-123.74999999996641
 31
0.0
  0
LINE
  5
647
  8
DATA
  6
CONTINUOUS
 62
     7
 10
298.35764001972569
 20
-118.74999999996641
 30
0.0
 11
298.35764001972569
 21
-123.74999999996641
 31
0.0
  0
LINE
  5
648
  8
DATA
  6
CONTINUOUS
 62
     7
 10
282.73435325041709
 20
-118.74999999996641
 30
0.0
 11
282.73435325041709
 21
-123.74999999996641
 31
0.0
  0
LINE
  5
649
  8
DATA
  6
CONTINUOUS
 62
     7
 10
265.90777237654811
 20
-118.74999999996641
 30
0.0
 11
265.90777237654811
 21
-123.74999999996641
 31
0.0
  0
LINE
  5
64A
  8
DATA
  6
CONTINUOUS
 62
     7
 10
261.23123519611198
 20
-118.74999999996641
 30
0.0
 11
261.23123519611198
 21
-123.74999999996641
 31
0.0
  0
LINE
  5
64B
  8
DATA
  6
CONTINUOUS
 62
     7
 10
259.264420819755
 20
-118.74999999996641
 30
0.0
 11
259.264420819755
 21
-123.74999999996641
 31
0.0
  0
LINE
  5
64C
  8
DATA
  6
CONTINUOUS
 62
     7
 10
235.4012895380483
 20
-118.74999999996641
 30
0.0
 11
235.4012895380483
 21
-123.74999999996641
 31
0.0
  0
LINE
  5
64D
  8
DATA
  6
CONTINUOUS
 62
     7
 10
233.4077723765476
 20
-118.74999999996641
 30
0.0
 11
233.4077723765476
 21
-123.74999999996641
 31
0.0
  0
LINE
  5
64E
  8
DATA
  6
CONTINUOUS
 62
     7
 10
228.7312351961117
 20
-118.74999999996641
 30
0.0
 11
228.7312351961117
 21
-123.74999999996641
 31
0.0
  0
LINE
  5
64F
  8
DATA
  6
CONTINUOUS
 62
     7
 10
206.53223871241289
 20
-120.75
 30
0.0
 11
206.53223871241289
 21
-118.75
 31
0.0
  0
LINE
  5
650
  8
DATA
  6
CONTINUOUS
 62
     7
 10
207.13549356825479
 20
-124.75
 30
0.0
 11
207.13549356825479
 21
-120.75
 31
0.0
  0
LINE
  5
651
  8
DATA
  6
CONTINUOUS
 62
     7
 10
214.9354935682546
 20
-124.75
 30
0.0
 11
214.9354935682546
 21
-120.75
 31
0.0
  0
LINE
  5
652
  8
DATA
  6
CONTINUOUS
 62
     7
 10
215.53874842409641
 20
-120.75
 30
0.0
 11
215.53874842409641
 21
-118.75
 31
0.0
  0
LINE
  5
653
  8
DATA
  6
CONTINUOUS
 62
     7
 10
206.53223871241289
 20
-120.75
 30
0.0
 11
215.53874842409641
 21
-120.75
 31
0.0
  0
LINE
  5
654
  8
DATA
  6
CONTINUOUS
 62
     7
 10
207.13549356825479
 20
-124.75
 30
0.0
 11
214.9354935682546
 21
-124.75
 31
0.0
  0
LINE
  5
655
  8
DATA
  6
CONTINUOUS
 62
     7
 10
211.03549356825451
 20
-120.75
 30
0.0
 11
211.03549356825451
 21
-118.75
 31
0.0
  0
LINE
  5
656
  8
DATA
  6
CONTINUOUS
 62
     7
 10
334.99326557674772
 20
322.79999999967362
 30
0.0
 11
334.99326557674772
 21
322.49999999967361
 31
0.0
  0
LINE
  5
657
  8
DATA
  6
CONTINUOUS
 62
     7
 10
319.29326557674767
 20
322.79999999967362
 30
0.0
 11
319.29326557674767
 21
322.49999999967361
 31
0.0
  0
LINE
  5
658
  8
DATA
  6
CONTINUOUS
 62
     7
 10
302.99326557674772
 20
322.79999999967362
 30
0.0
 11
302.99326557674772
 21
322.49999999967361
 31
0.0
  0
LINE
  5
659
  8
DATA
  6
CONTINUOUS
 62
     7
 10
287.2932655767479
 20
322.79999999967362
 30
0.0
 11
287.2932655767479
 21
322.49999999967361
 31
0.0
  0
LINE
  5
65A
  8
DATA
  6
CONTINUOUS
 62
     7
 10
227.9932655767478
 20
322.79999999967362
 30
0.0
 11
227.9932655767478
 21
322.49999999967361
 31
0.0
  0
LINE
  5
65B
  8
DATA
  6
CONTINUOUS
 62
     7
 10
212.2932655767479
 20
322.79999999967362
 30
0.0
 11
212.2932655767479
 21
322.49999999967361
 31
0.0
  0
LINE
  5
65C
  8
DATA
  6
CONTINUOUS
 62
     7
 10
334.99326557674772
 20
322.79999999967362
 30
0.0
 11
319.29326557674767
 21
322.79999999967362
 31
0.0
  0
LINE
  5
65D
  8
DATA
  6
CONTINUOUS
 62
     7
 10
302.99326557674772
 20
322.79999999967362
 30
0.0
 11
287.2932655767479
 21
322.79999999967362
 31
0.0
  0
LINE
  5
65E
  8
DATA
  6
CONTINUOUS
 62
     7
 10
227.9932655767478
 20
322.79999999967362
 30
0.0
 11
212.2932655767479
 21
322.79999999967362
 31
0.0
  0
LINE
  5
65F
  8
DATA
  6
CONTINUOUS
 62
     7
 10
342.05746152123669
 20
-33.449999999967289
 30
0.0
 11
342.05746152123669
 21
-33.749999999967287
 31
0.0
  0
LINE
  5
660
  8
DATA
  6
CONTINUOUS
 62
     7
 10
326.35746152123659
 20
-33.449999999967289
 30
0.0
 11
326.35746152123659
 21
-33.749999999967287
 31
0.0
  0
LINE
  5
661
  8
DATA
  6
CONTINUOUS
 62
     7
 10
291.00624146008118
 20
-33.449999999967289
 30
0.0
 11
291.00624146008118
 21
-33.749999999967287
 31
0.0
  0
LINE
  5
662
  8
DATA
  6
CONTINUOUS
 62
     7
 10
275.30624146008103
 20
-33.449999999967289
 30
0.0
 11
275.30624146008103
 21
-33.749999999967287
 31
0.0
  0
LINE
  5
663
  8
DATA
  6
CONTINUOUS
 62
     7
 10
249.87165746542561
 20
-33.449999999967289
 30
0.0
 11
249.87165746542561
 21
-33.749999999967287
 31
0.0
  0
LINE
  5
664
  8
DATA
  6
CONTINUOUS
 62
     7
 10
234.1716574654256
 20
-33.449999999967289
 30
0.0
 11
234.1716574654256
 21
-33.749999999967287
 31
0.0
  0
LINE
  5
665
  8
DATA
  6
CONTINUOUS
 62
     7
 10
342.05746152123669
 20
-33.449999999967289
 30
0.0
 11
326.35746152123659
 21
-33.449999999967289
 31
0.0
  0
LINE
  5
666
  8
DATA
  6
CONTINUOUS
 62
     7
 10
291.00624146008118
 20
-33.449999999967289
 30
0.0
 11
275.30624146008103
 21
-33.449999999967289
 31
0.0
  0
LINE
  5
667
  8
DATA
  6
CONTINUOUS
 62
     7
 10
249.87165746542561
 20
-33.449999999967289
 30
0.0
 11
234.1716574654256
 21
-33.449999999967289
 31
0.0
  0
LINE
  5
668
  8
DATA
  6
CONTINUOUS
 62
     7
 10
82.499999999625246
 20
133.75223298670471
 30
0.0
 11
87.499999999625246
 21
133.75223298670471
 31
0.0
  0
LINE
  5
669
  8
DATA
  6
CONTINUOUS
 62
     7
 10
82.499999999625246
 20
128.4931372915195
 30
0.0
 11
87.499999999625246
 21
128.4931372915195
 31
0.0
  0
LINE
  5
66A
  8
DATA
  6
CONTINUOUS
 62
     7
 10
82.499999999625246
 20
135.19313729151901
 30
0.0
 11
82.499999999625246
 21
127.19313729151941
 31
0.0
  0
LINE
  5
66B
  8
DATA
  6
CONTINUOUS
 62
     7
 10
82.499999999625246
 20
135.19313729151901
 30
0.0
 11
87.499999999625246
 21
135.19313729151901
 31
0.0
  0
LINE
  5
66C
  8
DATA
  6
CONTINUOUS
 62
     7
 10
82.499999999625246
 20
127.19313729151941
 30
0.0
 11
87.499999999625246
 21
127.19313729151941
 31
0.0
  0
LINE
  5
66D
  8
DATA
  6
CONTINUOUS
 62
     7
 10
81.499999999741888
 20
131.35000000029481
 30
0.0
 11
82.499999999625246
 21
131.35000000029481
 31
0.0
  0
LINE
  5
66E
  8
DATA
  6
CONTINUOUS
 62
     7
 10
81.499999999741888
 20
139.15000000029471
 30
0.0
 11
85.499999999741874
 21
139.15000000029471
 31
0.0
  0
LINE
  5
66F
  8
DATA
  6
CONTINUOUS
 62
     7
 10
85.499999999741874
 20
139.75325485613661
 30
0.0
 11
87.499999999741917
 21
139.75325485613661
 31
0.0
  0
LINE
  5
670
  8
DATA
  6
CONTINUOUS
 62
     7
 10
85.499999999741874
 20
135.19313729151901
 30
0.0
 11
85.499999999741874
 21
139.75325485613661
 31
0.0
  0
LINE
  5
671
  8
DATA
  6
CONTINUOUS
 62
     7
 10
81.499999999741888
 20
131.35000000029481
 30
0.0
 11
81.499999999741888
 21
139.15000000029471
 31
0.0
  0
LINE
  5
672
  8
DATA
  6
CONTINUOUS
 62
     7
 10
85.499999999741874
 20
135.2500000002947
 30
0.0
 11
87.499999999741917
 21
135.2500000002947
 31
0.0
  0
LINE
  5
673
  8
DATA
  6
CONTINUOUS
 62
     7
 10
172.4999999996252
 20
126.74999999977361
 30
0.0
 11
172.79999999962519
 21
126.74999999977361
 31
0.0
  0
LINE
  5
674
  8
DATA
  6
CONTINUOUS
 62
     7
 10
172.4999999996252
 20
140.0499999997736
 30
0.0
 11
172.79999999962519
 21
140.0499999997736
 31
0.0
  0
LINE
  5
675
  8
DATA
  6
CONTINUOUS
 62
     7
 10
172.79999999962519
 20
140.0499999997736
 30
0.0
 11
172.79999999962519
 21
126.74999999977361
 31
0.0
  0
LINE
  5
676
  8
DATA
  6
CONTINUOUS
 62
     7
 10
85.503254855841789
 20
-225.50325485584179
 30
0.0
 11
87.503254855841789
 21
-225.50325485584179
 31
0.0
  0
LINE
  5
677
  8
DATA
  6
CONTINUOUS
 62
     7
 10
81.503254855841817
 20
-224.89999999999989
 30
0.0
 11
85.503254855841789
 21
-224.89999999999989
 31
0.0
  0
LINE
  5
678
  8
DATA
  6
CONTINUOUS
 62
     7
 10
81.503254855841817
 20
-217.09999999999999
 30
0.0
 11
85.503254855841789
 21
-217.09999999999999
 31
0.0
  0
LINE
  5
679
  8
DATA
  6
CONTINUOUS
 62
     7
 10
85.503254855841789
 20
-216.49674514415821
 30
0.0
 11
87.503254855841789
 21
-216.49674514415821
 31
0.0
  0
LINE
  5
67A
  8
DATA
  6
CONTINUOUS
 62
     7
 10
85.503254855841789
 20
-225.50325485584179
 30
0.0
 11
85.503254855841789
 21
-216.49674514415821
 31
0.0
  0
LINE
  5
67B
  8
DATA
  6
CONTINUOUS
 62
     7
 10
81.503254855841817
 20
-224.89999999999989
 30
0.0
 11
81.503254855841817
 21
-217.09999999999999
 31
0.0
  0
LINE
  5
67C
  8
DATA
  6
CONTINUOUS
 62
     7
 10
85.503254855841789
 20
-221.0
 30
0.0
 11
87.503254855841789
 21
-221.0
 31
0.0
  0
LINE
  5
67D
  8
DATA
  6
CONTINUOUS
 62
     7
 10
82.500000000023206
 20
-224.89999999999989
 30
0.0
 11
82.500000000023206
 21
-228.99975384126569
 31
0.0
  0
LINE
  5
67E
  8
DATA
  6
CONTINUOUS
 62
     7
 10
82.500000000023206
 20
-227.77475384126561
 30
0.0
 11
87.500000000023206
 21
-227.77475384126561
 31
0.0
  0
LINE
  5
67F
  8
DATA
  6
CONTINUOUS
 62
     7
 10
82.500000000023206
 20
-228.99975384126569
 30
0.0
 11
87.500000000023206
 21
-228.99975384126569
 31
0.0
  0
LINE
  5
680
  8
DATA
  6
CONTINUOUS
 62
     7
 10
172.4999999996252
 20
-229.50000000022641
 30
0.0
 11
172.79999999962519
 21
-229.50000000022641
 31
0.0
  0
LINE
  5
681
  8
DATA
  6
CONTINUOUS
 62
     7
 10
172.4999999996252
 20
-216.2000000002264
 30
0.0
 11
172.79999999962519
 21
-216.2000000002264
 31
0.0
  0
LINE
  5
682
  8
DATA
  6
CONTINUOUS
 62
     7
 10
172.79999999962519
 20
-216.2000000002264
 30
0.0
 11
172.79999999962519
 21
-229.50000000022641
 31
0.0
  0
LINE
  5
683
  8
DATA
  6
CONTINUOUS
 62
     7
 10
-106.25
 20
75.0
 30
0.0
 11
50.0
 21
75.0
 31
0.0
  0
LINE
  5
684
  8
DATA
  6
CONTINUOUS
 62
     7
 10
50.0
 20
-281.24999999986687
 30
0.0
 11
-106.25
 21
-281.24999999986687
 31
0.0
  0
ENDSEC
  0
EOF
