  0
SECTION
  2
HEADER
  9
$ACADVER
  1
AC1009
  9
$INSBASE
 10
0.0
 20
0.0
 30
0.0
  9
$EXTMIN
 10
-170.0164782349211
 20
-265.74833863455001
 30
-0.0015258207003583
  9
$EXTMAX
 10
371.62323123964393
 20
537.09174839639525
 30
0.0000000349246037
  9
$LIMMIN
 10
0.0
 20
0.0
  9
$LIMMAX
 10
0.0
 20
0.0
  9
$ORTHOMODE
 70
     0
  9
$REGENMODE
 70
     1
  9
$FILLMODE
 70
     1
  9
$QTEXTMODE
 70
     0
  9
$MIRRTEXT
 70
     1
  9
$DRAGMODE
 70
     2
  9
$LTSCALE
 40
15.24
  9
$OSMODE
 70
   231
  9
$ATTMODE
 70
     1
  9
$TEXTSIZE
 40
0.0
  9
$TRACEWID
 40
1.0
  9
$TEXTSTYLE
  7
STANDARD
  9
$CLAYER
  8
DATA
  9
$CELTYPE
  6
BYLAYER
  9
$CECOLOR
 62
   256
  9
$DIMSCALE
 40
1.0
  9
$DIMASZ
 40
0.18
  9
$DIMEXO
 40
0.0625
  9
$DIMDLI
 40
0.38
  9
$DIMRND
 40
0.0
  9
$DIMDLE
 40
0.0
  9
$DIMEXE
 40
0.18
  9
$DIMTP
 40
0.0
  9
$DIMTM
 40
0.0
  9
$DIMTXT
 40
0.18
  9
$DIMCEN
 40
0.09
  9
$DIMTSZ
 40
0.0
  9
$DIMTOL
 70
     0
  9
$DIMLIM
 70
     0
  9
$DIMTIH
 70
     1
  9
$DIMTOH
 70
     1
  9
$DIMSE1
 70
     0
  9
$DIMSE2
 70
     0
  9
$DIMTAD
 70
     0
  9
$DIMZIN
 70
     0
  9
$DIMBLK
  1

  9
$DIMASO
 70
     1
  9
$DIMSHO
 70
     1
  9
$DIMPOST
  1

  9
$DIMAPOST
  1

  9
$DIMALT
 70
     0
  9
$DIMALTD
 70
     2
  9
$DIMALTF
 40
25.399999999999999
  9
$DIMLFAC
 40
1.0
  9
$DIMTOFL
 70
     0
  9
$DIMTVP
 40
0.0
  9
$DIMTIX
 70
     0
  9
$DIMSOXD
 70
     0
  9
$DIMSAH
 70
     0
  9
$DIMBLK1
  1

  9
$DIMBLK2
  1

  9
$DIMSTYLE
  2
STANDARD
  9
$DIMCLRD
 70
     0
  9
$DIMCLRE
 70
     0
  9
$DIMCLRT
 70
     0
  9
$DIMTFAC
 40
1.0
  9
$DIMGAP
 40
0.09
  9
$LUNITS
 70
     2
  9
$LUPREC
 70
     4
  9
$SKETCHINC
 40
0.1
  9
$FILLETRAD
 40
0.0
  9
$AUNITS
 70
     0
  9
$AUPREC
 70
     0
  9
$MENU
  1
acad
  9
$ELEVATION
 40
0.0
  9
$PELEVATION
 40
0.0
  9
$THICKNESS
 40
0.0
  9
$LIMCHECK
 70
     0
  9
$BLIPMODE
 70
     0
  9
$CHAMFERA
 40
0.0
  9
$CHAMFERB
 40
0.0
  9
$SKPOLY
 70
     0
  9
$TDCREATE
 40
2455615.6581134261
  9
$TDUPDATE
 40
2455615.6618201039
  9
$TDINDWG
 40
0.0002930208
  9
$TDUSRTIMER
 40
0.0002930208
  9
$USRTIMER
 70
     1
  9
$ANGBASE
 50
0.0
  9
$ANGDIR
 70
     0
  9
$PDMODE
 70
     1
  9
$PDSIZE
 40
-2.0
  9
$PLINEWID
 40
0.0
  9
$COORDS
 70
     1
  9
$SPLFRAME
 70
     0
  9
$SPLINETYPE
 70
     6
  9
$SPLINESEGS
 70
     8
  9
$ATTDIA
 70
     0
  9
$ATTREQ
 70
     1
  9
$HANDLING
 70
     1
  9
$HANDSEED
  5
3AC
  9
$SURFTAB1
 70
     6
  9
$SURFTAB2
 70
     6
  9
$SURFTYPE
 70
     6
  9
$SURFU
 70
     6
  9
$SURFV
 70
     6
  9
$UCSNAME
  2

  9
$UCSORG
 10
0.0
 20
0.0
 30
0.0
  9
$UCSXDIR
 10
1.0
 20
0.0
 30
0.0
  9
$UCSYDIR
 10
0.0
 20
1.0
 30
0.0
  9
$PUCSNAME
  2

  9
$PUCSORG
 10
0.0
 20
0.0
 30
0.0
  9
$PUCSXDIR
 10
1.0
 20
0.0
 30
0.0
  9
$PUCSYDIR
 10
0.0
 20
1.0
 30
0.0
  9
$USERI1
 70
     0
  9
$USERI2
 70
     0
  9
$USERI3
 70
     0
  9
$USERI4
 70
     0
  9
$USERI5
 70
     0
  9
$USERR1
 40
0.0
  9
$USERR2
 40
0.0
  9
$USERR3
 40
0.0
  9
$USERR4
 40
0.0
  9
$USERR5
 40
0.0
  9
$WORLDVIEW
 70
     1
  9
$SHADEDGE
 70
     3
  9
$SHADEDIF
 70
    70
  9
$TILEMODE
 70
     1
  9
$MAXACTVP
 70
    64
  9
$PLIMCHECK
 70
     0
  9
$PEXTMIN
 10
1.0000000000000000E+020
 20
1.0000000000000000E+020
 30
1.0000000000000000E+020
  9
$PEXTMAX
 10
-1.0000000000000000E+020
 20
-1.0000000000000000E+020
 30
-1.0000000000000000E+020
  9
$PLIMMIN
 10
0.0
 20
0.0
  9
$PLIMMAX
 10
12.0
 20
9.0
  9
$UNITMODE
 70
     0
  9
$VISRETAIN
 70
     0
  9
$PLINEGEN
 70
     1
  9
$PSLTSCALE
 70
     0
  0
ENDSEC
  0
SECTION
  2
TABLES
  0
TABLE
  2
VPORT
 70
     1
  0
VPORT
  2
*ACTIVE
 70
     0
 10
0.0
 20
0.0
 11
1.0
 21
1.0
 12
100.8033765023614
 22
135.6717048809227
 13
0.0
 23
0.0
 14
1.0
 24
1.0
 15
0.0
 25
0.0
 16
0.0
 26
0.0
 36
1.0
 17
0.0
 27
0.0
 37
0.0
 40
808.75056619927125
 41
1.9619164619164611
 42
50.0
 43
0.0
 44
0.0
 50
0.0
 51
0.0
 71
     0
 72
  2000
 73
     1
 74
     1
 75
     0
 76
     0
 77
     0
 78
     0
  0
ENDTAB
  0
TABLE
  2
LTYPE
 70
    11
  0
LTYPE
  2
CONTINUOUS
 70
     0
  3
Solid line
 72
    65
 73
     0
 40
0.0
  0
ENDTAB
  0
TABLE
  2
LAYER
 70
     6
  0
LAYER
  2
0
 70
     0
 62
     7
  6
CONTINUOUS
  0
LAYER
  2
DATA
 70
     0
 62
     7
  6
CONTINUOUS
  0
LAYER
  2
HIBINO-BASE
 70
     0
 62
     7
  6
CONTINUOUS
  0
LAYER
  2
SPEC
 70
     0
 62
     7
  6
CONTINUOUS
  0
LAYER
  2
DIMNSIONS
 70
     0
 62
     7
  6
CONTINUOUS
  0
ENDTAB
  0
TABLE
  2
STYLE
 70
     3
  0
STYLE
  2
STANDARD
 70
     0
 40
0.0
 41
1.0
 50
0.0
 71
     0
 42
0.0
  3
txt
  4
BIGFONT.SHX
  0
ENDTAB
  0
TABLE
  2
VIEW
 70
     0
  0
ENDTAB
  0
TABLE
  2
UCS
 70
     0
  0
ENDTAB
  0
TABLE
  2
APPID
 70
     3
  0
APPID
  2
ACAD
 70
     0
  0
APPID
  2
ACADANNOTATIVE
 70
     0
  0
APPID
  2
ACAD_MLEADERVER
 70
     0
  0
ENDTAB
  0
TABLE
  2
DIMSTYLE
 70
     2
  0
DIMSTYLE
  2
STANDARD
 70
     0
  3

  4

  5

  6

  7

 40
1.0
 41
0.18
 42
0.0625
 43
0.38
 44
0.18
 45
0.0
 46
0.0
 47
0.0
 48
0.0
140
0.18
141
0.09
142
0.0
143
25.399999999999999
144
1.0
145
0.0
146
1.0
147
0.09
 71
     0
 72
     0
 73
     1
 74
     1
 75
     0
 76
     0
 77
     0
 78
     0
170
     0
171
     2
172
     0
173
     0
174
     0
175
     0
176
     0
177
     0
178
     0
  0
ENDTAB
  0
ENDSEC
  0
SECTION
  2
BLOCKS
  0
BLOCK
  8
0
  2
$MODEL_SPACE
 70
     0
 10
0.0
 20
0.0
 30
0.0
  3
$MODEL_SPACE
  1

  0
ENDBLK
  5
2FF
  8
0
  0
BLOCK
 67
     1
  8
0
  2
$PAPER_SPACE
 70
     0
 10
0.0
 20
0.0
 30
0.0
  3
$PAPER_SPACE
  1

  0
ENDBLK
  5
2FB
 67
     1
  8
0
  0
ENDSEC
  0
SECTION
  2
ENTITIES
  0
LINE
  5
2D
  8
HIBINO-BASE
  6
CONTINUOUS
 62
     7
 10
370.0
 20
-242.93270421026821
 30
0.0
 11
-169.99999999999989
 21
-242.93270421026821
 31
0.0
  0
LINE
  5
2E
  8
HIBINO-BASE
  6
CONTINUOUS
 62
     7
 10
-169.99999999999989
 20
-242.93270421026821
 30
0.0
 11
-169.99999999999989
 21
537.06729578973182
 31
0.0
  0
LINE
  5
2F
  8
HIBINO-BASE
  6
CONTINUOUS
 62
     7
 10
370.0
 20
537.06729578973182
 30
0.0
 11
370.0
 21
-242.93270421026821
 31
0.0
  0
LINE
  5
30
  8
HIBINO-BASE
  6
CONTINUOUS
 62
     7
 10
100.0
 20
-175.4327042102681
 30
0.0
 11
370.0
 21
-175.4327042102681
 31
0.0
  0
LINE
  5
31
  8
HIBINO-BASE
  6
CONTINUOUS
 62
     7
 10
100.0
 20
-242.93270421026821
 30
0.0
 11
100.0
 21
-175.4327042102681
 31
0.0
  0
TEXT
  5
32
  8
HIBINO-BASE
 62
     7
 10
102.7
 20
-182.95878421026811
 30
0.0
 40
4.8865234374999993
  1
NOTE
 41
0.7
 11
102.7
 21
-178.0722607727682
 31
0.0
 73
     3
  0
LINE
  5
33
  8
HIBINO-BASE
  6
CONTINUOUS
 62
     7
 10
205.0
 20
-242.93270421026821
 30
0.0
 11
205.0
 21
-175.4327042102681
 31
0.0
  0
TEXT
  5
34
  8
HIBINO-BASE
 62
     7
 10
207.69999999999999
 20
-182.95878421026811
 30
0.0
 40
4.8865234374999993
  1
TITLE
 41
0.7
 11
207.69999999999999
 21
-178.0722607727682
 31
0.0
 73
     3
  0
LINE
  5
35
  8
HIBINO-BASE
  6
CONTINUOUS
 62
     7
 10
100.0
 20
-212.9327042102681
 30
0.0
 11
370.0
 21
-212.9327042102681
 31
0.0
  0
TEXT
  5
36
  8
HIBINO-BASE
 62
     7
 10
245.19999999999999
 20
-220.28982421026819
 30
0.0
 40
4.8865234374999993
  1
DRAWN
 41
0.7
 11
245.19999999999999
 21
-215.4033007727682
 31
0.0
 73
     3
  0
TEXT
  5
37
  8
HIBINO-BASE
 62
     7
 10
170.19999999999999
 20
-220.28982421026819
 30
0.0
 40
4.8865234374999993
  1
DATE
 41
0.7
 11
170.19999999999999
 21
-215.4033007727682
 31
0.0
 73
     3
  0
TEXT
  5
38
  8
HIBINO-BASE
 62
     7
 10
140.19999999999999
 20
-220.28982421026819
 30
0.0
 40
4.8865234374999993
  1
SCALE
 41
0.7
 11
140.19999999999999
 21
-215.4033007727682
 31
0.0
 73
     3
  0
TEXT
  5
39
  8
HIBINO-BASE
 62
     7
 10
207.69999999999999
 20
-220.28982421026819
 30
0.0
 40
4.8865234374999993
  1
DESIGN
 41
0.7
 11
207.69999999999999
 21
-215.4033007727682
 31
0.0
 73
     3
  0
TEXT
  5
3A
  8
HIBINO-BASE
 62
     7
 10
320.19999999999999
 20
-220.28982421026819
 30
0.0
 40
4.8865234374999993
  1
DRAWING NO.
 41
0.7
 11
320.19999999999999
 21
-215.4033007727682
 31
0.0
 73
     3
  0
TEXT
  5
3B
  8
HIBINO-BASE
 62
     7
 10
282.69999999999999
 20
-220.28982421026819
 30
0.0
 40
4.8865234374999993
  1
CHECK
 41
0.7
 11
282.69999999999999
 21
-215.4033007727682
 31
0.0
 73
     3
  0
LINE
  5
3C
  8
HIBINO-BASE
  6
CONTINUOUS
 62
     7
 10
143.12499999999989
 20
-239.18270421026821
 30
0.0
 11
154.375
 21
-227.9327042102681
 31
0.0
  0
TEXT
  5
3D
  8
HIBINO-BASE
 62
     7
 10
141.24999999999989
 20
-231.25953421026821
 30
0.0
 40
4.8865234374999993
  1
1
 41
0.7
 11
141.24999999999989
 21
-226.3730107727682
 31
0.0
 73
     3
  0
LINE
  5
3E
  8
HIBINO-BASE
  6
CONTINUOUS
 62
     7
 10
137.5
 20
-242.93270421026821
 30
0.0
 11
137.5
 21
-212.9327042102681
 31
0.0
  0
LINE
  5
3F
  8
HIBINO-BASE
  6
CONTINUOUS
 62
     7
 10
167.5
 20
-242.93270421026821
 30
0.0
 11
167.5
 21
-212.9327042102681
 31
0.0
  0
LINE
  5
40
  8
HIBINO-BASE
  6
CONTINUOUS
 62
     7
 10
242.5
 20
-212.9327042102681
 30
0.0
 11
242.5
 21
-242.93270421026821
 31
0.0
  0
LINE
  5
41
  8
HIBINO-BASE
  6
CONTINUOUS
 62
     7
 10
317.5
 20
-212.9327042102681
 30
0.0
 11
317.5
 21
-242.93270421026821
 31
0.0
  0
LINE
  5
42
  8
HIBINO-BASE
  6
CONTINUOUS
 62
     7
 10
279.99999999999989
 20
-242.93270421026821
 30
0.0
 11
279.99999999999989
 21
-212.9327042102681
 31
0.0
  0
TEXT
  5
43
  8
HIBINO-BASE
 62
     7
 10
170.06961999999999
 20
-234.3417642102682
 30
0.0
 40
4.8865234374999993
  1
'11.02.
 41
0.7
 11
170.06961999999999
 21
-229.45524077276821
 31
0.0
 73
     3
  0
TEXT
  5
44
  8
HIBINO-BASE
 62
     7
 10
152.5
 20
-236.88453421026821
 30
0.0
 40
4.8865234374999993
  1
3
 41
0.7
 11
152.5
 21
-231.9980107727682
 31
0.0
 73
     3
  0
TEXT
  5
45
  8
HIBINO-BASE
 62
     7
 10
111.65000000000001
 20
-237.0047042102681
 30
0.0
 40
9.7730468749999986
  1
A4
 41
0.7
 11
111.65000000000001
 21
-227.2316573352681
 31
0.0
 73
     3
  0
TEXT
  5
46
  8
HIBINO-BASE
 62
     7
 10
102.875
 20
-220.79106921026809
 30
0.0
 40
4.8865234374999993
  1
PAPER SIZE
 41
0.7
 11
102.875
 21
-215.9045457727681
 31
0.0
 73
     3
  0
TEXT
  5
47
  8
HIBINO-BASE
 62
     7
 10
-161.7210942293294
 20
-262.20842491279689
 30
0.0
 40
10.58746744791666
  1
Hibino-Intersound Corporation
 41
0.7
 11
-161.7210942293294
 21
-251.62095746488029
 31
0.0
 73
     3
  0
TEXT
  5
48
  8
HIBINO-BASE
 62
     7
 10
160.54182904064169
 20
-261.15516015292872
 30
0.0
 40
10.58746744791666
  1
ヒビノインターサウンド株式会社
 41
0.7
 11
160.54182904064169
 21
-250.56769270501201
 31
0.0
 73
     3
  0
LINE
  5
49
  8
HIBINO-BASE
  6
CONTINUOUS
 62
     7
 10
-169.99999999999989
 20
537.06729578973182
 30
0.0
 11
370.0
 21
537.06729578973182
 31
0.0
  0
LINE
  5
4A
  8
SPEC
  6
CONTINUOUS
 62
     7
 10
-147.49999999999989
 20
507.0672957897317
 30
0.0
 11
295.0
 21
507.0672957897317
 31
0.0
  0
LINE
  5
4B
  8
SPEC
  6
CONTINUOUS
 62
     7
 10
-147.49999999999989
 20
495.8172957897317
 30
0.0
 11
295.0
 21
495.8172957897317
 31
0.0
  0
LINE
  5
4C
  8
SPEC
  6
CONTINUOUS
 62
     7
 10
-147.49999999999989
 20
473.3172957897317
 30
0.0
 11
295.0
 21
473.3172957897317
 31
0.0
  0
LINE
  5
4D
  8
SPEC
  6
CONTINUOUS
 62
     7
 10
-147.49999999999989
 20
484.5672957897317
 30
0.0
 11
295.0
 21
484.5672957897317
 31
0.0
  0
LINE
  5
4E
  8
SPEC
  6
CONTINUOUS
 62
     7
 10
-147.49999999999989
 20
507.0672957897317
 30
0.0
 11
-147.49999999999989
 21
360.81729578973182
 31
0.0
  0
TEXT
  5
4F
  8
SPEC
 62
     7
 10
-143.74999999999989
 20
511.24710578973179
 30
0.0
 40
7.3297851562499989
  1
仕様
 41
0.7
 11
-143.74999999999989
 21
518.57689094598175
 31
0.0
 73
     3
  0
LINE
  5
50
  8
SPEC
  6
CONTINUOUS
 62
     7
 10
295.0
 20
507.0672957897317
 30
0.0
 11
295.0
 21
360.81729578973182
 31
0.0
  0
LINE
  5
51
  8
SPEC
  6
CONTINUOUS
 62
     7
 10
-147.49999999999989
 20
462.0672957897317
 30
0.0
 11
295.0
 21
462.0672957897317
 31
0.0
  0
LINE
  5
52
  8
SPEC
  6
CONTINUOUS
 62
     7
 10
-147.49999999999989
 20
450.8172957897317
 30
0.0
 11
295.0
 21
450.8172957897317
 31
0.0
  0
LINE
  5
53
  8
SPEC
  6
CONTINUOUS
 62
     7
 10
-147.49999999999989
 20
439.5672957897317
 30
0.0
 11
295.0
 21
439.5672957897317
 31
0.0
  0
LINE
  5
54
  8
SPEC
  6
CONTINUOUS
 62
     7
 10
-147.49999999999989
 20
428.3172957897317
 30
0.0
 11
295.0
 21
428.3172957897317
 31
0.0
  0
LINE
  5
55
  8
SPEC
  6
CONTINUOUS
 62
     7
 10
-147.49999999999989
 20
417.0672957897317
 30
0.0
 11
295.0
 21
417.0672957897317
 31
0.0
  0
LINE
  5
56
  8
SPEC
  6
CONTINUOUS
 62
     7
 10
-147.49999999999989
 20
405.8172957897317
 30
0.0
 11
295.0
 21
405.8172957897317
 31
0.0
  0
LINE
  5
57
  8
SPEC
  6
CONTINUOUS
 62
     7
 10
-147.49999999999989
 20
394.5672957897317
 30
0.0
 11
295.0
 21
394.5672957897317
 31
0.0
  0
LINE
  5
58
  8
SPEC
  6
CONTINUOUS
 62
     7
 10
-147.49999999999989
 20
383.31729578973182
 30
0.0
 11
295.0
 21
383.31729578973182
 31
0.0
  0
LINE
  5
59
  8
SPEC
  6
CONTINUOUS
 62
     7
 10
-147.49999999999989
 20
372.0672957897317
 30
0.0
 11
295.0
 21
372.0672957897317
 31
0.0
  0
LINE
  5
5A
  8
SPEC
  6
CONTINUOUS
 62
     7
 10
-147.49999999999989
 20
360.81729578973182
 30
0.0
 11
295.0
 21
360.81729578973182
 31
0.0
  0
TEXT
  5
5B
  8
SPEC
 62
     7
 10
-145.067948161576
 20
375.85252738077412
 30
0.0
 40
5.7009440104166673
  1
寸法
 41
0.7
 11
-145.067948161576
 21
381.55347139119078
 31
0.0
 73
     3
  0
TEXT
  5
5C
  8
SPEC
 62
     7
 10
-41.060560810343382
 20
374.5717368177622
 30
0.0
 40
5.7009440104166673
  1
77(W)\U+00D725(H)\U+00D7228(D)mm(突起部含まず）
 41
0.7
 11
-41.060560810343382
 21
380.27268082817881
 31
0.0
 73
     3
  0
TEXT
  5
5D
  8
SPEC
 62
     7
 10
-41.091591721565017
 20
364.10003849680578
 30
0.0
 40
5.7009440104166673
  1
約250g
 41
0.7
 11
-41.091591721565017
 21
369.8009825072225
 31
0.0
 73
     3
  0
TEXT
  5
5E
  8
SPEC
 62
     7
 10
-145.03419358619419
 20
364.2643228228909
 30
0.0
 40
5.7009440104166673
  1
重量
 41
0.7
 11
-145.03419358619419
 21
369.96526683330751
 31
0.0
 73
     3
  0
TEXT
  5
5F
  8
SPEC
 62
     7
 10
-144.97273396930581
 20
397.50926709064828
 30
0.0
 40
5.7009440104166673
  1
電源
 41
0.7
 11
-144.97273396930581
 21
403.21021110106489
 31
0.0
 73
     3
  0
TEXT
  5
60
  8
SPEC
 62
     7
 10
-41.043154696040702
 20
397.52186772040147
 30
0.0
 40
5.7009440104166673
  1
5V DC
 41
0.7
 11
-41.043154696040702
 21
403.22281173081808
 31
0.0
 73
     3
  0
TEXT
  5
61
  8
SPEC
 62
     7
 10
-145.00445217487271
 20
386.39407245896967
 30
0.0
 40
5.7009440104166673
  1
消費電力
 41
0.7
 11
-145.00445217487271
 21
392.09501646938639
 31
0.0
 73
     3
  0
TEXT
  5
62
  8
SPEC
 62
     7
 10
-41.406615126622192
 20
386.00665760717061
 30
0.0
 40
5.7009440104166673
  1
10W(最大)
 41
0.7
 11
-41.406615126622192
 21
391.70760161758727
 31
0.0
 73
     3
  0
TEXT
  5
63
  8
SPEC
 62
     7
 10
-144.75697686518001
 20
442.45195859137863
 30
0.0
 40
5.7009440104166673
  1
HDMI端子
 41
0.7
 11
-144.75697686518001
 21
448.15290260179529
 31
0.0
 73
     3
  0
TEXT
  5
64
  8
SPEC
 62
     7
 10
-41.071419763287842
 20
442.54471601130581
 30
0.0
 40
5.7009440104166673
  1
type A 19pin female；(1)input、(4)output
 41
0.7
 11
-41.071419763287842
 21
448.24566002172241
 31
0.0
 73
     3
  0
TEXT
  5
65
  8
SPEC
 62
     7
 10
-144.97387523422529
 20
453.69299828650782
 30
0.0
 40
5.7009440104166673
  1
入力Vビデオ信号
 41
0.7
 11
-144.97387523422529
 21
459.39394229692448
 31
0.0
 73
     3
  0
TEXT
  5
66
  8
SPEC
 62
     7
 10
-41.461873733502173
 20
453.77924239334089
 30
0.0
 40
5.7009440104166673
  1
1.2Vp-p
 41
0.7
 11
-41.461873733502173
 21
459.48018640375761
 31
0.0
 73
     3
  0
TEXT
  5
67
  8
SPEC
 62
     7
 10
-144.9776962283855
 20
464.90279205264488
 30
0.0
 40
5.7009440104166673
  1
入力DDC信号
 41
0.7
 11
-144.9776962283855
 21
470.6037360630616
 31
0.0
 73
     3
  0
TEXT
  5
68
  8
SPEC
 62
     7
 10
-41.069294943472727
 20
464.74271800383571
 30
0.0
 40
5.7009440104166673
  1
5Vp-p(TTL)
 41
0.7
 11
-41.069294943472727
 21
470.44366201425248
 31
0.0
 73
     3
  0
TEXT
  5
69
  8
SPEC
 62
     7
 10
-146.1580949726569
 20
476.52018226671578
 30
0.0
 40
5.7009440104166673
  1
ビデオ最大対応解像度
 41
0.7
 11
-146.1580949726569
 21
482.2211262771325
 31
0.0
 73
     3
  0
TEXT
  5
6A
  8
SPEC
 62
     7
 10
-41.463598735845167
 20
476.13046364018987
 30
0.0
 40
5.7009440104166673
  1
1080p、1920\U+00D71200@60Hz With 12-bit Deep Color 
 41
0.7
 11
-41.463598735845167
 21
481.83140765060659
 31
0.0
 73
     3
  0
TEXT
  5
6B
  8
SPEC
 62
     7
 10
-146.1467254942722
 20
487.74750357320141
 30
0.0
 40
5.7009440104166673
  1
ピクセルクロック/スピード
 41
0.7
 11
-146.1467254942722
 21
493.44844758361802
 31
0.0
 73
     3
  0
TEXT
  5
6C
  8
SPEC
 62
     7
 10
-41.474499454000771
 20
487.40498838873521
 30
0.0
 40
5.7009440104166673
  1
165MHz
 41
0.7
 11
-41.474499454000771
 21
493.10593239915198
 31
0.0
 73
     3
  0
TEXT
  5
6D
  8
SPEC
 62
     7
 10
-145.532581087213
 20
498.65049123526762
 30
0.0
 40
5.7009440104166673
  1
シングルリンク帯域
 41
0.7
 11
-145.532581087213
 21
504.35143524568417
 31
0.0
 73
     3
  0
TEXT
  5
6E
  8
SPEC
 62
     7
 10
-41.029721450097568
 20
498.40253724470398
 30
0.0
 40
5.7009440104166673
  1
225MHz
 41
0.7
 11
-41.029721450097568
 21
504.10348125512058
 31
0.0
 73
     3
  0
TEXT
  5
6F
  8
SPEC
 62
     7
 10
-40.86695388578898
 20
408.68742959405972
 30
0.0
 40
5.7009440104166673
  1
0～40℃
 41
0.7
 11
-40.86695388578898
 21
414.38837360447633
 31
0.0
 73
     3
  0
TEXT
  5
70
  8
SPEC
 62
     7
 10
-144.936547342453
 20
408.70925067109368
 30
0.0
 40
5.7009440104166673
  1
動作温度
 41
0.7
 11
-144.936547342453
 21
414.41019468151029
 31
0.0
 73
     3
  0
TEXT
  5
71
  8
SPEC
 62
     7
 10
-144.82301942717541
 20
431.24992356000718
 30
0.0
 40
5.7009440104166673
  1
LEDインジケータ ー
 41
0.7
 11
-144.82301942717541
 21
436.9508675704239
 31
0.0
 73
     3
  0
TEXT
  5
72
  8
SPEC
 62
     7
 10
-41.476142985466687
 20
431.20744787345131
 30
0.0
 40
5.7009440104166673
  1
(1)Red
 41
0.7
 11
-41.476142985466687
 21
436.90839188386792
 31
0.0
 73
     3
  0
TEXT
  5
73
  8
SPEC
 62
     7
 10
-144.85045069162939
 20
420.03502648940167
 30
0.0
 40
5.7009440104166673
  1
EDIDモード切替(2)
 41
0.7
 11
-144.85045069162939
 21
425.73597049981828
 31
0.0
 73
     3
  0
TEXT
  5
74
  8
SPEC
 62
     7
 10
-40.869329612918172
 20
419.98612325816811
 30
0.0
 40
5.7009440104166673
  1
Audio Channels、INT/EXT Mode
 41
0.7
 11
-40.869329612918172
 21
425.68706726858471
 31
0.0
 73
     3
  0
LINE
  5
75
  8
SPEC
  6
CONTINUOUS
 62
     7
 10
-43.750000000000021
 20
360.81729578973182
 30
0.0
 11
-43.750000000000021
 21
507.0672957897317
 31
0.0
  0
TEXT
  5
76
  8
DIMNSIONS
 62
     7
 10
40.0
 20
-206.12423421026821
 30
0.0
 40
7.3297851562499989
  1
(単位：mm)
 41
0.7
 11
40.0
 21
-198.79444905401809
 31
0.0
 73
     3
  0
LINE
  5
77
  8
DIMNSIONS
  6
CONTINUOUS
 62
     7
 10
-74.750000000000014
 20
-131.25
 30
0.0
 11
-93.499999999999986
 21
-131.25
 31
0.0
  0
LINE
  5
78
  8
DIMNSIONS
  6
CONTINUOUS
 62
     7
 10
-74.750000000000014
 20
-106.25
 30
0.0
 11
-93.499999999999986
 21
-106.25
 31
0.0
  0
LINE
  5
79
  8
DIMNSIONS
  6
CONTINUOUS
 62
     7
 10
-87.500000000000014
 20
-131.25
 30
0.0
 11
-87.500000000000014
 21
-106.25
 31
0.0
  0
LINE
  5
7A
  8
DIMNSIONS
  6
CONTINUOUS
 62
     7
 10
-87.500000000000014
 20
-131.25
 30
0.0
 11
-89.51011938545075
 21
-123.7481323242187
 31
0.0
  0
LINE
  5
7B
  8
DIMNSIONS
  6
CONTINUOUS
 62
     7
 10
-87.500000000000014
 20
-131.25
 30
0.0
 11
-85.489880614549264
 21
-123.7481323242187
 31
0.0
  0
LINE
  5
7C
  8
DIMNSIONS
  6
CONTINUOUS
 62
     7
 10
-87.500000000000014
 20
-106.25
 30
0.0
 11
-85.489880614549264
 21
-113.7518676757812
 31
0.0
  0
LINE
  5
7D
  8
DIMNSIONS
  6
CONTINUOUS
 62
     7
 10
-87.500000000000014
 20
-106.25
 30
0.0
 11
-89.51011938545075
 21
-113.7518676757812
 31
0.0
  0
TEXT
  5
7E
  8
DIMNSIONS
 62
     7
 10
-90.481666666666655
 20
-124.0416666666667
 30
0.0
 40
8.1442057291666661
  1
25
 50
90.0
 41
0.7
 11
-98.625872395833341
 21
-124.0416666666667
 31
0.0
 73
     3
  0
LINE
  5
7F
  8
DIMNSIONS
  6
CONTINUOUS
 62
     7
 10
-1.6250000000020319
 20
-51.198557158511512
 30
0.0
 11
12.5
 21
-75.663774815425398
 31
0.0
  0
LINE
  5
80
  8
DIMNSIONS
  6
CONTINUOUS
 62
     7
 10
-1.6250000000020319
 20
-51.198557158511512
 30
0.0
 11
3.96175609367809
 21
-56.593624805763419
 31
0.0
  0
LINE
  5
81
  8
DIMNSIONS
  6
CONTINUOUS
 62
     7
 10
-1.6250000000020319
 20
-51.198557158511512
 30
0.0
 11
0.5157388782465091
 21
-58.664200843007272
 31
0.0
  0
LINE
  5
82
  8
DIMNSIONS
  6
CONTINUOUS
 62
     7
 10
12.5
 20
-75.663774815425398
 30
0.0
 11
55.54166666666665
 21
-75.663774815425398
 31
0.0
  0
TEXT
  5
83
  8
DIMNSIONS
 62
     7
 10
18.5
 20
-72.682108148758743
 30
0.0
 40
8.1442057291666661
  1
6-\U+03C64.5
 41
0.7
 11
18.5
 21
-64.537902419592072
 31
0.0
 73
     3
  0
LINE
  5
84
  8
DIMNSIONS
  6
CONTINUOUS
 62
     7
 10
-68.750000000000014
 20
-137.25
 30
0.0
 11
-68.750000000000014
 21
-156.0
 31
0.0
  0
LINE
  5
85
  8
DIMNSIONS
  6
CONTINUOUS
 62
     7
 10
8.2499999999999876
 20
-137.25
 30
0.0
 11
8.2499999999999876
 21
-156.0
 31
0.0
  0
LINE
  5
86
  8
DIMNSIONS
  6
CONTINUOUS
 62
     7
 10
-68.750000000000014
 20
-150.0
 30
0.0
 11
8.2499999999999876
 21
-150.0
 31
0.0
  0
LINE
  5
87
  8
DIMNSIONS
  6
CONTINUOUS
 62
     7
 10
-68.750000000000014
 20
-150.0
 30
0.0
 11
-61.248132324218759
 21
-147.98988061454921
 31
0.0
  0
LINE
  5
88
  8
DIMNSIONS
  6
CONTINUOUS
 62
     7
 10
-68.750000000000014
 20
-150.0
 30
0.0
 11
-61.248132324218759
 21
-152.01011938545071
 31
0.0
  0
LINE
  5
89
  8
DIMNSIONS
  6
CONTINUOUS
 62
     7
 10
8.2499999999999876
 20
-150.0
 30
0.0
 11
0.7481323242187301
 21
-152.01011938545071
 31
0.0
  0
LINE
  5
8A
  8
DIMNSIONS
  6
CONTINUOUS
 62
     7
 10
8.2499999999999876
 20
-150.0
 30
0.0
 11
0.7481323242187301
 21
-147.98988061454921
 31
0.0
  0
TEXT
  5
8B
  8
DIMNSIONS
 62
     7
 10
-35.541666666666671
 20
-147.01833333333329
 30
0.0
 40
8.1442057291666661
  1
77
 41
0.7
 11
-35.541666666666671
 21
-138.87412760416669
 31
0.0
 73
     3
  0
LINE
  5
8C
  8
DIMNSIONS
  6
CONTINUOUS
 62
     7
 10
-71.824654454163763
 20
-56.25
 30
0.0
 11
-131.0
 21
-56.25
 31
0.0
  0
LINE
  5
8D
  8
DIMNSIONS
  6
CONTINUOUS
 62
     7
 10
-71.824654454163763
 20
171.75
 30
0.0
 11
-131.0
 21
171.75
 31
0.0
  0
LINE
  5
8E
  8
DIMNSIONS
  6
CONTINUOUS
 62
     7
 10
-125.0
 20
-56.25
 30
0.0
 11
-125.0
 21
171.75
 31
0.0
  0
LINE
  5
8F
  8
DIMNSIONS
  6
CONTINUOUS
 62
     7
 10
-125.0
 20
-56.25
 30
0.0
 11
-127.01011938545069
 21
-48.748132324218737
 31
0.0
  0
LINE
  5
90
  8
DIMNSIONS
  6
CONTINUOUS
 62
     7
 10
-125.0
 20
-56.25
 30
0.0
 11
-122.98988061454919
 21
-48.748132324218737
 31
0.0
  0
LINE
  5
91
  8
DIMNSIONS
  6
CONTINUOUS
 62
     7
 10
-125.0
 20
171.75
 30
0.0
 11
-122.98988061454919
 21
164.24813232421869
 31
0.0
  0
LINE
  5
92
  8
DIMNSIONS
  6
CONTINUOUS
 62
     7
 10
-125.0
 20
171.75
 30
0.0
 11
-127.01011938545069
 21
164.24813232421869
 31
0.0
  0
TEXT
  5
93
  8
DIMNSIONS
 62
     7
 10
-127.9816666666666
 20
49.8125
 30
0.0
 40
8.1442057291666661
  1
228
 50
90.0
 41
0.7
 11
-136.12587239583331
 21
49.8125
 31
0.0
 73
     3
  0
LINE
  5
94
  8
DIMNSIONS
  6
CONTINUOUS
 62
     7
 10
-74.750000000000014
 20
-42.25
 30
0.0
 11
-93.499999999999986
 21
-42.25
 31
0.0
  0
LINE
  5
95
  8
DIMNSIONS
  6
CONTINUOUS
 62
     7
 10
-74.750000000000014
 20
157.75
 30
0.0
 11
-93.499999999999986
 21
157.75
 31
0.0
  0
LINE
  5
96
  8
DIMNSIONS
  6
CONTINUOUS
 62
     7
 10
-87.500000000000014
 20
-42.25
 30
0.0
 11
-87.500000000000014
 21
157.75
 31
0.0
  0
LINE
  5
97
  8
DIMNSIONS
  6
CONTINUOUS
 62
     7
 10
-87.500000000000014
 20
-42.25
 30
0.0
 11
-89.51011938545075
 21
-34.748132324218751
 31
0.0
  0
LINE
  5
98
  8
DIMNSIONS
  6
CONTINUOUS
 62
     7
 10
-87.500000000000014
 20
-42.25
 30
0.0
 11
-85.489880614549264
 21
-34.748132324218751
 31
0.0
  0
LINE
  5
99
  8
DIMNSIONS
  6
CONTINUOUS
 62
     7
 10
-87.500000000000014
 20
157.75
 30
0.0
 11
-85.489880614549264
 21
150.24813232421869
 31
0.0
  0
LINE
  5
9A
  8
DIMNSIONS
  6
CONTINUOUS
 62
     7
 10
-87.500000000000014
 20
157.75
 30
0.0
 11
-89.51011938545075
 21
150.24813232421869
 31
0.0
  0
TEXT
  5
9B
  8
DIMNSIONS
 62
     7
 10
-90.481666666666655
 20
49.8125
 30
0.0
 40
8.1442057291666661
  1
200
 50
90.0
 41
0.7
 11
-98.625872395833341
 21
49.8125
 31
0.0
 73
     3
  0
LINE
  5
9C
  8
DIMNSIONS
  6
CONTINUOUS
 62
     7
 10
-60.250000000000021
 20
-49.25
 30
0.0
 11
-112.25
 21
-49.25
 31
0.0
  0
LINE
  5
9D
  8
DIMNSIONS
  6
CONTINUOUS
 62
     7
 10
-60.250000000000021
 20
164.75
 30
0.0
 11
-112.25
 21
164.75
 31
0.0
  0
LINE
  5
9E
  8
DIMNSIONS
  6
CONTINUOUS
 62
     7
 10
-106.25
 20
-49.25
 30
0.0
 11
-106.25
 21
164.75
 31
0.0
  0
LINE
  5
9F
  8
DIMNSIONS
  6
CONTINUOUS
 62
     7
 10
-106.25
 20
-49.25
 30
0.0
 11
-108.26011938545069
 21
-41.748132324218737
 31
0.0
  0
LINE
  5
A0
  8
DIMNSIONS
  6
CONTINUOUS
 62
     7
 10
-106.25
 20
-49.25
 30
0.0
 11
-104.23988061454919
 21
-41.748132324218737
 31
0.0
  0
LINE
  5
A1
  8
DIMNSIONS
  6
CONTINUOUS
 62
     7
 10
-106.25
 20
164.75
 30
0.0
 11
-104.23988061454919
 21
157.24813232421869
 31
0.0
  0
LINE
  5
A2
  8
DIMNSIONS
  6
CONTINUOUS
 62
     7
 10
-106.25
 20
164.75
 30
0.0
 11
-108.26011938545069
 21
157.24813232421869
 31
0.0
  0
TEXT
  5
A3
  8
DIMNSIONS
 62
     7
 10
-109.2316666666666
 20
49.8125
 30
0.0
 40
8.1442057291666661
  1
214
 50
90.0
 41
0.7
 11
-117.3758723958333
 21
49.8125
 31
0.0
 73
     3
  0
LINE
  5
A4
  8
DIMNSIONS
  6
CONTINUOUS
 62
     7
 10
-58.250000000000021
 20
-55.25
 30
0.0
 11
-58.250000000000021
 21
-81.0
 31
0.0
  0
LINE
  5
A5
  8
DIMNSIONS
  6
CONTINUOUS
 62
     7
 10
-30.250000000000011
 20
-55.25
 30
0.0
 11
-30.250000000000011
 21
-81.0
 31
0.0
  0
LINE
  5
A6
  8
DIMNSIONS
  6
CONTINUOUS
 62
     7
 10
-58.250000000000021
 20
-75.0
 30
0.0
 11
-30.250000000000011
 21
-75.0
 31
0.0
  0
LINE
  5
A7
  8
DIMNSIONS
  6
CONTINUOUS
 62
     7
 10
-58.250000000000021
 20
-75.0
 30
0.0
 11
-50.748132324218759
 21
-72.989880614549264
 31
0.0
  0
LINE
  5
A8
  8
DIMNSIONS
  6
CONTINUOUS
 62
     7
 10
-58.250000000000021
 20
-75.0
 30
0.0
 11
-50.748132324218759
 21
-77.010119385450736
 31
0.0
  0
LINE
  5
A9
  8
DIMNSIONS
  6
CONTINUOUS
 62
     7
 10
-30.250000000000011
 20
-75.0
 30
0.0
 11
-37.751867675781277
 21
-77.010119385450736
 31
0.0
  0
LINE
  5
AA
  8
DIMNSIONS
  6
CONTINUOUS
 62
     7
 10
-30.250000000000011
 20
-75.0
 30
0.0
 11
-37.751867675781277
 21
-72.989880614549264
 31
0.0
  0
TEXT
  5
AB
  8
DIMNSIONS
 62
     7
 10
-49.541666666666671
 20
-72.018333333333331
 30
0.0
 40
8.1442057291666661
  1
28
 41
0.7
 11
-49.541666666666671
 21
-63.874127604166652
 31
0.0
 73
     3
  0
LINE
  5
AC
  8
DIMNSIONS
  6
CONTINUOUS
 62
     7
 10
-30.250000000000011
 20
-55.25
 30
0.0
 11
-30.250000000000011
 21
-81.0
 31
0.0
  0
LINE
  5
AD
  8
DIMNSIONS
  6
CONTINUOUS
 62
     7
 10
-2.2500000000000142
 20
-55.25
 30
0.0
 11
-2.2500000000000142
 21
-81.0
 31
0.0
  0
LINE
  5
AE
  8
DIMNSIONS
  6
CONTINUOUS
 62
     7
 10
-30.250000000000011
 20
-75.0
 30
0.0
 11
-2.2500000000000142
 21
-75.0
 31
0.0
  0
LINE
  5
AF
  8
DIMNSIONS
  6
CONTINUOUS
 62
     7
 10
-30.250000000000011
 20
-75.0
 30
0.0
 11
-22.748132324218759
 21
-72.989880614549264
 31
0.0
  0
LINE
  5
B0
  8
DIMNSIONS
  6
CONTINUOUS
 62
     7
 10
-30.250000000000011
 20
-75.0
 30
0.0
 11
-22.748132324218759
 21
-77.010119385450736
 31
0.0
  0
LINE
  5
B1
  8
DIMNSIONS
  6
CONTINUOUS
 62
     7
 10
-2.2500000000000142
 20
-75.0
 30
0.0
 11
-9.7518676757812681
 21
-77.010119385450736
 31
0.0
  0
LINE
  5
B2
  8
DIMNSIONS
  6
CONTINUOUS
 62
     7
 10
-2.2500000000000142
 20
-75.0
 30
0.0
 11
-9.7518676757812681
 21
-72.989880614549264
 31
0.0
  0
TEXT
  5
B3
  8
DIMNSIONS
 62
     7
 10
-21.541666666666689
 20
-72.018333333333331
 30
0.0
 40
8.1442057291666661
  1
28
 41
0.7
 11
-21.541666666666689
 21
-63.874127604166652
 31
0.0
 73
     3
  0
LINE
  5
B4
  8
DIMNSIONS
  6
CONTINUOUS
 62
     7
 10
-72.534266212163871
 20
-106.25
 30
0.0
 11
-93.499999999999986
 21
-106.25
 31
0.0
  0
LINE
  5
B5
  8
DIMNSIONS
  6
CONTINUOUS
 62
     7
 10
-55.601396254261381
 20
-100.25
 30
0.0
 11
-93.499999999999986
 21
-100.25
 31
0.0
  0
LINE
  5
B6
  8
DIMNSIONS
  6
CONTINUOUS
 62
     7
 10
-87.500000000000014
 20
-100.25
 30
0.0
 11
-87.500000000000014
 21
-106.25
 31
0.0
  0
LINE
  5
B7
  8
DIMNSIONS
  6
CONTINUOUS
 62
     7
 10
-87.500000000000014
 20
-106.25
 30
0.0
 11
-87.500000000000014
 21
-121.25
 31
0.0
  0
LINE
  5
B8
  8
DIMNSIONS
  6
CONTINUOUS
 62
     7
 10
-87.500000000000014
 20
-106.25
 30
0.0
 11
-85.489880614549264
 21
-113.7518676757812
 31
0.0
  0
LINE
  5
B9
  8
DIMNSIONS
  6
CONTINUOUS
 62
     7
 10
-87.500000000000014
 20
-106.25
 30
0.0
 11
-89.51011938545075
 21
-113.7518676757812
 31
0.0
  0
LINE
  5
BA
  8
DIMNSIONS
  6
CONTINUOUS
 62
     7
 10
-87.500000000000014
 20
-100.25
 30
0.0
 11
-87.500000000000014
 21
-87.808333333333366
 31
0.0
  0
LINE
  5
BB
  8
DIMNSIONS
  6
CONTINUOUS
 62
     7
 10
-87.500000000000014
 20
-100.25
 30
0.0
 11
-89.51011938545075
 21
-92.74813232421873
 31
0.0
  0
LINE
  5
BC
  8
DIMNSIONS
  6
CONTINUOUS
 62
     7
 10
-87.500000000000014
 20
-100.25
 30
0.0
 11
-85.489880614549264
 21
-92.74813232421873
 31
0.0
  0
TEXT
  5
BD
  8
DIMNSIONS
 62
     7
 10
-90.481666666666683
 20
-93.099999999999994
 30
0.0
 40
8.1442057291666661
  1
6
 50
90.0
 41
0.7
 11
-98.625872395833355
 21
-93.099999999999994
 31
0.0
 73
     3
  0
TEXT
  5
BE
  8
DATA
 62
     7
 10
217.6944691745752
 20
-210.288246439261
 30
0.0
 40
7.3297851562499989
  1
GTB-HDFST-144-BLK/GTB-HDFST-144
 41
0.7
 11
217.6944691745752
 21
-202.95846128301099
 31
0.0
 73
     3
  0
TEXT
  5
BF
  8
DATA
 62
     7
 10
250.0
 20
-186.84767923627189
 30
0.0
 40
7.3297851562499989
  1
Gefen
 41
0.7
 11
250.0
 21
-179.5178940800219
 31
0.0
 73
     3
  0
TEXT
  5
C0
  8
DATA
 62
     7
 10
244.24030053283789
 20
-197.8206909928148
 30
0.0
 40
4.8865311328124994
  1
1:4HDMI1.3スプリッター
 41
0.7
 11
244.24030053283789
 21
-192.9341598600023
 31
0.0
 73
     3
  0
TEXT
  5
C1
  8
DATA
 62
     7
 10
-139.99999999999989
 20
-230.21870421026821
 30
0.0
 40
4.8865234374999993
  1
仕様および外観は予告なく変更されることがありますので、ご了承ください。
 41
0.7
 11
-139.99999999999989
 21
-225.3321807727682
 31
0.0
 73
     3
  0
LINE
  5
C2
  8
DATA
  6
CONTINUOUS
 62
     7
 10
62.5
 20
-131.25
 30
0.0
 11
290.5
 21
-131.25
 31
0.0
  0
LINE
  5
C3
  8
DATA
  6
CONTINUOUS
 62
     7
 10
-68.750000000000014
 20
-131.25
 30
0.0
 11
-68.750000000000014
 21
-108.25
 31
0.0
  0
LINE
  5
C4
  8
DATA
  6
CONTINUOUS
 62
     7
 10
8.2499999999999876
 20
-131.25
 30
0.0
 11
-68.750000000000014
 21
-131.25
 31
0.0
  0
LINE
  5
C5
  8
DATA
  6
CONTINUOUS
 62
     7
 10
8.2499999999999876
 20
-108.25
 30
0.0
 11
8.2499999999999876
 21
-131.25
 31
0.0
  0
LINE
  5
C6
  8
DATA
  6
CONTINUOUS
 62
     7
 10
-66.750000000000014
 20
-106.25
 30
0.0
 11
6.2499999999999849
 21
-106.25
 31
0.0
  0
LINE
  5
C7
  8
DATA
  6
CONTINUOUS
 62
     7
 10
-68.750000000000014
 20
-53.75
 30
0.0
 11
-68.750000000000014
 21
169.25
 31
0.0
  0
LINE
  5
C8
  8
DATA
  6
CONTINUOUS
 62
     7
 10
5.7499999999999849
 20
-56.25
 30
0.0
 11
-66.250000000000014
 21
-56.25
 31
0.0
  0
LINE
  5
C9
  8
DATA
  6
CONTINUOUS
 62
     7
 10
8.2499999999999876
 20
169.25
 30
0.0
 11
8.2499999999999876
 21
-53.75
 31
0.0
  0
LINE
  5
CA
  8
DATA
  6
CONTINUOUS
 62
     7
 10
-66.250000000000014
 20
171.75
 30
0.0
 11
5.7499999999999849
 21
171.75
 31
0.0
  0
LINE
  5
CB
  8
DATA
  6
CONTINUOUS
 62
     7
 10
8.2499999999999876
 20
-42.25
 30
0.0
 11
-68.750000000000014
 21
-42.25
 31
0.0
  0
LINE
  5
CC
  8
DATA
  6
CONTINUOUS
 62
     7
 10
-68.750000000000014
 20
157.75
 30
0.0
 11
8.2499999999999876
 21
157.75
 31
0.0
  0
CIRCLE
  5
CD
  8
DATA
  6
CONTINUOUS
 62
     7
 10
-30.250000000000011
 20
-49.25
 30
0.0
 40
2.25
  0
CIRCLE
  5
CE
  8
DATA
  6
CONTINUOUS
 62
     7
 10
-30.250000000000011
 20
-49.25
 30
0.0
 40
4.5
  0
CIRCLE
  5
CF
  8
DATA
  6
CONTINUOUS
 62
     7
 10
-30.250000000000011
 20
164.75
 30
0.0
 40
2.25
  0
CIRCLE
  5
D0
  8
DATA
  6
CONTINUOUS
 62
     7
 10
-30.250000000000011
 20
164.75
 30
0.0
 40
4.5
  0
LINE
  5
D1
  8
DATA
  6
CONTINUOUS
 62
     7
 10
8.2499999999999876
 20
-129.64999999999989
 30
0.0
 11
-68.750000000000014
 21
-129.64999999999989
 31
0.0
  0
ARC
  5
D2
  8
DATA
  6
CONTINUOUS
 62
     7
 10
-66.750000000000014
 20
-108.25
 30
0.0
 40
2.0
 50
90.0
 51
180.0
  0
ARC
  5
D3
  8
DATA
  6
CONTINUOUS
 62
     7
 10
6.2499999999999849
 20
-108.25
 30
0.0
 40
2.0
 50
0.0
 51
90.0
  0
TEXT
  5
D4
  8
DATA
 62
     7
 10
248.6639013587382
 20
-234.3060224457287
 30
0.0
 40
4.8865234374999993
  1
T.Ootake
 41
0.7
 11
248.6639013587382
 21
-229.41949900822871
 31
0.0
 73
     3
  0
LINE
  5
D5
  8
DATA
  6
CONTINUOUS
 62
     7
 10
-18.656585865309509
 20
-48.250000000163169
 30
0.0
 11
-10.8565858653095
 21
-48.250000000163169
 31
0.0
  0
LINE
  5
D6
  8
DATA
  6
CONTINUOUS
 62
     7
 10
-8.9830831734132488
 20
-43.750000000163169
 30
0.0
 11
-8.9830831734132488
 21
-42.250000000163183
 31
0.0
  0
LINE
  5
D7
  8
DATA
  6
CONTINUOUS
 62
     7
 10
-20.530088557205762
 20
-43.750000000163169
 30
0.0
 11
-20.530088557205762
 21
-42.250000000163183
 31
0.0
  0
LINE
  5
D8
  8
DATA
  6
CONTINUOUS
 62
     7
 10
-8.9830831734132488
 20
-43.750000000163169
 30
0.0
 11
-20.530088557205762
 21
-43.750000000163169
 31
0.0
  0
LINE
  5
D9
  8
DATA
  6
CONTINUOUS
 62
     7
 10
-10.8565858653095
 20
-48.250000000163169
 30
0.0
 11
-10.8565858653095
 21
-43.750000000163169
 31
0.0
  0
LINE
  5
DA
  8
DATA
  6
CONTINUOUS
 62
     7
 10
-18.656585865309509
 20
-48.250000000163169
 30
0.0
 11
-18.656585865309509
 21
-43.750000000163169
 31
0.0
  0
CIRCLE
  5
DB
  8
DATA
  6
CONTINUOUS
 62
     7
 10
-14.750000000000011
 20
-114.14999999999991
 30
0.0
 40
3.9000000000000048
  0
POLYLINE
  5
DC
  8
DATA
  6
CONTINUOUS
 62
     7
 66
     1
 10
0.0
 20
0.0
 30
0.0
 70
     1
  0
VERTEX
  5
32C
  8
DATA
  6
CONTINUOUS
 62
     7
 10
-17.636751345948142
 20
-109.14999999999991
 30
0.0
  0
VERTEX
  5
32D
  8
DATA
  6
CONTINUOUS
 62
     7
 10
-20.523502691896269
 20
-114.14999999999991
 30
0.0
  0
VERTEX
  5
32E
  8
DATA
  6
CONTINUOUS
 62
     7
 10
-17.636751345948142
 20
-119.15000000000001
 30
0.0
  0
VERTEX
  5
32F
  8
DATA
  6
CONTINUOUS
 62
     7
 10
-11.86324865405188
 20
-119.15000000000001
 30
0.0
  0
VERTEX
  5
330
  8
DATA
  6
CONTINUOUS
 62
     7
 10
-8.9764973081037578
 20
-114.14999999999991
 30
0.0
  0
VERTEX
  5
331
  8
DATA
  6
CONTINUOUS
 62
     7
 10
-11.86324865405188
 20
-109.14999999999991
 30
0.0
  0
SEQEND
  5
332
  8
DATA
  6
CONTINUOUS
 62
     7
  0
CIRCLE
  5
E5
  8
DATA
  6
CONTINUOUS
 62
     7
 10
-14.750000000000011
 20
-114.14999999999991
 30
0.0
 40
2.9000000000000048
  0
CIRCLE
  5
E6
  8
DATA
  6
CONTINUOUS
 62
     7
 10
-14.750000000000011
 20
-114.14999999999991
 30
0.0
 40
0.75
  0
TEXT
  5
E7
  8
DATA
 62
     7
 10
-18.858805580196432
 20
-40.893723313782978
 30
0.0
 40
2.4432617187500001
  1
5V DC
 41
0.7
 11
-18.858805580196432
 21
-38.450461595032976
 31
0.0
 73
     3
  0
ARC
  5
E8
  8
DATA
  6
CONTINUOUS
 62
     7
 10
5.7499999999999849
 20
169.25
 30
0.0
 40
2.5
 50
0.0
 51
90.0
  0
ARC
  5
E9
  8
DATA
  6
CONTINUOUS
 62
     7
 10
-66.250000000000014
 20
169.25
 30
0.0
 40
2.5
 50
90.0
 51
180.0
  0
ARC
  5
EA
  8
DATA
  6
CONTINUOUS
 62
     7
 10
-66.250000000000014
 20
-53.75
 30
0.0
 40
2.5
 50
180.0
 51
270.0
  0
ARC
  5
EB
  8
DATA
  6
CONTINUOUS
 62
     7
 10
5.7499999999999849
 20
-53.75
 30
0.0
 40
2.5
 50
270.0
 51
0.0
  0
TEXT
  5
EC
  8
DATA
 62
     7
 10
-61.449445298576961
 20
74.408014108546979
 30
0.0
 40
8.1442057291666661
  1
TOOL Box
 41
0.7
 11
-61.449445298576961
 21
82.55221983771365
 31
0.0
 73
     3
  0
TEXT
  5
ED
  8
DATA
 62
     7
 10
-45.287905358641837
 20
54.258229984059383
 30
0.0
 40
4.8865234374999993
  1
1：4 Splitter
 41
0.7
 11
-45.287905358641837
 21
59.144753421559379
 31
0.0
 73
     3
  0
TEXT
  5
EE
  8
DATA
 62
     7
 10
-37.389526793209242
 20
45.856361291479033
 30
0.0
 40
4.8865234374999993
  1
for 
 41
0.7
 11
-37.389526793209242
 21
50.742884728979043
 31
0.0
 73
     3
  0
TEXT
  5
EF
  8
DATA
 62
     7
 10
-24.537334533469689
 20
45.856361291479033
 30
0.0
 40
4.8865234374999993
  1
HDMI 
 41
0.7
 11
-24.537334533469689
 21
50.742884728979043
 31
0.0
 73
     3
  0
LINE
  5
F0
  8
DATA
  6
CONTINUOUS
 62
     7
 10
-68.750000000000014
 20
249.99999999983879
 30
0.0
 11
-68.750000000000014
 21
226.99999999983851
 31
0.0
  0
LINE
  5
F1
  8
DATA
  6
CONTINUOUS
 62
     7
 10
8.2499999999999876
 20
249.99999999983879
 30
0.0
 11
-68.750000000000014
 21
249.99999999983879
 31
0.0
  0
LINE
  5
F2
  8
DATA
  6
CONTINUOUS
 62
     7
 10
8.2499999999999876
 20
226.99999999983851
 30
0.0
 11
8.2499999999999876
 21
249.99999999983879
 31
0.0
  0
LINE
  5
F3
  8
DATA
  6
CONTINUOUS
 62
     7
 10
-66.750000000000014
 20
224.99999999983851
 30
0.0
 11
6.2499999999999849
 21
224.99999999983851
 31
0.0
  0
LINE
  5
F4
  8
DATA
  6
CONTINUOUS
 62
     7
 10
8.2499999999999876
 20
248.39999999983871
 30
0.0
 11
-68.750000000000014
 21
248.39999999983871
 31
0.0
  0
ARC
  5
F5
  8
DATA
  6
CONTINUOUS
 62
     7
 10
-66.750000000000014
 20
226.99999999983851
 30
0.0
 40
2.0
 50
180.0
 51
270.0
  0
ARC
  5
F6
  8
DATA
  6
CONTINUOUS
 62
     7
 10
6.2499999999999849
 20
226.99999999983851
 30
0.0
 40
2.0
 50
270.0
 51
0.0
  0
ARC
  5
F7
  8
DATA
  6
CONTINUOUS
 62
     7
 10
-3.75
 20
-106.1451734261381
 30
0.0
 40
1.399999999999991
 50
355.7058952698622
 51
184.2941047301376
  0
LINE
  5
F8
  8
DATA
  6
CONTINUOUS
 62
     7
 10
-33.601396254261388
 20
-100.25
 30
0.0
 11
-33.601396254261388
 21
-106.25
 31
0.0
  0
LINE
  5
F9
  8
DATA
  6
CONTINUOUS
 62
     7
 10
-28.024620896008958
 20
-100.25
 30
0.0
 11
-28.024620896008958
 21
-106.25
 31
0.0
  0
LINE
  5
FA
  8
DATA
  6
CONTINUOUS
 62
     7
 10
-49.538387679126082
 20
218.99999999983851
 30
0.0
 11
-49.538387679126082
 21
224.99999999983851
 31
0.0
  0
LINE
  5
FB
  8
DATA
  6
CONTINUOUS
 62
     7
 10
-43.961612320874004
 20
218.99999999983851
 30
0.0
 11
-43.961612320874004
 21
224.99999999983851
 31
0.0
  0
LINE
  5
FC
  8
DATA
  6
CONTINUOUS
 62
     7
 10
-17.538387679126021
 20
218.99999999983851
 30
0.0
 11
-17.538387679126021
 21
224.99999999983851
 31
0.0
  0
LINE
  5
FD
  8
DATA
  6
CONTINUOUS
 62
     7
 10
-11.96161232087395
 20
218.99999999983851
 30
0.0
 11
-11.96161232087395
 21
224.99999999983851
 31
0.0
  0
LINE
  5
FE
  8
DATA
  6
CONTINUOUS
 62
     7
 10
62.5
 20
-131.25
 30
0.0
 11
62.5
 21
-129.64999999999989
 31
0.0
  0
LINE
  5
FF
  8
DATA
  6
CONTINUOUS
 62
     7
 10
62.5
 20
-129.64999999999989
 30
0.0
 11
76.5
 21
-129.64999999999989
 31
0.0
  0
LINE
  5
100
  8
DATA
  6
CONTINUOUS
 62
     7
 10
76.5
 20
-106.25
 30
0.0
 11
276.5
 21
-106.25
 31
0.0
  0
LINE
  5
101
  8
DATA
  6
CONTINUOUS
 62
     7
 10
76.5
 20
-129.64999999999989
 30
0.0
 11
76.5
 21
-106.25
 31
0.0
  0
LINE
  5
102
  8
DATA
  6
CONTINUOUS
 62
     7
 10
78.09999999999998
 20
-131.25
 30
0.0
 11
78.09999999999998
 21
-106.25
 31
0.0
  0
CIRCLE
  5
103
  8
DATA
  6
CONTINUOUS
 62
     7
 10
118.03390138841699
 20
-124.25
 30
0.0
 40
2.7500000000000022
  0
LINE
  5
104
  8
DATA
  6
CONTINUOUS
 62
     7
 10
119.3339013884171
 20
-125.5500000000001
 30
0.0
 11
116.733901388417
 21
-122.9499999999999
 31
0.0
  0
LINE
  5
105
  8
DATA
  6
CONTINUOUS
 62
     7
 10
119.3339013884171
 20
-122.9499999999999
 30
0.0
 11
116.7339013884169
 21
-125.5500000000001
 31
0.0
  0
CIRCLE
  5
106
  8
DATA
  6
CONTINUOUS
 62
     7
 10
234.8434585378929
 20
-124.25
 30
0.0
 40
2.7500000000000022
  0
LINE
  5
107
  8
DATA
  6
CONTINUOUS
 62
     7
 10
233.54345853789289
 20
-125.5500000000001
 30
0.0
 11
236.14345853789291
 21
-122.9499999999999
 31
0.0
  0
LINE
  5
108
  8
DATA
  6
CONTINUOUS
 62
     7
 10
233.54345853789289
 20
-122.9499999999999
 30
0.0
 11
236.143458537893
 21
-125.5500000000001
 31
0.0
  0
LINE
  5
109
  8
DATA
  6
CONTINUOUS
 62
     7
 10
241.4274154733813
 20
-124.6500000000029
 30
0.0
 11
241.4274154733813
 21
-112.64999999999699
 31
0.0
  0
LINE
  5
10A
  8
DATA
  6
CONTINUOUS
 62
     7
 10
239.62741547338121
 20
-124.6500000000029
 30
0.0
 11
239.62741547338121
 21
-112.64999999999699
 31
0.0
  0
ARC
  5
10B
  8
DATA
  6
CONTINUOUS
 62
     7
 10
240.52741547338121
 20
-112.9417475435739
 30
0.0
 40
0.9461060348510196
 50
17.960824461479209
 51
162.03917553851969
  0
ARC
  5
10C
  8
DATA
  6
CONTINUOUS
 62
     7
 10
240.52741547338121
 20
-124.358252456426
 30
0.0
 40
0.9461060348509655
 50
197.9608244614802
 51
342.03917553852079
  0
LINE
  5
10D
  8
DATA
  6
CONTINUOUS
 62
     7
 10
110.6310095541365
 20
-124.6500000000029
 30
0.0
 11
110.6310095541365
 21
-112.64999999999699
 31
0.0
  0
LINE
  5
10E
  8
DATA
  6
CONTINUOUS
 62
     7
 10
112.43100955413659
 20
-124.6500000000029
 30
0.0
 11
112.43100955413659
 21
-112.64999999999699
 31
0.0
  0
ARC
  5
10F
  8
DATA
  6
CONTINUOUS
 62
     7
 10
111.5310095541366
 20
-112.9417475435739
 30
0.0
 40
0.9461060348509655
 50
17.960824461480279
 51
162.03917553852079
  0
ARC
  5
110
  8
DATA
  6
CONTINUOUS
 62
     7
 10
111.5310095541366
 20
-124.358252456426
 30
0.0
 40
0.9461060348510196
 50
197.96082446147909
 51
342.03917553851983
  0
LINE
  5
111
  8
DATA
  6
CONTINUOUS
 62
     7
 10
106.6310095541366
 20
-124.6500000000029
 30
0.0
 11
106.6310095541366
 21
-112.64999999999699
 31
0.0
  0
LINE
  5
112
  8
DATA
  6
CONTINUOUS
 62
     7
 10
108.43100955413659
 20
-124.6500000000029
 30
0.0
 11
108.43100955413659
 21
-112.64999999999699
 31
0.0
  0
ARC
  5
113
  8
DATA
  6
CONTINUOUS
 62
     7
 10
107.5310095541366
 20
-112.9417475435739
 30
0.0
 40
0.9461060348509688
 50
17.960824461480211
 51
162.03917553852091
  0
ARC
  5
114
  8
DATA
  6
CONTINUOUS
 62
     7
 10
107.5310095541366
 20
-124.358252456426
 30
0.0
 40
0.9461060348510249
 50
197.96082446147909
 51
342.03917553851983
  0
LINE
  5
115
  8
DATA
  6
CONTINUOUS
 62
     7
 10
102.6310095541365
 20
-124.6500000000029
 30
0.0
 11
102.6310095541365
 21
-112.64999999999699
 31
0.0
  0
LINE
  5
116
  8
DATA
  6
CONTINUOUS
 62
     7
 10
104.43100955413659
 20
-124.6500000000029
 30
0.0
 11
104.43100955413659
 21
-112.64999999999699
 31
0.0
  0
ARC
  5
117
  8
DATA
  6
CONTINUOUS
 62
     7
 10
103.5310095541365
 20
-112.9417475435739
 30
0.0
 40
0.946106034850964
 50
17.960824461480311
 51
162.03917553852071
  0
ARC
  5
118
  8
DATA
  6
CONTINUOUS
 62
     7
 10
103.5310095541365
 20
-124.358252456426
 30
0.0
 40
0.9461060348510171
 50
197.96082446147921
 51
342.03917553851971
  0
LINE
  5
119
  8
DATA
  6
CONTINUOUS
 62
     7
 10
98.631009554136554
 20
-124.6500000000029
 30
0.0
 11
98.631009554136554
 21
-112.64999999999699
 31
0.0
  0
LINE
  5
11A
  8
DATA
  6
CONTINUOUS
 62
     7
 10
100.43100955413649
 20
-124.6500000000029
 30
0.0
 11
100.43100955413649
 21
-112.64999999999699
 31
0.0
  0
ARC
  5
11B
  8
DATA
  6
CONTINUOUS
 62
     7
 10
99.531009554136602
 20
-112.9417475435739
 30
0.0
 40
0.946106034850966
 50
17.960824461480271
 51
162.03917553852079
  0
ARC
  5
11C
  8
DATA
  6
CONTINUOUS
 62
     7
 10
99.531009554136602
 20
-124.358252456426
 30
0.0
 40
0.9461060348510196
 50
197.96082446147909
 51
342.03917553851983
  0
LINE
  5
11D
  8
DATA
  6
CONTINUOUS
 62
     7
 10
94.631009554136554
 20
-124.6500000000029
 30
0.0
 11
94.631009554136554
 21
-112.64999999999699
 31
0.0
  0
LINE
  5
11E
  8
DATA
  6
CONTINUOUS
 62
     7
 10
96.431009554136565
 20
-124.6500000000029
 30
0.0
 11
96.431009554136565
 21
-112.64999999999699
 31
0.0
  0
ARC
  5
11F
  8
DATA
  6
CONTINUOUS
 62
     7
 10
95.531009554136588
 20
-112.9417475435739
 30
0.0
 40
0.9461060348509672
 50
17.960824461480239
 51
162.03917553852079
  0
ARC
  5
120
  8
DATA
  6
CONTINUOUS
 62
     7
 10
95.531009554136588
 20
-124.358252456426
 30
0.0
 40
0.9461060348510221
 50
197.96082446147909
 51
342.03917553851971
  0
LINE
  5
121
  8
DATA
  6
CONTINUOUS
 62
     7
 10
90.631009554136568
 20
-124.6500000000029
 30
0.0
 11
90.631009554136568
 21
-112.64999999999699
 31
0.0
  0
LINE
  5
122
  8
DATA
  6
CONTINUOUS
 62
     7
 10
92.431009554136565
 20
-124.6500000000029
 30
0.0
 11
92.431009554136565
 21
-112.64999999999699
 31
0.0
  0
ARC
  5
123
  8
DATA
  6
CONTINUOUS
 62
     7
 10
91.531009554136588
 20
-112.9417475435739
 30
0.0
 40
0.9461060348509619
 50
17.960824461480339
 51
162.0391755385206
  0
ARC
  5
124
  8
DATA
  6
CONTINUOUS
 62
     7
 10
91.531009554136588
 20
-124.358252456426
 30
0.0
 40
0.9461060348510144
 50
197.96082446147921
 51
342.03917553851971
  0
LINE
  5
125
  8
DATA
  6
CONTINUOUS
 62
     7
 10
86.631009554136597
 20
-124.6500000000029
 30
0.0
 11
86.631009554136597
 21
-112.64999999999699
 31
0.0
  0
LINE
  5
126
  8
DATA
  6
CONTINUOUS
 62
     7
 10
88.431009554136594
 20
-124.6500000000029
 30
0.0
 11
88.431009554136594
 21
-112.64999999999699
 31
0.0
  0
ARC
  5
127
  8
DATA
  6
CONTINUOUS
 62
     7
 10
87.531009554136602
 20
-112.9417475435739
 30
0.0
 40
0.9461060348509655
 50
17.960824461480279
 51
162.03917553852079
  0
ARC
  5
128
  8
DATA
  6
CONTINUOUS
 62
     7
 10
87.531009554136602
 20
-124.358252456426
 30
0.0
 40
0.9461060348510196
 50
197.96082446147909
 51
342.03917553851983
  0
LINE
  5
129
  8
DATA
  6
CONTINUOUS
 62
     7
 10
82.631009554136583
 20
-124.6500000000029
 30
0.0
 11
82.631009554136583
 21
-112.64999999999699
 31
0.0
  0
LINE
  5
12A
  8
DATA
  6
CONTINUOUS
 62
     7
 10
84.43100955413658
 20
-124.6500000000029
 30
0.0
 11
84.43100955413658
 21
-112.64999999999699
 31
0.0
  0
ARC
  5
12B
  8
DATA
  6
CONTINUOUS
 62
     7
 10
83.531009554136617
 20
-112.9417475435739
 30
0.0
 40
0.9461060348509655
 50
17.960824461480279
 51
162.03917553852079
  0
ARC
  5
12C
  8
DATA
  6
CONTINUOUS
 62
     7
 10
83.531009554136617
 20
-124.358252456426
 30
0.0
 40
0.9461060348510196
 50
197.96082446147909
 51
342.03917553851983
  0
LINE
  5
12D
  8
DATA
  6
CONTINUOUS
 62
     7
 10
110.4145347158445
 20
-106.25
 30
0.0
 11
110.4145347158445
 21
-100.25
 31
0.0
  0
LINE
  5
12E
  8
DATA
  6
CONTINUOUS
 62
     7
 10
115.9945347158444
 20
-100.25
 30
0.0
 11
115.9945347158444
 21
-106.25
 31
0.0
  0
LINE
  5
12F
  8
DATA
  6
CONTINUOUS
 62
     7
 10
110.4145347158445
 20
-100.25
 30
0.0
 11
115.9945347158444
 21
-100.25
 31
0.0
  0
ARC
  5
130
  8
DATA
  6
CONTINUOUS
 62
     7
 10
107.5159483270027
 20
-106.25
 30
0.0
 40
1.400000000000005
 50
0.0
 51
180.0
  0
LINE
  5
131
  8
DATA
  6
CONTINUOUS
 62
     7
 10
70.5
 20
-110.25
 30
0.0
 11
70.5
 21
-118.0500000000001
 31
0.0
  0
LINE
  5
132
  8
DATA
  6
CONTINUOUS
 62
     7
 10
75.000000000000028
 20
-119.9235026918963
 30
0.0
 11
76.500000000000028
 21
-119.9235026918963
 31
0.0
  0
LINE
  5
133
  8
DATA
  6
CONTINUOUS
 62
     7
 10
75.000000000000028
 20
-108.37649730810379
 30
0.0
 11
76.500000000000028
 21
-108.37649730810379
 31
0.0
  0
LINE
  5
134
  8
DATA
  6
CONTINUOUS
 62
     7
 10
75.000000000000028
 20
-119.9235026918963
 30
0.0
 11
75.000000000000028
 21
-108.37649730810379
 31
0.0
  0
LINE
  5
135
  8
DATA
  6
CONTINUOUS
 62
     7
 10
70.5
 20
-118.0500000000001
 30
0.0
 11
75.000000000000028
 21
-118.0500000000001
 31
0.0
  0
LINE
  5
136
  8
DATA
  6
CONTINUOUS
 62
     7
 10
70.5
 20
-110.25
 30
0.0
 11
75.000000000000028
 21
-110.25
 31
0.0
  0
LINE
  5
137
  8
DATA
  6
CONTINUOUS
 62
     7
 10
-61.250000000000021
 20
37.195614392178094
 30
0.0
 11
-61.250000000000021
 21
42.695614392178094
 31
0.0
  0
LINE
  5
138
  8
DATA
  6
CONTINUOUS
 62
     7
 10
-56.250000000000021
 20
37.195614392178094
 30
0.0
 11
-56.250000000000021
 21
42.695614392178094
 31
0.0
  0
LINE
  5
139
  8
DATA
  6
CONTINUOUS
 62
     7
 10
-61.250000000000021
 20
37.195614392178094
 30
0.0
 11
-56.250000000000021
 21
37.195614392178094
 31
0.0
  0
LINE
  5
13A
  8
DATA
  6
CONTINUOUS
 62
     7
 10
-61.250000000000021
 20
42.695614392178094
 30
0.0
 11
-56.250000000000021
 21
42.695614392178094
 31
0.0
  0
TEXT
  5
13B
  8
DATA
 62
     7
 10
-53.421087428753268
 20
41.199948582441763
 30
0.0
 40
2.198935546875
  1
Fast
 41
0.7
 11
-53.421087428753268
 21
43.398884129316762
 31
0.0
 73
     3
  0
TEXT
  5
13C
  8
DATA
 62
     7
 10
-53.421087428753268
 20
36.932458623271962
 30
0.0
 40
2.198935546875
  1
Slow
 41
0.7
 11
-53.421087428753268
 21
39.131394170146962
 31
0.0
 73
     3
  0
LINE
  5
13D
  8
DATA
  6
CONTINUOUS
 62
     7
 10
-60.750000000000021
 20
40.145614392178089
 30
0.0
 11
-60.750000000000021
 21
42.145614392178089
 31
0.0
  0
LINE
  5
13E
  8
DATA
  6
CONTINUOUS
 62
     7
 10
-56.750000000000021
 20
40.145614392178089
 30
0.0
 11
-60.750000000000021
 21
40.145614392178089
 31
0.0
  0
LINE
  5
13F
  8
DATA
  6
CONTINUOUS
 62
     7
 10
-56.750000000000021
 20
42.145614392178089
 30
0.0
 11
-56.750000000000021
 21
40.145614392178089
 31
0.0
  0
LINE
  5
140
  8
DATA
  6
CONTINUOUS
 62
     7
 10
-60.750000000000021
 20
42.145614392178089
 30
0.0
 11
-56.750000000000021
 21
42.145614392178089
 31
0.0
  0
POLYLINE
  5
141
  8
DATA
  6
CONTINUOUS
 62
     7
 66
     1
 10
0.0
 20
0.0
 30
0.0
 70
     1
  0
VERTEX
  5
333
  8
DATA
  6
CONTINUOUS
 62
     7
 10
-30.002853773193308
 20
-10.10851111203052
 30
0.0
  0
VERTEX
  5
334
  8
DATA
  6
CONTINUOUS
 62
     7
 10
-32.791241452319312
 20
-9.3613648852238214
 30
0.0
  0
VERTEX
  5
335
  8
DATA
  6
CONTINUOUS
 62
     7
 10
-33.538387679126018
 20
-6.5729772060978169
 30
0.0
  0
VERTEX
  5
336
  8
DATA
  6
CONTINUOUS
 62
     7
 10
-31.49714622680672
 20
-4.531735753778463
 30
0.0
  0
VERTEX
  5
337
  8
DATA
  6
CONTINUOUS
 62
     7
 10
-28.70875854768072
 20
-5.2788819805851679
 30
0.0
  0
VERTEX
  5
338
  8
DATA
  6
CONTINUOUS
 62
     7
 10
-27.96161232087395
 20
-8.0672696597112292
 30
0.0
  0
SEQEND
  5
339
  8
DATA
  6
CONTINUOUS
 62
     7
  0
CIRCLE
  5
14A
  8
DATA
  6
CONTINUOUS
 62
     7
 10
-30.750000000000011
 20
-7.3201234329044649
 30
0.0
 40
1.2750000000000341
  0
LINE
  5
14B
  8
DATA
  6
CONTINUOUS
 62
     7
 10
-38.59999999999998
 20
-14.382974101668699
 30
0.0
 11
-22.900000000000048
 21
-14.382974101668699
 31
0.0
  0
LINE
  5
14C
  8
DATA
  6
CONTINUOUS
 62
     7
 10
-38.59999999999998
 20
-14.382974101668699
 30
0.0
 11
-38.59999999999998
 21
-18.682974101668862
 31
0.0
  0
LINE
  5
14D
  8
DATA
  6
CONTINUOUS
 62
     7
 10
-22.900000000000048
 20
-14.382974101668699
 30
0.0
 11
-22.900000000000048
 21
-18.682974101668862
 31
0.0
  0
LINE
  5
14E
  8
DATA
  6
CONTINUOUS
 62
     7
 10
-38.59999999999998
 20
-18.682974101668862
 30
0.0
 11
-36.000000000000007
 21
-20.382974101668911
 31
0.0
  0
LINE
  5
14F
  8
DATA
  6
CONTINUOUS
 62
     7
 10
-22.900000000000048
 20
-18.682974101668862
 30
0.0
 11
-25.500000000000011
 21
-20.382974101668911
 31
0.0
  0
LINE
  5
150
  8
DATA
  6
CONTINUOUS
 62
     7
 10
-36.000000000000007
 20
-20.382974101668911
 30
0.0
 11
-25.500000000000011
 21
-20.382974101668911
 31
0.0
  0
POLYLINE
  5
151
  8
DATA
  6
CONTINUOUS
 62
     7
 66
     1
 10
0.0
 20
0.0
 30
0.0
 70
     1
  0
VERTEX
  5
33A
  8
DATA
  6
CONTINUOUS
 62
     7
 10
-35.750000000000007
 20
-16.669137276161589
 30
0.0
  0
VERTEX
  5
33B
  8
DATA
  6
CONTINUOUS
 62
     7
 10
-25.750000000000011
 20
-16.669137276161589
 30
0.0
  0
VERTEX
  5
33C
  8
DATA
  6
CONTINUOUS
 62
     7
 10
-25.750000000000011
 20
-17.169137276161589
 30
0.0
  0
VERTEX
  5
33D
  8
DATA
  6
CONTINUOUS
 62
     7
 10
-35.750000000000007
 20
-17.169137276161589
 30
0.0
  0
SEQEND
  5
33E
  8
DATA
  6
CONTINUOUS
 62
     7
  0
TEXT
  5
158
  8
DATA
 62
     7
 10
-32.640540105083282
 20
-27.317500892333388
 30
0.0
 40
3.2576822916666659
  1
In
 41
0.7
 11
-32.640540105083282
 21
-24.05981860066672
 31
0.0
 73
     3
  0
POLYLINE
  5
159
  8
DATA
  6
CONTINUOUS
 62
     7
 66
     1
 10
0.0
 20
0.0
 30
0.0
 70
     1
  0
VERTEX
  5
33F
  8
DATA
  6
CONTINUOUS
 62
     7
 10
-47.49714622680672
 20
144.92940647406979
 30
0.0
  0
VERTEX
  5
340
  8
DATA
  6
CONTINUOUS
 62
     7
 10
-44.708758547680723
 20
145.6765527008765
 30
0.0
  0
VERTEX
  5
341
  8
DATA
  6
CONTINUOUS
 62
     7
 10
-43.961612320874004
 20
148.4649403800025
 30
0.0
  0
VERTEX
  5
342
  8
DATA
  6
CONTINUOUS
 62
     7
 10
-46.002853773193287
 20
150.50618183232189
 30
0.0
  0
VERTEX
  5
343
  8
DATA
  6
CONTINUOUS
 62
     7
 10
-48.791241452319319
 20
149.75903560551521
 30
0.0
  0
VERTEX
  5
344
  8
DATA
  6
CONTINUOUS
 62
     7
 10
-49.538387679126082
 20
146.97064792638909
 30
0.0
  0
SEQEND
  5
345
  8
DATA
  6
CONTINUOUS
 62
     7
  0
CIRCLE
  5
162
  8
DATA
  6
CONTINUOUS
 62
     7
 10
-46.750000000000021
 20
147.71779415319591
 30
0.0
 40
1.2750000000000341
  0
LINE
  5
163
  8
DATA
  6
CONTINUOUS
 62
     7
 10
-38.900000000000048
 20
140.6549434844317
 30
0.0
 11
-54.59999999999998
 21
140.6549434844317
 31
0.0
  0
LINE
  5
164
  8
DATA
  6
CONTINUOUS
 62
     7
 10
-38.900000000000048
 20
140.6549434844317
 30
0.0
 11
-38.900000000000048
 21
136.35494348443149
 31
0.0
  0
LINE
  5
165
  8
DATA
  6
CONTINUOUS
 62
     7
 10
-54.59999999999998
 20
140.6549434844317
 30
0.0
 11
-54.59999999999998
 21
136.35494348443149
 31
0.0
  0
LINE
  5
166
  8
DATA
  6
CONTINUOUS
 62
     7
 10
-38.900000000000048
 20
136.35494348443149
 30
0.0
 11
-41.500000000000007
 21
134.65494348443141
 31
0.0
  0
LINE
  5
167
  8
DATA
  6
CONTINUOUS
 62
     7
 10
-54.59999999999998
 20
136.35494348443149
 30
0.0
 11
-52.000000000000021
 21
134.65494348443141
 31
0.0
  0
LINE
  5
168
  8
DATA
  6
CONTINUOUS
 62
     7
 10
-41.500000000000007
 20
134.65494348443141
 30
0.0
 11
-52.000000000000021
 21
134.65494348443141
 31
0.0
  0
POLYLINE
  5
169
  8
DATA
  6
CONTINUOUS
 62
     7
 66
     1
 10
0.0
 20
0.0
 30
0.0
 70
     1
  0
VERTEX
  5
346
  8
DATA
  6
CONTINUOUS
 62
     7
 10
-51.750000000000021
 20
138.3687803099387
 30
0.0
  0
VERTEX
  5
347
  8
DATA
  6
CONTINUOUS
 62
     7
 10
-41.750000000000007
 20
138.3687803099387
 30
0.0
  0
VERTEX
  5
348
  8
DATA
  6
CONTINUOUS
 62
     7
 10
-41.750000000000007
 20
137.86878030993881
 30
0.0
  0
VERTEX
  5
349
  8
DATA
  6
CONTINUOUS
 62
     7
 10
-51.750000000000021
 20
137.86878030993881
 30
0.0
  0
SEQEND
  5
34A
  8
DATA
  6
CONTINUOUS
 62
     7
  0
POLYLINE
  5
170
  8
DATA
  6
CONTINUOUS
 62
     7
 66
     1
 10
0.0
 20
0.0
 30
0.0
 70
     1
  0
VERTEX
  5
34B
  8
DATA
  6
CONTINUOUS
 62
     7
 10
-14.0028537731933
 20
144.92940647406979
 30
0.0
  0
VERTEX
  5
34C
  8
DATA
  6
CONTINUOUS
 62
     7
 10
-16.791241452319309
 20
145.6765527008765
 30
0.0
  0
VERTEX
  5
34D
  8
DATA
  6
CONTINUOUS
 62
     7
 10
-17.538387679126021
 20
148.4649403800025
 30
0.0
  0
VERTEX
  5
34E
  8
DATA
  6
CONTINUOUS
 62
     7
 10
-15.49714622680672
 20
150.50618183232189
 30
0.0
  0
VERTEX
  5
34F
  8
DATA
  6
CONTINUOUS
 62
     7
 10
-12.708758547680709
 20
149.75903560551521
 30
0.0
  0
VERTEX
  5
350
  8
DATA
  6
CONTINUOUS
 62
     7
 10
-11.96161232087395
 20
146.97064792638909
 30
0.0
  0
SEQEND
  5
351
  8
DATA
  6
CONTINUOUS
 62
     7
  0
CIRCLE
  5
179
  8
DATA
  6
CONTINUOUS
 62
     7
 10
-14.750000000000011
 20
147.71779415319591
 30
0.0
 40
1.2750000000000341
  0
LINE
  5
17A
  8
DATA
  6
CONTINUOUS
 62
     7
 10
-22.59999999999998
 20
140.6549434844317
 30
0.0
 11
-6.9000000000000483
 21
140.6549434844317
 31
0.0
  0
LINE
  5
17B
  8
DATA
  6
CONTINUOUS
 62
     7
 10
-22.59999999999998
 20
140.6549434844317
 30
0.0
 11
-22.59999999999998
 21
136.35494348443149
 31
0.0
  0
LINE
  5
17C
  8
DATA
  6
CONTINUOUS
 62
     7
 10
-6.9000000000000483
 20
140.6549434844317
 30
0.0
 11
-6.9000000000000483
 21
136.35494348443149
 31
0.0
  0
LINE
  5
17D
  8
DATA
  6
CONTINUOUS
 62
     7
 10
-22.59999999999998
 20
136.35494348443149
 30
0.0
 11
-20.000000000000011
 21
134.65494348443141
 31
0.0
  0
LINE
  5
17E
  8
DATA
  6
CONTINUOUS
 62
     7
 10
-6.9000000000000483
 20
136.35494348443149
 30
0.0
 11
-9.5000000000000142
 21
134.65494348443141
 31
0.0
  0
LINE
  5
17F
  8
DATA
  6
CONTINUOUS
 62
     7
 10
-20.000000000000011
 20
134.65494348443141
 30
0.0
 11
-9.5000000000000142
 21
134.65494348443141
 31
0.0
  0
POLYLINE
  5
180
  8
DATA
  6
CONTINUOUS
 62
     7
 66
     1
 10
0.0
 20
0.0
 30
0.0
 70
     1
  0
VERTEX
  5
352
  8
DATA
  6
CONTINUOUS
 62
     7
 10
-19.750000000000011
 20
138.3687803099387
 30
0.0
  0
VERTEX
  5
353
  8
DATA
  6
CONTINUOUS
 62
     7
 10
-9.7500000000000142
 20
138.3687803099387
 30
0.0
  0
VERTEX
  5
354
  8
DATA
  6
CONTINUOUS
 62
     7
 10
-9.7500000000000142
 20
137.86878030993881
 30
0.0
  0
VERTEX
  5
355
  8
DATA
  6
CONTINUOUS
 62
     7
 10
-19.750000000000011
 20
137.86878030993881
 30
0.0
  0
SEQEND
  5
356
  8
DATA
  6
CONTINUOUS
 62
     7
  0
TEXT
  5
187
  8
DATA
 62
     7
 10
-61.806328932774584
 20
136.4323418619141
 30
0.0
 40
3.2576822916666659
  1
1
 41
0.7
 11
-61.806328932774584
 21
139.69002415358079
 31
0.0
 73
     3
  0
TEXT
  5
188
  8
DATA
 62
     7
 10
-0.8400457563023879
 20
136.4323418619141
 30
0.0
 40
3.2576822916666659
  1
3
 41
0.7
 11
-0.8400457563023877
 21
139.69002415358079
 31
0.0
 73
     3
  0
POLYLINE
  5
189
  8
DATA
  6
CONTINUOUS
 62
     7
 66
     1
 10
0.0
 20
0.0
 30
0.0
 70
     1
  0
VERTEX
  5
357
  8
DATA
  6
CONTINUOUS
 62
     7
 10
-47.49714622680672
 20
124.92940647406979
 30
0.0
  0
VERTEX
  5
358
  8
DATA
  6
CONTINUOUS
 62
     7
 10
-44.708758547680723
 20
125.6765527008765
 30
0.0
  0
VERTEX
  5
359
  8
DATA
  6
CONTINUOUS
 62
     7
 10
-43.961612320874004
 20
128.4649403800025
 30
0.0
  0
VERTEX
  5
35A
  8
DATA
  6
CONTINUOUS
 62
     7
 10
-46.002853773193287
 20
130.50618183232189
 30
0.0
  0
VERTEX
  5
35B
  8
DATA
  6
CONTINUOUS
 62
     7
 10
-48.791241452319319
 20
129.75903560551521
 30
0.0
  0
VERTEX
  5
35C
  8
DATA
  6
CONTINUOUS
 62
     7
 10
-49.538387679126082
 20
126.97064792638911
 30
0.0
  0
SEQEND
  5
35D
  8
DATA
  6
CONTINUOUS
 62
     7
  0
CIRCLE
  5
192
  8
DATA
  6
CONTINUOUS
 62
     7
 10
-46.750000000000021
 20
127.7177941531959
 30
0.0
 40
1.2750000000000341
  0
LINE
  5
193
  8
DATA
  6
CONTINUOUS
 62
     7
 10
-38.900000000000048
 20
120.6549434844317
 30
0.0
 11
-54.59999999999998
 21
120.6549434844317
 31
0.0
  0
LINE
  5
194
  8
DATA
  6
CONTINUOUS
 62
     7
 10
-38.900000000000048
 20
120.6549434844317
 30
0.0
 11
-38.900000000000048
 21
116.3549434844315
 31
0.0
  0
LINE
  5
195
  8
DATA
  6
CONTINUOUS
 62
     7
 10
-54.59999999999998
 20
120.6549434844317
 30
0.0
 11
-54.59999999999998
 21
116.3549434844315
 31
0.0
  0
LINE
  5
196
  8
DATA
  6
CONTINUOUS
 62
     7
 10
-38.900000000000048
 20
116.3549434844315
 30
0.0
 11
-41.500000000000007
 21
114.6549434844315
 31
0.0
  0
LINE
  5
197
  8
DATA
  6
CONTINUOUS
 62
     7
 10
-54.59999999999998
 20
116.3549434844315
 30
0.0
 11
-52.000000000000021
 21
114.6549434844315
 31
0.0
  0
LINE
  5
198
  8
DATA
  6
CONTINUOUS
 62
     7
 10
-41.500000000000007
 20
114.6549434844315
 30
0.0
 11
-52.000000000000021
 21
114.6549434844315
 31
0.0
  0
POLYLINE
  5
199
  8
DATA
  6
CONTINUOUS
 62
     7
 66
     1
 10
0.0
 20
0.0
 30
0.0
 70
     1
  0
VERTEX
  5
35E
  8
DATA
  6
CONTINUOUS
 62
     7
 10
-51.750000000000021
 20
118.3687803099388
 30
0.0
  0
VERTEX
  5
35F
  8
DATA
  6
CONTINUOUS
 62
     7
 10
-41.750000000000007
 20
118.3687803099388
 30
0.0
  0
VERTEX
  5
360
  8
DATA
  6
CONTINUOUS
 62
     7
 10
-41.750000000000007
 20
117.8687803099387
 30
0.0
  0
VERTEX
  5
361
  8
DATA
  6
CONTINUOUS
 62
     7
 10
-51.750000000000021
 20
117.8687803099387
 30
0.0
  0
SEQEND
  5
362
  8
DATA
  6
CONTINUOUS
 62
     7
  0
POLYLINE
  5
1A0
  8
DATA
  6
CONTINUOUS
 62
     7
 66
     1
 10
0.0
 20
0.0
 30
0.0
 70
     1
  0
VERTEX
  5
363
  8
DATA
  6
CONTINUOUS
 62
     7
 10
-14.0028537731933
 20
124.92940647406979
 30
0.0
  0
VERTEX
  5
364
  8
DATA
  6
CONTINUOUS
 62
     7
 10
-16.791241452319309
 20
125.6765527008765
 30
0.0
  0
VERTEX
  5
365
  8
DATA
  6
CONTINUOUS
 62
     7
 10
-17.538387679126021
 20
128.4649403800025
 30
0.0
  0
VERTEX
  5
366
  8
DATA
  6
CONTINUOUS
 62
     7
 10
-15.49714622680672
 20
130.50618183232189
 30
0.0
  0
VERTEX
  5
367
  8
DATA
  6
CONTINUOUS
 62
     7
 10
-12.708758547680709
 20
129.75903560551521
 30
0.0
  0
VERTEX
  5
368
  8
DATA
  6
CONTINUOUS
 62
     7
 10
-11.96161232087395
 20
126.97064792638911
 30
0.0
  0
SEQEND
  5
369
  8
DATA
  6
CONTINUOUS
 62
     7
  0
CIRCLE
  5
1A9
  8
DATA
  6
CONTINUOUS
 62
     7
 10
-14.750000000000011
 20
127.7177941531959
 30
0.0
 40
1.2750000000000341
  0
LINE
  5
1AA
  8
DATA
  6
CONTINUOUS
 62
     7
 10
-22.59999999999998
 20
120.6549434844317
 30
0.0
 11
-6.9000000000000483
 21
120.6549434844317
 31
0.0
  0
LINE
  5
1AB
  8
DATA
  6
CONTINUOUS
 62
     7
 10
-22.59999999999998
 20
120.6549434844317
 30
0.0
 11
-22.59999999999998
 21
116.3549434844315
 31
0.0
  0
LINE
  5
1AC
  8
DATA
  6
CONTINUOUS
 62
     7
 10
-6.9000000000000483
 20
120.6549434844317
 30
0.0
 11
-6.9000000000000483
 21
116.3549434844315
 31
0.0
  0
LINE
  5
1AD
  8
DATA
  6
CONTINUOUS
 62
     7
 10
-22.59999999999998
 20
116.3549434844315
 30
0.0
 11
-20.000000000000011
 21
114.6549434844315
 31
0.0
  0
LINE
  5
1AE
  8
DATA
  6
CONTINUOUS
 62
     7
 10
-6.9000000000000483
 20
116.3549434844315
 30
0.0
 11
-9.5000000000000142
 21
114.6549434844315
 31
0.0
  0
LINE
  5
1AF
  8
DATA
  6
CONTINUOUS
 62
     7
 10
-20.000000000000011
 20
114.6549434844315
 30
0.0
 11
-9.5000000000000142
 21
114.6549434844315
 31
0.0
  0
POLYLINE
  5
1B0
  8
DATA
  6
CONTINUOUS
 62
     7
 66
     1
 10
0.0
 20
0.0
 30
0.0
 70
     1
  0
VERTEX
  5
36A
  8
DATA
  6
CONTINUOUS
 62
     7
 10
-19.750000000000011
 20
118.3687803099388
 30
0.0
  0
VERTEX
  5
36B
  8
DATA
  6
CONTINUOUS
 62
     7
 10
-9.7500000000000142
 20
118.3687803099388
 30
0.0
  0
VERTEX
  5
36C
  8
DATA
  6
CONTINUOUS
 62
     7
 10
-9.7500000000000142
 20
117.8687803099387
 30
0.0
  0
VERTEX
  5
36D
  8
DATA
  6
CONTINUOUS
 62
     7
 10
-19.750000000000011
 20
117.8687803099387
 30
0.0
  0
SEQEND
  5
36E
  8
DATA
  6
CONTINUOUS
 62
     7
  0
TEXT
  5
1B7
  8
DATA
 62
     7
 10
-61.806328932774584
 20
116.4323418619142
 30
0.0
 40
3.2576822916666659
  1
2
 41
0.7
 11
-61.806328932774584
 21
119.69002415358079
 31
0.0
 73
     3
  0
TEXT
  5
1B8
  8
DATA
 62
     7
 10
-0.8400457563023879
 20
116.4323418619142
 30
0.0
 40
3.2576822916666659
  1
4
 41
0.7
 11
-0.8400457563023877
 21
119.69002415358079
 31
0.0
 73
     3
  0
TEXT
  5
1B9
  8
DATA
 62
     7
 10
-34.13513367310712
 20
107.03184751846619
 30
0.0
 40
3.2576822916666659
  1
Out
 41
0.7
 11
-34.13513367310712
 21
110.28952981013281
 31
0.0
 73
     3
  0
LINE
  5
1BA
  8
DATA
  6
CONTINUOUS
 62
     7
 10
-61.26901770820659
 20
-106.25
 30
0.0
 11
-61.26901770820659
 21
-104.25
 31
0.0
  0
LINE
  5
1BB
  8
DATA
  6
CONTINUOUS
 62
     7
 10
-57.269017708206597
 20
-104.25
 30
0.0
 11
-57.269017708206597
 21
-106.25
 31
0.0
  0
LINE
  5
1BC
  8
DATA
  6
CONTINUOUS
 62
     7
 10
-61.26901770820659
 20
-104.25
 30
0.0
 11
-57.269017708206597
 21
-104.25
 31
0.0
  0
LINE
  5
1BD
  8
DATA
  6
CONTINUOUS
 62
     7
 10
263.60497179256998
 20
-106.25
 30
0.0
 11
263.60497179256998
 21
-100.25
 31
0.0
  0
LINE
  5
1BE
  8
DATA
  6
CONTINUOUS
 62
     7
 10
269.18497179256991
 20
-100.25
 30
0.0
 11
269.18497179256991
 21
-106.25
 31
0.0
  0
LINE
  5
1BF
  8
DATA
  6
CONTINUOUS
 62
     7
 10
263.60497179256998
 20
-100.25
 30
0.0
 11
269.18497179256991
 21
-100.25
 31
0.0
  0
LINE
  5
1C0
  8
DATA
  6
CONTINUOUS
 62
     7
 10
243.6049717925699
 20
-106.25
 30
0.0
 11
243.6049717925699
 21
-100.25
 31
0.0
  0
LINE
  5
1C1
  8
DATA
  6
CONTINUOUS
 62
     7
 10
249.18497179256991
 20
-100.25
 30
0.0
 11
249.18497179256991
 21
-106.25
 31
0.0
  0
LINE
  5
1C2
  8
DATA
  6
CONTINUOUS
 62
     7
 10
243.6049717925699
 20
-100.25
 30
0.0
 11
249.18497179256991
 21
-100.25
 31
0.0
  0
LINE
  5
1C3
  8
DATA
  6
CONTINUOUS
 62
     7
 10
116.05936520019939
 20
-106.25
 30
0.0
 11
116.05936520019939
 21
-104.25
 31
0.0
  0
LINE
  5
1C4
  8
DATA
  6
CONTINUOUS
 62
     7
 10
118.05936520019939
 20
-104.25
 30
0.0
 11
118.05936520019939
 21
-106.25
 31
0.0
  0
LINE
  5
1C5
  8
DATA
  6
CONTINUOUS
 62
     7
 10
116.05936520019939
 20
-104.25
 30
0.0
 11
118.05936520019939
 21
-104.25
 31
0.0
  0
CIRCLE
  5
1C6
  8
DATA
  6
CONTINUOUS
 62
     7
 10
-58.250000000000021
 20
164.75
 30
0.0
 40
2.25
  0
CIRCLE
  5
1C7
  8
DATA
  6
CONTINUOUS
 62
     7
 10
-58.250000000000021
 20
164.75
 30
0.0
 40
4.5
  0
CIRCLE
  5
1C8
  8
DATA
  6
CONTINUOUS
 62
     7
 10
-2.2500000000000142
 20
164.75
 30
0.0
 40
2.25
  0
CIRCLE
  5
1C9
  8
DATA
  6
CONTINUOUS
 62
     7
 10
-2.2500000000000142
 20
164.75
 30
0.0
 40
4.5
  0
CIRCLE
  5
1CA
  8
DATA
  6
CONTINUOUS
 62
     7
 10
-2.2500000000000142
 20
-49.25
 30
0.0
 40
2.25
  0
CIRCLE
  5
1CB
  8
DATA
  6
CONTINUOUS
 62
     7
 10
-2.2500000000000142
 20
-49.25
 30
0.0
 40
4.5
  0
CIRCLE
  5
1CC
  8
DATA
  6
CONTINUOUS
 62
     7
 10
-58.250000000000021
 20
-49.25
 30
0.0
 40
2.25
  0
CIRCLE
  5
1CD
  8
DATA
  6
CONTINUOUS
 62
     7
 10
-58.250000000000021
 20
-49.25
 30
0.0
 40
4.5
  0
LINE
  5
1CE
  8
DATA
  6
CONTINUOUS
 62
     7
 10
-61.250000000000021
 20
17.195614392178101
 30
0.0
 11
-61.250000000000021
 21
22.695614392178101
 31
0.0
  0
LINE
  5
1CF
  8
DATA
  6
CONTINUOUS
 62
     7
 10
-56.250000000000021
 20
17.195614392178101
 30
0.0
 11
-56.250000000000021
 21
22.695614392178101
 31
0.0
  0
LINE
  5
1D0
  8
DATA
  6
CONTINUOUS
 62
     7
 10
-61.250000000000021
 20
17.195614392178101
 30
0.0
 11
-56.250000000000021
 21
17.195614392178101
 31
0.0
  0
LINE
  5
1D1
  8
DATA
  6
CONTINUOUS
 62
     7
 10
-61.250000000000021
 20
22.695614392178101
 30
0.0
 11
-56.250000000000021
 21
22.695614392178101
 31
0.0
  0
TEXT
  5
1D2
  8
DATA
 62
     7
 10
-53.421087428753268
 20
21.199948582441738
 30
0.0
 40
2.198935546875
  1
2CH
 41
0.7
 11
-53.421087428753268
 21
23.398884129316741
 31
0.0
 73
     3
  0
TEXT
  5
1D3
  8
DATA
 62
     7
 10
-53.421087428753268
 20
16.932458623271959
 30
0.0
 40
2.198935546875
  1
Multi CH
 41
0.7
 11
-53.421087428753268
 21
19.131394170146962
 31
0.0
 73
     3
  0
LINE
  5
1D4
  8
DATA
  6
CONTINUOUS
 62
     7
 10
-60.750000000000021
 20
20.145614392178089
 30
0.0
 11
-60.750000000000021
 21
22.145614392178089
 31
0.0
  0
LINE
  5
1D5
  8
DATA
  6
CONTINUOUS
 62
     7
 10
-56.750000000000021
 20
20.145614392178089
 30
0.0
 11
-60.750000000000021
 21
20.145614392178089
 31
0.0
  0
LINE
  5
1D6
  8
DATA
  6
CONTINUOUS
 62
     7
 10
-56.750000000000021
 20
22.145614392178089
 30
0.0
 11
-56.750000000000021
 21
20.145614392178089
 31
0.0
  0
LINE
  5
1D7
  8
DATA
  6
CONTINUOUS
 62
     7
 10
-60.750000000000021
 20
22.145614392178089
 30
0.0
 11
-56.750000000000021
 21
22.145614392178089
 31
0.0
  0
LINE
  5
1D8
  8
DATA
  6
CONTINUOUS
 62
     7
 10
-61.250000000000021
 20
-2.8043856078218989
 30
0.0
 11
-61.250000000000021
 21
2.6956143921781002
 31
0.0
  0
LINE
  5
1D9
  8
DATA
  6
CONTINUOUS
 62
     7
 10
-56.250000000000021
 20
-2.8043856078218989
 30
0.0
 11
-56.250000000000021
 21
2.6956143921781002
 31
0.0
  0
LINE
  5
1DA
  8
DATA
  6
CONTINUOUS
 62
     7
 10
-61.250000000000021
 20
-2.8043856078218989
 30
0.0
 11
-56.250000000000021
 21
-2.8043856078218989
 31
0.0
  0
LINE
  5
1DB
  8
DATA
  6
CONTINUOUS
 62
     7
 10
-61.250000000000021
 20
2.6956143921781002
 30
0.0
 11
-56.250000000000021
 21
2.6956143921781002
 31
0.0
  0
TEXT
  5
1DC
  8
DATA
 62
     7
 10
-53.421087428753268
 20
1.19994858244174
 30
0.0
 40
2.198935546875
  1
Int
 41
0.7
 11
-53.421087428753268
 21
3.3988841293167402
 31
0.0
 73
     3
  0
TEXT
  5
1DD
  8
DATA
 62
     7
 10
-53.421087428753268
 20
-3.9115155214379129
 30
0.0
 40
2.198935546875
  1
Ext
 41
0.7
 11
-53.421087428753268
 21
-1.7125799745629131
 31
0.0
 73
     3
  0
LINE
  5
1DE
  8
DATA
  6
CONTINUOUS
 62
     7
 10
-60.750000000000021
 20
0.1456143921780893
 30
0.0
 11
-60.750000000000021
 21
2.1456143921780879
 31
0.0
  0
LINE
  5
1DF
  8
DATA
  6
CONTINUOUS
 62
     7
 10
-56.750000000000021
 20
0.1456143921780893
 30
0.0
 11
-60.750000000000021
 21
0.1456143921780893
 31
0.0
  0
LINE
  5
1E0
  8
DATA
  6
CONTINUOUS
 62
     7
 10
-56.750000000000021
 20
2.1456143921780879
 30
0.0
 11
-56.750000000000021
 21
0.1456143921780893
 31
0.0
  0
LINE
  5
1E1
  8
DATA
  6
CONTINUOUS
 62
     7
 10
-60.750000000000021
 20
2.1456143921780879
 30
0.0
 11
-56.750000000000021
 21
2.1456143921780879
 31
0.0
  0
TEXT
  5
1E2
  8
DATA
 62
     7
 10
-62.112433378378171
 20
12.487961381175211
 30
0.0
 40
2.198935546875
  1
Audio
 41
0.7
 11
-62.112433378378171
 21
14.68689692805021
 31
0.0
 73
     3
  0
TEXT
  5
1E3
  8
DATA
 62
     7
 10
-62.248354475299017
 20
-7.3943740663546649
 30
0.0
 40
2.198935546875
  1
EDID
 41
0.7
 11
-62.248354475299017
 21
-5.1954385194796648
 31
0.0
 73
     3
  0
CIRCLE
  5
1E4
  8
DATA
  6
CONTINUOUS
 62
     7
 10
-1.750000000000014
 20
-11.25
 30
0.0
 40
1.5
  0
TEXT
  5
1E5
  8
DATA
 62
     7
 10
-5.7812034216656221
 20
-17.384087050894951
 30
0.0
 40
2.4432617187500001
  1
Power
 41
0.7
 11
-5.7812034216656221
 21
-14.94082533214495
 31
0.0
 73
     3
  0
TEXT
  5
1E6
  8
DATA
 62
     7
 10
-47.118512423335019
 20
-40.893723313782978
 30
0.0
 40
2.4432617187500001
  1
USB
 41
0.7
 11
-47.118512423335019
 21
-38.450461595032976
 31
0.0
 73
     3
  0
LINE
  5
1E7
  8
DATA
  6
CONTINUOUS
 62
     7
 10
-48.050815987153072
 20
-117.9882400683629
 30
0.0
 11
-48.672244558581603
 21
-115.0882400683634
 31
0.0
  0
LINE
  5
1E8
  8
DATA
  6
CONTINUOUS
 62
     7
 10
-41.449184012846999
 20
-117.9882400683629
 30
0.0
 11
-40.827755441418418
 21
-115.0882400683634
 31
0.0
  0
LINE
  5
1E9
  8
DATA
  6
CONTINUOUS
 62
     7
 10
-41.121096165641639
 20
-114.7253813417441
 30
0.0
 11
-48.37890383435839
 21
-114.7253813417441
 31
0.0
  0
LINE
  5
1EA
  8
DATA
  6
CONTINUOUS
 62
     7
 10
-41.742524737070212
 20
-118.2253813417436
 30
0.0
 11
-47.757475262929837
 21
-118.2253813417436
 31
0.0
  0
LINE
  5
1EB
  8
DATA
  6
CONTINUOUS
 62
     7
 10
-33.601396254261388
 20
-100.25
 30
0.0
 11
-28.024620896008958
 21
-100.25
 31
0.0
  0
LINE
  5
1EC
  8
DATA
  6
CONTINUOUS
 62
     7
 10
290.5
 20
-131.25
 30
0.0
 11
290.5
 21
-129.64999999999989
 31
0.0
  0
LINE
  5
1ED
  8
DATA
  6
CONTINUOUS
 62
     7
 10
276.5
 20
-129.64999999999989
 30
0.0
 11
290.5
 21
-129.64999999999989
 31
0.0
  0
LINE
  5
1EE
  8
DATA
  6
CONTINUOUS
 62
     7
 10
276.5
 20
-129.64999999999989
 30
0.0
 11
276.5
 21
-106.25
 31
0.0
  0
LINE
  5
1EF
  8
DATA
  6
CONTINUOUS
 62
     7
 10
274.89999999999998
 20
-131.25
 30
0.0
 11
274.89999999999998
 21
-106.25
 31
0.0
  0
LINE
  5
1F0
  8
DATA
  6
CONTINUOUS
 62
     7
 10
125.400390352134
 20
-124.6500000000029
 30
0.0
 11
125.400390352134
 21
-112.64999999999699
 31
0.0
  0
LINE
  5
1F1
  8
DATA
  6
CONTINUOUS
 62
     7
 10
127.20039035213399
 20
-124.6500000000029
 30
0.0
 11
127.20039035213399
 21
-112.64999999999699
 31
0.0
  0
ARC
  5
1F2
  8
DATA
  6
CONTINUOUS
 62
     7
 10
126.300390352134
 20
-112.9417475435739
 30
0.0
 40
0.9461060348509655
 50
17.960824461480279
 51
162.03917553852079
  0
ARC
  5
1F3
  8
DATA
  6
CONTINUOUS
 62
     7
 10
126.300390352134
 20
-124.358252456426
 30
0.0
 40
0.9461060348510196
 50
197.96082446147909
 51
342.03917553851983
  0
LINE
  5
1F4
  8
DATA
  6
CONTINUOUS
 62
     7
 10
129.400390352134
 20
-124.6500000000029
 30
0.0
 11
129.400390352134
 21
-112.64999999999699
 31
0.0
  0
LINE
  5
1F5
  8
DATA
  6
CONTINUOUS
 62
     7
 10
131.20039035213401
 20
-124.6500000000029
 30
0.0
 11
131.20039035213401
 21
-112.64999999999699
 31
0.0
  0
ARC
  5
1F6
  8
DATA
  6
CONTINUOUS
 62
     7
 10
130.300390352134
 20
-112.9417475435739
 30
0.0
 40
0.9461060348509655
 50
17.960824461480279
 51
162.03917553852079
  0
ARC
  5
1F7
  8
DATA
  6
CONTINUOUS
 62
     7
 10
130.300390352134
 20
-124.358252456426
 30
0.0
 40
0.9461060348510196
 50
197.96082446147909
 51
342.03917553851983
  0
LINE
  5
1F8
  8
DATA
  6
CONTINUOUS
 62
     7
 10
133.400390352134
 20
-124.6500000000029
 30
0.0
 11
133.400390352134
 21
-112.64999999999699
 31
0.0
  0
LINE
  5
1F9
  8
DATA
  6
CONTINUOUS
 62
     7
 10
135.20039035213401
 20
-124.6500000000029
 30
0.0
 11
135.20039035213401
 21
-112.64999999999699
 31
0.0
  0
ARC
  5
1FA
  8
DATA
  6
CONTINUOUS
 62
     7
 10
134.300390352134
 20
-112.9417475435739
 30
0.0
 40
0.9461060348509519
 50
17.960824461480541
 51
162.03917553852051
  0
ARC
  5
1FB
  8
DATA
  6
CONTINUOUS
 62
     7
 10
134.300390352134
 20
-124.358252456426
 30
0.0
 40
0.9461060348510059
 50
197.96082446147949
 51
342.03917553851937
  0
LINE
  5
1FC
  8
DATA
  6
CONTINUOUS
 62
     7
 10
137.40039035213391
 20
-124.6500000000029
 30
0.0
 11
137.40039035213391
 21
-112.64999999999699
 31
0.0
  0
LINE
  5
1FD
  8
DATA
  6
CONTINUOUS
 62
     7
 10
139.20039035213389
 20
-124.6500000000029
 30
0.0
 11
139.20039035213389
 21
-112.64999999999699
 31
0.0
  0
ARC
  5
1FE
  8
DATA
  6
CONTINUOUS
 62
     7
 10
138.30039035213389
 20
-112.9417475435739
 30
0.0
 40
0.9461060348509655
 50
17.960824461480279
 51
162.03917553852079
  0
ARC
  5
1FF
  8
DATA
  6
CONTINUOUS
 62
     7
 10
138.30039035213389
 20
-124.358252456426
 30
0.0
 40
0.9461060348510196
 50
197.96082446147909
 51
342.03917553851983
  0
LINE
  5
200
  8
DATA
  6
CONTINUOUS
 62
     7
 10
141.40039035213391
 20
-124.6500000000029
 30
0.0
 11
141.40039035213391
 21
-112.64999999999699
 31
0.0
  0
LINE
  5
201
  8
DATA
  6
CONTINUOUS
 62
     7
 10
143.20039035213389
 20
-124.6500000000029
 30
0.0
 11
143.20039035213389
 21
-112.64999999999699
 31
0.0
  0
ARC
  5
202
  8
DATA
  6
CONTINUOUS
 62
     7
 10
142.30039035213389
 20
-112.9417475435739
 30
0.0
 40
0.9461060348509655
 50
17.960824461480279
 51
162.03917553852079
  0
ARC
  5
203
  8
DATA
  6
CONTINUOUS
 62
     7
 10
142.30039035213389
 20
-124.358252456426
 30
0.0
 40
0.9461060348510196
 50
197.96082446147909
 51
342.03917553851983
  0
LINE
  5
204
  8
DATA
  6
CONTINUOUS
 62
     7
 10
145.40039035213391
 20
-124.6500000000029
 30
0.0
 11
145.40039035213391
 21
-112.64999999999699
 31
0.0
  0
LINE
  5
205
  8
DATA
  6
CONTINUOUS
 62
     7
 10
147.20039035213389
 20
-124.6500000000029
 30
0.0
 11
147.20039035213389
 21
-112.64999999999699
 31
0.0
  0
ARC
  5
206
  8
DATA
  6
CONTINUOUS
 62
     7
 10
146.300390352134
 20
-112.9417475435739
 30
0.0
 40
0.9461060348509655
 50
17.960824461480279
 51
162.03917553852079
  0
ARC
  5
207
  8
DATA
  6
CONTINUOUS
 62
     7
 10
146.300390352134
 20
-124.358252456426
 30
0.0
 40
0.9461060348510196
 50
197.96082446147909
 51
342.03917553851983
  0
LINE
  5
208
  8
DATA
  6
CONTINUOUS
 62
     7
 10
149.40039035213391
 20
-124.6500000000029
 30
0.0
 11
149.40039035213391
 21
-112.64999999999699
 31
0.0
  0
LINE
  5
209
  8
DATA
  6
CONTINUOUS
 62
     7
 10
151.20039035213389
 20
-124.6500000000029
 30
0.0
 11
151.20039035213389
 21
-112.64999999999699
 31
0.0
  0
ARC
  5
20A
  8
DATA
  6
CONTINUOUS
 62
     7
 10
150.300390352134
 20
-112.9417475435739
 30
0.0
 40
0.9461060348509655
 50
17.960824461480279
 51
162.03917553852079
  0
ARC
  5
20B
  8
DATA
  6
CONTINUOUS
 62
     7
 10
150.300390352134
 20
-124.358252456426
 30
0.0
 40
0.9461060348510196
 50
197.96082446147909
 51
342.03917553851983
  0
LINE
  5
20C
  8
DATA
  6
CONTINUOUS
 62
     7
 10
153.40039035213391
 20
-124.6500000000029
 30
0.0
 11
153.40039035213391
 21
-112.64999999999699
 31
0.0
  0
LINE
  5
20D
  8
DATA
  6
CONTINUOUS
 62
     7
 10
155.20039035213389
 20
-124.6500000000029
 30
0.0
 11
155.20039035213389
 21
-112.64999999999699
 31
0.0
  0
ARC
  5
20E
  8
DATA
  6
CONTINUOUS
 62
     7
 10
154.300390352134
 20
-112.9417475435739
 30
0.0
 40
0.9461060348509655
 50
17.960824461480279
 51
162.03917553852079
  0
ARC
  5
20F
  8
DATA
  6
CONTINUOUS
 62
     7
 10
154.300390352134
 20
-124.358252456426
 30
0.0
 40
0.9461060348510196
 50
197.96082446147909
 51
342.03917553851983
  0
LINE
  5
210
  8
DATA
  6
CONTINUOUS
 62
     7
 10
157.40039035213391
 20
-124.6500000000029
 30
0.0
 11
157.40039035213391
 21
-112.64999999999699
 31
0.0
  0
LINE
  5
211
  8
DATA
  6
CONTINUOUS
 62
     7
 10
159.20039035213389
 20
-124.6500000000029
 30
0.0
 11
159.20039035213389
 21
-112.64999999999699
 31
0.0
  0
ARC
  5
212
  8
DATA
  6
CONTINUOUS
 62
     7
 10
158.30039035213389
 20
-112.9417475435739
 30
0.0
 40
0.9461060348509655
 50
17.960824461480279
 51
162.03917553852079
  0
ARC
  5
213
  8
DATA
  6
CONTINUOUS
 62
     7
 10
158.30039035213389
 20
-124.358252456426
 30
0.0
 40
0.9461060348510196
 50
197.96082446147909
 51
342.03917553851983
  0
LINE
  5
214
  8
DATA
  6
CONTINUOUS
 62
     7
 10
161.40039035213391
 20
-124.6500000000029
 30
0.0
 11
161.40039035213391
 21
-112.64999999999699
 31
0.0
  0
LINE
  5
215
  8
DATA
  6
CONTINUOUS
 62
     7
 10
163.20039035213389
 20
-124.6500000000029
 30
0.0
 11
163.20039035213389
 21
-112.64999999999699
 31
0.0
  0
ARC
  5
216
  8
DATA
  6
CONTINUOUS
 62
     7
 10
162.30039035213389
 20
-112.9417475435739
 30
0.0
 40
0.9461060348509655
 50
17.960824461480279
 51
162.03917553852079
  0
ARC
  5
217
  8
DATA
  6
CONTINUOUS
 62
     7
 10
162.30039035213389
 20
-124.358252456426
 30
0.0
 40
0.9461060348510196
 50
197.96082446147909
 51
342.03917553851983
  0
LINE
  5
218
  8
DATA
  6
CONTINUOUS
 62
     7
 10
165.400390352134
 20
-124.6500000000029
 30
0.0
 11
165.400390352134
 21
-112.64999999999699
 31
0.0
  0
LINE
  5
219
  8
DATA
  6
CONTINUOUS
 62
     7
 10
167.20039035213401
 20
-124.6500000000029
 30
0.0
 11
167.20039035213401
 21
-112.64999999999699
 31
0.0
  0
ARC
  5
21A
  8
DATA
  6
CONTINUOUS
 62
     7
 10
166.300390352134
 20
-112.9417475435739
 30
0.0
 40
0.9461060348509928
 50
17.960824461479739
 51
162.03917553852131
  0
ARC
  5
21B
  8
DATA
  6
CONTINUOUS
 62
     7
 10
166.300390352134
 20
-124.358252456426
 30
0.0
 40
0.9461060348510466
 50
197.96082446147869
 51
342.03917553852023
  0
LINE
  5
21C
  8
DATA
  6
CONTINUOUS
 62
     7
 10
169.400390352134
 20
-124.6500000000029
 30
0.0
 11
169.400390352134
 21
-112.64999999999699
 31
0.0
  0
LINE
  5
21D
  8
DATA
  6
CONTINUOUS
 62
     7
 10
171.20039035213409
 20
-124.6500000000029
 30
0.0
 11
171.20039035213409
 21
-112.64999999999699
 31
0.0
  0
ARC
  5
21E
  8
DATA
  6
CONTINUOUS
 62
     7
 10
170.30039035213409
 20
-112.9417475435739
 30
0.0
 40
0.9461060348509655
 50
17.960824461480279
 51
162.03917553852079
  0
ARC
  5
21F
  8
DATA
  6
CONTINUOUS
 62
     7
 10
170.30039035213409
 20
-124.358252456426
 30
0.0
 40
0.9461060348510196
 50
197.96082446147909
 51
342.03917553851983
  0
LINE
  5
220
  8
DATA
  6
CONTINUOUS
 62
     7
 10
173.400390352134
 20
-124.6500000000029
 30
0.0
 11
173.400390352134
 21
-112.64999999999699
 31
0.0
  0
LINE
  5
221
  8
DATA
  6
CONTINUOUS
 62
     7
 10
175.20039035213409
 20
-124.6500000000029
 30
0.0
 11
175.20039035213409
 21
-112.64999999999699
 31
0.0
  0
ARC
  5
222
  8
DATA
  6
CONTINUOUS
 62
     7
 10
174.30039035213409
 20
-112.9417475435739
 30
0.0
 40
0.9461060348509655
 50
17.960824461480279
 51
162.03917553852079
  0
ARC
  5
223
  8
DATA
  6
CONTINUOUS
 62
     7
 10
174.30039035213409
 20
-124.358252456426
 30
0.0
 40
0.9461060348510196
 50
197.96082446147909
 51
342.03917553851983
  0
LINE
  5
224
  8
DATA
  6
CONTINUOUS
 62
     7
 10
177.40039035213411
 20
-124.6500000000029
 30
0.0
 11
177.40039035213411
 21
-112.64999999999699
 31
0.0
  0
LINE
  5
225
  8
DATA
  6
CONTINUOUS
 62
     7
 10
179.20039035213409
 20
-124.6500000000029
 30
0.0
 11
179.20039035213409
 21
-112.64999999999699
 31
0.0
  0
ARC
  5
226
  8
DATA
  6
CONTINUOUS
 62
     7
 10
178.30039035213409
 20
-112.9417475435739
 30
0.0
 40
0.9461060348509655
 50
17.960824461480279
 51
162.03917553852079
  0
ARC
  5
227
  8
DATA
  6
CONTINUOUS
 62
     7
 10
178.30039035213409
 20
-124.358252456426
 30
0.0
 40
0.9461060348510196
 50
197.96082446147909
 51
342.03917553851983
  0
LINE
  5
228
  8
DATA
  6
CONTINUOUS
 62
     7
 10
181.40039035213411
 20
-124.6500000000029
 30
0.0
 11
181.40039035213411
 21
-112.64999999999699
 31
0.0
  0
LINE
  5
229
  8
DATA
  6
CONTINUOUS
 62
     7
 10
183.20039035213409
 20
-124.6500000000029
 30
0.0
 11
183.20039035213409
 21
-112.64999999999699
 31
0.0
  0
ARC
  5
22A
  8
DATA
  6
CONTINUOUS
 62
     7
 10
182.30039035213409
 20
-112.9417475435739
 30
0.0
 40
0.9461060348509655
 50
17.960824461480279
 51
162.03917553852079
  0
ARC
  5
22B
  8
DATA
  6
CONTINUOUS
 62
     7
 10
182.30039035213409
 20
-124.358252456426
 30
0.0
 40
0.9461060348510196
 50
197.96082446147909
 51
342.03917553851983
  0
LINE
  5
22C
  8
DATA
  6
CONTINUOUS
 62
     7
 10
185.40039035213411
 20
-124.6500000000029
 30
0.0
 11
185.40039035213411
 21
-112.64999999999699
 31
0.0
  0
LINE
  5
22D
  8
DATA
  6
CONTINUOUS
 62
     7
 10
187.20039035213409
 20
-124.6500000000029
 30
0.0
 11
187.20039035213409
 21
-112.64999999999699
 31
0.0
  0
ARC
  5
22E
  8
DATA
  6
CONTINUOUS
 62
     7
 10
186.30039035213409
 20
-112.9417475435739
 30
0.0
 40
0.9461060348509655
 50
17.960824461480279
 51
162.03917553852079
  0
ARC
  5
22F
  8
DATA
  6
CONTINUOUS
 62
     7
 10
186.30039035213409
 20
-124.358252456426
 30
0.0
 40
0.9461060348510196
 50
197.96082446147909
 51
342.03917553851983
  0
LINE
  5
230
  8
DATA
  6
CONTINUOUS
 62
     7
 10
189.40039035213411
 20
-124.6500000000029
 30
0.0
 11
189.40039035213411
 21
-112.64999999999699
 31
0.0
  0
LINE
  5
231
  8
DATA
  6
CONTINUOUS
 62
     7
 10
191.20039035213409
 20
-124.6500000000029
 30
0.0
 11
191.20039035213409
 21
-112.64999999999699
 31
0.0
  0
ARC
  5
232
  8
DATA
  6
CONTINUOUS
 62
     7
 10
190.30039035213409
 20
-112.9417475435739
 30
0.0
 40
0.9461060348509655
 50
17.960824461480279
 51
162.03917553852079
  0
ARC
  5
233
  8
DATA
  6
CONTINUOUS
 62
     7
 10
190.30039035213409
 20
-124.358252456426
 30
0.0
 40
0.9461060348510196
 50
197.96082446147909
 51
342.03917553851983
  0
LINE
  5
234
  8
DATA
  6
CONTINUOUS
 62
     7
 10
193.400390352134
 20
-124.6500000000029
 30
0.0
 11
193.400390352134
 21
-112.64999999999699
 31
0.0
  0
LINE
  5
235
  8
DATA
  6
CONTINUOUS
 62
     7
 10
195.20039035213409
 20
-124.6500000000029
 30
0.0
 11
195.20039035213409
 21
-112.64999999999699
 31
0.0
  0
ARC
  5
236
  8
DATA
  6
CONTINUOUS
 62
     7
 10
194.30039035213409
 20
-112.9417475435739
 30
0.0
 40
0.9461060348509655
 50
17.960824461480279
 51
162.03917553852079
  0
ARC
  5
237
  8
DATA
  6
CONTINUOUS
 62
     7
 10
194.30039035213409
 20
-124.358252456426
 30
0.0
 40
0.9461060348510196
 50
197.96082446147909
 51
342.03917553851983
  0
LINE
  5
238
  8
DATA
  6
CONTINUOUS
 62
     7
 10
197.40039035213411
 20
-124.6500000000029
 30
0.0
 11
197.40039035213411
 21
-112.64999999999699
 31
0.0
  0
LINE
  5
239
  8
DATA
  6
CONTINUOUS
 62
     7
 10
199.20039035213409
 20
-124.6500000000029
 30
0.0
 11
199.20039035213409
 21
-112.64999999999699
 31
0.0
  0
ARC
  5
23A
  8
DATA
  6
CONTINUOUS
 62
     7
 10
198.30039035213409
 20
-112.9417475435739
 30
0.0
 40
0.9461060348509655
 50
17.960824461480279
 51
162.03917553852079
  0
ARC
  5
23B
  8
DATA
  6
CONTINUOUS
 62
     7
 10
198.30039035213409
 20
-124.358252456426
 30
0.0
 40
0.9461060348510196
 50
197.96082446147909
 51
342.03917553851983
  0
LINE
  5
23C
  8
DATA
  6
CONTINUOUS
 62
     7
 10
201.40039035213411
 20
-124.6500000000029
 30
0.0
 11
201.40039035213411
 21
-112.64999999999699
 31
0.0
  0
LINE
  5
23D
  8
DATA
  6
CONTINUOUS
 62
     7
 10
203.20039035213409
 20
-124.6500000000029
 30
0.0
 11
203.20039035213409
 21
-112.64999999999699
 31
0.0
  0
ARC
  5
23E
  8
DATA
  6
CONTINUOUS
 62
     7
 10
202.30039035213409
 20
-112.9417475435739
 30
0.0
 40
0.9461060348509655
 50
17.960824461480279
 51
162.03917553852079
  0
ARC
  5
23F
  8
DATA
  6
CONTINUOUS
 62
     7
 10
202.30039035213409
 20
-124.358252456426
 30
0.0
 40
0.9461060348510196
 50
197.96082446147909
 51
342.03917553851983
  0
LINE
  5
240
  8
DATA
  6
CONTINUOUS
 62
     7
 10
205.40039035213411
 20
-124.6500000000029
 30
0.0
 11
205.40039035213411
 21
-112.64999999999699
 31
0.0
  0
LINE
  5
241
  8
DATA
  6
CONTINUOUS
 62
     7
 10
207.20039035213409
 20
-124.6500000000029
 30
0.0
 11
207.20039035213409
 21
-112.64999999999699
 31
0.0
  0
ARC
  5
242
  8
DATA
  6
CONTINUOUS
 62
     7
 10
206.30039035213409
 20
-112.9417475435739
 30
0.0
 40
0.9461060348509655
 50
17.960824461480279
 51
162.03917553852079
  0
ARC
  5
243
  8
DATA
  6
CONTINUOUS
 62
     7
 10
206.30039035213409
 20
-124.358252456426
 30
0.0
 40
0.9461060348510196
 50
197.96082446147909
 51
342.03917553851983
  0
LINE
  5
244
  8
DATA
  6
CONTINUOUS
 62
     7
 10
209.40039035213411
 20
-124.6500000000029
 30
0.0
 11
209.40039035213411
 21
-112.64999999999699
 31
0.0
  0
LINE
  5
245
  8
DATA
  6
CONTINUOUS
 62
     7
 10
211.20039035213409
 20
-124.6500000000029
 30
0.0
 11
211.20039035213409
 21
-112.64999999999699
 31
0.0
  0
ARC
  5
246
  8
DATA
  6
CONTINUOUS
 62
     7
 10
210.30039035213409
 20
-112.9417475435739
 30
0.0
 40
0.9461060348509655
 50
17.960824461480279
 51
162.03917553852079
  0
ARC
  5
247
  8
DATA
  6
CONTINUOUS
 62
     7
 10
210.30039035213409
 20
-124.358252456426
 30
0.0
 40
0.9461060348510196
 50
197.96082446147909
 51
342.03917553851983
  0
LINE
  5
248
  8
DATA
  6
CONTINUOUS
 62
     7
 10
213.40039035213411
 20
-124.6500000000029
 30
0.0
 11
213.40039035213411
 21
-112.64999999999699
 31
0.0
  0
LINE
  5
249
  8
DATA
  6
CONTINUOUS
 62
     7
 10
215.20039035213409
 20
-124.6500000000029
 30
0.0
 11
215.20039035213409
 21
-112.64999999999699
 31
0.0
  0
ARC
  5
24A
  8
DATA
  6
CONTINUOUS
 62
     7
 10
214.30039035213409
 20
-112.9417475435739
 30
0.0
 40
0.9461060348509655
 50
17.960824461480279
 51
162.03917553852079
  0
ARC
  5
24B
  8
DATA
  6
CONTINUOUS
 62
     7
 10
214.30039035213409
 20
-124.358252456426
 30
0.0
 40
0.9461060348510196
 50
197.96082446147909
 51
342.03917553851983
  0
LINE
  5
24C
  8
DATA
  6
CONTINUOUS
 62
     7
 10
217.40039035213411
 20
-124.6500000000029
 30
0.0
 11
217.40039035213411
 21
-112.64999999999699
 31
0.0
  0
LINE
  5
24D
  8
DATA
  6
CONTINUOUS
 62
     7
 10
219.20039035213409
 20
-124.6500000000029
 30
0.0
 11
219.20039035213409
 21
-112.64999999999699
 31
0.0
  0
ARC
  5
24E
  8
DATA
  6
CONTINUOUS
 62
     7
 10
218.30039035213409
 20
-112.9417475435739
 30
0.0
 40
0.9461060348509655
 50
17.960824461480279
 51
162.03917553852079
  0
ARC
  5
24F
  8
DATA
  6
CONTINUOUS
 62
     7
 10
218.30039035213409
 20
-124.358252456426
 30
0.0
 40
0.9461060348510196
 50
197.96082446147909
 51
342.03917553851983
  0
LINE
  5
250
  8
DATA
  6
CONTINUOUS
 62
     7
 10
221.40039035213411
 20
-124.6500000000029
 30
0.0
 11
221.40039035213411
 21
-112.64999999999699
 31
0.0
  0
LINE
  5
251
  8
DATA
  6
CONTINUOUS
 62
     7
 10
223.20039035213409
 20
-124.6500000000029
 30
0.0
 11
223.20039035213409
 21
-112.64999999999699
 31
0.0
  0
ARC
  5
252
  8
DATA
  6
CONTINUOUS
 62
     7
 10
222.30039035213409
 20
-112.9417475435739
 30
0.0
 40
0.9461060348509655
 50
17.960824461480279
 51
162.03917553852079
  0
ARC
  5
253
  8
DATA
  6
CONTINUOUS
 62
     7
 10
222.30039035213409
 20
-124.358252456426
 30
0.0
 40
0.9461060348510196
 50
197.96082446147909
 51
342.03917553851983
  0
LINE
  5
254
  8
DATA
  6
CONTINUOUS
 62
     7
 10
225.40039035213411
 20
-124.6500000000029
 30
0.0
 11
225.40039035213411
 21
-112.64999999999699
 31
0.0
  0
LINE
  5
255
  8
DATA
  6
CONTINUOUS
 62
     7
 10
227.20039035213409
 20
-124.6500000000029
 30
0.0
 11
227.20039035213409
 21
-112.64999999999699
 31
0.0
  0
ARC
  5
256
  8
DATA
  6
CONTINUOUS
 62
     7
 10
226.30039035213409
 20
-112.9417475435739
 30
0.0
 40
0.9461060348509655
 50
17.960824461480279
 51
162.03917553852079
  0
ARC
  5
257
  8
DATA
  6
CONTINUOUS
 62
     7
 10
226.30039035213409
 20
-124.358252456426
 30
0.0
 40
0.9461060348510196
 50
197.96082446147909
 51
342.03917553851983
  0
LINE
  5
258
  8
DATA
  6
CONTINUOUS
 62
     7
 10
245.4274154733813
 20
-124.6500000000029
 30
0.0
 11
245.4274154733813
 21
-112.64999999999699
 31
0.0
  0
LINE
  5
259
  8
DATA
  6
CONTINUOUS
 62
     7
 10
243.62741547338121
 20
-124.6500000000029
 30
0.0
 11
243.62741547338121
 21
-112.64999999999699
 31
0.0
  0
ARC
  5
25A
  8
DATA
  6
CONTINUOUS
 62
     7
 10
244.52741547338121
 20
-112.9417475435739
 30
0.0
 40
0.9461060348510196
 50
17.960824461479209
 51
162.03917553851969
  0
ARC
  5
25B
  8
DATA
  6
CONTINUOUS
 62
     7
 10
244.52741547338121
 20
-124.358252456426
 30
0.0
 40
0.9461060348509655
 50
197.9608244614802
 51
342.03917553852079
  0
LINE
  5
25C
  8
DATA
  6
CONTINUOUS
 62
     7
 10
249.42741547338119
 20
-124.6500000000029
 30
0.0
 11
249.42741547338119
 21
-112.64999999999699
 31
0.0
  0
LINE
  5
25D
  8
DATA
  6
CONTINUOUS
 62
     7
 10
247.62741547338121
 20
-124.6500000000029
 30
0.0
 11
247.62741547338121
 21
-112.64999999999699
 31
0.0
  0
ARC
  5
25E
  8
DATA
  6
CONTINUOUS
 62
     7
 10
248.52741547338121
 20
-112.9417475435739
 30
0.0
 40
0.9461060348510196
 50
17.960824461479209
 51
162.03917553851969
  0
ARC
  5
25F
  8
DATA
  6
CONTINUOUS
 62
     7
 10
248.52741547338121
 20
-124.358252456426
 30
0.0
 40
0.9461060348509655
 50
197.9608244614802
 51
342.03917553852079
  0
LINE
  5
260
  8
DATA
  6
CONTINUOUS
 62
     7
 10
253.42741547338119
 20
-124.6500000000029
 30
0.0
 11
253.42741547338119
 21
-112.64999999999699
 31
0.0
  0
LINE
  5
261
  8
DATA
  6
CONTINUOUS
 62
     7
 10
251.62741547338121
 20
-124.6500000000029
 30
0.0
 11
251.62741547338121
 21
-112.64999999999699
 31
0.0
  0
ARC
  5
262
  8
DATA
  6
CONTINUOUS
 62
     7
 10
252.52741547338121
 20
-112.9417475435739
 30
0.0
 40
0.9461060348510196
 50
17.960824461479209
 51
162.03917553851969
  0
ARC
  5
263
  8
DATA
  6
CONTINUOUS
 62
     7
 10
252.52741547338121
 20
-124.358252456426
 30
0.0
 40
0.9461060348509655
 50
197.9608244614802
 51
342.03917553852079
  0
LINE
  5
264
  8
DATA
  6
CONTINUOUS
 62
     7
 10
257.42741547338119
 20
-124.6500000000029
 30
0.0
 11
257.42741547338119
 21
-112.64999999999699
 31
0.0
  0
LINE
  5
265
  8
DATA
  6
CONTINUOUS
 62
     7
 10
255.62741547338129
 20
-124.6500000000029
 30
0.0
 11
255.62741547338129
 21
-112.64999999999699
 31
0.0
  0
ARC
  5
266
  8
DATA
  6
CONTINUOUS
 62
     7
 10
256.52741547338121
 20
-112.9417475435739
 30
0.0
 40
0.9461060348510196
 50
17.960824461479209
 51
162.03917553851969
  0
ARC
  5
267
  8
DATA
  6
CONTINUOUS
 62
     7
 10
256.52741547338121
 20
-124.358252456426
 30
0.0
 40
0.9461060348509655
 50
197.9608244614802
 51
342.03917553852079
  0
LINE
  5
268
  8
DATA
  6
CONTINUOUS
 62
     7
 10
261.42741547338119
 20
-124.6500000000029
 30
0.0
 11
261.42741547338119
 21
-112.64999999999699
 31
0.0
  0
LINE
  5
269
  8
DATA
  6
CONTINUOUS
 62
     7
 10
259.62741547338118
 20
-124.6500000000029
 30
0.0
 11
259.62741547338118
 21
-112.64999999999699
 31
0.0
  0
ARC
  5
26A
  8
DATA
  6
CONTINUOUS
 62
     7
 10
260.52741547338121
 20
-112.9417475435739
 30
0.0
 40
0.9461060348510196
 50
17.960824461479209
 51
162.03917553851969
  0
ARC
  5
26B
  8
DATA
  6
CONTINUOUS
 62
     7
 10
260.52741547338121
 20
-124.358252456426
 30
0.0
 40
0.9461060348509655
 50
197.9608244614802
 51
342.03917553852079
  0
LINE
  5
26C
  8
DATA
  6
CONTINUOUS
 62
     7
 10
265.42741547338119
 20
-124.6500000000029
 30
0.0
 11
265.42741547338119
 21
-112.64999999999699
 31
0.0
  0
LINE
  5
26D
  8
DATA
  6
CONTINUOUS
 62
     7
 10
263.62741547338118
 20
-124.6500000000029
 30
0.0
 11
263.62741547338118
 21
-112.64999999999699
 31
0.0
  0
ARC
  5
26E
  8
DATA
  6
CONTINUOUS
 62
     7
 10
264.52741547338121
 20
-112.9417475435739
 30
0.0
 40
0.9461060348510196
 50
17.960824461479209
 51
162.03917553851969
  0
ARC
  5
26F
  8
DATA
  6
CONTINUOUS
 62
     7
 10
264.52741547338121
 20
-124.358252456426
 30
0.0
 40
0.9461060348509655
 50
197.9608244614802
 51
342.03917553852079
  0
LINE
  5
270
  8
DATA
  6
CONTINUOUS
 62
     7
 10
269.42741547338119
 20
-124.6500000000029
 30
0.0
 11
269.42741547338119
 21
-112.64999999999699
 31
0.0
  0
LINE
  5
271
  8
DATA
  6
CONTINUOUS
 62
     7
 10
267.62741547338118
 20
-124.6500000000029
 30
0.0
 11
267.62741547338118
 21
-112.64999999999699
 31
0.0
  0
ARC
  5
272
  8
DATA
  6
CONTINUOUS
 62
     7
 10
268.52741547338121
 20
-112.9417475435739
 30
0.0
 40
0.9461060348510196
 50
17.960824461479209
 51
162.03917553851969
  0
ARC
  5
273
  8
DATA
  6
CONTINUOUS
 62
     7
 10
268.52741547338121
 20
-124.358252456426
 30
0.0
 40
0.9461060348509655
 50
197.9608244614802
 51
342.03917553852079
  0
LINE
  5
274
  8
DATA
  6
CONTINUOUS
 62
     7
 10
273.42741547338119
 20
-124.6500000000029
 30
0.0
 11
273.42741547338119
 21
-112.64999999999699
 31
0.0
  0
LINE
  5
275
  8
DATA
  6
CONTINUOUS
 62
     7
 10
271.62741547338118
 20
-124.6500000000029
 30
0.0
 11
271.62741547338118
 21
-112.64999999999699
 31
0.0
  0
ARC
  5
276
  8
DATA
  6
CONTINUOUS
 62
     7
 10
272.52741547338121
 20
-112.9417475435739
 30
0.0
 40
0.9461060348510196
 50
17.960824461479209
 51
162.03917553851969
  0
ARC
  5
277
  8
DATA
  6
CONTINUOUS
 62
     7
 10
272.52741547338121
 20
-124.358252456426
 30
0.0
 40
0.9461060348509655
 50
197.9608244614802
 51
342.03917553852079
  0
LINE
  5
278
  8
DATA
  6
CONTINUOUS
 62
     7
 10
136.05936520019941
 20
-106.25
 30
0.0
 11
136.05936520019941
 21
-104.25
 31
0.0
  0
LINE
  5
279
  8
DATA
  6
CONTINUOUS
 62
     7
 10
138.05936520019941
 20
-104.25
 30
0.0
 11
138.05936520019941
 21
-106.25
 31
0.0
  0
LINE
  5
27A
  8
DATA
  6
CONTINUOUS
 62
     7
 10
136.05936520019941
 20
-104.25
 30
0.0
 11
138.05936520019941
 21
-104.25
 31
0.0
  0
LINE
  5
27B
  8
DATA
  6
CONTINUOUS
 62
     7
 10
156.05936520019941
 20
-106.25
 30
0.0
 11
156.05936520019941
 21
-104.25
 31
0.0
  0
LINE
  5
27C
  8
DATA
  6
CONTINUOUS
 62
     7
 10
158.05936520019941
 20
-104.25
 30
0.0
 11
158.05936520019941
 21
-106.25
 31
0.0
  0
LINE
  5
27D
  8
DATA
  6
CONTINUOUS
 62
     7
 10
156.05936520019941
 20
-104.25
 30
0.0
 11
158.05936520019941
 21
-104.25
 31
0.0
  0
LINE
  5
27E
  8
DATA
  6
CONTINUOUS
 62
     7
 10
-49.601396254261381
 20
-100.25
 30
0.0
 11
-49.601396254261381
 21
-106.25
 31
0.0
  0
LINE
  5
27F
  8
DATA
  6
CONTINUOUS
 62
     7
 10
-44.024620896008962
 20
-100.25
 30
0.0
 11
-44.024620896008962
 21
-106.25
 31
0.0
  0
LINE
  5
280
  8
DATA
  6
CONTINUOUS
 62
     7
 10
-49.601396254261381
 20
-100.25
 30
0.0
 11
-44.024620896008962
 21
-100.25
 31
0.0
  0
LINE
  5
281
  8
DATA
  6
CONTINUOUS
 62
     7
 10
-17.601396254261381
 20
-100.25
 30
0.0
 11
-17.601396254261381
 21
-106.25
 31
0.0
  0
LINE
  5
282
  8
DATA
  6
CONTINUOUS
 62
     7
 10
-12.024620896008949
 20
-100.25
 30
0.0
 11
-12.024620896008949
 21
-106.25
 31
0.0
  0
LINE
  5
283
  8
DATA
  6
CONTINUOUS
 62
     7
 10
-17.601396254261381
 20
-100.25
 30
0.0
 11
-12.024620896008949
 21
-100.25
 31
0.0
  0
ARC
  5
284
  8
DATA
  6
CONTINUOUS
 62
     7
 10
-48.37890383435839
 20
-115.02538134174409
 30
0.0
 40
0.299999999999983
 50
90.0
 51
192.0947570770216
  0
ARC
  5
285
  8
DATA
  6
CONTINUOUS
 62
     7
 10
-41.121096165641667
 20
-115.02538134174409
 30
0.0
 40
0.300000000000023
 50
347.90524292298488
 51
89.999999999994586
  0
ARC
  5
286
  8
DATA
  6
CONTINUOUS
 62
     7
 10
-47.757475262929859
 20
-117.9253813417436
 30
0.0
 40
0.2999999999999615
 50
192.0947570770121
 51
270.0000000000054
  0
ARC
  5
287
  8
DATA
  6
CONTINUOUS
 62
     7
 10
-41.742524737070212
 20
-117.9253813417436
 30
0.0
 40
0.3000000000000114
 50
270.0
 51
347.90524292298898
  0
LINE
  5
288
  8
DATA
  6
CONTINUOUS
 62
     7
 10
-49.538387679126082
 20
218.99999999983851
 30
0.0
 11
-43.961612320874004
 21
218.99999999983851
 31
0.0
  0
LINE
  5
289
  8
DATA
  6
CONTINUOUS
 62
     7
 10
-17.538387679126021
 20
218.99999999983851
 30
0.0
 11
-11.96161232087395
 21
218.99999999983851
 31
0.0
  0
LINE
  5
28A
  8
DATA
  6
CONTINUOUS
 62
     7
 10
-33.59972079120449
 20
218.99999999983851
 30
0.0
 11
-33.59972079120449
 21
224.99999999983851
 31
0.0
  0
LINE
  5
28B
  8
DATA
  6
CONTINUOUS
 62
     7
 10
-28.022945432952451
 20
218.99999999983851
 30
0.0
 11
-28.022945432952451
 21
224.99999999983851
 31
0.0
  0
LINE
  5
28C
  8
DATA
  6
CONTINUOUS
 62
     7
 10
-33.59972079120449
 20
218.99999999983851
 30
0.0
 11
-28.022945432952451
 21
218.99999999983851
 31
0.0
  0
LINE
  5
28D
  8
DATA
  6
CONTINUOUS
 62
     7
 10
-57.269017708206597
 20
222.99999999983851
 30
0.0
 11
-61.26901770820659
 21
222.99999999983851
 31
0.0
  0
LINE
  5
28E
  8
DATA
  6
CONTINUOUS
 62
     7
 10
-61.26901770820659
 20
222.99999999983851
 30
0.0
 11
-61.26901770820659
 21
224.99999999983851
 31
0.0
  0
LINE
  5
28F
  8
DATA
  6
CONTINUOUS
 62
     7
 10
-57.269017708206597
 20
222.99999999983851
 30
0.0
 11
-57.269017708206597
 21
224.99999999983851
 31
0.0
  0
ARC
  5
290
  8
DATA
  6
CONTINUOUS
 62
     7
 10
-1.750000000000014
 20
225.13438623708589
 30
0.0
 40
1.5
 50
185.14006798793289
 51
354.85993201206702
  0
ENDSEC
  0
EOF
