  0
SECTION
  2
HEADER
  9
$ACADVER
  1
AC1009
  9
$INSBASE
 10
0.0
 20
0.0
 30
0.0
  9
$EXTMIN
 10
-170.0164782349211
 20
-265.74833863455001
 30
-0.0015258207003583
  9
$EXTMAX
 10
370.0164807494923
 20
537.09174839639525
 30
0.0000000349246037
  9
$LIMMIN
 10
0.0
 20
0.0
  9
$LIMMAX
 10
0.0
 20
0.0
  9
$ORTHOMODE
 70
     0
  9
$REGENMODE
 70
     1
  9
$FILLMODE
 70
     1
  9
$QTEXTMODE
 70
     0
  9
$MIRRTEXT
 70
     1
  9
$DRAGMODE
 70
     2
  9
$LTSCALE
 40
15.24
  9
$OSMODE
 70
   231
  9
$ATTMODE
 70
     1
  9
$TEXTSIZE
 40
0.0
  9
$TRACEWID
 40
1.0
  9
$TEXTSTYLE
  7
STANDARD
  9
$CLAYER
  8
DATA
  9
$CELTYPE
  6
BYLAYER
  9
$CECOLOR
 62
   256
  9
$DIMSCALE
 40
1.0
  9
$DIMASZ
 40
0.18
  9
$DIMEXO
 40
0.0625
  9
$DIMDLI
 40
0.38
  9
$DIMRND
 40
0.0
  9
$DIMDLE
 40
0.0
  9
$DIMEXE
 40
0.18
  9
$DIMTP
 40
0.0
  9
$DIMTM
 40
0.0
  9
$DIMTXT
 40
0.18
  9
$DIMCEN
 40
0.09
  9
$DIMTSZ
 40
0.0
  9
$DIMTOL
 70
     0
  9
$DIMLIM
 70
     0
  9
$DIMTIH
 70
     1
  9
$DIMTOH
 70
     1
  9
$DIMSE1
 70
     0
  9
$DIMSE2
 70
     0
  9
$DIMTAD
 70
     0
  9
$DIMZIN
 70
     0
  9
$DIMBLK
  1

  9
$DIMASO
 70
     1
  9
$DIMSHO
 70
     1
  9
$DIMPOST
  1

  9
$DIMAPOST
  1

  9
$DIMALT
 70
     0
  9
$DIMALTD
 70
     2
  9
$DIMALTF
 40
25.399999999999999
  9
$DIMLFAC
 40
1.0
  9
$DIMTOFL
 70
     0
  9
$DIMTVP
 40
0.0
  9
$DIMTIX
 70
     0
  9
$DIMSOXD
 70
     0
  9
$DIMSAH
 70
     0
  9
$DIMBLK1
  1

  9
$DIMBLK2
  1

  9
$DIMSTYLE
  2
STANDARD
  9
$DIMCLRD
 70
     0
  9
$DIMCLRE
 70
     0
  9
$DIMCLRT
 70
     0
  9
$DIMTFAC
 40
1.0
  9
$DIMGAP
 40
0.09
  9
$LUNITS
 70
     2
  9
$LUPREC
 70
     4
  9
$SKETCHINC
 40
0.1
  9
$FILLETRAD
 40
0.0
  9
$AUNITS
 70
     0
  9
$AUPREC
 70
     0
  9
$MENU
  1
acad
  9
$ELEVATION
 40
0.0
  9
$PELEVATION
 40
0.0
  9
$THICKNESS
 40
0.0
  9
$LIMCHECK
 70
     0
  9
$BLIPMODE
 70
     0
  9
$CHAMFERA
 40
0.0
  9
$CHAMFERB
 40
0.0
  9
$SKPOLY
 70
     0
  9
$TDCREATE
 40
2455615.6595254629
  9
$TDUPDATE
 40
2455615.6627824539
  9
$TDINDWG
 40
0.0002371181
  9
$TDUSRTIMER
 40
0.0002369329
  9
$USRTIMER
 70
     1
  9
$ANGBASE
 50
0.0
  9
$ANGDIR
 70
     0
  9
$PDMODE
 70
     1
  9
$PDSIZE
 40
-2.0
  9
$PLINEWID
 40
0.0
  9
$COORDS
 70
     1
  9
$SPLFRAME
 70
     0
  9
$SPLINETYPE
 70
     6
  9
$SPLINESEGS
 70
     8
  9
$ATTDIA
 70
     0
  9
$ATTREQ
 70
     1
  9
$HANDLING
 70
     1
  9
$HANDSEED
  5
397
  9
$SURFTAB1
 70
     6
  9
$SURFTAB2
 70
     6
  9
$SURFTYPE
 70
     6
  9
$SURFU
 70
     6
  9
$SURFV
 70
     6
  9
$UCSNAME
  2

  9
$UCSORG
 10
0.0
 20
0.0
 30
0.0
  9
$UCSXDIR
 10
1.0
 20
0.0
 30
0.0
  9
$UCSYDIR
 10
0.0
 20
1.0
 30
0.0
  9
$PUCSNAME
  2

  9
$PUCSORG
 10
0.0
 20
0.0
 30
0.0
  9
$PUCSXDIR
 10
1.0
 20
0.0
 30
0.0
  9
$PUCSYDIR
 10
0.0
 20
1.0
 30
0.0
  9
$USERI1
 70
     0
  9
$USERI2
 70
     0
  9
$USERI3
 70
     0
  9
$USERI4
 70
     0
  9
$USERI5
 70
     0
  9
$USERR1
 40
0.0
  9
$USERR2
 40
0.0
  9
$USERR3
 40
0.0
  9
$USERR4
 40
0.0
  9
$USERR5
 40
0.0
  9
$WORLDVIEW
 70
     1
  9
$SHADEDGE
 70
     3
  9
$SHADEDIF
 70
    70
  9
$TILEMODE
 70
     1
  9
$MAXACTVP
 70
    64
  9
$PLIMCHECK
 70
     0
  9
$PEXTMIN
 10
1.0000000000000000E+020
 20
1.0000000000000000E+020
 30
1.0000000000000000E+020
  9
$PEXTMAX
 10
-1.0000000000000000E+020
 20
-1.0000000000000000E+020
 30
-1.0000000000000000E+020
  9
$PLIMMIN
 10
0.0
 20
0.0
  9
$PLIMMAX
 10
12.0
 20
9.0
  9
$UNITMODE
 70
     0
  9
$VISRETAIN
 70
     0
  9
$PLINEGEN
 70
     1
  9
$PSLTSCALE
 70
     0
  0
ENDSEC
  0
SECTION
  2
TABLES
  0
TABLE
  2
VPORT
 70
     1
  0
VPORT
  2
*ACTIVE
 70
     0
 10
0.0
 20
0.0
 11
1.0
 21
1.0
 12
100.0000012572856
 22
135.6717048809227
 13
0.0
 23
0.0
 14
1.0
 24
1.0
 15
0.0
 25
0.0
 16
0.0
 26
0.0
 36
1.0
 17
0.0
 27
0.0
 37
0.0
 40
808.75056619927125
 41
1.9619164619164611
 42
50.0
 43
0.0
 44
0.0
 50
0.0
 51
0.0
 71
     0
 72
  2000
 73
     1
 74
     1
 75
     0
 76
     0
 77
     0
 78
     0
  0
ENDTAB
  0
TABLE
  2
LTYPE
 70
    11
  0
LTYPE
  2
CONTINUOUS
 70
     0
  3
Solid line
 72
    65
 73
     0
 40
0.0
  0
ENDTAB
  0
TABLE
  2
LAYER
 70
     6
  0
LAYER
  2
0
 70
     0
 62
     7
  6
CONTINUOUS
  0
LAYER
  2
DATA
 70
     0
 62
     7
  6
CONTINUOUS
  0
LAYER
  2
HIBINO-BASE
 70
     0
 62
     7
  6
CONTINUOUS
  0
LAYER
  2
SPEC
 70
     0
 62
     7
  6
CONTINUOUS
  0
LAYER
  2
DIMNSIONS
 70
     0
 62
     7
  6
CONTINUOUS
  0
ENDTAB
  0
TABLE
  2
STYLE
 70
     3
  0
STYLE
  2
STANDARD
 70
     0
 40
0.0
 41
1.0
 50
0.0
 71
     0
 42
0.0
  3
txt
  4
BIGFONT.SHX
  0
ENDTAB
  0
TABLE
  2
VIEW
 70
     0
  0
ENDTAB
  0
TABLE
  2
UCS
 70
     0
  0
ENDTAB
  0
TABLE
  2
APPID
 70
     3
  0
APPID
  2
ACAD
 70
     0
  0
APPID
  2
ACADANNOTATIVE
 70
     0
  0
APPID
  2
ACAD_MLEADERVER
 70
     0
  0
ENDTAB
  0
TABLE
  2
DIMSTYLE
 70
     2
  0
DIMSTYLE
  2
STANDARD
 70
     0
  3

  4

  5

  6

  7

 40
1.0
 41
0.18
 42
0.0625
 43
0.38
 44
0.18
 45
0.0
 46
0.0
 47
0.0
 48
0.0
140
0.18
141
0.09
142
0.0
143
25.399999999999999
144
1.0
145
0.0
146
1.0
147
0.09
 71
     0
 72
     0
 73
     1
 74
     1
 75
     0
 76
     0
 77
     0
 78
     0
170
     0
171
     2
172
     0
173
     0
174
     0
175
     0
176
     0
177
     0
178
     0
  0
ENDTAB
  0
ENDSEC
  0
SECTION
  2
BLOCKS
  0
BLOCK
  8
0
  2
$MODEL_SPACE
 70
     0
 10
0.0
 20
0.0
 30
0.0
  3
$MODEL_SPACE
  1

  0
ENDBLK
  5
301
  8
0
  0
BLOCK
 67
     1
  8
0
  2
$PAPER_SPACE
 70
     0
 10
0.0
 20
0.0
 30
0.0
  3
$PAPER_SPACE
  1

  0
ENDBLK
  5
2FD
 67
     1
  8
0
  0
ENDSEC
  0
SECTION
  2
ENTITIES
  0
LINE
  5
2D
  8
HIBINO-BASE
  6
CONTINUOUS
 62
     7
 10
-169.99999999999989
 20
537.06729578973182
 30
0.0
 11
370.0
 21
537.06729578973182
 31
0.0
  0
LINE
  5
2E
  8
HIBINO-BASE
  6
CONTINUOUS
 62
     7
 10
370.0
 20
-242.93270421026821
 30
0.0
 11
-169.99999999999989
 21
-242.93270421026821
 31
0.0
  0
LINE
  5
2F
  8
HIBINO-BASE
  6
CONTINUOUS
 62
     7
 10
-169.99999999999989
 20
-242.93270421026821
 30
0.0
 11
-169.99999999999989
 21
537.06729578973182
 31
0.0
  0
LINE
  5
30
  8
HIBINO-BASE
  6
CONTINUOUS
 62
     7
 10
370.0
 20
537.06729578973182
 30
0.0
 11
370.0
 21
-242.93270421026821
 31
0.0
  0
LINE
  5
31
  8
HIBINO-BASE
  6
CONTINUOUS
 62
     7
 10
100.0
 20
-175.4327042102681
 30
0.0
 11
370.0
 21
-175.4327042102681
 31
0.0
  0
LINE
  5
32
  8
HIBINO-BASE
  6
CONTINUOUS
 62
     7
 10
100.0
 20
-242.93270421026821
 30
0.0
 11
100.0
 21
-175.4327042102681
 31
0.0
  0
TEXT
  5
33
  8
HIBINO-BASE
 62
     7
 10
102.7
 20
-182.95878421026811
 30
0.0
 40
4.8865234374999993
  1
NOTE
 41
0.7
 11
102.7
 21
-178.0722607727682
 31
0.0
 73
     3
  0
LINE
  5
34
  8
HIBINO-BASE
  6
CONTINUOUS
 62
     7
 10
205.0
 20
-242.93270421026821
 30
0.0
 11
205.0
 21
-175.4327042102681
 31
0.0
  0
TEXT
  5
35
  8
HIBINO-BASE
 62
     7
 10
207.69999999999999
 20
-182.95878421026811
 30
0.0
 40
4.8865234374999993
  1
TITLE
 41
0.7
 11
207.69999999999999
 21
-178.0722607727682
 31
0.0
 73
     3
  0
LINE
  5
36
  8
HIBINO-BASE
  6
CONTINUOUS
 62
     7
 10
100.0
 20
-212.9327042102681
 30
0.0
 11
370.0
 21
-212.9327042102681
 31
0.0
  0
TEXT
  5
37
  8
HIBINO-BASE
 62
     7
 10
245.19999999999999
 20
-220.28982421026819
 30
0.0
 40
4.8865234374999993
  1
DRAWN
 41
0.7
 11
245.19999999999999
 21
-215.4033007727682
 31
0.0
 73
     3
  0
TEXT
  5
38
  8
HIBINO-BASE
 62
     7
 10
170.19999999999999
 20
-220.28982421026819
 30
0.0
 40
4.8865234374999993
  1
DATE
 41
0.7
 11
170.19999999999999
 21
-215.4033007727682
 31
0.0
 73
     3
  0
TEXT
  5
39
  8
HIBINO-BASE
 62
     7
 10
140.19999999999999
 20
-220.28982421026819
 30
0.0
 40
4.8865234374999993
  1
SCALE
 41
0.7
 11
140.19999999999999
 21
-215.4033007727682
 31
0.0
 73
     3
  0
TEXT
  5
3A
  8
HIBINO-BASE
 62
     7
 10
207.69999999999999
 20
-220.28982421026819
 30
0.0
 40
4.8865234374999993
  1
DESIGN
 41
0.7
 11
207.69999999999999
 21
-215.4033007727682
 31
0.0
 73
     3
  0
TEXT
  5
3B
  8
HIBINO-BASE
 62
     7
 10
320.19999999999999
 20
-220.28982421026819
 30
0.0
 40
4.8865234374999993
  1
DRAWING NO.
 41
0.7
 11
320.19999999999999
 21
-215.4033007727682
 31
0.0
 73
     3
  0
TEXT
  5
3C
  8
HIBINO-BASE
 62
     7
 10
282.69999999999999
 20
-220.28982421026819
 30
0.0
 40
4.8865234374999993
  1
CHECK
 41
0.7
 11
282.69999999999999
 21
-215.4033007727682
 31
0.0
 73
     3
  0
LINE
  5
3D
  8
HIBINO-BASE
  6
CONTINUOUS
 62
     7
 10
143.12499999999989
 20
-239.18270421026821
 30
0.0
 11
154.375
 21
-227.9327042102681
 31
0.0
  0
TEXT
  5
3E
  8
HIBINO-BASE
 62
     7
 10
141.24999999999989
 20
-231.25953421026821
 30
0.0
 40
4.8865234374999993
  1
1
 41
0.7
 11
141.24999999999989
 21
-226.3730107727682
 31
0.0
 73
     3
  0
LINE
  5
3F
  8
HIBINO-BASE
  6
CONTINUOUS
 62
     7
 10
137.5
 20
-242.93270421026821
 30
0.0
 11
137.5
 21
-212.9327042102681
 31
0.0
  0
LINE
  5
40
  8
HIBINO-BASE
  6
CONTINUOUS
 62
     7
 10
167.5
 20
-242.93270421026821
 30
0.0
 11
167.5
 21
-212.9327042102681
 31
0.0
  0
LINE
  5
41
  8
HIBINO-BASE
  6
CONTINUOUS
 62
     7
 10
242.5
 20
-212.9327042102681
 30
0.0
 11
242.5
 21
-242.93270421026821
 31
0.0
  0
LINE
  5
42
  8
HIBINO-BASE
  6
CONTINUOUS
 62
     7
 10
317.5
 20
-212.9327042102681
 30
0.0
 11
317.5
 21
-242.93270421026821
 31
0.0
  0
LINE
  5
43
  8
HIBINO-BASE
  6
CONTINUOUS
 62
     7
 10
279.99999999999989
 20
-242.93270421026821
 30
0.0
 11
279.99999999999989
 21
-212.9327042102681
 31
0.0
  0
TEXT
  5
44
  8
HIBINO-BASE
 62
     7
 10
170.06961999999999
 20
-234.3417642102682
 30
0.0
 40
4.8865234374999993
  1
'11.02.
 41
0.7
 11
170.06961999999999
 21
-229.45524077276821
 31
0.0
 73
     3
  0
TEXT
  5
45
  8
HIBINO-BASE
 62
     7
 10
152.5
 20
-236.88453421026821
 30
0.0
 40
4.8865234374999993
  1
3
 41
0.7
 11
152.5
 21
-231.9980107727682
 31
0.0
 73
     3
  0
TEXT
  5
46
  8
HIBINO-BASE
 62
     7
 10
247.01743003310389
 20
-234.3417642102682
 30
0.0
 40
4.8865234374999993
  1
T.Ootake
 41
0.7
 11
247.01743003310389
 21
-229.45524077276821
 31
0.0
 73
     3
  0
TEXT
  5
47
  8
HIBINO-BASE
 62
     7
 10
111.65000000000001
 20
-237.0047042102681
 30
0.0
 40
9.7730468749999986
  1
A4
 41
0.7
 11
111.65000000000001
 21
-227.2316573352681
 31
0.0
 73
     3
  0
TEXT
  5
48
  8
HIBINO-BASE
 62
     7
 10
102.875
 20
-220.79106921026809
 30
0.0
 40
4.8865234374999993
  1
PAPER SIZE
 41
0.7
 11
102.875
 21
-215.9045457727681
 31
0.0
 73
     3
  0
TEXT
  5
49
  8
HIBINO-BASE
 62
     7
 10
-161.7210942293294
 20
-262.20842491279689
 30
0.0
 40
10.58746744791666
  1
Hibino-Intersound Corporation
 41
0.7
 11
-161.7210942293294
 21
-251.62095746488029
 31
0.0
 73
     3
  0
TEXT
  5
4A
  8
HIBINO-BASE
 62
     7
 10
160.54182904064169
 20
-261.15516015292872
 30
0.0
 40
10.58746744791666
  1
ヒビノインターサウンド株式会社
 41
0.7
 11
160.54182904064169
 21
-250.56769270501201
 31
0.0
 73
     3
  0
LINE
  5
4B
  8
SPEC
  6
CONTINUOUS
 62
     7
 10
-147.49999999999989
 20
507.0672957897317
 30
0.0
 11
295.0
 21
507.0672957897317
 31
0.0
  0
LINE
  5
4C
  8
SPEC
  6
CONTINUOUS
 62
     7
 10
-147.49999999999989
 20
495.8172957897317
 30
0.0
 11
295.0
 21
495.8172957897317
 31
0.0
  0
LINE
  5
4D
  8
SPEC
  6
CONTINUOUS
 62
     7
 10
-147.49999999999989
 20
473.3172957897317
 30
0.0
 11
295.0
 21
473.3172957897317
 31
0.0
  0
LINE
  5
4E
  8
SPEC
  6
CONTINUOUS
 62
     7
 10
-147.49999999999989
 20
484.5672957897317
 30
0.0
 11
295.0
 21
484.5672957897317
 31
0.0
  0
LINE
  5
4F
  8
SPEC
  6
CONTINUOUS
 62
     7
 10
-147.49999999999989
 20
507.0672957897317
 30
0.0
 11
-147.49999999999989
 21
405.8172957897317
 31
0.0
  0
TEXT
  5
50
  8
SPEC
 62
     7
 10
-143.74999999999989
 20
511.24710578973179
 30
0.0
 40
7.3297851562499989
  1
仕様
 41
0.7
 11
-143.74999999999989
 21
518.57689094598175
 31
0.0
 73
     3
  0
LINE
  5
51
  8
SPEC
  6
CONTINUOUS
 62
     7
 10
-50.0
 20
507.0672957897317
 30
0.0
 11
-50.000000000000021
 21
405.8172957897317
 31
0.0
  0
LINE
  5
52
  8
SPEC
  6
CONTINUOUS
 62
     7
 10
295.0
 20
507.0672957897317
 30
0.0
 11
295.0
 21
405.8172957897317
 31
0.0
  0
LINE
  5
53
  8
SPEC
  6
CONTINUOUS
 62
     7
 10
-147.49999999999989
 20
462.0672957897317
 30
0.0
 11
295.0
 21
462.0672957897317
 31
0.0
  0
LINE
  5
54
  8
SPEC
  6
CONTINUOUS
 62
     7
 10
-147.49999999999989
 20
450.8172957897317
 30
0.0
 11
295.0
 21
450.8172957897317
 31
0.0
  0
LINE
  5
55
  8
SPEC
  6
CONTINUOUS
 62
     7
 10
-147.49999999999989
 20
439.5672957897317
 30
0.0
 11
295.0
 21
439.5672957897317
 31
0.0
  0
LINE
  5
56
  8
SPEC
  6
CONTINUOUS
 62
     7
 10
-147.49999999999989
 20
428.3172957897317
 30
0.0
 11
295.0
 21
428.3172957897317
 31
0.0
  0
LINE
  5
57
  8
SPEC
  6
CONTINUOUS
 62
     7
 10
-147.49999999999989
 20
417.0672957897317
 30
0.0
 11
295.0
 21
417.0672957897317
 31
0.0
  0
LINE
  5
58
  8
SPEC
  6
CONTINUOUS
 62
     7
 10
-147.49999999999989
 20
405.8172957897317
 30
0.0
 11
295.0
 21
405.8172957897317
 31
0.0
  0
TEXT
  5
59
  8
SPEC
 62
     7
 10
-145.0526273410232
 20
420.02703903829149
 30
0.0
 40
5.7009440104166673
  1
寸法
 41
0.7
 11
-145.0526273410232
 21
425.72798304870821
 31
0.0
 73
     3
  0
TEXT
  5
5A
  8
SPEC
 62
     7
 10
-47.378187893817952
 20
419.45071161474777
 30
0.0
 40
5.7009440104166673
  1
62(W)\U+00D729(H)\U+00D7146(D)mm(突起部含まず）、(送信機、受信機共に)
 41
0.7
 11
-47.378187893817952
 21
425.15165562516449
 31
0.0
 73
     3
  0
TEXT
  5
5B
  8
SPEC
 62
     7
 10
-47.302240181106313
 20
408.5094978103038
 30
0.0
 40
5.7009440104166673
  1
送信機：約160g、受信機170g
 41
0.7
 11
-47.302240181106313
 21
414.21044182072052
 31
0.0
 73
     3
  0
TEXT
  5
5C
  8
SPEC
 62
     7
 10
-144.8469615389514
 20
408.85102654114581
 30
0.0
 40
5.7009440104166673
  1
重量
 41
0.7
 11
-144.8469615389514
 21
414.55197055156242
 31
0.0
 73
     3
  0
TEXT
  5
5D
  8
SPEC
 62
     7
 10
-144.8390199136368
 20
442.42352258421562
 30
0.0
 40
5.7009440104166673
  1
消費電力
 41
0.7
 11
-144.8390199136368
 21
448.12446659463228
 31
0.0
 73
     3
  0
TEXT
  5
5E
  8
SPEC
 62
     7
 10
-47.337666959678252
 20
442.3914989631279
 30
0.0
 40
5.7009440104166673
  1
送信機：2.5W(最大)、受信機：20W(最大）
 41
0.7
 11
-47.337666959678252
 21
448.09244297354462
 31
0.0
 73
     3
  0
TEXT
  5
5F
  8
SPEC
 62
     7
 10
-144.7922192617753
 20
498.20445567555709
 30
0.0
 40
5.7009440104166673
  1
USB2.0スピード
 41
0.7
 11
-144.7922192617753
 21
503.90539968597369
 31
0.0
 73
     3
  0
TEXT
  5
60
  8
SPEC
 62
     7
 10
-47.069745041016532
 20
498.26691116152131
 30
0.0
 40
5.7009440104166673
  1
480MHz
 41
0.7
 11
-47.069745041016532
 21
503.96785517193803
 31
0.0
 73
     3
  0
TEXT
  5
61
  8
SPEC
 62
     7
 10
-146.25562921403309
 20
487.9049486492541
 30
0.0
 40
5.7009440104166673
  1
リンクコネクター
 41
0.7
 11
-146.25562921403309
 21
493.6058926596707
 31
0.0
 73
     3
  0
TEXT
  5
62
  8
SPEC
 62
     7
 10
-47.311613470486819
 20
487.40886923075368
 30
0.0
 40
5.7009440104166673
  1
RJ-45シールド付き
 41
0.7
 11
-47.311613470486819
 21
493.10981324117029
 31
0.0
 73
     3
  0
TEXT
  5
63
  8
SPEC
 62
     7
 10
-144.77098244056691
 20
476.61130220855728
 30
0.0
 40
5.7009440104166673
  1
USB入力端子　送信機
 41
0.7
 11
-144.77098244056691
 21
482.31224621897388
 31
0.0
 73
     3
  0
TEXT
  5
64
  8
SPEC
 62
     7
 10
-48.688354420465352
 20
476.15886923075368
 30
0.0
 40
5.7009440104166673
  1
(1)USB type B
 41
0.7
 11
-48.688354420465352
 21
481.85981324117029
 31
0.0
 73
     3
  0
TEXT
  5
65
  8
SPEC
 62
     7
 10
-144.96753112477609
 20
453.9031745061443
 30
0.0
 40
5.7009440104166673
  1
電源
 41
0.7
 11
-144.96753112477609
 21
459.6041185165609
 31
0.0
 73
     3
  0
TEXT
  5
66
  8
SPEC
 62
     7
 10
-47.28184569780246
 20
453.21659741316819
 30
0.0
 40
5.7009440104166673
  1
5V DC
 41
0.7
 11
-47.28184569780246
 21
458.91754142358491
 31
0.0
 73
     3
  0
TEXT
  5
67
  8
SPEC
 62
     7
 10
-144.71905391646291
 20
431.02888090348318
 30
0.0
 40
5.7009440104166673
  1
動作温度
 41
0.7
 11
-144.71905391646291
 21
436.7298249138999
 31
0.0
 73
     3
  0
TEXT
  5
68
  8
SPEC
 62
     7
 10
-47.147342695177919
 20
430.97873369264329
 30
0.0
 40
5.7009440104166673
  1
0～40℃
 41
0.7
 11
-47.147342695177919
 21
436.67967770305989
 31
0.0
 73
     3
  0
TEXT
  5
69
  8
SPEC
 62
     7
 10
-144.7675311247761
 20
465.06130220855721
 30
0.0
 40
5.7009440104166673
  1
USB出力端子　受信機
 41
0.7
 11
-144.7675311247761
 21
470.76224621897393
 31
0.0
 73
     3
  0
TEXT
  5
6A
  8
SPEC
 62
     7
 10
-48.643654718251057
 20
464.8439104680329
 30
0.0
 40
5.7009440104166673
  1
(4)USB type A
 41
0.7
 11
-48.643654718251057
 21
470.54485447844962
 31
0.0
 73
     3
  0
TEXT
  5
6B
  8
DIMNSIONS
 62
     7
 10
40.0
 20
-206.12423421026821
 30
0.0
 40
7.3297851562499989
  1
(単位：mm)
 41
0.7
 11
40.0
 21
-198.79444905401809
 31
0.0
 73
     3
  0
LINE
  5
6C
  8
DIMNSIONS
  6
CONTINUOUS
 62
     7
 10
-43.750000000000021
 20
-99.750000000000014
 30
0.0
 11
-43.750000000000021
 21
-118.5
 31
0.0
  0
LINE
  5
6D
  8
DIMNSIONS
  6
CONTINUOUS
 62
     7
 10
18.249999999999979
 20
-99.750000000000014
 30
0.0
 11
18.249999999999979
 21
-118.5
 31
0.0
  0
LINE
  5
6E
  8
DIMNSIONS
  6
CONTINUOUS
 62
     7
 10
-43.750000000000021
 20
-112.5
 30
0.0
 11
18.249999999999979
 21
-112.5
 31
0.0
  0
LINE
  5
6F
  8
DIMNSIONS
  6
CONTINUOUS
 62
     7
 10
-43.750000000000021
 20
-112.5
 30
0.0
 11
-36.248132324218759
 21
-110.48988061454919
 31
0.0
  0
LINE
  5
70
  8
DIMNSIONS
  6
CONTINUOUS
 62
     7
 10
-43.750000000000021
 20
-112.5
 30
0.0
 11
-36.248132324218759
 21
-114.51011938545069
 31
0.0
  0
LINE
  5
71
  8
DIMNSIONS
  6
CONTINUOUS
 62
     7
 10
18.249999999999979
 20
-112.5
 30
0.0
 11
10.74813232421873
 21
-114.51011938545069
 31
0.0
  0
LINE
  5
72
  8
DIMNSIONS
  6
CONTINUOUS
 62
     7
 10
18.249999999999979
 20
-112.5
 30
0.0
 11
10.74813232421873
 21
-110.48988061454919
 31
0.0
  0
TEXT
  5
73
  8
DIMNSIONS
 62
     7
 10
-18.041666666666679
 20
-109.5183333333333
 30
0.0
 40
8.1442057291666661
  1
62
 41
0.7
 11
-18.041666666666679
 21
-101.3741276041666
 31
0.0
 73
     3
  0
LINE
  5
74
  8
DIMNSIONS
  6
CONTINUOUS
 62
     7
 10
-49.750000000000021
 20
-93.75
 30
0.0
 11
-62.250000000000021
 21
-93.75
 31
0.0
  0
LINE
  5
75
  8
DIMNSIONS
  6
CONTINUOUS
 62
     7
 10
-49.750000000000021
 20
-64.75
 30
0.0
 11
-62.250000000000021
 21
-64.75
 31
0.0
  0
LINE
  5
76
  8
DIMNSIONS
  6
CONTINUOUS
 62
     7
 10
-56.250000000000021
 20
-93.75
 30
0.0
 11
-56.250000000000021
 21
-64.75
 31
0.0
  0
LINE
  5
77
  8
DIMNSIONS
  6
CONTINUOUS
 62
     7
 10
-56.250000000000021
 20
-93.75
 30
0.0
 11
-58.26011938545075
 21
-86.24813232421873
 31
0.0
  0
LINE
  5
78
  8
DIMNSIONS
  6
CONTINUOUS
 62
     7
 10
-56.250000000000021
 20
-93.75
 30
0.0
 11
-54.239880614549278
 21
-86.24813232421873
 31
0.0
  0
LINE
  5
79
  8
DIMNSIONS
  6
CONTINUOUS
 62
     7
 10
-56.250000000000021
 20
-64.75
 30
0.0
 11
-54.239880614549278
 21
-72.251867675781256
 31
0.0
  0
LINE
  5
7A
  8
DIMNSIONS
  6
CONTINUOUS
 62
     7
 10
-56.250000000000021
 20
-64.75
 30
0.0
 11
-58.26011938545075
 21
-72.251867675781256
 31
0.0
  0
TEXT
  5
7B
  8
DIMNSIONS
 62
     7
 10
-59.231666666666662
 20
-84.541666666666643
 30
0.0
 40
8.1442057291666661
  1
29
 50
90.0
 41
0.7
 11
-67.375872395833326
 21
-84.541666666666643
 31
0.0
 73
     3
  0
LINE
  5
7C
  8
DIMNSIONS
  6
CONTINUOUS
 62
     7
 10
-49.750000000000021
 20
-15.0
 30
0.0
 11
-62.250000000000021
 21
-15.0
 31
0.0
  0
LINE
  5
7D
  8
DIMNSIONS
  6
CONTINUOUS
 62
     7
 10
-49.750000000000021
 20
111.0
 30
0.0
 11
-62.250000000000021
 21
111.0
 31
0.0
  0
LINE
  5
7E
  8
DIMNSIONS
  6
CONTINUOUS
 62
     7
 10
-56.250000000000021
 20
-15.0
 30
0.0
 11
-56.250000000000021
 21
111.0
 31
0.0
  0
LINE
  5
7F
  8
DIMNSIONS
  6
CONTINUOUS
 62
     7
 10
-56.250000000000021
 20
-15.0
 30
0.0
 11
-58.26011938545075
 21
-7.4981323242187443
 31
0.0
  0
LINE
  5
80
  8
DIMNSIONS
  6
CONTINUOUS
 62
     7
 10
-56.250000000000021
 20
-15.0
 30
0.0
 11
-54.239880614549278
 21
-7.4981323242187443
 31
0.0
  0
LINE
  5
81
  8
DIMNSIONS
  6
CONTINUOUS
 62
     7
 10
-56.250000000000021
 20
111.0
 30
0.0
 11
-54.239880614549278
 21
103.4981323242187
 31
0.0
  0
LINE
  5
82
  8
DIMNSIONS
  6
CONTINUOUS
 62
     7
 10
-56.250000000000021
 20
111.0
 30
0.0
 11
-58.26011938545075
 21
103.4981323242187
 31
0.0
  0
TEXT
  5
83
  8
DIMNSIONS
 62
     7
 10
-59.231666666666662
 20
40.0625
 30
0.0
 40
8.1442057291666661
  1
126
 50
90.0
 41
0.7
 11
-67.375872395833326
 21
40.0625
 31
0.0
 73
     3
  0
LINE
  5
84
  8
DIMNSIONS
  6
CONTINUOUS
 62
     7
 10
-49.750000000000021
 20
-25.0
 30
0.0
 11
-99.750000000000014
 21
-25.0
 31
0.0
  0
LINE
  5
85
  8
DIMNSIONS
  6
CONTINUOUS
 62
     7
 10
-49.750000000000021
 20
121.0
 30
0.0
 11
-99.750000000000014
 21
121.0
 31
0.0
  0
LINE
  5
86
  8
DIMNSIONS
  6
CONTINUOUS
 62
     7
 10
-93.75
 20
-25.0
 30
0.0
 11
-93.75
 21
121.0
 31
0.0
  0
LINE
  5
87
  8
DIMNSIONS
  6
CONTINUOUS
 62
     7
 10
-93.75
 20
-25.0
 30
0.0
 11
-95.760119385450764
 21
-17.498132324218741
 31
0.0
  0
LINE
  5
88
  8
DIMNSIONS
  6
CONTINUOUS
 62
     7
 10
-93.75
 20
-25.0
 30
0.0
 11
-91.739880614549264
 21
-17.498132324218741
 31
0.0
  0
LINE
  5
89
  8
DIMNSIONS
  6
CONTINUOUS
 62
     7
 10
-93.75
 20
121.0
 30
0.0
 11
-91.739880614549264
 21
113.4981323242187
 31
0.0
  0
LINE
  5
8A
  8
DIMNSIONS
  6
CONTINUOUS
 62
     7
 10
-93.75
 20
121.0
 30
0.0
 11
-95.760119385450764
 21
113.4981323242187
 31
0.0
  0
TEXT
  5
8B
  8
DIMNSIONS
 62
     7
 10
-96.731666666666655
 20
40.0625
 30
0.0
 40
8.1442057291666661
  1
146
 50
90.0
 41
0.7
 11
-104.8758723958333
 21
40.0625
 31
0.0
 73
     3
  0
LINE
  5
8C
  8
DIMNSIONS
  6
CONTINUOUS
 62
     7
 10
-43.000000000000021
 20
-19.0
 30
0.0
 11
-81.000000000000014
 21
-19.0
 31
0.0
  0
LINE
  5
8D
  8
DIMNSIONS
  6
CONTINUOUS
 62
     7
 10
-43.000000000000021
 20
115.0
 30
0.0
 11
-81.000000000000014
 21
115.0
 31
0.0
  0
LINE
  5
8E
  8
DIMNSIONS
  6
CONTINUOUS
 62
     7
 10
-75.000000000000014
 20
-19.0
 30
0.0
 11
-75.000000000000014
 21
115.0
 31
0.0
  0
LINE
  5
8F
  8
DIMNSIONS
  6
CONTINUOUS
 62
     7
 10
-75.000000000000014
 20
-19.0
 30
0.0
 11
-77.01011938545075
 21
-11.498132324218741
 31
0.0
  0
LINE
  5
90
  8
DIMNSIONS
  6
CONTINUOUS
 62
     7
 10
-75.000000000000014
 20
-19.0
 30
0.0
 11
-72.989880614549264
 21
-11.498132324218741
 31
0.0
  0
LINE
  5
91
  8
DIMNSIONS
  6
CONTINUOUS
 62
     7
 10
-75.000000000000014
 20
115.0
 30
0.0
 11
-72.989880614549264
 21
107.4981323242187
 31
0.0
  0
LINE
  5
92
  8
DIMNSIONS
  6
CONTINUOUS
 62
     7
 10
-75.000000000000014
 20
115.0
 30
0.0
 11
-77.01011938545075
 21
107.4981323242187
 31
0.0
  0
TEXT
  5
93
  8
DIMNSIONS
 62
     7
 10
-77.981666666666655
 20
40.0625
 30
0.0
 40
8.1442057291666661
  1
134
 50
90.0
 41
0.7
 11
-86.125872395833326
 21
40.0625
 31
0.0
 73
     3
  0
LINE
  5
94
  8
DIMNSIONS
  6
CONTINUOUS
 62
     7
 10
212.5
 20
-99.750000000000014
 30
0.0
 11
212.5
 21
-118.5
 31
0.0
  0
LINE
  5
95
  8
DIMNSIONS
  6
CONTINUOUS
 62
     7
 10
274.5
 20
-99.750000000000014
 30
0.0
 11
274.5
 21
-118.5
 31
0.0
  0
LINE
  5
96
  8
DIMNSIONS
  6
CONTINUOUS
 62
     7
 10
212.5
 20
-112.5
 30
0.0
 11
274.5
 21
-112.5
 31
0.0
  0
LINE
  5
97
  8
DIMNSIONS
  6
CONTINUOUS
 62
     7
 10
212.5
 20
-112.5
 30
0.0
 11
220.0018676757812
 21
-110.48988061454919
 31
0.0
  0
LINE
  5
98
  8
DIMNSIONS
  6
CONTINUOUS
 62
     7
 10
212.5
 20
-112.5
 30
0.0
 11
220.0018676757812
 21
-114.51011938545069
 31
0.0
  0
LINE
  5
99
  8
DIMNSIONS
  6
CONTINUOUS
 62
     7
 10
274.5
 20
-112.5
 30
0.0
 11
266.99813232421872
 21
-114.51011938545069
 31
0.0
  0
LINE
  5
9A
  8
DIMNSIONS
  6
CONTINUOUS
 62
     7
 10
274.5
 20
-112.5
 30
0.0
 11
266.99813232421872
 21
-110.48988061454919
 31
0.0
  0
TEXT
  5
9B
  8
DIMNSIONS
 62
     7
 10
238.20833333333329
 20
-109.5183333333333
 30
0.0
 40
8.1442057291666661
  1
62
 41
0.7
 11
238.20833333333329
 21
-101.3741276041666
 31
0.0
 73
     3
  0
LINE
  5
9C
  8
DIMNSIONS
  6
CONTINUOUS
 62
     7
 10
206.5
 20
-93.75
 30
0.0
 11
194.0
 21
-93.75
 31
0.0
  0
LINE
  5
9D
  8
DIMNSIONS
  6
CONTINUOUS
 62
     7
 10
206.5
 20
-64.75
 30
0.0
 11
194.0
 21
-64.75
 31
0.0
  0
LINE
  5
9E
  8
DIMNSIONS
  6
CONTINUOUS
 62
     7
 10
200.0
 20
-93.75
 30
0.0
 11
200.0
 21
-64.75
 31
0.0
  0
LINE
  5
9F
  8
DIMNSIONS
  6
CONTINUOUS
 62
     7
 10
200.0
 20
-93.75
 30
0.0
 11
197.98988061454921
 21
-86.24813232421873
 31
0.0
  0
LINE
  5
A0
  8
DIMNSIONS
  6
CONTINUOUS
 62
     7
 10
200.0
 20
-93.75
 30
0.0
 11
202.01011938545071
 21
-86.24813232421873
 31
0.0
  0
LINE
  5
A1
  8
DIMNSIONS
  6
CONTINUOUS
 62
     7
 10
200.0
 20
-64.75
 30
0.0
 11
202.01011938545071
 21
-72.251867675781256
 31
0.0
  0
LINE
  5
A2
  8
DIMNSIONS
  6
CONTINUOUS
 62
     7
 10
200.0
 20
-64.75
 30
0.0
 11
197.98988061454921
 21
-72.251867675781256
 31
0.0
  0
TEXT
  5
A3
  8
DIMNSIONS
 62
     7
 10
197.01833333333329
 20
-84.541666666666643
 30
0.0
 40
8.1442057291666661
  1
29
 50
90.0
 41
0.7
 11
188.8741276041666
 21
-84.541666666666643
 31
0.0
 73
     3
  0
LINE
  5
A4
  8
DIMNSIONS
  6
CONTINUOUS
 62
     7
 10
206.5
 20
-15.0
 30
0.0
 11
194.0
 21
-15.0
 31
0.0
  0
LINE
  5
A5
  8
DIMNSIONS
  6
CONTINUOUS
 62
     7
 10
206.5
 20
111.0
 30
0.0
 11
194.0
 21
111.0
 31
0.0
  0
LINE
  5
A6
  8
DIMNSIONS
  6
CONTINUOUS
 62
     7
 10
200.0
 20
-15.0
 30
0.0
 11
200.0
 21
111.0
 31
0.0
  0
LINE
  5
A7
  8
DIMNSIONS
  6
CONTINUOUS
 62
     7
 10
200.0
 20
-15.0
 30
0.0
 11
197.98988061454921
 21
-7.4981323242187443
 31
0.0
  0
LINE
  5
A8
  8
DIMNSIONS
  6
CONTINUOUS
 62
     7
 10
200.0
 20
-15.0
 30
0.0
 11
202.01011938545071
 21
-7.4981323242187443
 31
0.0
  0
LINE
  5
A9
  8
DIMNSIONS
  6
CONTINUOUS
 62
     7
 10
200.0
 20
111.0
 30
0.0
 11
202.01011938545071
 21
103.4981323242187
 31
0.0
  0
LINE
  5
AA
  8
DIMNSIONS
  6
CONTINUOUS
 62
     7
 10
200.0
 20
111.0
 30
0.0
 11
197.98988061454921
 21
103.4981323242187
 31
0.0
  0
TEXT
  5
AB
  8
DIMNSIONS
 62
     7
 10
197.01833333333329
 20
40.0625
 30
0.0
 40
8.1442057291666661
  1
126
 50
90.0
 41
0.7
 11
188.8741276041666
 21
40.0625
 31
0.0
 73
     3
  0
LINE
  5
AC
  8
DIMNSIONS
  6
CONTINUOUS
 62
     7
 10
206.5
 20
-25.0
 30
0.0
 11
156.5
 21
-25.0
 31
0.0
  0
LINE
  5
AD
  8
DIMNSIONS
  6
CONTINUOUS
 62
     7
 10
206.5
 20
121.0
 30
0.0
 11
156.5
 21
121.0
 31
0.0
  0
LINE
  5
AE
  8
DIMNSIONS
  6
CONTINUOUS
 62
     7
 10
162.5
 20
-25.0
 30
0.0
 11
162.5
 21
121.0
 31
0.0
  0
LINE
  5
AF
  8
DIMNSIONS
  6
CONTINUOUS
 62
     7
 10
162.5
 20
-25.0
 30
0.0
 11
160.48988061454921
 21
-17.498132324218741
 31
0.0
  0
LINE
  5
B0
  8
DIMNSIONS
  6
CONTINUOUS
 62
     7
 10
162.5
 20
-25.0
 30
0.0
 11
164.51011938545071
 21
-17.498132324218741
 31
0.0
  0
LINE
  5
B1
  8
DIMNSIONS
  6
CONTINUOUS
 62
     7
 10
162.5
 20
121.0
 30
0.0
 11
164.51011938545071
 21
113.4981323242187
 31
0.0
  0
LINE
  5
B2
  8
DIMNSIONS
  6
CONTINUOUS
 62
     7
 10
162.5
 20
121.0
 30
0.0
 11
160.48988061454921
 21
113.4981323242187
 31
0.0
  0
TEXT
  5
B3
  8
DIMNSIONS
 62
     7
 10
159.51833333333329
 20
40.0625
 30
0.0
 40
8.1442057291666661
  1
146
 50
90.0
 41
0.7
 11
151.3741276041666
 21
40.0625
 31
0.0
 73
     3
  0
LINE
  5
B4
  8
DIMNSIONS
  6
CONTINUOUS
 62
     7
 10
213.25
 20
-19.0
 30
0.0
 11
175.25
 21
-19.0
 31
0.0
  0
LINE
  5
B5
  8
DIMNSIONS
  6
CONTINUOUS
 62
     7
 10
213.25
 20
115.0
 30
0.0
 11
175.25
 21
115.0
 31
0.0
  0
LINE
  5
B6
  8
DIMNSIONS
  6
CONTINUOUS
 62
     7
 10
181.25
 20
-19.0
 30
0.0
 11
181.25
 21
115.0
 31
0.0
  0
LINE
  5
B7
  8
DIMNSIONS
  6
CONTINUOUS
 62
     7
 10
181.25
 20
-19.0
 30
0.0
 11
179.23988061454921
 21
-11.498132324218741
 31
0.0
  0
LINE
  5
B8
  8
DIMNSIONS
  6
CONTINUOUS
 62
     7
 10
181.25
 20
-19.0
 30
0.0
 11
183.26011938545071
 21
-11.498132324218741
 31
0.0
  0
LINE
  5
B9
  8
DIMNSIONS
  6
CONTINUOUS
 62
     7
 10
181.25
 20
115.0
 30
0.0
 11
183.26011938545071
 21
107.4981323242187
 31
0.0
  0
LINE
  5
BA
  8
DIMNSIONS
  6
CONTINUOUS
 62
     7
 10
181.25
 20
115.0
 30
0.0
 11
179.23988061454921
 21
107.4981323242187
 31
0.0
  0
TEXT
  5
BB
  8
DIMNSIONS
 62
     7
 10
178.26833333333329
 20
40.0625
 30
0.0
 40
8.1442057291666661
  1
134
 50
90.0
 41
0.7
 11
170.1241276041666
 21
40.0625
 31
0.0
 73
     3
  0
LINE
  5
BC
  8
DIMNSIONS
  6
CONTINUOUS
 62
     7
 10
-34.250000000000007
 20
-26.75
 30
0.0
 11
-34.250000000000007
 21
-49.75
 31
0.0
  0
LINE
  5
BD
  8
DIMNSIONS
  6
CONTINUOUS
 62
     7
 10
-12.750000000000011
 20
-26.75
 30
0.0
 11
-12.750000000000011
 21
-49.75
 31
0.0
  0
LINE
  5
BE
  8
DIMNSIONS
  6
CONTINUOUS
 62
     7
 10
-12.750000000000011
 20
-43.75
 30
0.0
 11
-34.250000000000007
 21
-43.75
 31
0.0
  0
LINE
  5
BF
  8
DIMNSIONS
  6
CONTINUOUS
 62
     7
 10
-34.250000000000007
 20
-43.75
 30
0.0
 11
-64.916666666666671
 21
-43.75
 31
0.0
  0
LINE
  5
C0
  8
DIMNSIONS
  6
CONTINUOUS
 62
     7
 10
-34.250000000000007
 20
-43.75
 30
0.0
 11
-41.751867675781277
 21
-45.760119385450743
 31
0.0
  0
LINE
  5
C1
  8
DIMNSIONS
  6
CONTINUOUS
 62
     7
 10
-34.250000000000007
 20
-43.75
 30
0.0
 11
-41.751867675781277
 21
-41.739880614549257
 31
0.0
  0
LINE
  5
C2
  8
DIMNSIONS
  6
CONTINUOUS
 62
     7
 10
-12.750000000000011
 20
-43.75
 30
0.0
 11
2.2499999999999849
 21
-43.75
 31
0.0
  0
LINE
  5
C3
  8
DIMNSIONS
  6
CONTINUOUS
 62
     7
 10
-12.750000000000011
 20
-43.75
 30
0.0
 11
-5.2481323242187594
 21
-41.739880614549257
 31
0.0
  0
LINE
  5
C4
  8
DIMNSIONS
  6
CONTINUOUS
 62
     7
 10
-12.750000000000011
 20
-43.75
 30
0.0
 11
-5.2481323242187594
 21
-45.760119385450743
 31
0.0
  0
TEXT
  5
C5
  8
DIMNSIONS
 62
     7
 10
-64.9166666666667
 20
-40.768333333333317
 30
0.0
 40
8.1442057291666661
  1
21.5
 41
0.7
 11
-64.9166666666667
 21
-32.624127604166652
 31
0.0
 73
     3
  0
LINE
  5
C6
  8
DIMNSIONS
  6
CONTINUOUS
 62
     7
 10
-12.750000000000011
 20
-26.75
 30
0.0
 11
-12.750000000000011
 21
-49.75
 31
0.0
  0
LINE
  5
C7
  8
DIMNSIONS
  6
CONTINUOUS
 62
     7
 10
8.7499999999999876
 20
-26.75
 30
0.0
 11
8.7499999999999876
 21
-49.75
 31
0.0
  0
LINE
  5
C8
  8
DIMNSIONS
  6
CONTINUOUS
 62
     7
 10
8.7499999999999876
 20
-43.75
 30
0.0
 11
-12.750000000000011
 21
-43.75
 31
0.0
  0
LINE
  5
C9
  8
DIMNSIONS
  6
CONTINUOUS
 62
     7
 10
-12.750000000000011
 20
-43.75
 30
0.0
 11
-27.750000000000011
 21
-43.75
 31
0.0
  0
LINE
  5
CA
  8
DIMNSIONS
  6
CONTINUOUS
 62
     7
 10
-12.750000000000011
 20
-43.75
 30
0.0
 11
-20.25186767578127
 21
-45.760119385450743
 31
0.0
  0
LINE
  5
CB
  8
DIMNSIONS
  6
CONTINUOUS
 62
     7
 10
-12.750000000000011
 20
-43.75
 30
0.0
 11
-20.25186767578127
 21
-41.739880614549257
 31
0.0
  0
LINE
  5
CC
  8
DIMNSIONS
  6
CONTINUOUS
 62
     7
 10
8.7499999999999876
 20
-43.75
 30
0.0
 11
46.166666666666657
 21
-43.75
 31
0.0
  0
LINE
  5
CD
  8
DIMNSIONS
  6
CONTINUOUS
 62
     7
 10
8.7499999999999876
 20
-43.75
 30
0.0
 11
16.251867675781241
 21
-41.739880614549257
 31
0.0
  0
LINE
  5
CE
  8
DIMNSIONS
  6
CONTINUOUS
 62
     7
 10
8.7499999999999876
 20
-43.75
 30
0.0
 11
16.251867675781241
 21
-45.760119385450743
 31
0.0
  0
TEXT
  5
CF
  8
DIMNSIONS
 62
     7
 10
25.0
 20
-40.768333333333317
 30
0.0
 40
8.1442057291666661
  1
21.5
 41
0.7
 11
25.0
 21
-32.624127604166652
 31
0.0
 73
     3
  0
LINE
  5
D0
  8
DIMNSIONS
  6
CONTINUOUS
 62
     7
 10
222.0
 20
-26.75
 30
0.0
 11
222.0
 21
-49.75
 31
0.0
  0
LINE
  5
D1
  8
DIMNSIONS
  6
CONTINUOUS
 62
     7
 10
243.5
 20
-26.75
 30
0.0
 11
243.5
 21
-49.75
 31
0.0
  0
LINE
  5
D2
  8
DIMNSIONS
  6
CONTINUOUS
 62
     7
 10
243.5
 20
-43.75
 30
0.0
 11
222.0
 21
-43.75
 31
0.0
  0
LINE
  5
D3
  8
DIMNSIONS
  6
CONTINUOUS
 62
     7
 10
222.0
 20
-43.75
 30
0.0
 11
191.33333333333329
 21
-43.75
 31
0.0
  0
LINE
  5
D4
  8
DIMNSIONS
  6
CONTINUOUS
 62
     7
 10
222.0
 20
-43.75
 30
0.0
 11
214.49813232421869
 21
-45.760119385450743
 31
0.0
  0
LINE
  5
D5
  8
DIMNSIONS
  6
CONTINUOUS
 62
     7
 10
222.0
 20
-43.75
 30
0.0
 11
214.49813232421869
 21
-41.739880614549257
 31
0.0
  0
LINE
  5
D6
  8
DIMNSIONS
  6
CONTINUOUS
 62
     7
 10
243.5
 20
-43.75
 30
0.0
 11
258.5
 21
-43.75
 31
0.0
  0
LINE
  5
D7
  8
DIMNSIONS
  6
CONTINUOUS
 62
     7
 10
243.5
 20
-43.75
 30
0.0
 11
251.0018676757812
 21
-41.739880614549257
 31
0.0
  0
LINE
  5
D8
  8
DIMNSIONS
  6
CONTINUOUS
 62
     7
 10
243.5
 20
-43.75
 30
0.0
 11
251.0018676757812
 21
-45.760119385450743
 31
0.0
  0
TEXT
  5
D9
  8
DIMNSIONS
 62
     7
 10
191.33333333333329
 20
-40.768333333333317
 30
0.0
 40
8.1442057291666661
  1
21.5
 41
0.7
 11
191.33333333333329
 21
-32.624127604166652
 31
0.0
 73
     3
  0
LINE
  5
DA
  8
DIMNSIONS
  6
CONTINUOUS
 62
     7
 10
243.5
 20
-26.75
 30
0.0
 11
243.5
 21
-49.75
 31
0.0
  0
LINE
  5
DB
  8
DIMNSIONS
  6
CONTINUOUS
 62
     7
 10
265.0
 20
-26.75
 30
0.0
 11
265.0
 21
-49.75
 31
0.0
  0
LINE
  5
DC
  8
DIMNSIONS
  6
CONTINUOUS
 62
     7
 10
265.0
 20
-43.75
 30
0.0
 11
243.5
 21
-43.75
 31
0.0
  0
LINE
  5
DD
  8
DIMNSIONS
  6
CONTINUOUS
 62
     7
 10
243.5
 20
-43.75
 30
0.0
 11
228.5
 21
-43.75
 31
0.0
  0
LINE
  5
DE
  8
DIMNSIONS
  6
CONTINUOUS
 62
     7
 10
243.5
 20
-43.75
 30
0.0
 11
235.99813232421869
 21
-45.760119385450743
 31
0.0
  0
LINE
  5
DF
  8
DIMNSIONS
  6
CONTINUOUS
 62
     7
 10
243.5
 20
-43.75
 30
0.0
 11
235.99813232421869
 21
-41.739880614549257
 31
0.0
  0
LINE
  5
E0
  8
DIMNSIONS
  6
CONTINUOUS
 62
     7
 10
265.0
 20
-43.75
 30
0.0
 11
302.41666666666669
 21
-43.75
 31
0.0
  0
LINE
  5
E1
  8
DIMNSIONS
  6
CONTINUOUS
 62
     7
 10
265.0
 20
-43.75
 30
0.0
 11
272.50186767578123
 21
-41.739880614549257
 31
0.0
  0
LINE
  5
E2
  8
DIMNSIONS
  6
CONTINUOUS
 62
     7
 10
265.0
 20
-43.75
 30
0.0
 11
272.50186767578123
 21
-45.760119385450743
 31
0.0
  0
TEXT
  5
E3
  8
DIMNSIONS
 62
     7
 10
281.25
 20
-40.768333333333317
 30
0.0
 40
8.1442057291666661
  1
21.5
 41
0.7
 11
281.25
 21
-32.624127604166652
 31
0.0
 73
     3
  0
TEXT
  5
E4
  8
DATA
 62
     7
 10
209.21741339470211
 20
-210.03573977731509
 30
0.0
 40
7.3297851562499989
  1
GTB-USB2.0-4LR-BLK/GTB-USB2.0-4LR
 41
0.7
 11
209.21741339470211
 21
-202.7059546210651
 31
0.0
 73
     3
  0
TEXT
  5
E5
  8
DATA
 62
     7
 10
250.0
 20
-187.7900342102682
 30
0.0
 40
7.3297851562499989
  1
Gefen
 41
0.7
 11
250.0
 21
-180.46024905401811
 31
0.0
 73
     3
  0
TEXT
  5
E6
  8
DATA
 62
     7
 10
244.22905720941159
 20
-197.65603111221421
 30
0.0
 40
4.8865311328124994
  1
USB2.0延長機
 41
0.7
 11
244.22905720941159
 21
-192.7694999794017
 31
0.0
 73
     3
  0
TEXT
  5
E7
  8
DATA
 62
     7
 10
-139.99999999999989
 20
-230.21870421026821
 30
0.0
 40
4.8865234374999993
  1
仕様および外観は予告なく変更されることがありますので、ご了承ください。
 41
0.7
 11
-139.99999999999989
 21
-225.3321807727682
 31
0.0
 73
     3
  0
LINE
  5
E8
  8
DATA
  6
CONTINUOUS
 62
     7
 10
-43.750000000000021
 20
-93.75
 30
0.0
 11
-43.750000000000021
 21
-64.75
 31
0.0
  0
LINE
  5
E9
  8
DATA
  6
CONTINUOUS
 62
     7
 10
18.249999999999979
 20
-93.75
 30
0.0
 11
-43.750000000000021
 21
-93.75
 31
0.0
  0
LINE
  5
EA
  8
DATA
  6
CONTINUOUS
 62
     7
 10
18.249999999999979
 20
-64.75
 30
0.0
 11
18.249999999999979
 21
-93.75
 31
0.0
  0
LINE
  5
EB
  8
DATA
  6
CONTINUOUS
 62
     7
 10
-43.750000000000021
 20
-64.75
 30
0.0
 11
18.249999999999979
 21
-64.75
 31
0.0
  0
LINE
  5
EC
  8
DATA
  6
CONTINUOUS
 62
     7
 10
-43.750000000000021
 20
-22.0
 30
0.0
 11
-43.750000000000021
 21
118.0
 31
0.0
  0
LINE
  5
ED
  8
DATA
  6
CONTINUOUS
 62
     7
 10
15.24999999999998
 20
-25.0
 30
0.0
 11
-40.750000000000007
 21
-25.0
 31
0.0
  0
LINE
  5
EE
  8
DATA
  6
CONTINUOUS
 62
     7
 10
18.249999999999979
 20
118.0
 30
0.0
 11
18.249999999999979
 21
-22.0
 31
0.0
  0
LINE
  5
EF
  8
DATA
  6
CONTINUOUS
 62
     7
 10
-40.750000000000007
 20
121.0
 30
0.0
 11
15.24999999999998
 21
121.0
 31
0.0
  0
LINE
  5
F0
  8
DATA
  6
CONTINUOUS
 62
     7
 10
18.249999999999979
 20
-15.0
 30
0.0
 11
-43.750000000000021
 21
-15.0
 31
0.0
  0
LINE
  5
F1
  8
DATA
  6
CONTINUOUS
 62
     7
 10
-43.750000000000021
 20
111.0
 30
0.0
 11
18.249999999999979
 21
111.0
 31
0.0
  0
LINE
  5
F2
  8
DATA
  6
CONTINUOUS
 62
     7
 10
-143.75
 20
111.0
 30
0.0
 11
-143.75
 21
121.0
 31
0.0
  0
LINE
  5
F3
  8
DATA
  6
CONTINUOUS
 62
     7
 10
-142.15000000000001
 20
-25.0
 30
0.0
 11
-143.75
 21
-25.0
 31
0.0
  0
LINE
  5
F4
  8
DATA
  6
CONTINUOUS
 62
     7
 10
-114.75
 20
109.40000000000001
 30
0.0
 11
-114.75
 21
-13.4
 31
0.0
  0
LINE
  5
F5
  8
DATA
  6
CONTINUOUS
 62
     7
 10
-143.75
 20
121.0
 30
0.0
 11
-142.15000000000001
 21
121.0
 31
0.0
  0
CIRCLE
  5
F6
  8
DATA
  6
CONTINUOUS
 62
     7
 10
-30.250000000000011
 20
-87.249999999999986
 30
0.0
 40
2.75
  0
LINE
  5
F7
  8
DATA
  6
CONTINUOUS
 62
     7
 10
-28.691154273188051
 20
-87.249999999999986
 30
0.0
 11
-31.808845726811981
 21
-87.249999999999986
 31
0.0
  0
LINE
  5
F8
  8
DATA
  6
CONTINUOUS
 62
     7
 10
-30.250000000000011
 20
-88.808845726811967
 30
0.0
 11
-30.250000000000011
 21
-85.691154273188033
 31
0.0
  0
CIRCLE
  5
F9
  8
DATA
  6
CONTINUOUS
 62
     7
 10
4.7499999999999849
 20
-87.249999999999986
 30
0.0
 40
2.75
  0
LINE
  5
FA
  8
DATA
  6
CONTINUOUS
 62
     7
 10
6.3088457268119518
 20
-87.249999999999986
 30
0.0
 11
3.191154273188018
 21
-87.249999999999986
 31
0.0
  0
LINE
  5
FB
  8
DATA
  6
CONTINUOUS
 62
     7
 10
4.7499999999999849
 20
-88.808845726811967
 30
0.0
 11
4.7499999999999849
 21
-85.691154273188033
 31
0.0
  0
CIRCLE
  5
FC
  8
DATA
  6
CONTINUOUS
 62
     7
 10
-22.750000000000011
 20
-74.75
 30
0.0
 40
3.9000000000000048
  0
CIRCLE
  5
FD
  8
DATA
  6
CONTINUOUS
 62
     7
 10
-22.750000000000011
 20
-74.75
 30
0.0
 40
2.8499999999999939
  0
CIRCLE
  5
FE
  8
DATA
  6
CONTINUOUS
 62
     7
 10
-22.750000000000011
 20
-74.75
 30
0.0
 40
0.75
  0
POLYLINE
  5
FF
  8
DATA
  6
CONTINUOUS
 62
     7
 66
     1
 10
0.0
 20
0.0
 30
0.0
 70
     1
  0
VERTEX
  5
32E
  8
DATA
  6
CONTINUOUS
 62
     7
 10
-25.434678751731781
 20
-70.099999999999994
 30
0.0
  0
VERTEX
  5
32F
  8
DATA
  6
CONTINUOUS
 62
     7
 10
-28.119357503463519
 20
-74.75
 30
0.0
  0
VERTEX
  5
330
  8
DATA
  6
CONTINUOUS
 62
     7
 10
-25.434678751731781
 20
-79.400000000000006
 30
0.0
  0
VERTEX
  5
331
  8
DATA
  6
CONTINUOUS
 62
     7
 10
-20.065321248268269
 20
-79.400000000000006
 30
0.0
  0
VERTEX
  5
332
  8
DATA
  6
CONTINUOUS
 62
     7
 10
-17.380642496536481
 20
-74.75
 30
0.0
  0
VERTEX
  5
333
  8
DATA
  6
CONTINUOUS
 62
     7
 10
-20.065321248268269
 20
-70.099999999999994
 30
0.0
  0
SEQEND
  5
334
  8
DATA
  6
CONTINUOUS
 62
     7
  0
TEXT
  5
108
  8
DATA
 62
     7
 10
-14.55833333333335
 20
0.9538468879323229
 30
0.0
 40
3.8006293402777769
  1
USB 2.0 LR
 41
0.7
 11
-14.55833333333335
 21
2.854161558071211
 31
0.0
 73
     2
  0
TEXT
  5
109
  8
DATA
 62
     7
 10
-27.94151851812363
 20
-5.1486345927593424
 30
0.0
 40
3.8006293402777769
  1
4-Port Extender S
 41
0.7
 11
-27.94151851812363
 21
-3.2483199226204529
 31
0.0
 73
     2
  0
LINE
  5
10A
  8
DATA
  6
CONTINUOUS
 62
     7
 10
-18.850000000000009
 20
-21.0
 30
0.0
 11
-26.650000000000009
 21
-21.0
 31
0.0
  0
LINE
  5
10B
  8
DATA
  6
CONTINUOUS
 62
     7
 10
-26.650000000000009
 20
-21.0
 30
0.0
 11
-26.650000000000009
 21
-17.0
 31
0.0
  0
LINE
  5
10C
  8
DATA
  6
CONTINUOUS
 62
     7
 10
-18.850000000000009
 20
-21.0
 30
0.0
 11
-18.850000000000009
 21
-17.0
 31
0.0
  0
LINE
  5
10D
  8
DATA
  6
CONTINUOUS
 62
     7
 10
-22.750000000000011
 20
-17.0
 30
0.0
 11
-22.750000000000011
 21
-15.0
 31
0.0
  0
LINE
  5
10E
  8
DATA
  6
CONTINUOUS
 62
     7
 10
-28.119357503463519
 20
-17.0
 30
0.0
 11
-28.119357503463519
 21
-15.0
 31
0.0
  0
LINE
  5
10F
  8
DATA
  6
CONTINUOUS
 62
     7
 10
-17.380642496536481
 20
-17.0
 30
0.0
 11
-17.380642496536481
 21
-15.0
 31
0.0
  0
LINE
  5
110
  8
DATA
  6
CONTINUOUS
 62
     7
 10
-28.119357503463519
 20
-17.0
 30
0.0
 11
-17.380642496536481
 21
-17.0
 31
0.0
  0
TEXT
  5
111
  8
DATA
 62
     7
 10
-27.591403393519599
 20
-13.10803918364269
 30
0.0
 40
3.0405034722222211
  1
5V DC
 41
0.7
 11
-27.591403393519599
 21
-11.58778744753158
 31
0.0
 73
     2
  0
LINE
  5
112
  8
DATA
  6
CONTINUOUS
 62
     7
 10
-11.500000000000011
 20
113.25
 30
0.0
 11
-14.000000000000011
 21
113.25
 31
0.0
  0
LINE
  5
113
  8
DATA
  6
CONTINUOUS
 62
     7
 10
-14.000000000000011
 20
116.75
 30
0.0
 11
-11.500000000000011
 21
116.75
 31
0.0
  0
ARC
  5
114
  8
DATA
  6
CONTINUOUS
 62
     7
 10
-14.000000000000011
 20
115.0
 30
0.0
 40
1.75
 50
90.0
 51
270.0
  0
ARC
  5
115
  8
DATA
  6
CONTINUOUS
 62
     7
 10
-11.500000000000011
 20
115.0
 30
0.0
 40
1.75
 50
270.0
 51
90.0
  0
LINE
  5
116
  8
DATA
  6
CONTINUOUS
 62
     7
 10
-11.500000000000011
 20
-17.25
 30
0.0
 11
-14.000000000000011
 21
-17.25
 31
0.0
  0
LINE
  5
117
  8
DATA
  6
CONTINUOUS
 62
     7
 10
-14.000000000000011
 20
-20.75
 30
0.0
 11
-11.500000000000011
 21
-20.75
 31
0.0
  0
ARC
  5
118
  8
DATA
  6
CONTINUOUS
 62
     7
 10
-14.000000000000011
 20
-19.0
 30
0.0
 40
1.75
 50
90.0
 51
270.0
  0
ARC
  5
119
  8
DATA
  6
CONTINUOUS
 62
     7
 10
-11.500000000000011
 20
-19.0
 30
0.0
 40
1.75
 50
270.0
 51
90.0
  0
TEXT
  5
11A
  8
DATA
 62
     7
 10
-12.463861266901541
 20
141.60775519631039
 30
0.0
 40
8.1442057291666661
  1
6-\U+03A66\U+00D73.5
 41
0.7
 11
-12.463861266901541
 21
145.67985806089371
 31
0.0
 73
     2
  0
ARC
  5
11B
  8
DATA
  6
CONTINUOUS
 62
     7
 10
-40.750000000000007
 20
118.0
 30
0.0
 40
3.0
 50
90.0
 51
180.0
  0
ARC
  5
11C
  8
DATA
  6
CONTINUOUS
 62
     7
 10
15.24999999999998
 20
118.0
 30
0.0
 40
3.0
 50
0.0
 51
90.0
  0
ARC
  5
11D
  8
DATA
  6
CONTINUOUS
 62
     7
 10
-40.750000000000007
 20
-22.0
 30
0.0
 40
3.0
 50
180.0
 51
270.0
  0
ARC
  5
11E
  8
DATA
  6
CONTINUOUS
 62
     7
 10
15.24999999999998
 20
-22.0
 30
0.0
 40
3.0
 50
270.0
 51
0.0
  0
LINE
  5
11F
  8
DATA
  6
CONTINUOUS
 62
     7
 10
-116.34999999999999
 20
-15.0
 30
0.0
 11
-140.55000000000001
 21
-15.0
 31
0.0
  0
LINE
  5
120
  8
DATA
  6
CONTINUOUS
 62
     7
 10
-116.34999999999999
 20
111.0
 30
0.0
 11
-140.55000000000001
 21
111.0
 31
0.0
  0
LINE
  5
121
  8
DATA
  6
CONTINUOUS
 62
     7
 10
18.249999999999979
 20
-92.150000000000006
 30
0.0
 11
-43.750000000000021
 21
-92.150000000000006
 31
0.0
  0
LINE
  5
122
  8
DATA
  6
CONTINUOUS
 62
     7
 10
-142.15000000000001
 20
112.59999999999999
 30
0.0
 11
-142.15000000000001
 21
121.0
 31
0.0
  0
LINE
  5
123
  8
DATA
  6
CONTINUOUS
 62
     7
 10
-116.34999999999999
 20
107.8
 30
0.0
 11
-116.34999999999999
 21
-11.80000000000001
 31
0.0
  0
LINE
  5
124
  8
DATA
  6
CONTINUOUS
 62
     7
 10
-117.95
 20
109.40000000000001
 30
0.0
 11
-143.75
 21
109.40000000000001
 31
0.0
  0
LINE
  5
125
  8
DATA
  6
CONTINUOUS
 62
     7
 10
-117.95
 20
-13.4
 30
0.0
 11
-143.75
 21
-13.4
 31
0.0
  0
ARC
  5
126
  8
DATA
  6
CONTINUOUS
 62
     7
 10
-117.95
 20
-11.80000000000004
 30
0.0
 40
1.599999999999965
 50
270.0
 51
0.0000000000010232
  0
ARC
  5
127
  8
DATA
  6
CONTINUOUS
 62
     7
 10
-116.34999999999999
 20
-13.39999999999997
 30
0.0
 40
1.6000000000000221
 50
270.0
 51
359.99999999999892
  0
ARC
  5
128
  8
DATA
  6
CONTINUOUS
 62
     7
 10
-117.9499999999999
 20
107.8
 30
0.0
 40
1.599999999999965
 50
0.0
 51
90.000000000001009
  0
ARC
  5
129
  8
DATA
  6
CONTINUOUS
 62
     7
 10
-116.34999999999999
 20
109.40000000000001
 30
0.0
 40
1.6000000000000221
 50
0.0
 51
89.999999999998977
  0
ARC
  5
12A
  8
DATA
  6
CONTINUOUS
 62
     7
 10
-140.55000000000001
 20
112.59999999999999
 30
0.0
 40
1.599999999999965
 50
180.0
 51
270.00000000000102
  0
ARC
  5
12B
  8
DATA
  6
CONTINUOUS
 62
     7
 10
-142.14999999999989
 20
111.0
 30
0.0
 40
1.6000000000000221
 50
180.0
 51
269.99999999999898
  0
LINE
  5
12C
  8
DATA
  6
CONTINUOUS
 62
     7
 10
-143.75
 20
-25.0
 30
0.0
 11
-143.75
 21
-15.0
 31
0.0
  0
LINE
  5
12D
  8
DATA
  6
CONTINUOUS
 62
     7
 10
-142.15000000000001
 20
-25.0
 30
0.0
 11
-142.15000000000001
 21
-16.599999999999991
 31
0.0
  0
ARC
  5
12E
  8
DATA
  6
CONTINUOUS
 62
     7
 10
-140.55000000000001
 20
-16.600000000000019
 30
0.0
 40
1.6000000000000221
 50
90.0
 51
179.99999999999901
  0
ARC
  5
12F
  8
DATA
  6
CONTINUOUS
 62
     7
 10
-142.15000000000001
 20
-14.99999999999997
 30
0.0
 40
1.599999999999965
 50
90.0
 51
180.00000000000099
  0
LINE
  5
130
  8
DATA
  6
CONTINUOUS
 62
     7
 10
-143.75
 20
-13.4
 30
0.0
 11
-143.75000000000219
 21
109.40000000000001
 31
0.0
  0
CIRCLE
  5
131
  8
DATA
  6
CONTINUOUS
 62
     7
 10
-132.34999999999999
 20
98.0
 30
0.0
 40
3.5
  0
LINE
  5
132
  8
DATA
  6
CONTINUOUS
 62
     7
 10
-132.34999999999999
 20
96.200000000000003
 30
0.0
 11
-132.34999999999999
 21
99.799999999999997
 31
0.0
  0
LINE
  5
133
  8
DATA
  6
CONTINUOUS
 62
     7
 10
-130.55000000000001
 20
98.0
 30
0.0
 11
-134.15000000000001
 21
98.0
 31
0.0
  0
CIRCLE
  5
134
  8
DATA
  6
CONTINUOUS
 62
     7
 10
-132.34999999999999
 20
-3.0
 30
0.0
 40
3.5
  0
LINE
  5
135
  8
DATA
  6
CONTINUOUS
 62
     7
 10
-132.34999999999999
 20
-4.8000000000000114
 30
0.0
 11
-132.34999999999999
 21
-1.199999999999988
 31
0.0
  0
LINE
  5
136
  8
DATA
  6
CONTINUOUS
 62
     7
 10
-130.55000000000001
 20
-3.0
 30
0.0
 11
-134.15000000000001
 21
-3.0
 31
0.0
  0
LINE
  5
137
  8
DATA
  6
CONTINUOUS
 62
     7
 10
-44.750000000000021
 20
100.7
 30
0.0
 11
-44.750000000000021
 21
95.299999999999983
 31
0.0
  0
LINE
  5
138
  8
DATA
  6
CONTINUOUS
 62
     7
 10
-43.950000000000003
 20
101.5
 30
0.0
 11
-43.750000000000021
 21
101.5
 31
0.0
  0
LINE
  5
139
  8
DATA
  6
CONTINUOUS
 62
     7
 10
-43.950000000000003
 20
94.500000000000014
 30
0.0
 11
-43.750000000000021
 21
94.500000000000014
 31
0.0
  0
ARC
  5
13A
  8
DATA
  6
CONTINUOUS
 62
     7
 10
-43.950000000000003
 20
100.7
 30
0.0
 40
0.7999999999999972
 50
90.0
 51
180.0
  0
ARC
  5
13B
  8
DATA
  6
CONTINUOUS
 62
     7
 10
-43.950000000000003
 20
95.299999999999983
 30
0.0
 40
0.8000000000000113
 50
180.0
 51
270.0
  0
LINE
  5
13C
  8
DATA
  6
CONTINUOUS
 62
     7
 10
-44.750000000000021
 20
-0.3000000000000114
 30
0.0
 11
-44.750000000000021
 21
-5.6999999999999877
 31
0.0
  0
LINE
  5
13D
  8
DATA
  6
CONTINUOUS
 62
     7
 10
-43.950000000000003
 20
0.5
 30
0.0
 11
-43.750000000000021
 21
0.5
 31
0.0
  0
LINE
  5
13E
  8
DATA
  6
CONTINUOUS
 62
     7
 10
-43.950000000000003
 20
-6.5
 30
0.0
 11
-43.750000000000021
 21
-6.5
 31
0.0
  0
ARC
  5
13F
  8
DATA
  6
CONTINUOUS
 62
     7
 10
-43.950000000000003
 20
-0.3000000000000114
 30
0.0
 40
0.8000000000000113
 50
90.0
 51
180.0
  0
ARC
  5
140
  8
DATA
  6
CONTINUOUS
 62
     7
 10
-43.950000000000003
 20
-5.6999999999999877
 30
0.0
 40
0.8000000000000113
 50
180.0
 51
270.0
  0
LINE
  5
141
  8
DATA
  6
CONTINUOUS
 62
     7
 10
-121.2494556235154
 20
12.24784081267482
 30
0.0
 11
-134.5494556235154
 21
12.24784081267482
 31
0.0
  0
LINE
  5
142
  8
DATA
  6
CONTINUOUS
 62
     7
 10
-121.2494556235154
 20
27.947840812674741
 30
0.0
 11
-134.5494556235154
 21
27.947840812674741
 31
0.0
  0
LINE
  5
143
  8
DATA
  6
CONTINUOUS
 62
     7
 10
-124.2494556235154
 20
26.247840812674809
 30
0.0
 11
-131.5494556235154
 21
26.247840812674809
 31
0.0
  0
LINE
  5
144
  8
DATA
  6
CONTINUOUS
 62
     7
 10
-124.2494556235154
 20
13.94784081267475
 30
0.0
 11
-131.5494556235154
 21
13.94784081267475
 31
0.0
  0
LINE
  5
145
  8
DATA
  6
CONTINUOUS
 62
     7
 10
-134.5494556235154
 20
27.947840812674741
 30
0.0
 11
-134.5494556235154
 21
12.24784081267482
 31
0.0
  0
LINE
  5
146
  8
DATA
  6
CONTINUOUS
 62
     7
 10
-121.2494556235154
 20
27.947840812674741
 30
0.0
 11
-121.2494556235154
 21
12.24784081267482
 31
0.0
  0
LINE
  5
147
  8
DATA
  6
CONTINUOUS
 62
     7
 10
-124.2494556235154
 20
26.247840812674809
 30
0.0
 11
-124.2494556235154
 21
13.94784081267475
 31
0.0
  0
LINE
  5
148
  8
DATA
  6
CONTINUOUS
 62
     7
 10
-134.5494556235154
 20
22.322840812674759
 30
0.0
 11
-131.5494556235154
 21
22.322840812674759
 31
0.0
  0
LINE
  5
149
  8
DATA
  6
CONTINUOUS
 62
     7
 10
-131.5494556235154
 20
17.87284081267482
 30
0.0
 11
-134.5494556235154
 21
17.87284081267482
 31
0.0
  0
LINE
  5
14A
  8
DATA
  6
CONTINUOUS
 62
     7
 10
-131.5494556235154
 20
26.247840812674809
 30
0.0
 11
-131.5494556235154
 21
22.322840812674759
 31
0.0
  0
LINE
  5
14B
  8
DATA
  6
CONTINUOUS
 62
     7
 10
-131.5494556235154
 20
17.87284081267482
 30
0.0
 11
-131.5494556235154
 21
13.94784081267475
 31
0.0
  0
LINE
  5
14C
  8
DATA
  6
CONTINUOUS
 62
     7
 10
-134.75812709307709
 20
66.248985927816889
 30
0.0
 11
-124.75812709307721
 21
66.248985927816889
 31
0.0
  0
LINE
  5
14D
  8
DATA
  6
CONTINUOUS
 62
     7
 10
-134.75812709307709
 20
53.748985927816889
 30
0.0
 11
-134.75812709307709
 21
66.248985927816889
 31
0.0
  0
LINE
  5
14E
  8
DATA
  6
CONTINUOUS
 62
     7
 10
-124.75812709307721
 20
53.748985927816889
 30
0.0
 11
-134.75812709307709
 21
53.748985927816889
 31
0.0
  0
LINE
  5
14F
  8
DATA
  6
CONTINUOUS
 62
     7
 10
-124.75812709307721
 20
66.248985927816889
 30
0.0
 11
-124.75812709307721
 21
53.748985927816889
 31
0.0
  0
POLYLINE
  5
150
  8
DATA
  6
CONTINUOUS
 62
     7
 66
     1
 10
0.0
 20
0.0
 30
0.0
  0
VERTEX
  5
335
  8
DATA
  6
CONTINUOUS
 62
     7
 10
-131.22871532867609
 20
64.348985927816869
 30
0.0
  0
VERTEX
  5
336
  8
DATA
  6
CONTINUOUS
 62
     7
 10
-125.8581270930772
 20
64.348985927816869
 30
0.0
  0
VERTEX
  5
337
  8
DATA
  6
CONTINUOUS
 62
     7
 10
-125.8581270930772
 20
55.648985927816881
 30
0.0
  0
VERTEX
  5
338
  8
DATA
  6
CONTINUOUS
 62
     7
 10
-131.22871532867609
 20
55.648985927816881
 30
0.0
  0
SEQEND
  5
339
  8
DATA
  6
CONTINUOUS
 62
     7
  0
LINE
  5
157
  8
DATA
  6
CONTINUOUS
 62
     7
 10
-133.65812709307721
 20
57.748985927816889
 30
0.0
 11
-133.65812709307721
 21
62.248985927816889
 31
0.0
  0
POLYLINE
  5
158
  8
DATA
  6
CONTINUOUS
 62
     7
 66
     1
 10
0.0
 20
0.0
 30
0.0
 70
     1
  0
VERTEX
  5
33A
  8
DATA
  6
CONTINUOUS
 62
     7
 10
-131.25812709307721
 20
62.998985927816889
 30
0.0
  0
VERTEX
  5
33B
  8
DATA
  6
CONTINUOUS
 62
     7
 10
-128.25812709307721
 20
62.998985927816889
 30
0.0
  0
VERTEX
  5
33C
  8
DATA
  6
CONTINUOUS
 62
     7
 10
-128.25812709307721
 20
56.998985927816889
 30
0.0
  0
VERTEX
  5
33D
  8
DATA
  6
CONTINUOUS
 62
     7
 10
-131.25812709307721
 20
56.998985927816889
 30
0.0
  0
SEQEND
  5
33E
  8
DATA
  6
CONTINUOUS
 62
     7
  0
LINE
  5
15F
  8
DATA
  6
CONTINUOUS
 62
     7
 10
-133.65812709307721
 20
62.248985927816889
 30
0.0
 11
-131.22871532867609
 21
64.348985927816869
 31
0.0
  0
LINE
  5
160
  8
DATA
  6
CONTINUOUS
 62
     7
 10
-133.65812709307721
 20
57.748985927816882
 30
0.0
 11
-131.22871532867609
 21
55.648985927816881
 31
0.0
  0
CIRCLE
  5
161
  8
DATA
  6
CONTINUOUS
 62
     7
 10
-131.75
 20
33.0
 30
0.0
 40
1.5
  0
TEXT
  5
162
  8
DATA
 62
     7
 10
-41.897319198785901
 20
65.990593563510799
 30
0.0
 40
3.0405034722222211
  1
USB In
 50
270.0
 41
0.7
 11
-40.377067462674781
 21
65.990593563510799
 31
0.0
 73
     2
  0
TEXT
  5
163
  8
DATA
 62
     7
 10
-41.897319198785901
 20
33.926411875036521
 30
0.0
 40
3.0405034722222211
  1
H
 50
270.0
 41
0.7
 11
-40.377067462674781
 21
33.926411875036521
 31
0.0
 73
     2
  0
TEXT
  5
164
  8
DATA
 62
     7
 10
-41.897319198785901
 20
23.86196079411279
 30
0.0
 40
3.0405034722222211
  1
Link
 50
270.0
 41
0.7
 11
-40.377067462674781
 21
23.86196079411279
 31
0.0
 73
     2
  0
POLYLINE
  5
165
  8
DATA
  6
CONTINUOUS
 62
     7
 66
     1
 10
0.0
 20
0.0
 30
0.0
 70
     1
  0
VERTEX
  5
33F
  8
DATA
  6
CONTINUOUS
 62
     7
 10
-133.88180047227479
 20
26.060995120737669
 30
0.0
  0
VERTEX
  5
340
  8
DATA
  6
CONTINUOUS
 62
     7
 10
-132.092014637787
 20
26.060995120737669
 30
0.0
  0
VERTEX
  5
341
  8
DATA
  6
CONTINUOUS
 62
     7
 10
-132.092014637787
 20
22.96099512073766
 30
0.0
  0
VERTEX
  5
342
  8
DATA
  6
CONTINUOUS
 62
     7
 10
-133.88180047227479
 20
22.96099512073766
 30
0.0
  0
SEQEND
  5
343
  8
DATA
  6
CONTINUOUS
 62
     7
  0
POLYLINE
  5
16C
  8
DATA
  6
CONTINUOUS
 62
     7
 66
     1
 10
0.0
 20
0.0
 30
0.0
 70
     1
  0
VERTEX
  5
344
  8
DATA
  6
CONTINUOUS
 62
     7
 10
-133.88180047227479
 20
17.234686504611869
 30
0.0
  0
VERTEX
  5
345
  8
DATA
  6
CONTINUOUS
 62
     7
 10
-132.092014637787
 20
17.234686504611869
 30
0.0
  0
VERTEX
  5
346
  8
DATA
  6
CONTINUOUS
 62
     7
 10
-132.092014637787
 20
14.13468650461186
 30
0.0
  0
VERTEX
  5
347
  8
DATA
  6
CONTINUOUS
 62
     7
 10
-133.88180047227479
 20
14.13468650461186
 30
0.0
  0
SEQEND
  5
348
  8
DATA
  6
CONTINUOUS
 62
     7
  0
LINE
  5
173
  8
DATA
  6
CONTINUOUS
 62
     7
 10
-43.750000000000021
 20
197.75
 30
0.0
 11
-43.750000000000021
 21
168.75
 31
0.0
  0
LINE
  5
174
  8
DATA
  6
CONTINUOUS
 62
     7
 10
18.249999999999979
 20
197.75
 30
0.0
 11
-43.750000000000021
 21
197.75
 31
0.0
  0
LINE
  5
175
  8
DATA
  6
CONTINUOUS
 62
     7
 10
18.249999999999979
 20
168.75
 30
0.0
 11
18.249999999999979
 21
197.75
 31
0.0
  0
LINE
  5
176
  8
DATA
  6
CONTINUOUS
 62
     7
 10
-43.750000000000021
 20
168.75
 30
0.0
 11
18.249999999999979
 21
168.75
 31
0.0
  0
CIRCLE
  5
177
  8
DATA
  6
CONTINUOUS
 62
     7
 10
-30.250000000000011
 20
191.25
 30
0.0
 40
2.75
  0
LINE
  5
178
  8
DATA
  6
CONTINUOUS
 62
     7
 10
-28.691154273188051
 20
191.25
 30
0.0
 11
-31.808845726811981
 21
191.25
 31
0.0
  0
LINE
  5
179
  8
DATA
  6
CONTINUOUS
 62
     7
 10
-30.250000000000011
 20
192.808845726812
 30
0.0
 11
-30.250000000000011
 21
189.691154273188
 31
0.0
  0
CIRCLE
  5
17A
  8
DATA
  6
CONTINUOUS
 62
     7
 10
4.7499999999999849
 20
191.25
 30
0.0
 40
2.75
  0
LINE
  5
17B
  8
DATA
  6
CONTINUOUS
 62
     7
 10
6.3088457268119518
 20
191.25
 30
0.0
 11
3.191154273188018
 21
191.25
 31
0.0
  0
LINE
  5
17C
  8
DATA
  6
CONTINUOUS
 62
     7
 10
4.7499999999999849
 20
192.808845726812
 30
0.0
 11
4.7499999999999849
 21
189.691154273188
 31
0.0
  0
LINE
  5
17D
  8
DATA
  6
CONTINUOUS
 62
     7
 10
18.249999999999979
 20
196.15000000000001
 30
0.0
 11
-43.750000000000021
 21
196.15000000000001
 31
0.0
  0
LINE
  5
17E
  8
DATA
  6
CONTINUOUS
 62
     7
 10
212.5
 20
-93.75
 30
0.0
 11
212.5
 21
-64.75
 31
0.0
  0
LINE
  5
17F
  8
DATA
  6
CONTINUOUS
 62
     7
 10
274.5
 20
-93.75
 30
0.0
 11
212.5
 21
-93.75
 31
0.0
  0
LINE
  5
180
  8
DATA
  6
CONTINUOUS
 62
     7
 10
274.5
 20
-64.75
 30
0.0
 11
274.5
 21
-93.75
 31
0.0
  0
LINE
  5
181
  8
DATA
  6
CONTINUOUS
 62
     7
 10
212.5
 20
-64.75
 30
0.0
 11
274.5
 21
-64.75
 31
0.0
  0
LINE
  5
182
  8
DATA
  6
CONTINUOUS
 62
     7
 10
212.5
 20
-22.0
 30
0.0
 11
212.5
 21
118.0
 31
0.0
  0
LINE
  5
183
  8
DATA
  6
CONTINUOUS
 62
     7
 10
271.5
 20
-25.0
 30
0.0
 11
215.5
 21
-25.0
 31
0.0
  0
LINE
  5
184
  8
DATA
  6
CONTINUOUS
 62
     7
 10
274.5
 20
118.0
 30
0.0
 11
274.5
 21
-22.0
 31
0.0
  0
LINE
  5
185
  8
DATA
  6
CONTINUOUS
 62
     7
 10
215.5
 20
121.0
 30
0.0
 11
271.5
 21
121.0
 31
0.0
  0
LINE
  5
186
  8
DATA
  6
CONTINUOUS
 62
     7
 10
274.5
 20
-15.0
 30
0.0
 11
212.5
 21
-15.0
 31
0.0
  0
LINE
  5
187
  8
DATA
  6
CONTINUOUS
 62
     7
 10
212.5
 20
111.0
 30
0.0
 11
274.5
 21
111.0
 31
0.0
  0
LINE
  5
188
  8
DATA
  6
CONTINUOUS
 62
     7
 10
112.5
 20
111.0
 30
0.0
 11
112.5
 21
121.0
 31
0.0
  0
LINE
  5
189
  8
DATA
  6
CONTINUOUS
 62
     7
 10
114.09999999999999
 20
-25.0
 30
0.0
 11
112.5
 21
-25.0
 31
0.0
  0
LINE
  5
18A
  8
DATA
  6
CONTINUOUS
 62
     7
 10
141.5
 20
109.40000000000001
 30
0.0
 11
141.5
 21
-13.4
 31
0.0
  0
LINE
  5
18B
  8
DATA
  6
CONTINUOUS
 62
     7
 10
112.5
 20
121.0
 30
0.0
 11
114.09999999999999
 21
121.0
 31
0.0
  0
CIRCLE
  5
18C
  8
DATA
  6
CONTINUOUS
 62
     7
 10
226.0
 20
-87.249999999999986
 30
0.0
 40
2.75
  0
LINE
  5
18D
  8
DATA
  6
CONTINUOUS
 62
     7
 10
227.558845726812
 20
-87.249999999999986
 30
0.0
 11
224.441154273188
 21
-87.249999999999986
 31
0.0
  0
LINE
  5
18E
  8
DATA
  6
CONTINUOUS
 62
     7
 10
226.0
 20
-88.808845726811967
 30
0.0
 11
226.0
 21
-85.691154273188033
 31
0.0
  0
CIRCLE
  5
18F
  8
DATA
  6
CONTINUOUS
 62
     7
 10
261.0
 20
-87.249999999999986
 30
0.0
 40
2.75
  0
LINE
  5
190
  8
DATA
  6
CONTINUOUS
 62
     7
 10
262.55884572681202
 20
-87.249999999999986
 30
0.0
 11
259.44115427318798
 21
-87.249999999999986
 31
0.0
  0
LINE
  5
191
  8
DATA
  6
CONTINUOUS
 62
     7
 10
261.0
 20
-88.808845726811967
 30
0.0
 11
261.0
 21
-85.691154273188033
 31
0.0
  0
CIRCLE
  5
192
  8
DATA
  6
CONTINUOUS
 62
     7
 10
233.5
 20
-74.75
 30
0.0
 40
3.9000000000000048
  0
CIRCLE
  5
193
  8
DATA
  6
CONTINUOUS
 62
     7
 10
233.5
 20
-74.75
 30
0.0
 40
2.8499999999999939
  0
CIRCLE
  5
194
  8
DATA
  6
CONTINUOUS
 62
     7
 10
233.5
 20
-74.75
 30
0.0
 40
0.75
  0
POLYLINE
  5
195
  8
DATA
  6
CONTINUOUS
 62
     7
 66
     1
 10
0.0
 20
0.0
 30
0.0
 70
     1
  0
VERTEX
  5
349
  8
DATA
  6
CONTINUOUS
 62
     7
 10
230.81532124826819
 20
-70.099999999999994
 30
0.0
  0
VERTEX
  5
34A
  8
DATA
  6
CONTINUOUS
 62
     7
 10
228.1306424965365
 20
-74.75
 30
0.0
  0
VERTEX
  5
34B
  8
DATA
  6
CONTINUOUS
 62
     7
 10
230.81532124826819
 20
-79.400000000000006
 30
0.0
  0
VERTEX
  5
34C
  8
DATA
  6
CONTINUOUS
 62
     7
 10
236.1846787517317
 20
-79.400000000000006
 30
0.0
  0
VERTEX
  5
34D
  8
DATA
  6
CONTINUOUS
 62
     7
 10
238.8693575034635
 20
-74.75
 30
0.0
  0
VERTEX
  5
34E
  8
DATA
  6
CONTINUOUS
 62
     7
 10
236.1846787517317
 20
-70.099999999999994
 30
0.0
  0
SEQEND
  5
34F
  8
DATA
  6
CONTINUOUS
 62
     7
  0
TEXT
  5
19E
  8
DATA
 62
     7
 10
241.69166666666661
 20
0.9538468879323229
 30
0.0
 40
3.8006293402777769
  1
USB 2.0 LR
 41
0.7
 11
241.69166666666661
 21
2.854161558071211
 31
0.0
 73
     2
  0
TEXT
  5
19F
  8
DATA
 62
     7
 10
228.30848148187641
 20
-5.1486345927593424
 30
0.0
 40
3.8006293402777769
  1
4-Port Extender R
 41
0.7
 11
228.30848148187641
 21
-3.2483199226204529
 31
0.0
 73
     2
  0
LINE
  5
1A0
  8
DATA
  6
CONTINUOUS
 62
     7
 10
237.40000000000001
 20
-21.0
 30
0.0
 11
229.59999999999999
 21
-21.0
 31
0.0
  0
LINE
  5
1A1
  8
DATA
  6
CONTINUOUS
 62
     7
 10
229.59999999999999
 20
-21.0
 30
0.0
 11
229.59999999999999
 21
-17.0
 31
0.0
  0
LINE
  5
1A2
  8
DATA
  6
CONTINUOUS
 62
     7
 10
237.40000000000001
 20
-21.0
 30
0.0
 11
237.40000000000001
 21
-17.0
 31
0.0
  0
LINE
  5
1A3
  8
DATA
  6
CONTINUOUS
 62
     7
 10
233.5
 20
-17.0
 30
0.0
 11
233.5
 21
-15.0
 31
0.0
  0
LINE
  5
1A4
  8
DATA
  6
CONTINUOUS
 62
     7
 10
228.1306424965365
 20
-17.0
 30
0.0
 11
228.1306424965365
 21
-15.0
 31
0.0
  0
LINE
  5
1A5
  8
DATA
  6
CONTINUOUS
 62
     7
 10
238.8693575034635
 20
-17.0
 30
0.0
 11
238.8693575034635
 21
-15.0
 31
0.0
  0
LINE
  5
1A6
  8
DATA
  6
CONTINUOUS
 62
     7
 10
228.1306424965365
 20
-17.0
 30
0.0
 11
238.8693575034635
 21
-17.0
 31
0.0
  0
TEXT
  5
1A7
  8
DATA
 62
     7
 10
228.65859660648039
 20
-13.10803918364269
 30
0.0
 40
3.0405034722222211
  1
5V DC
 41
0.7
 11
228.65859660648039
 21
-11.58778744753158
 31
0.0
 73
     2
  0
LINE
  5
1A8
  8
DATA
  6
CONTINUOUS
 62
     7
 10
244.75
 20
113.25
 30
0.0
 11
242.25
 21
113.25
 31
0.0
  0
LINE
  5
1A9
  8
DATA
  6
CONTINUOUS
 62
     7
 10
242.25
 20
116.75
 30
0.0
 11
244.75
 21
116.75
 31
0.0
  0
ARC
  5
1AA
  8
DATA
  6
CONTINUOUS
 62
     7
 10
242.25
 20
115.0
 30
0.0
 40
1.75
 50
90.0
 51
270.0
  0
ARC
  5
1AB
  8
DATA
  6
CONTINUOUS
 62
     7
 10
244.75
 20
115.0
 30
0.0
 40
1.75
 50
270.0
 51
90.0
  0
LINE
  5
1AC
  8
DATA
  6
CONTINUOUS
 62
     7
 10
244.75
 20
-17.25
 30
0.0
 11
242.25
 21
-17.25
 31
0.0
  0
LINE
  5
1AD
  8
DATA
  6
CONTINUOUS
 62
     7
 10
242.25
 20
-20.75
 30
0.0
 11
244.75
 21
-20.75
 31
0.0
  0
ARC
  5
1AE
  8
DATA
  6
CONTINUOUS
 62
     7
 10
242.25
 20
-19.0
 30
0.0
 40
1.75
 50
90.0
 51
270.0
  0
ARC
  5
1AF
  8
DATA
  6
CONTINUOUS
 62
     7
 10
244.75
 20
-19.0
 30
0.0
 40
1.75
 50
270.0
 51
90.0
  0
ARC
  5
1B0
  8
DATA
  6
CONTINUOUS
 62
     7
 10
215.5
 20
118.0
 30
0.0
 40
3.0
 50
90.0
 51
180.0
  0
ARC
  5
1B1
  8
DATA
  6
CONTINUOUS
 62
     7
 10
271.5
 20
118.0
 30
0.0
 40
3.0
 50
0.0
 51
90.0
  0
ARC
  5
1B2
  8
DATA
  6
CONTINUOUS
 62
     7
 10
215.5
 20
-22.0
 30
0.0
 40
3.0
 50
180.0
 51
270.0
  0
ARC
  5
1B3
  8
DATA
  6
CONTINUOUS
 62
     7
 10
271.5
 20
-22.0
 30
0.0
 40
3.0
 50
270.0
 51
0.0
  0
LINE
  5
1B4
  8
DATA
  6
CONTINUOUS
 62
     7
 10
139.90000000000001
 20
-15.0
 30
0.0
 11
115.6999999999999
 21
-15.0
 31
0.0
  0
LINE
  5
1B5
  8
DATA
  6
CONTINUOUS
 62
     7
 10
139.90000000000001
 20
111.0
 30
0.0
 11
115.6999999999999
 21
111.0
 31
0.0
  0
LINE
  5
1B6
  8
DATA
  6
CONTINUOUS
 62
     7
 10
274.5
 20
-92.150000000000006
 30
0.0
 11
212.5
 21
-92.150000000000006
 31
0.0
  0
LINE
  5
1B7
  8
DATA
  6
CONTINUOUS
 62
     7
 10
114.09999999999999
 20
112.59999999999999
 30
0.0
 11
114.09999999999999
 21
121.0
 31
0.0
  0
LINE
  5
1B8
  8
DATA
  6
CONTINUOUS
 62
     7
 10
139.90000000000001
 20
107.8
 30
0.0
 11
139.90000000000001
 21
-11.80000000000001
 31
0.0
  0
LINE
  5
1B9
  8
DATA
  6
CONTINUOUS
 62
     7
 10
138.30000000000001
 20
109.40000000000001
 30
0.0
 11
112.4999999999999
 21
109.40000000000001
 31
0.0
  0
LINE
  5
1BA
  8
DATA
  6
CONTINUOUS
 62
     7
 10
138.30000000000001
 20
-13.4
 30
0.0
 11
112.4999999999999
 21
-13.4
 31
0.0
  0
ARC
  5
1BB
  8
DATA
  6
CONTINUOUS
 62
     7
 10
138.30000000000001
 20
-11.80000000000004
 30
0.0
 40
1.599999999999965
 50
270.0
 51
0.0000000000010232
  0
ARC
  5
1BC
  8
DATA
  6
CONTINUOUS
 62
     7
 10
139.90000000000001
 20
-13.39999999999997
 30
0.0
 40
1.6000000000000221
 50
270.0
 51
359.99999999999892
  0
ARC
  5
1BD
  8
DATA
  6
CONTINUOUS
 62
     7
 10
138.30000000000001
 20
107.8
 30
0.0
 40
1.599999999999965
 50
0.0
 51
90.000000000001009
  0
ARC
  5
1BE
  8
DATA
  6
CONTINUOUS
 62
     7
 10
139.90000000000001
 20
109.40000000000001
 30
0.0
 40
1.6000000000000221
 50
0.0
 51
89.999999999998977
  0
ARC
  5
1BF
  8
DATA
  6
CONTINUOUS
 62
     7
 10
115.6999999999999
 20
112.59999999999999
 30
0.0
 40
1.599999999999965
 50
180.0
 51
270.00000000000102
  0
ARC
  5
1C0
  8
DATA
  6
CONTINUOUS
 62
     7
 10
114.09999999999999
 20
111.0
 30
0.0
 40
1.6000000000000221
 50
180.0
 51
269.99999999999898
  0
LINE
  5
1C1
  8
DATA
  6
CONTINUOUS
 62
     7
 10
112.5
 20
-25.0
 30
0.0
 11
112.5
 21
-15.0
 31
0.0
  0
LINE
  5
1C2
  8
DATA
  6
CONTINUOUS
 62
     7
 10
114.09999999999999
 20
-25.0
 30
0.0
 11
114.09999999999999
 21
-16.599999999999991
 31
0.0
  0
ARC
  5
1C3
  8
DATA
  6
CONTINUOUS
 62
     7
 10
115.6999999999999
 20
-16.600000000000019
 30
0.0
 40
1.6000000000000221
 50
90.0
 51
179.99999999999901
  0
ARC
  5
1C4
  8
DATA
  6
CONTINUOUS
 62
     7
 10
114.09999999999999
 20
-14.99999999999997
 30
0.0
 40
1.599999999999965
 50
90.0
 51
180.00000000000099
  0
LINE
  5
1C5
  8
DATA
  6
CONTINUOUS
 62
     7
 10
112.4999999999999
 20
-13.4
 30
0.0
 11
112.4999999999978
 21
109.40000000000001
 31
0.0
  0
CIRCLE
  5
1C6
  8
DATA
  6
CONTINUOUS
 62
     7
 10
123.90000000000001
 20
98.0
 30
0.0
 40
3.5
  0
LINE
  5
1C7
  8
DATA
  6
CONTINUOUS
 62
     7
 10
123.90000000000001
 20
96.200000000000003
 30
0.0
 11
123.90000000000001
 21
99.799999999999997
 31
0.0
  0
LINE
  5
1C8
  8
DATA
  6
CONTINUOUS
 62
     7
 10
125.7
 20
98.0
 30
0.0
 11
122.09999999999999
 21
98.0
 31
0.0
  0
CIRCLE
  5
1C9
  8
DATA
  6
CONTINUOUS
 62
     7
 10
123.90000000000001
 20
-3.0
 30
0.0
 40
3.5
  0
LINE
  5
1CA
  8
DATA
  6
CONTINUOUS
 62
     7
 10
123.90000000000001
 20
-4.8000000000000114
 30
0.0
 11
123.90000000000001
 21
-1.199999999999988
 31
0.0
  0
LINE
  5
1CB
  8
DATA
  6
CONTINUOUS
 62
     7
 10
125.7
 20
-3.0
 30
0.0
 11
122.09999999999999
 21
-3.0
 31
0.0
  0
LINE
  5
1CC
  8
DATA
  6
CONTINUOUS
 62
     7
 10
211.5
 20
100.7
 30
0.0
 11
211.5
 21
95.299999999999983
 31
0.0
  0
LINE
  5
1CD
  8
DATA
  6
CONTINUOUS
 62
     7
 10
212.30000000000001
 20
101.5
 30
0.0
 11
212.5
 21
101.5
 31
0.0
  0
LINE
  5
1CE
  8
DATA
  6
CONTINUOUS
 62
     7
 10
212.30000000000001
 20
94.500000000000014
 30
0.0
 11
212.5
 21
94.500000000000014
 31
0.0
  0
ARC
  5
1CF
  8
DATA
  6
CONTINUOUS
 62
     7
 10
212.30000000000001
 20
100.7
 30
0.0
 40
0.7999999999999972
 50
90.0
 51
180.0
  0
ARC
  5
1D0
  8
DATA
  6
CONTINUOUS
 62
     7
 10
212.30000000000001
 20
95.299999999999983
 30
0.0
 40
0.8000000000000113
 50
180.0
 51
270.0
  0
LINE
  5
1D1
  8
DATA
  6
CONTINUOUS
 62
     7
 10
211.5
 20
-0.3000000000000114
 30
0.0
 11
211.5
 21
-5.6999999999999877
 31
0.0
  0
LINE
  5
1D2
  8
DATA
  6
CONTINUOUS
 62
     7
 10
212.30000000000001
 20
0.5
 30
0.0
 11
212.5
 21
0.5
 31
0.0
  0
LINE
  5
1D3
  8
DATA
  6
CONTINUOUS
 62
     7
 10
212.30000000000001
 20
-6.5
 30
0.0
 11
212.5
 21
-6.5
 31
0.0
  0
ARC
  5
1D4
  8
DATA
  6
CONTINUOUS
 62
     7
 10
212.30000000000001
 20
-0.3000000000000114
 30
0.0
 40
0.8000000000000113
 50
90.0
 51
180.0
  0
ARC
  5
1D5
  8
DATA
  6
CONTINUOUS
 62
     7
 10
212.30000000000001
 20
-5.6999999999999877
 30
0.0
 40
0.8000000000000113
 50
180.0
 51
270.0
  0
LINE
  5
1D6
  8
DATA
  6
CONTINUOUS
 62
     7
 10
135.0005443764845
 20
12.24784081267482
 30
0.0
 11
121.7005443764846
 21
12.24784081267482
 31
0.0
  0
LINE
  5
1D7
  8
DATA
  6
CONTINUOUS
 62
     7
 10
135.0005443764845
 20
27.947840812674741
 30
0.0
 11
121.7005443764846
 21
27.947840812674741
 31
0.0
  0
LINE
  5
1D8
  8
DATA
  6
CONTINUOUS
 62
     7
 10
132.00054437648461
 20
26.247840812674809
 30
0.0
 11
124.7005443764846
 21
26.247840812674809
 31
0.0
  0
LINE
  5
1D9
  8
DATA
  6
CONTINUOUS
 62
     7
 10
132.00054437648461
 20
13.94784081267475
 30
0.0
 11
124.7005443764846
 21
13.94784081267475
 31
0.0
  0
LINE
  5
1DA
  8
DATA
  6
CONTINUOUS
 62
     7
 10
121.7005443764846
 20
27.947840812674741
 30
0.0
 11
121.7005443764846
 21
12.24784081267482
 31
0.0
  0
LINE
  5
1DB
  8
DATA
  6
CONTINUOUS
 62
     7
 10
135.0005443764845
 20
27.947840812674741
 30
0.0
 11
135.0005443764845
 21
12.24784081267482
 31
0.0
  0
LINE
  5
1DC
  8
DATA
  6
CONTINUOUS
 62
     7
 10
132.00054437648461
 20
26.247840812674809
 30
0.0
 11
132.00054437648461
 21
13.94784081267475
 31
0.0
  0
LINE
  5
1DD
  8
DATA
  6
CONTINUOUS
 62
     7
 10
121.7005443764846
 20
22.322840812674759
 30
0.0
 11
124.7005443764846
 21
22.322840812674759
 31
0.0
  0
LINE
  5
1DE
  8
DATA
  6
CONTINUOUS
 62
     7
 10
124.7005443764846
 20
17.87284081267482
 30
0.0
 11
121.7005443764846
 21
17.87284081267482
 31
0.0
  0
LINE
  5
1DF
  8
DATA
  6
CONTINUOUS
 62
     7
 10
124.7005443764846
 20
26.247840812674809
 30
0.0
 11
124.7005443764846
 21
22.322840812674759
 31
0.0
  0
LINE
  5
1E0
  8
DATA
  6
CONTINUOUS
 62
     7
 10
124.7005443764846
 20
17.87284081267482
 30
0.0
 11
124.7005443764846
 21
13.94784081267475
 31
0.0
  0
CIRCLE
  5
1E1
  8
DATA
  6
CONTINUOUS
 62
     7
 10
124.5
 20
6.1612560237221032
 30
0.0
 40
1.5
  0
TEXT
  5
1E2
  8
DATA
 62
     7
 10
214.35268080121409
 20
70.582932916863854
 30
0.0
 40
3.0405034722222211
  1
USB Out
 50
270.0
 41
0.7
 11
215.8729325373252
 21
70.582932916863854
 31
0.0
 73
     2
  0
TEXT
  5
1E3
  8
DATA
 62
     7
 10
214.35268080121409
 20
7.0165279065332404
 30
0.0
 40
3.0405034722222211
  1
H
 50
270.0
 41
0.7
 11
215.8729325373252
 21
7.0165279065332404
 31
0.0
 73
     2
  0
TEXT
  5
1E4
  8
DATA
 62
     7
 10
214.35268080121409
 20
23.86196079411279
 30
0.0
 40
3.0405034722222211
  1
Link
 50
270.0
 41
0.7
 11
215.8729325373252
 21
23.86196079411279
 31
0.0
 73
     2
  0
POLYLINE
  5
1E5
  8
DATA
  6
CONTINUOUS
 62
     7
 66
     1
 10
0.0
 20
0.0
 30
0.0
 70
     1
  0
VERTEX
  5
350
  8
DATA
  6
CONTINUOUS
 62
     7
 10
122.3681995277251
 20
26.060995120737669
 30
0.0
  0
VERTEX
  5
351
  8
DATA
  6
CONTINUOUS
 62
     7
 10
124.157985362213
 20
26.060995120737669
 30
0.0
  0
VERTEX
  5
352
  8
DATA
  6
CONTINUOUS
 62
     7
 10
124.157985362213
 20
22.96099512073766
 30
0.0
  0
VERTEX
  5
353
  8
DATA
  6
CONTINUOUS
 62
     7
 10
122.3681995277251
 20
22.96099512073766
 30
0.0
  0
SEQEND
  5
354
  8
DATA
  6
CONTINUOUS
 62
     7
  0
POLYLINE
  5
1EC
  8
DATA
  6
CONTINUOUS
 62
     7
 66
     1
 10
0.0
 20
0.0
 30
0.0
 70
     1
  0
VERTEX
  5
355
  8
DATA
  6
CONTINUOUS
 62
     7
 10
122.3681995277251
 20
17.234686504611869
 30
0.0
  0
VERTEX
  5
356
  8
DATA
  6
CONTINUOUS
 62
     7
 10
124.157985362213
 20
17.234686504611869
 30
0.0
  0
VERTEX
  5
357
  8
DATA
  6
CONTINUOUS
 62
     7
 10
124.157985362213
 20
14.13468650461186
 30
0.0
  0
VERTEX
  5
358
  8
DATA
  6
CONTINUOUS
 62
     7
 10
122.3681995277251
 20
14.13468650461186
 30
0.0
  0
SEQEND
  5
359
  8
DATA
  6
CONTINUOUS
 62
     7
  0
LINE
  5
1F3
  8
DATA
  6
CONTINUOUS
 62
     7
 10
212.5
 20
197.75
 30
0.0
 11
212.5
 21
168.75
 31
0.0
  0
LINE
  5
1F4
  8
DATA
  6
CONTINUOUS
 62
     7
 10
274.5
 20
197.75
 30
0.0
 11
212.5
 21
197.75
 31
0.0
  0
LINE
  5
1F5
  8
DATA
  6
CONTINUOUS
 62
     7
 10
274.5
 20
168.75
 30
0.0
 11
274.5
 21
197.75
 31
0.0
  0
LINE
  5
1F6
  8
DATA
  6
CONTINUOUS
 62
     7
 10
212.5
 20
168.75
 30
0.0
 11
274.5
 21
168.75
 31
0.0
  0
CIRCLE
  5
1F7
  8
DATA
  6
CONTINUOUS
 62
     7
 10
226.0
 20
191.25
 30
0.0
 40
2.75
  0
LINE
  5
1F8
  8
DATA
  6
CONTINUOUS
 62
     7
 10
227.558845726812
 20
191.25
 30
0.0
 11
224.441154273188
 21
191.25
 31
0.0
  0
LINE
  5
1F9
  8
DATA
  6
CONTINUOUS
 62
     7
 10
226.0
 20
192.808845726812
 30
0.0
 11
226.0
 21
189.691154273188
 31
0.0
  0
CIRCLE
  5
1FA
  8
DATA
  6
CONTINUOUS
 62
     7
 10
261.0
 20
191.25
 30
0.0
 40
2.75
  0
LINE
  5
1FB
  8
DATA
  6
CONTINUOUS
 62
     7
 10
262.55884572681202
 20
191.25
 30
0.0
 11
259.44115427318798
 21
191.25
 31
0.0
  0
LINE
  5
1FC
  8
DATA
  6
CONTINUOUS
 62
     7
 10
261.0
 20
192.808845726812
 30
0.0
 11
261.0
 21
189.691154273188
 31
0.0
  0
LINE
  5
1FD
  8
DATA
  6
CONTINUOUS
 62
     7
 10
274.5
 20
196.15000000000001
 30
0.0
 11
212.5
 21
196.15000000000001
 31
0.0
  0
LINE
  5
1FE
  8
DATA
  6
CONTINUOUS
 62
     7
 10
122.20232561745161
 20
86.337817368804949
 30
0.0
 11
122.20232561745161
 21
90.984105546883555
 31
0.0
  0
LINE
  5
1FF
  8
DATA
  6
CONTINUOUS
 62
     7
 10
134.1023256174517
 20
85.737817368804983
 30
0.0
 11
122.8023256174517
 21
85.737817368804983
 31
0.0
  0
LINE
  5
200
  8
DATA
  6
CONTINUOUS
 62
     7
 10
134.70232561745161
 20
90.984105546883555
 30
0.0
 11
134.70232561745161
 21
86.337817368804949
 31
0.0
  0
LINE
  5
201
  8
DATA
  6
CONTINUOUS
 62
     7
 10
135.5023256174517
 20
90.984105546883555
 30
0.0
 11
121.4023256174516
 21
90.984105546883555
 31
0.0
  0
LINE
  5
202
  8
DATA
  6
CONTINUOUS
 62
     7
 10
134.20232561745161
 20
88.137817368804974
 30
0.0
 11
122.70232561745161
 21
88.137817368804974
 31
0.0
  0
LINE
  5
203
  8
DATA
  6
CONTINUOUS
 62
     7
 10
134.20232561745161
 20
89.437817368804929
 30
0.0
 11
122.70232561745161
 21
89.437817368804929
 31
0.0
  0
LINE
  5
204
  8
DATA
  6
CONTINUOUS
 62
     7
 10
127.8644699268073
 20
88.137817368804974
 30
0.0
 11
127.8644699268073
 21
88.062817368804915
 31
0.0
  0
LINE
  5
205
  8
DATA
  6
CONTINUOUS
 62
     7
 10
126.6144699268073
 20
88.137817368804974
 30
0.0
 11
126.6144699268073
 21
88.062817368804915
 31
0.0
  0
LINE
  5
206
  8
DATA
  6
CONTINUOUS
 62
     7
 10
126.6144699268073
 20
88.062817368804915
 30
0.0
 11
127.8644699268073
 21
88.062817368804915
 31
0.0
  0
LINE
  5
207
  8
DATA
  6
CONTINUOUS
 62
     7
 10
129.0401813080959
 20
88.137817368804974
 30
0.0
 11
129.0401813080959
 21
88.062817368804915
 31
0.0
  0
LINE
  5
208
  8
DATA
  6
CONTINUOUS
 62
     7
 10
130.2901813080959
 20
88.137817368804974
 30
0.0
 11
130.2901813080959
 21
88.062817368804915
 31
0.0
  0
LINE
  5
209
  8
DATA
  6
CONTINUOUS
 62
     7
 10
130.2901813080959
 20
88.062817368804915
 30
0.0
 11
129.0401813080959
 21
88.062817368804915
 31
0.0
  0
LINE
  5
20A
  8
DATA
  6
CONTINUOUS
 62
     7
 10
125.4444699268073
 20
88.137817368804974
 30
0.0
 11
125.4444699268073
 21
88.062817368804915
 31
0.0
  0
LINE
  5
20B
  8
DATA
  6
CONTINUOUS
 62
     7
 10
124.1944699268073
 20
88.137817368804974
 30
0.0
 11
124.1944699268073
 21
88.062817368804915
 31
0.0
  0
LINE
  5
20C
  8
DATA
  6
CONTINUOUS
 62
     7
 10
124.1944699268073
 20
88.062817368804915
 30
0.0
 11
125.4444699268073
 21
88.062817368804915
 31
0.0
  0
LINE
  5
20D
  8
DATA
  6
CONTINUOUS
 62
     7
 10
131.46018130809591
 20
88.137817368804974
 30
0.0
 11
131.46018130809591
 21
88.062817368804915
 31
0.0
  0
LINE
  5
20E
  8
DATA
  6
CONTINUOUS
 62
     7
 10
132.71018130809591
 20
88.137817368804974
 30
0.0
 11
132.71018130809591
 21
88.062817368804915
 31
0.0
  0
LINE
  5
20F
  8
DATA
  6
CONTINUOUS
 62
     7
 10
132.71018130809591
 20
88.062817368804915
 30
0.0
 11
131.46018130809591
 21
88.062817368804915
 31
0.0
  0
ARC
  5
210
  8
DATA
  6
CONTINUOUS
 62
     7
 10
122.8023256174517
 20
86.337817368804949
 30
0.0
 40
0.6000000000000229
 50
180.0
 51
270.0
  0
ARC
  5
211
  8
DATA
  6
CONTINUOUS
 62
     7
 10
134.1023256174517
 20
86.337817368804949
 30
0.0
 40
0.5999999999999944
 50
270.0
 51
0.0
  0
LINE
  5
212
  8
DATA
  6
CONTINUOUS
 62
     7
 10
122.70232561745161
 20
88.137817368804974
 30
0.0
 11
122.70232561745161
 21
89.437817368804929
 31
0.0
  0
LINE
  5
213
  8
DATA
  6
CONTINUOUS
 62
     7
 10
134.20232561745161
 20
88.137817368804974
 30
0.0
 11
134.20232561745161
 21
89.437817368804929
 31
0.0
  0
LINE
  5
214
  8
DATA
  6
CONTINUOUS
 62
     7
 10
121.4023256174516
 20
85.170781399519555
 30
0.0
 11
135.5023256174517
 21
85.170781399519555
 31
0.0
  0
LINE
  5
215
  8
DATA
  6
CONTINUOUS
 62
     7
 10
135.5023256174517
 20
90.984105546883555
 30
0.0
 11
135.5023256174517
 21
85.170781399519555
 31
0.0
  0
LINE
  5
216
  8
DATA
  6
CONTINUOUS
 62
     7
 10
121.4023256174516
 20
90.984105546883555
 30
0.0
 11
121.4023256174516
 21
85.170781399519555
 31
0.0
  0
CIRCLE
  5
217
  8
DATA
  6
CONTINUOUS
 62
     7
 10
124.5
 20
81.0
 30
0.0
 40
1.5
  0
LINE
  5
218
  8
DATA
  6
CONTINUOUS
 62
     7
 10
122.20232561745161
 20
71.337817368804949
 30
0.0
 11
122.20232561745161
 21
75.984105546883555
 31
0.0
  0
LINE
  5
219
  8
DATA
  6
CONTINUOUS
 62
     7
 10
134.1023256174517
 20
70.737817368804969
 30
0.0
 11
122.8023256174517
 21
70.737817368804969
 31
0.0
  0
LINE
  5
21A
  8
DATA
  6
CONTINUOUS
 62
     7
 10
134.70232561745161
 20
75.984105546883555
 30
0.0
 11
134.70232561745161
 21
71.337817368804949
 31
0.0
  0
LINE
  5
21B
  8
DATA
  6
CONTINUOUS
 62
     7
 10
135.5023256174517
 20
75.984105546883555
 30
0.0
 11
121.4023256174516
 21
75.984105546883555
 31
0.0
  0
LINE
  5
21C
  8
DATA
  6
CONTINUOUS
 62
     7
 10
134.20232561745161
 20
73.137817368804988
 30
0.0
 11
122.70232561745161
 21
73.137817368804988
 31
0.0
  0
LINE
  5
21D
  8
DATA
  6
CONTINUOUS
 62
     7
 10
134.20232561745161
 20
74.437817368804943
 30
0.0
 11
122.70232561745161
 21
74.437817368804943
 31
0.0
  0
LINE
  5
21E
  8
DATA
  6
CONTINUOUS
 62
     7
 10
127.8644699268073
 20
73.137817368804988
 30
0.0
 11
127.8644699268073
 21
73.062817368804943
 31
0.0
  0
LINE
  5
21F
  8
DATA
  6
CONTINUOUS
 62
     7
 10
126.6144699268073
 20
73.137817368804988
 30
0.0
 11
126.6144699268073
 21
73.062817368804943
 31
0.0
  0
LINE
  5
220
  8
DATA
  6
CONTINUOUS
 62
     7
 10
126.6144699268073
 20
73.062817368804943
 30
0.0
 11
127.8644699268073
 21
73.062817368804943
 31
0.0
  0
LINE
  5
221
  8
DATA
  6
CONTINUOUS
 62
     7
 10
129.0401813080959
 20
73.137817368804988
 30
0.0
 11
129.0401813080959
 21
73.062817368804943
 31
0.0
  0
LINE
  5
222
  8
DATA
  6
CONTINUOUS
 62
     7
 10
130.2901813080959
 20
73.137817368804988
 30
0.0
 11
130.2901813080959
 21
73.062817368804943
 31
0.0
  0
LINE
  5
223
  8
DATA
  6
CONTINUOUS
 62
     7
 10
130.2901813080959
 20
73.062817368804943
 30
0.0
 11
129.0401813080959
 21
73.062817368804943
 31
0.0
  0
LINE
  5
224
  8
DATA
  6
CONTINUOUS
 62
     7
 10
125.4444699268073
 20
73.137817368804988
 30
0.0
 11
125.4444699268073
 21
73.062817368804943
 31
0.0
  0
LINE
  5
225
  8
DATA
  6
CONTINUOUS
 62
     7
 10
124.1944699268073
 20
73.137817368804988
 30
0.0
 11
124.1944699268073
 21
73.062817368804943
 31
0.0
  0
LINE
  5
226
  8
DATA
  6
CONTINUOUS
 62
     7
 10
124.1944699268073
 20
73.062817368804943
 30
0.0
 11
125.4444699268073
 21
73.062817368804943
 31
0.0
  0
LINE
  5
227
  8
DATA
  6
CONTINUOUS
 62
     7
 10
131.46018130809591
 20
73.137817368804988
 30
0.0
 11
131.46018130809591
 21
73.062817368804943
 31
0.0
  0
LINE
  5
228
  8
DATA
  6
CONTINUOUS
 62
     7
 10
132.71018130809591
 20
73.137817368804988
 30
0.0
 11
132.71018130809591
 21
73.062817368804943
 31
0.0
  0
LINE
  5
229
  8
DATA
  6
CONTINUOUS
 62
     7
 10
132.71018130809591
 20
73.062817368804943
 30
0.0
 11
131.46018130809591
 21
73.062817368804943
 31
0.0
  0
ARC
  5
22A
  8
DATA
  6
CONTINUOUS
 62
     7
 10
122.8023256174517
 20
71.337817368804949
 30
0.0
 40
0.6000000000000229
 50
180.0
 51
270.0
  0
ARC
  5
22B
  8
DATA
  6
CONTINUOUS
 62
     7
 10
134.1023256174517
 20
71.337817368804949
 30
0.0
 40
0.5999999999999944
 50
270.0
 51
0.0
  0
LINE
  5
22C
  8
DATA
  6
CONTINUOUS
 62
     7
 10
122.70232561745161
 20
73.137817368804988
 30
0.0
 11
122.70232561745161
 21
74.437817368804943
 31
0.0
  0
LINE
  5
22D
  8
DATA
  6
CONTINUOUS
 62
     7
 10
134.20232561745161
 20
73.137817368804988
 30
0.0
 11
134.20232561745161
 21
74.437817368804943
 31
0.0
  0
LINE
  5
22E
  8
DATA
  6
CONTINUOUS
 62
     7
 10
121.4023256174516
 20
70.170781399519541
 30
0.0
 11
135.5023256174517
 21
70.170781399519541
 31
0.0
  0
LINE
  5
22F
  8
DATA
  6
CONTINUOUS
 62
     7
 10
135.5023256174517
 20
75.984105546883555
 30
0.0
 11
135.5023256174517
 21
70.170781399519541
 31
0.0
  0
LINE
  5
230
  8
DATA
  6
CONTINUOUS
 62
     7
 10
121.4023256174516
 20
75.984105546883555
 30
0.0
 11
121.4023256174516
 21
70.170781399519541
 31
0.0
  0
CIRCLE
  5
231
  8
DATA
  6
CONTINUOUS
 62
     7
 10
124.5
 20
66.0
 30
0.0
 40
1.5
  0
LINE
  5
232
  8
DATA
  6
CONTINUOUS
 62
     7
 10
122.20232561745161
 20
56.337817368804963
 30
0.0
 11
122.20232561745161
 21
60.984105546883569
 31
0.0
  0
LINE
  5
233
  8
DATA
  6
CONTINUOUS
 62
     7
 10
134.1023256174517
 20
55.737817368804969
 30
0.0
 11
122.8023256174517
 21
55.737817368804969
 31
0.0
  0
LINE
  5
234
  8
DATA
  6
CONTINUOUS
 62
     7
 10
134.70232561745161
 20
60.984105546883569
 30
0.0
 11
134.70232561745161
 21
56.337817368804963
 31
0.0
  0
LINE
  5
235
  8
DATA
  6
CONTINUOUS
 62
     7
 10
135.5023256174517
 20
60.984105546883569
 30
0.0
 11
121.4023256174516
 21
60.984105546883569
 31
0.0
  0
LINE
  5
236
  8
DATA
  6
CONTINUOUS
 62
     7
 10
134.20232561745161
 20
58.137817368804981
 30
0.0
 11
122.70232561745161
 21
58.137817368804981
 31
0.0
  0
LINE
  5
237
  8
DATA
  6
CONTINUOUS
 62
     7
 10
134.20232561745161
 20
59.43781736880495
 30
0.0
 11
122.70232561745161
 21
59.43781736880495
 31
0.0
  0
LINE
  5
238
  8
DATA
  6
CONTINUOUS
 62
     7
 10
127.8644699268073
 20
58.137817368804981
 30
0.0
 11
127.8644699268073
 21
58.062817368804957
 31
0.0
  0
LINE
  5
239
  8
DATA
  6
CONTINUOUS
 62
     7
 10
126.6144699268073
 20
58.137817368804981
 30
0.0
 11
126.6144699268073
 21
58.062817368804957
 31
0.0
  0
LINE
  5
23A
  8
DATA
  6
CONTINUOUS
 62
     7
 10
126.6144699268073
 20
58.062817368804957
 30
0.0
 11
127.8644699268073
 21
58.062817368804957
 31
0.0
  0
LINE
  5
23B
  8
DATA
  6
CONTINUOUS
 62
     7
 10
129.0401813080959
 20
58.137817368804981
 30
0.0
 11
129.0401813080959
 21
58.062817368804957
 31
0.0
  0
LINE
  5
23C
  8
DATA
  6
CONTINUOUS
 62
     7
 10
130.2901813080959
 20
58.137817368804981
 30
0.0
 11
130.2901813080959
 21
58.062817368804957
 31
0.0
  0
LINE
  5
23D
  8
DATA
  6
CONTINUOUS
 62
     7
 10
130.2901813080959
 20
58.062817368804957
 30
0.0
 11
129.0401813080959
 21
58.062817368804957
 31
0.0
  0
LINE
  5
23E
  8
DATA
  6
CONTINUOUS
 62
     7
 10
125.4444699268073
 20
58.137817368804981
 30
0.0
 11
125.4444699268073
 21
58.062817368804957
 31
0.0
  0
LINE
  5
23F
  8
DATA
  6
CONTINUOUS
 62
     7
 10
124.1944699268073
 20
58.137817368804981
 30
0.0
 11
124.1944699268073
 21
58.062817368804957
 31
0.0
  0
LINE
  5
240
  8
DATA
  6
CONTINUOUS
 62
     7
 10
124.1944699268073
 20
58.062817368804957
 30
0.0
 11
125.4444699268073
 21
58.062817368804957
 31
0.0
  0
LINE
  5
241
  8
DATA
  6
CONTINUOUS
 62
     7
 10
131.46018130809591
 20
58.137817368804981
 30
0.0
 11
131.46018130809591
 21
58.062817368804957
 31
0.0
  0
LINE
  5
242
  8
DATA
  6
CONTINUOUS
 62
     7
 10
132.71018130809591
 20
58.137817368804981
 30
0.0
 11
132.71018130809591
 21
58.062817368804957
 31
0.0
  0
LINE
  5
243
  8
DATA
  6
CONTINUOUS
 62
     7
 10
132.71018130809591
 20
58.062817368804957
 30
0.0
 11
131.46018130809591
 21
58.062817368804957
 31
0.0
  0
ARC
  5
244
  8
DATA
  6
CONTINUOUS
 62
     7
 10
122.8023256174517
 20
56.337817368804963
 30
0.0
 40
0.6000000000000229
 50
180.0
 51
270.0
  0
ARC
  5
245
  8
DATA
  6
CONTINUOUS
 62
     7
 10
134.1023256174517
 20
56.337817368804963
 30
0.0
 40
0.5999999999999944
 50
270.0
 51
0.0
  0
LINE
  5
246
  8
DATA
  6
CONTINUOUS
 62
     7
 10
122.70232561745161
 20
58.137817368804981
 30
0.0
 11
122.70232561745161
 21
59.43781736880495
 31
0.0
  0
LINE
  5
247
  8
DATA
  6
CONTINUOUS
 62
     7
 10
134.20232561745161
 20
58.137817368804981
 30
0.0
 11
134.20232561745161
 21
59.43781736880495
 31
0.0
  0
LINE
  5
248
  8
DATA
  6
CONTINUOUS
 62
     7
 10
121.4023256174516
 20
55.170781399519541
 30
0.0
 11
135.5023256174517
 21
55.170781399519541
 31
0.0
  0
LINE
  5
249
  8
DATA
  6
CONTINUOUS
 62
     7
 10
135.5023256174517
 20
60.984105546883569
 30
0.0
 11
135.5023256174517
 21
55.170781399519541
 31
0.0
  0
LINE
  5
24A
  8
DATA
  6
CONTINUOUS
 62
     7
 10
121.4023256174516
 20
60.984105546883569
 30
0.0
 11
121.4023256174516
 21
55.170781399519541
 31
0.0
  0
CIRCLE
  5
24B
  8
DATA
  6
CONTINUOUS
 62
     7
 10
124.5
 20
51.0
 30
0.0
 40
1.5
  0
LINE
  5
24C
  8
DATA
  6
CONTINUOUS
 62
     7
 10
122.20232561745161
 20
41.337817368804963
 30
0.0
 11
122.20232561745161
 21
45.984105546883569
 31
0.0
  0
LINE
  5
24D
  8
DATA
  6
CONTINUOUS
 62
     7
 10
134.1023256174517
 20
40.737817368804969
 30
0.0
 11
122.8023256174517
 21
40.737817368804969
 31
0.0
  0
LINE
  5
24E
  8
DATA
  6
CONTINUOUS
 62
     7
 10
134.70232561745161
 20
45.984105546883569
 30
0.0
 11
134.70232561745161
 21
41.337817368804963
 31
0.0
  0
LINE
  5
24F
  8
DATA
  6
CONTINUOUS
 62
     7
 10
135.5023256174517
 20
45.984105546883569
 30
0.0
 11
121.4023256174516
 21
45.984105546883569
 31
0.0
  0
LINE
  5
250
  8
DATA
  6
CONTINUOUS
 62
     7
 10
134.20232561745161
 20
43.137817368804981
 30
0.0
 11
122.70232561745161
 21
43.137817368804981
 31
0.0
  0
LINE
  5
251
  8
DATA
  6
CONTINUOUS
 62
     7
 10
134.20232561745161
 20
44.43781736880495
 30
0.0
 11
122.70232561745161
 21
44.43781736880495
 31
0.0
  0
LINE
  5
252
  8
DATA
  6
CONTINUOUS
 62
     7
 10
127.8644699268073
 20
43.137817368804981
 30
0.0
 11
127.8644699268073
 21
43.06281736880495
 31
0.0
  0
LINE
  5
253
  8
DATA
  6
CONTINUOUS
 62
     7
 10
126.6144699268073
 20
43.137817368804981
 30
0.0
 11
126.6144699268073
 21
43.06281736880495
 31
0.0
  0
LINE
  5
254
  8
DATA
  6
CONTINUOUS
 62
     7
 10
126.6144699268073
 20
43.06281736880495
 30
0.0
 11
127.8644699268073
 21
43.06281736880495
 31
0.0
  0
LINE
  5
255
  8
DATA
  6
CONTINUOUS
 62
     7
 10
129.0401813080959
 20
43.137817368804981
 30
0.0
 11
129.0401813080959
 21
43.06281736880495
 31
0.0
  0
LINE
  5
256
  8
DATA
  6
CONTINUOUS
 62
     7
 10
130.2901813080959
 20
43.137817368804981
 30
0.0
 11
130.2901813080959
 21
43.06281736880495
 31
0.0
  0
LINE
  5
257
  8
DATA
  6
CONTINUOUS
 62
     7
 10
130.2901813080959
 20
43.06281736880495
 30
0.0
 11
129.0401813080959
 21
43.06281736880495
 31
0.0
  0
LINE
  5
258
  8
DATA
  6
CONTINUOUS
 62
     7
 10
125.4444699268073
 20
43.137817368804981
 30
0.0
 11
125.4444699268073
 21
43.06281736880495
 31
0.0
  0
LINE
  5
259
  8
DATA
  6
CONTINUOUS
 62
     7
 10
124.1944699268073
 20
43.137817368804981
 30
0.0
 11
124.1944699268073
 21
43.06281736880495
 31
0.0
  0
LINE
  5
25A
  8
DATA
  6
CONTINUOUS
 62
     7
 10
124.1944699268073
 20
43.06281736880495
 30
0.0
 11
125.4444699268073
 21
43.06281736880495
 31
0.0
  0
LINE
  5
25B
  8
DATA
  6
CONTINUOUS
 62
     7
 10
131.46018130809591
 20
43.137817368804981
 30
0.0
 11
131.46018130809591
 21
43.06281736880495
 31
0.0
  0
LINE
  5
25C
  8
DATA
  6
CONTINUOUS
 62
     7
 10
132.71018130809591
 20
43.137817368804981
 30
0.0
 11
132.71018130809591
 21
43.06281736880495
 31
0.0
  0
LINE
  5
25D
  8
DATA
  6
CONTINUOUS
 62
     7
 10
132.71018130809591
 20
43.06281736880495
 30
0.0
 11
131.46018130809591
 21
43.06281736880495
 31
0.0
  0
ARC
  5
25E
  8
DATA
  6
CONTINUOUS
 62
     7
 10
122.8023256174517
 20
41.337817368804963
 30
0.0
 40
0.6000000000000229
 50
180.0
 51
270.0
  0
ARC
  5
25F
  8
DATA
  6
CONTINUOUS
 62
     7
 10
134.1023256174517
 20
41.337817368804963
 30
0.0
 40
0.5999999999999944
 50
270.0
 51
0.0
  0
LINE
  5
260
  8
DATA
  6
CONTINUOUS
 62
     7
 10
122.70232561745161
 20
43.137817368804981
 30
0.0
 11
122.70232561745161
 21
44.43781736880495
 31
0.0
  0
LINE
  5
261
  8
DATA
  6
CONTINUOUS
 62
     7
 10
134.20232561745161
 20
43.137817368804981
 30
0.0
 11
134.20232561745161
 21
44.43781736880495
 31
0.0
  0
LINE
  5
262
  8
DATA
  6
CONTINUOUS
 62
     7
 10
121.4023256174516
 20
40.17078139951952
 30
0.0
 11
135.5023256174517
 21
40.17078139951952
 31
0.0
  0
LINE
  5
263
  8
DATA
  6
CONTINUOUS
 62
     7
 10
135.5023256174517
 20
45.984105546883569
 30
0.0
 11
135.5023256174517
 21
40.17078139951952
 31
0.0
  0
LINE
  5
264
  8
DATA
  6
CONTINUOUS
 62
     7
 10
121.4023256174516
 20
45.984105546883569
 30
0.0
 11
121.4023256174516
 21
40.17078139951952
 31
0.0
  0
CIRCLE
  5
265
  8
DATA
  6
CONTINUOUS
 62
     7
 10
124.5
 20
36.0
 30
0.0
 40
1.5
  0
TEXT
  5
266
  8
DATA
 62
     7
 10
-29.236666408869741
 20
-140.55231794035711
 30
0.0
 40
8.1442057291666661
  1
送信機
 41
0.7
 11
-29.236666408869741
 21
-132.40811221119051
 31
0.0
 73
     3
  0
LINE
  5
267
  8
DATA
  6
CONTINUOUS
 62
     7
 10
-37.500000000000021
 20
-143.75
 30
0.0
 11
12.5
 21
-143.75
 31
0.0
  0
TEXT
  5
268
  8
DATA
 62
     7
 10
226.22450880460789
 20
-141.002417310678
 30
0.0
 40
8.1442057291666661
  1
受信機
 41
0.7
 11
226.22450880460789
 21
-132.8582115815114
 31
0.0
 73
     3
  0
LINE
  5
269
  8
DATA
  6
CONTINUOUS
 62
     7
 10
217.72163027977589
 20
-143.75
 30
0.0
 11
273.97163027977581
 21
-143.75
 31
0.0
  0
LINE
  5
26A
  8
DATA
  6
CONTINUOUS
 62
     7
 10
9.999999999999984
 20
113.25
 30
0.0
 11
7.4999999999999867
 21
113.25
 31
0.0
  0
LINE
  5
26B
  8
DATA
  6
CONTINUOUS
 62
     7
 10
7.4999999999999867
 20
116.75
 30
0.0
 11
9.999999999999984
 21
116.75
 31
0.0
  0
ARC
  5
26C
  8
DATA
  6
CONTINUOUS
 62
     7
 10
7.4999999999999867
 20
115.0
 30
0.0
 40
1.75
 50
90.0
 51
270.0
  0
ARC
  5
26D
  8
DATA
  6
CONTINUOUS
 62
     7
 10
9.999999999999984
 20
115.0
 30
0.0
 40
1.75
 50
270.0
 51
90.0
  0
LINE
  5
26E
  8
DATA
  6
CONTINUOUS
 62
     7
 10
-33.000000000000007
 20
113.25
 30
0.0
 11
-35.500000000000007
 21
113.25
 31
0.0
  0
LINE
  5
26F
  8
DATA
  6
CONTINUOUS
 62
     7
 10
-35.500000000000007
 20
116.75
 30
0.0
 11
-33.000000000000007
 21
116.75
 31
0.0
  0
ARC
  5
270
  8
DATA
  6
CONTINUOUS
 62
     7
 10
-35.500000000000007
 20
115.0
 30
0.0
 40
1.75
 50
90.0
 51
270.0
  0
ARC
  5
271
  8
DATA
  6
CONTINUOUS
 62
     7
 10
-33.000000000000007
 20
115.0
 30
0.0
 40
1.75
 50
270.0
 51
90.0
  0
LINE
  5
272
  8
DATA
  6
CONTINUOUS
 62
     7
 10
-33.000000000000007
 20
-17.25
 30
0.0
 11
-35.500000000000007
 21
-17.25
 31
0.0
  0
LINE
  5
273
  8
DATA
  6
CONTINUOUS
 62
     7
 10
-35.500000000000007
 20
-20.75
 30
0.0
 11
-33.000000000000007
 21
-20.75
 31
0.0
  0
ARC
  5
274
  8
DATA
  6
CONTINUOUS
 62
     7
 10
-35.500000000000007
 20
-19.0
 30
0.0
 40
1.75
 50
90.0
 51
270.0
  0
ARC
  5
275
  8
DATA
  6
CONTINUOUS
 62
     7
 10
-33.000000000000007
 20
-19.0
 30
0.0
 40
1.75
 50
270.0
 51
90.0
  0
LINE
  5
276
  8
DATA
  6
CONTINUOUS
 62
     7
 10
9.999999999999984
 20
-17.25
 30
0.0
 11
7.4999999999999867
 21
-17.25
 31
0.0
  0
LINE
  5
277
  8
DATA
  6
CONTINUOUS
 62
     7
 10
7.4999999999999867
 20
-20.75
 30
0.0
 11
9.999999999999984
 21
-20.75
 31
0.0
  0
ARC
  5
278
  8
DATA
  6
CONTINUOUS
 62
     7
 10
7.4999999999999867
 20
-19.0
 30
0.0
 40
1.75
 50
90.0
 51
270.0
  0
ARC
  5
279
  8
DATA
  6
CONTINUOUS
 62
     7
 10
9.999999999999984
 20
-19.0
 30
0.0
 40
1.75
 50
270.0
 51
90.0
  0
LINE
  5
27A
  8
DATA
  6
CONTINUOUS
 62
     7
 10
266.25
 20
113.25
 30
0.0
 11
263.75
 21
113.25
 31
0.0
  0
LINE
  5
27B
  8
DATA
  6
CONTINUOUS
 62
     7
 10
263.75
 20
116.75
 30
0.0
 11
266.25
 21
116.75
 31
0.0
  0
ARC
  5
27C
  8
DATA
  6
CONTINUOUS
 62
     7
 10
263.75
 20
115.0
 30
0.0
 40
1.75
 50
90.0
 51
270.0
  0
ARC
  5
27D
  8
DATA
  6
CONTINUOUS
 62
     7
 10
266.25
 20
115.0
 30
0.0
 40
1.75
 50
270.0
 51
90.0
  0
LINE
  5
27E
  8
DATA
  6
CONTINUOUS
 62
     7
 10
223.25
 20
113.25
 30
0.0
 11
220.75
 21
113.25
 31
0.0
  0
LINE
  5
27F
  8
DATA
  6
CONTINUOUS
 62
     7
 10
220.75
 20
116.75
 30
0.0
 11
223.25
 21
116.75
 31
0.0
  0
ARC
  5
280
  8
DATA
  6
CONTINUOUS
 62
     7
 10
220.75
 20
115.0
 30
0.0
 40
1.75
 50
90.0
 51
270.0
  0
ARC
  5
281
  8
DATA
  6
CONTINUOUS
 62
     7
 10
223.25
 20
115.0
 30
0.0
 40
1.75
 50
270.0
 51
90.0
  0
LINE
  5
282
  8
DATA
  6
CONTINUOUS
 62
     7
 10
223.25
 20
-17.25
 30
0.0
 11
220.75
 21
-17.25
 31
0.0
  0
LINE
  5
283
  8
DATA
  6
CONTINUOUS
 62
     7
 10
220.75
 20
-20.75
 30
0.0
 11
223.25
 21
-20.75
 31
0.0
  0
ARC
  5
284
  8
DATA
  6
CONTINUOUS
 62
     7
 10
220.75
 20
-19.0
 30
0.0
 40
1.75
 50
90.0
 51
270.0
  0
ARC
  5
285
  8
DATA
  6
CONTINUOUS
 62
     7
 10
223.25
 20
-19.0
 30
0.0
 40
1.75
 50
270.0
 51
90.0
  0
LINE
  5
286
  8
DATA
  6
CONTINUOUS
 62
     7
 10
266.25
 20
-17.25
 30
0.0
 11
263.75
 21
-17.25
 31
0.0
  0
LINE
  5
287
  8
DATA
  6
CONTINUOUS
 62
     7
 10
263.75
 20
-20.75
 30
0.0
 11
266.25
 21
-20.75
 31
0.0
  0
ARC
  5
288
  8
DATA
  6
CONTINUOUS
 62
     7
 10
263.75
 20
-19.0
 30
0.0
 40
1.75
 50
90.0
 51
270.0
  0
ARC
  5
289
  8
DATA
  6
CONTINUOUS
 62
     7
 10
266.25
 20
-19.0
 30
0.0
 40
1.75
 50
270.0
 51
90.0
  0
LINE
  5
28A
  8
DATA
  6
CONTINUOUS
 62
     7
 10
-34.250000000000007
 20
116.75
 30
0.0
 11
-18.75
 21
137.5
 31
0.0
  0
LINE
  5
28B
  8
DATA
  6
CONTINUOUS
 62
     7
 10
-34.250000000000007
 20
116.75
 30
0.0
 11
-30.55600227763378
 21
125.89296519917841
 31
0.0
  0
LINE
  5
28C
  8
DATA
  6
CONTINUOUS
 62
     7
 10
-34.250000000000007
 20
116.75
 30
0.0
 11
-26.479421531319758
 21
122.8210412672225
 31
0.0
  0
LINE
  5
28D
  8
DATA
  6
CONTINUOUS
 62
     7
 10
-18.75
 20
137.5
 30
0.0
 11
50.0
 21
137.5
 31
0.0
  0
TEXT
  5
28E
  8
DATA
 62
     7
 10
243.7861387330984
 20
141.60775519631039
 30
0.0
 40
8.1442057291666661
  1
6-\U+03A66\U+00D73.5
 41
0.7
 11
243.7861387330984
 21
145.67985806089371
 31
0.0
 73
     2
  0
LINE
  5
28F
  8
DATA
  6
CONTINUOUS
 62
     7
 10
222.0
 20
116.75
 30
0.0
 11
237.5
 21
137.5
 31
0.0
  0
LINE
  5
290
  8
DATA
  6
CONTINUOUS
 62
     7
 10
222.0
 20
116.75
 30
0.0
 11
225.69399772236619
 21
125.89296519917841
 31
0.0
  0
LINE
  5
291
  8
DATA
  6
CONTINUOUS
 62
     7
 10
222.0
 20
116.75
 30
0.0
 11
229.7705784686803
 21
122.8210412672225
 31
0.0
  0
LINE
  5
292
  8
DATA
  6
CONTINUOUS
 62
     7
 10
237.5
 20
137.5
 30
0.0
 11
306.25
 21
137.5
 31
0.0
  0
ENDSEC
  0
EOF
