  0
SECTION
  2
HEADER
  9
$ACADVER
  1
AC1009
  9
$INSBASE
 10
0.0
 20
0.0
 30
0.0
  9
$EXTMIN
 10
-170.0164782349211
 20
-265.74833863455001
 30
-0.0015258207003583
  9
$EXTMAX
 10
370.0164807494923
 20
537.09174839639525
 30
0.0000000349246037
  9
$LIMMIN
 10
0.0
 20
0.0
  9
$LIMMAX
 10
0.0
 20
0.0
  9
$ORTHOMODE
 70
     0
  9
$REGENMODE
 70
     1
  9
$FILLMODE
 70
     1
  9
$QTEXTMODE
 70
     0
  9
$MIRRTEXT
 70
     1
  9
$DRAGMODE
 70
     2
  9
$LTSCALE
 40
15.24
  9
$OSMODE
 70
   231
  9
$ATTMODE
 70
     1
  9
$TEXTSIZE
 40
0.0
  9
$TRACEWID
 40
1.0
  9
$TEXTSTYLE
  7
STANDARD
  9
$CLAYER
  8
DATA
  9
$CELTYPE
  6
BYLAYER
  9
$CECOLOR
 62
   256
  9
$DIMSCALE
 40
1.0
  9
$DIMASZ
 40
0.18
  9
$DIMEXO
 40
0.0625
  9
$DIMDLI
 40
0.38
  9
$DIMRND
 40
0.0
  9
$DIMDLE
 40
0.0
  9
$DIMEXE
 40
0.18
  9
$DIMTP
 40
0.0
  9
$DIMTM
 40
0.0
  9
$DIMTXT
 40
0.18
  9
$DIMCEN
 40
0.09
  9
$DIMTSZ
 40
0.0
  9
$DIMTOL
 70
     0
  9
$DIMLIM
 70
     0
  9
$DIMTIH
 70
     1
  9
$DIMTOH
 70
     1
  9
$DIMSE1
 70
     0
  9
$DIMSE2
 70
     0
  9
$DIMTAD
 70
     0
  9
$DIMZIN
 70
     0
  9
$DIMBLK
  1

  9
$DIMASO
 70
     1
  9
$DIMSHO
 70
     1
  9
$DIMPOST
  1

  9
$DIMAPOST
  1

  9
$DIMALT
 70
     0
  9
$DIMALTD
 70
     2
  9
$DIMALTF
 40
25.399999999999999
  9
$DIMLFAC
 40
1.0
  9
$DIMTOFL
 70
     0
  9
$DIMTVP
 40
0.0
  9
$DIMTIX
 70
     0
  9
$DIMSOXD
 70
     0
  9
$DIMSAH
 70
     0
  9
$DIMBLK1
  1

  9
$DIMBLK2
  1

  9
$DIMSTYLE
  2
STANDARD
  9
$DIMCLRD
 70
     0
  9
$DIMCLRE
 70
     0
  9
$DIMCLRT
 70
     0
  9
$DIMTFAC
 40
1.0
  9
$DIMGAP
 40
0.09
  9
$LUNITS
 70
     2
  9
$LUPREC
 70
     4
  9
$SKETCHINC
 40
0.1
  9
$FILLETRAD
 40
0.0
  9
$AUNITS
 70
     0
  9
$AUPREC
 70
     0
  9
$MENU
  1
acad
  9
$ELEVATION
 40
0.0
  9
$PELEVATION
 40
0.0
  9
$THICKNESS
 40
0.0
  9
$LIMCHECK
 70
     0
  9
$BLIPMODE
 70
     0
  9
$CHAMFERA
 40
0.0
  9
$CHAMFERB
 40
0.0
  9
$SKPOLY
 70
     0
  9
$TDCREATE
 40
2455418.575451389
  9
$TDUPDATE
 40
2455418.5797353708
  9
$TDINDWG
 40
0.000415162
  9
$TDUSRTIMER
 40
0.000415162
  9
$USRTIMER
 70
     1
  9
$ANGBASE
 50
0.0
  9
$ANGDIR
 70
     0
  9
$PDMODE
 70
     1
  9
$PDSIZE
 40
-2.0
  9
$PLINEWID
 40
0.0
  9
$COORDS
 70
     0
  9
$SPLFRAME
 70
     0
  9
$SPLINETYPE
 70
     6
  9
$SPLINESEGS
 70
     8
  9
$ATTDIA
 70
     0
  9
$ATTREQ
 70
     1
  9
$HANDLING
 70
     1
  9
$HANDSEED
  5
478
  9
$SURFTAB1
 70
     6
  9
$SURFTAB2
 70
     6
  9
$SURFTYPE
 70
     6
  9
$SURFU
 70
     6
  9
$SURFV
 70
     6
  9
$UCSNAME
  2

  9
$UCSORG
 10
0.0
 20
0.0
 30
0.0
  9
$UCSXDIR
 10
1.0
 20
0.0
 30
0.0
  9
$UCSYDIR
 10
0.0
 20
1.0
 30
0.0
  9
$PUCSNAME
  2

  9
$PUCSORG
 10
0.0
 20
0.0
 30
0.0
  9
$PUCSXDIR
 10
1.0
 20
0.0
 30
0.0
  9
$PUCSYDIR
 10
0.0
 20
1.0
 30
0.0
  9
$USERI1
 70
     0
  9
$USERI2
 70
     0
  9
$USERI3
 70
     0
  9
$USERI4
 70
     0
  9
$USERI5
 70
     0
  9
$USERR1
 40
0.0
  9
$USERR2
 40
0.0
  9
$USERR3
 40
0.0
  9
$USERR4
 40
0.0
  9
$USERR5
 40
0.0
  9
$WORLDVIEW
 70
     1
  9
$SHADEDGE
 70
     3
  9
$SHADEDIF
 70
    70
  9
$TILEMODE
 70
     1
  9
$MAXACTVP
 70
    64
  9
$PLIMCHECK
 70
     0
  9
$PEXTMIN
 10
1.0000000000000000E+020
 20
1.0000000000000000E+020
 30
1.0000000000000000E+020
  9
$PEXTMAX
 10
-1.0000000000000000E+020
 20
-1.0000000000000000E+020
 30
-1.0000000000000000E+020
  9
$PLIMMIN
 10
0.0
 20
0.0
  9
$PLIMMAX
 10
12.0
 20
9.0
  9
$UNITMODE
 70
     0
  9
$VISRETAIN
 70
     0
  9
$PLINEGEN
 70
     1
  9
$PSLTSCALE
 70
     0
  0
ENDSEC
  0
SECTION
  2
TABLES
  0
TABLE
  2
VPORT
 70
     1
  0
VPORT
  2
*ACTIVE
 70
     0
 10
0.0
 20
0.0
 11
1.0
 21
1.0
 12
100.0000012572856
 22
135.6717048809227
 13
0.0
 23
0.0
 14
1.0
 24
1.0
 15
0.0
 25
0.0
 16
0.0
 26
0.0
 36
1.0
 17
0.0
 27
0.0
 37
0.0
 40
808.75056619927125
 41
1.9619164619164611
 42
50.0
 43
0.0
 44
0.0
 50
0.0
 51
0.0
 71
     0
 72
  2000
 73
     1
 74
     1
 75
     0
 76
     0
 77
     0
 78
     0
  0
ENDTAB
  0
TABLE
  2
LTYPE
 70
    11
  0
LTYPE
  2
CONTINUOUS
 70
     0
  3
Solid line
 72
    65
 73
     0
 40
0.0
  0
ENDTAB
  0
TABLE
  2
LAYER
 70
     5
  0
LAYER
  2
0
 70
     0
 62
     7
  6
CONTINUOUS
  0
LAYER
  2
DATA
 70
     0
 62
     7
  6
CONTINUOUS
  0
LAYER
  2
HIBINO-BASE
 70
     0
 62
     7
  6
CONTINUOUS
  0
LAYER
  2
SPEC
 70
     0
 62
     7
  6
CONTINUOUS
  0
LAYER
  2
DIMNSIONS
 70
     0
 62
     7
  6
CONTINUOUS
  0
ENDTAB
  0
TABLE
  2
STYLE
 70
     3
  0
STYLE
  2
STANDARD
 70
     0
 40
0.0
 41
1.0
 50
0.0
 71
     0
 42
0.0
  3
txt
  4
BIGFONT.SHX
  0
ENDTAB
  0
TABLE
  2
VIEW
 70
     0
  0
ENDTAB
  0
TABLE
  2
UCS
 70
     0
  0
ENDTAB
  0
TABLE
  2
APPID
 70
     3
  0
APPID
  2
ACAD
 70
     0
  0
APPID
  2
ACADANNOTATIVE
 70
     0
  0
APPID
  2
ACAD_MLEADERVER
 70
     0
  0
ENDTAB
  0
TABLE
  2
DIMSTYLE
 70
     2
  0
DIMSTYLE
  2
STANDARD
 70
     0
  3

  4

  5

  6

  7

 40
1.0
 41
0.18
 42
0.0625
 43
0.38
 44
0.18
 45
0.0
 46
0.0
 47
0.0
 48
0.0
140
0.18
141
0.09
142
0.0
143
25.399999999999999
144
1.0
145
0.0
146
1.0
147
0.09
 71
     0
 72
     0
 73
     1
 74
     1
 75
     0
 76
     0
 77
     0
 78
     0
170
     0
171
     2
172
     0
173
     0
174
     0
175
     0
176
     0
177
     0
178
     0
  0
ENDTAB
  0
ENDSEC
  0
SECTION
  2
BLOCKS
  0
BLOCK
  8
0
  2
$MODEL_SPACE
 70
     0
 10
0.0
 20
0.0
 30
0.0
  3
$MODEL_SPACE
  1

  0
ENDBLK
  5
3D8
  8
0
  0
BLOCK
 67
     1
  8
0
  2
$PAPER_SPACE
 70
     0
 10
0.0
 20
0.0
 30
0.0
  3
$PAPER_SPACE
  1

  0
ENDBLK
  5
3D4
 67
     1
  8
0
  0
ENDSEC
  0
SECTION
  2
ENTITIES
  0
LINE
  5
2C
  8
HIBINO-BASE
  6
CONTINUOUS
 62
     7
 10
-169.99999999999989
 20
537.06729578973182
 30
0.0
 11
370.0
 21
537.06729578973182
 31
0.0
  0
LINE
  5
2D
  8
HIBINO-BASE
  6
CONTINUOUS
 62
     7
 10
370.0
 20
-242.93270421026821
 30
0.0
 11
-169.99999999999989
 21
-242.93270421026821
 31
0.0
  0
LINE
  5
2E
  8
HIBINO-BASE
  6
CONTINUOUS
 62
     7
 10
-169.99999999999989
 20
-242.93270421026821
 30
0.0
 11
-169.99999999999989
 21
537.06729578973182
 31
0.0
  0
LINE
  5
2F
  8
HIBINO-BASE
  6
CONTINUOUS
 62
     7
 10
370.0
 20
537.06729578973182
 30
0.0
 11
370.0
 21
-242.93270421026821
 31
0.0
  0
LINE
  5
30
  8
HIBINO-BASE
  6
CONTINUOUS
 62
     7
 10
100.0
 20
-175.4327042102681
 30
0.0
 11
370.0
 21
-175.4327042102681
 31
0.0
  0
LINE
  5
31
  8
HIBINO-BASE
  6
CONTINUOUS
 62
     7
 10
100.0
 20
-242.93270421026821
 30
0.0
 11
100.0
 21
-175.4327042102681
 31
0.0
  0
TEXT
  5
32
  8
HIBINO-BASE
 62
     7
 10
102.7
 20
-182.95878421026811
 30
0.0
 40
4.8865234374999993
  1
NOTE
 41
0.7
 11
102.7
 21
-178.0722607727682
 31
0.0
 73
     3
  0
LINE
  5
33
  8
HIBINO-BASE
  6
CONTINUOUS
 62
     7
 10
205.0
 20
-242.93270421026821
 30
0.0
 11
205.0
 21
-175.4327042102681
 31
0.0
  0
TEXT
  5
34
  8
HIBINO-BASE
 62
     7
 10
207.69999999999999
 20
-182.95878421026811
 30
0.0
 40
4.8865234374999993
  1
TITLE
 41
0.7
 11
207.69999999999999
 21
-178.0722607727682
 31
0.0
 73
     3
  0
LINE
  5
35
  8
HIBINO-BASE
  6
CONTINUOUS
 62
     7
 10
100.0
 20
-212.9327042102681
 30
0.0
 11
370.0
 21
-212.9327042102681
 31
0.0
  0
TEXT
  5
36
  8
HIBINO-BASE
 62
     7
 10
245.19999999999999
 20
-220.28982421026819
 30
0.0
 40
4.8865234374999993
  1
DRAWN
 41
0.7
 11
245.19999999999999
 21
-215.4033007727682
 31
0.0
 73
     3
  0
TEXT
  5
37
  8
HIBINO-BASE
 62
     7
 10
170.19999999999999
 20
-220.28982421026819
 30
0.0
 40
4.8865234374999993
  1
DATE
 41
0.7
 11
170.19999999999999
 21
-215.4033007727682
 31
0.0
 73
     3
  0
TEXT
  5
38
  8
HIBINO-BASE
 62
     7
 10
140.19999999999999
 20
-220.28982421026819
 30
0.0
 40
4.8865234374999993
  1
SCALE
 41
0.7
 11
140.19999999999999
 21
-215.4033007727682
 31
0.0
 73
     3
  0
TEXT
  5
39
  8
HIBINO-BASE
 62
     7
 10
207.69999999999999
 20
-220.28982421026819
 30
0.0
 40
4.8865234374999993
  1
DESIGN
 41
0.7
 11
207.69999999999999
 21
-215.4033007727682
 31
0.0
 73
     3
  0
TEXT
  5
3A
  8
HIBINO-BASE
 62
     7
 10
320.19999999999999
 20
-220.28982421026819
 30
0.0
 40
4.8865234374999993
  1
DRAWING NO.
 41
0.7
 11
320.19999999999999
 21
-215.4033007727682
 31
0.0
 73
     3
  0
TEXT
  5
3B
  8
HIBINO-BASE
 62
     7
 10
282.69999999999999
 20
-220.28982421026819
 30
0.0
 40
4.8865234374999993
  1
CHECK
 41
0.7
 11
282.69999999999999
 21
-215.4033007727682
 31
0.0
 73
     3
  0
LINE
  5
3C
  8
HIBINO-BASE
  6
CONTINUOUS
 62
     7
 10
143.12499999999989
 20
-239.18270421026821
 30
0.0
 11
154.375
 21
-227.9327042102681
 31
0.0
  0
TEXT
  5
3D
  8
HIBINO-BASE
 62
     7
 10
141.24999999999989
 20
-231.25953421026821
 30
0.0
 40
4.8865234374999993
  1
1
 41
0.7
 11
141.24999999999989
 21
-226.3730107727682
 31
0.0
 73
     3
  0
LINE
  5
3E
  8
HIBINO-BASE
  6
CONTINUOUS
 62
     7
 10
137.5
 20
-242.93270421026821
 30
0.0
 11
137.5
 21
-212.9327042102681
 31
0.0
  0
LINE
  5
3F
  8
HIBINO-BASE
  6
CONTINUOUS
 62
     7
 10
167.5
 20
-242.93270421026821
 30
0.0
 11
167.5
 21
-212.9327042102681
 31
0.0
  0
LINE
  5
40
  8
HIBINO-BASE
  6
CONTINUOUS
 62
     7
 10
242.5
 20
-212.9327042102681
 30
0.0
 11
242.5
 21
-242.93270421026821
 31
0.0
  0
LINE
  5
41
  8
HIBINO-BASE
  6
CONTINUOUS
 62
     7
 10
317.5
 20
-212.9327042102681
 30
0.0
 11
317.5
 21
-242.93270421026821
 31
0.0
  0
LINE
  5
42
  8
HIBINO-BASE
  6
CONTINUOUS
 62
     7
 10
279.99999999999989
 20
-242.93270421026821
 30
0.0
 11
279.99999999999989
 21
-212.9327042102681
 31
0.0
  0
TEXT
  5
43
  8
HIBINO-BASE
 62
     7
 10
170.06961999999999
 20
-234.3417642102682
 30
0.0
 40
4.8865234374999993
  1
'10.08.
 41
0.7
 11
170.06961999999999
 21
-229.45524077276821
 31
0.0
 73
     3
  0
TEXT
  5
44
  8
HIBINO-BASE
 62
     7
 10
152.5
 20
-236.88453421026821
 30
0.0
 40
4.8865234374999993
  1
3
 41
0.7
 11
152.5
 21
-231.9980107727682
 31
0.0
 73
     3
  0
TEXT
  5
45
  8
HIBINO-BASE
 62
     7
 10
111.65000000000001
 20
-237.0047042102681
 30
0.0
 40
9.7730468749999986
  1
A4
 41
0.7
 11
111.65000000000001
 21
-227.2316573352681
 31
0.0
 73
     3
  0
TEXT
  5
46
  8
HIBINO-BASE
 62
     7
 10
102.875
 20
-220.79106921026809
 30
0.0
 40
4.8865234374999993
  1
PAPER SIZE
 41
0.7
 11
102.875
 21
-215.9045457727681
 31
0.0
 73
     3
  0
TEXT
  5
47
  8
HIBINO-BASE
 62
     7
 10
-161.7210942293294
 20
-262.20842491279689
 30
0.0
 40
10.58746744791666
  1
Hibino-Intersound Corporation
 41
0.7
 11
-161.7210942293294
 21
-251.62095746488029
 31
0.0
 73
     3
  0
TEXT
  5
48
  8
HIBINO-BASE
 62
     7
 10
160.54182904064169
 20
-261.15516015292872
 30
0.0
 40
10.58746744791666
  1
ヒビノインターサウンド株式会社
 41
0.7
 11
160.54182904064169
 21
-250.56769270501201
 31
0.0
 73
     3
  0
LINE
  5
49
  8
SPEC
  6
CONTINUOUS
 62
     7
 10
-147.49999999999989
 20
507.0672957897317
 30
0.0
 11
295.0
 21
507.0672957897317
 31
0.0
  0
LINE
  5
4A
  8
SPEC
  6
CONTINUOUS
 62
     7
 10
-147.49999999999989
 20
495.8172957897317
 30
0.0
 11
295.0
 21
495.8172957897317
 31
0.0
  0
LINE
  5
4B
  8
SPEC
  6
CONTINUOUS
 62
     7
 10
-147.49999999999989
 20
473.3172957897317
 30
0.0
 11
295.0
 21
473.3172957897317
 31
0.0
  0
LINE
  5
4C
  8
SPEC
  6
CONTINUOUS
 62
     7
 10
-147.49999999999989
 20
484.5672957897317
 30
0.0
 11
295.0
 21
484.5672957897317
 31
0.0
  0
LINE
  5
4D
  8
SPEC
  6
CONTINUOUS
 62
     7
 10
-147.49999999999989
 20
507.0672957897317
 30
0.0
 11
-147.5
 21
315.8172957897317
 31
0.0
  0
TEXT
  5
4E
  8
SPEC
 62
     7
 10
-143.74999999999989
 20
511.24710578973179
 30
0.0
 40
7.3297851562499989
  1
仕様
 41
0.7
 11
-143.74999999999989
 21
518.57689094598175
 31
0.0
 73
     3
  0
LINE
  5
4F
  8
SPEC
  6
CONTINUOUS
 62
     7
 10
295.0
 20
507.0672957897317
 30
0.0
 11
295.0
 21
315.8172957897317
 31
0.0
  0
LINE
  5
50
  8
SPEC
  6
CONTINUOUS
 62
     7
 10
-147.49999999999989
 20
462.0672957897317
 30
0.0
 11
295.0
 21
462.0672957897317
 31
0.0
  0
LINE
  5
51
  8
SPEC
  6
CONTINUOUS
 62
     7
 10
-147.49999999999989
 20
450.8172957897317
 30
0.0
 11
295.0
 21
450.8172957897317
 31
0.0
  0
LINE
  5
52
  8
SPEC
  6
CONTINUOUS
 62
     7
 10
-147.49999999999989
 20
439.5672957897317
 30
0.0
 11
295.0
 21
439.5672957897317
 31
0.0
  0
LINE
  5
53
  8
SPEC
  6
CONTINUOUS
 62
     7
 10
-147.49999999999989
 20
405.8172957897317
 30
0.0
 11
295.0
 21
405.8172957897317
 31
0.0
  0
LINE
  5
54
  8
SPEC
  6
CONTINUOUS
 62
     7
 10
-147.49999999999989
 20
394.5672957897317
 30
0.0
 11
295.0
 21
394.5672957897317
 31
0.0
  0
LINE
  5
55
  8
SPEC
  6
CONTINUOUS
 62
     7
 10
-147.49999999999989
 20
383.31729578973182
 30
0.0
 11
295.0
 21
383.31729578973182
 31
0.0
  0
LINE
  5
56
  8
SPEC
  6
CONTINUOUS
 62
     7
 10
-147.49999999999989
 20
372.0672957897317
 30
0.0
 11
295.0
 21
372.0672957897317
 31
0.0
  0
LINE
  5
57
  8
SPEC
  6
CONTINUOUS
 62
     7
 10
-147.49999999999989
 20
360.81729578973182
 30
0.0
 11
295.0
 21
360.81729578973182
 31
0.0
  0
TEXT
  5
58
  8
SPEC
 62
     7
 10
-145.07662281711239
 20
330.3021525067175
 30
0.0
 40
5.7009440104166673
  1
寸法
 41
0.7
 11
-145.07662281711239
 21
336.00309651713422
 31
0.0
 73
     3
  0
TEXT
  5
59
  8
SPEC
 62
     7
 10
-34.766527938687886
 20
329.98741070886842
 30
0.0
 40
5.7009440104166673
  1
232(W)\U+00D760(H)\U+00D7174(D)mm(突起部含まず）
 41
0.7
 11
-34.766527938687886
 21
335.68835471928497
 31
0.0
 73
     3
  0
TEXT
  5
5A
  8
SPEC
 62
     7
 10
-34.941142767719967
 20
318.99844020860911
 30
0.0
 40
5.7009440104166673
  1
約1.5kg
 41
0.7
 11
-34.941142767719967
 21
324.69938421902577
 31
0.0
 73
     3
  0
TEXT
  5
5B
  8
SPEC
 62
     7
 10
-144.9900318415666
 20
319.14227987973112
 30
0.0
 40
5.7009440104166673
  1
重量
 41
0.7
 11
-144.9900318415666
 21
324.84322389014773
 31
0.0
 73
     3
  0
TEXT
  5
5C
  8
SPEC
 62
     7
 10
-145.0396044956631
 20
341.78617079909981
 30
0.0
 40
5.7009440104166673
  1
電源
 41
0.7
 11
-145.0396044956631
 21
347.48711480951653
 31
0.0
 73
     3
  0
TEXT
  5
5D
  8
SPEC
 62
     7
 10
-34.718410131378349
 20
341.26569523518509
 30
0.0
 40
5.7009440104166673
  1
24V DC
 41
0.7
 11
-34.718410131378349
 21
346.96663924560181
 31
0.0
 73
     3
  0
TEXT
  5
5E
  8
SPEC
 62
     7
 10
-34.740320201069878
 20
408.64699382313057
 30
0.0
 40
5.7009440104166673
  1
8(アナログオーディオRCA\U+00D76+BiAmp用RCA\U+00D72) 
 41
0.7
 11
-34.740320201069878
 21
414.34793783354718
 31
0.0
 73
     3
  0
TEXT
  5
5F
  8
SPEC
 62
     7
 10
-35.224217805610678
 20
420.06696465345692
 30
0.0
 40
5.7009440104166673
  1
1\U+00D7TOSLINK optical
 41
0.7
 11
-35.224217805610678
 21
425.76790866387353
 31
0.0
 73
     3
  0
TEXT
  5
60
  8
SPEC
 62
     7
 10
-145.20862684831781
 20
431.64746988596448
 30
0.0
 40
5.7009440104166673
  1
デジタルオーディオ出力
 41
0.7
 11
-145.20862684831781
 21
437.3484138963812
 31
0.0
 73
     3
  0
TEXT
  5
61
  8
SPEC
 62
     7
 10
-144.84155452224061
 20
442.63288797912952
 30
0.0
 40
5.7009440104166673
  1
HDMI出力端子
 41
0.7
 11
-144.84155452224061
 21
448.33383198954613
 31
0.0
 73
     3
  0
TEXT
  5
62
  8
SPEC
 62
     7
 10
-144.84952629142779
 20
453.88183900958722
 30
0.0
 40
5.7009440104166673
  1
HDMI入力端子
 41
0.7
 11
-144.84952629142779
 21
459.58278302000389
 31
0.0
 73
     3
  0
TEXT
  5
63
  8
SPEC
 62
     7
 10
-35.216543197575348
 20
454.08458212949228
 30
0.0
 40
5.7009440104166673
  1
1\U+00D7HDMI、19pin メス
 41
0.7
 11
-35.216543197575348
 21
459.785526139909
 31
0.0
 73
     3
  0
TEXT
  5
64
  8
SPEC
 62
     7
 10
-145.223905318249
 20
465.13110223240051
 30
0.0
 40
5.7009440104166673
  1
デジタルオーディオ入力
 41
0.7
 11
-145.223905318249
 21
470.83204624281723
 31
0.0
 73
     3
  0
TEXT
  5
65
  8
SPEC
 62
     7
 10
-35.165794878035364
 20
465.095544708283
 30
0.0
 40
5.7009440104166673
  1
1\U+00D7S/PDIF coaxial
 41
0.7
 11
-35.165794878035364
 21
470.79648871869978
 31
0.0
 73
     3
  0
TEXT
  5
66
  8
SPEC
 62
     7
 10
-145.49027297181291
 20
476.45575973911792
 30
0.0
 40
5.7009440104166673
  1
シングルリンク最大解像度
 41
0.7
 11
-145.49027297181291
 21
482.15670374953447
 31
0.0
 73
     3
  0
TEXT
  5
67
  8
SPEC
 62
     7
 10
-35.228890270466863
 20
476.1814125331104
 30
0.0
 40
5.7009440104166673
  1
1080i/1920\U+00D71200
 41
0.7
 11
-35.228890270466863
 21
481.88235654352712
 31
0.0
 73
     3
  0
TEXT
  5
68
  8
SPEC
 62
     7
 10
-144.8952066880083
 20
487.38869802800258
 30
0.0
 40
5.7009440104166673
  1
入力DDC信号
 41
0.7
 11
-144.8952066880083
 21
493.0896420384193
 31
0.0
 73
     3
  0
TEXT
  5
69
  8
SPEC
 62
     7
 10
-34.7844482226309
 20
487.32101403099608
 30
0.0
 40
5.7009440104166673
  1
5Vp-p(TTL)
 41
0.7
 11
-34.7844482226309
 21
493.02195804141269
 31
0.0
 73
     3
  0
TEXT
  5
6A
  8
SPEC
 62
     7
 10
-146.1915817862488
 20
498.5571928519887
 30
0.0
 40
5.7009440104166673
  1
ビデオアンプ帯域
 41
0.7
 11
-146.1915817862488
 21
504.25813686240542
 31
0.0
 73
     3
  0
TEXT
  5
6B
  8
SPEC
 62
     7
 10
-34.839484631688173
 20
498.405904803824
 30
0.0
 40
5.7009440104166673
  1
225MHz
 41
0.7
 11
-34.839484631688173
 21
504.10684881424072
 31
0.0
 73
     3
  0
TEXT
  5
6C
  8
SPEC
 62
     7
 10
-34.84315844218564
 20
442.66917712574713
 30
0.0
 40
5.7009440104166673
  1
2\U+00D7HDMI、19pin メス
 41
0.7
 11
-34.84315844218564
 21
448.37012113616379
 31
0.0
 73
     3
  0
TEXT
  5
6D
  8
SPEC
 62
     7
 10
-35.152751882036291
 20
431.06861362638563
 30
0.0
 40
5.7009440104166673
  1
1\U+00D7S/PDIF coaxial
 41
0.7
 11
-35.152751882036291
 21
436.76955763680218
 31
0.0
 73
     3
  0
TEXT
  5
6E
  8
SPEC
 62
     7
 10
-144.89760032805231
 20
397.83130650030819
 30
0.0
 40
5.7009440104166673
  1
対応オーディオフォーマット
 41
0.7
 11
-144.89760032805231
 21
403.53225051072479
 31
0.0
 73
     3
  0
TEXT
  5
6F
  8
SPEC
 62
     7
 10
-34.77050175073952
 20
397.4965905392757
 30
0.0
 40
5.7009440104166673
  1
Dolby Digital 5.1(AC3)、LPCM HDMIダイレクト(6chまで)
 41
0.7
 11
-34.77050175073952
 21
403.19753454969231
 31
0.0
 73
     3
  0
TEXT
  5
70
  8
SPEC
 62
     7
 10
-144.4870519890591
 20
385.92697255315579
 30
0.0
 40
5.7009440104166673
  1
Audio Processing
 41
0.7
 11
-144.4870519890591
 21
391.6279165635724
 31
0.0
 73
     3
  0
TEXT
  5
71
  8
SPEC
 62
     7
 10
-34.816332082835252
 20
386.29948677686252
 30
0.0
 40
5.7009440104166673
  1
Dolby Pro Logic II
 41
0.7
 11
-34.816332082835252
 21
392.00043078727907
 31
0.0
 73
     3
  0
TEXT
  5
72
  8
SPEC
 62
     7
 10
-144.57587799883899
 20
374.6992141096282
 30
0.0
 40
5.7009440104166673
  1
S/N比 
 41
0.7
 11
-144.57587799883899
 21
380.40015812004492
 31
0.0
 73
     3
  0
TEXT
  5
73
  8
SPEC
 62
     7
 10
-35.298368804612402
 20
374.99421011534758
 30
0.0
 40
5.7009440104166673
  1
＞90dB(20Hz～20KHz A weight filter)
 41
0.7
 11
-35.298368804612402
 21
380.69515412576419
 31
0.0
 73
     3
  0
TEXT
  5
74
  8
SPEC
 62
     7
 10
-144.75414819002961
 20
363.61942856795861
 30
0.0
 40
5.7009440104166673
  1
THD+N
 41
0.7
 11
-144.75414819002961
 21
369.32037257837533
 31
0.0
 73
     3
  0
TEXT
  5
75
  8
SPEC
 62
     7
 10
-35.071442986329558
 20
363.7050439931682
 30
0.0
 40
5.7009440104166673
  1
1KHzで<0.1%%%(リファレンスレベルにて)
 41
0.7
 11
-35.071442986329558
 21
369.40598800358492
 31
0.0
 73
     3
  0
LINE
  5
76
  8
SPEC
  6
CONTINUOUS
 62
     7
 10
-147.49999999999989
 20
349.56729578973182
 30
0.0
 11
295.0
 21
349.56729578973182
 31
0.0
  0
LINE
  5
77
  8
SPEC
  6
CONTINUOUS
 62
     7
 10
-147.49999999999989
 20
338.3172957897317
 30
0.0
 11
295.0
 21
338.3172957897317
 31
0.0
  0
LINE
  5
78
  8
SPEC
  6
CONTINUOUS
 62
     7
 10
-147.49999999999989
 20
327.06729578973182
 30
0.0
 11
295.0
 21
327.06729578973182
 31
0.0
  0
LINE
  5
79
  8
SPEC
  6
CONTINUOUS
 62
     7
 10
-147.49999999999989
 20
315.8172957897317
 30
0.0
 11
295.0
 21
315.8172957897317
 31
0.0
  0
LINE
  5
7A
  8
SPEC
  6
CONTINUOUS
 62
     7
 10
-37.500000000000021
 20
428.3172957897317
 30
0.0
 11
295.0
 21
428.3172957897317
 31
0.0
  0
LINE
  5
7B
  8
SPEC
  6
CONTINUOUS
 62
     7
 10
-37.500000000000021
 20
417.0672957897317
 30
0.0
 11
295.0
 21
417.0672957897317
 31
0.0
  0
TEXT
  5
7C
  8
SPEC
 62
     7
 10
-144.8511174890717
 20
352.6209439184376
 30
0.0
 40
5.7009440104166673
  1
周波数特性 
 41
0.7
 11
-144.8511174890717
 21
358.32188792885421
 31
0.0
 73
     3
  0
TEXT
  5
7D
  8
SPEC
 62
     7
 10
-35.376044572991091
 20
352.21802090447318
 30
0.0
 40
5.7009440104166673
  1
＜+/-0.5dB 20Hz～20KHz
 41
0.7
 11
-35.376044572991091
 21
357.9189649148899
 31
0.0
 73
     3
  0
LINE
  5
7E
  8
SPEC
  6
CONTINUOUS
 62
     7
 10
-37.500000000000021
 20
507.0672957897317
 30
0.0
 11
-37.500000000000021
 21
315.8172957897317
 31
0.0
  0
TEXT
  5
7F
  8
DIMNSIONS
 62
     7
 10
40.0
 20
-206.12423421026821
 30
0.0
 40
7.3297851562499989
  1
(単位：mm)
 41
0.7
 11
40.0
 21
-198.79444905401809
 31
0.0
 73
     3
  0
LINE
  5
80
  8
DIMNSIONS
  6
CONTINUOUS
 62
     7
 10
-106.25
 20
-124.75
 30
0.0
 11
-106.25
 21
-149.75
 31
0.0
  0
LINE
  5
81
  8
DIMNSIONS
  6
CONTINUOUS
 62
     7
 10
125.75
 20
-124.75
 30
0.0
 11
125.75
 21
-149.75
 31
0.0
  0
LINE
  5
82
  8
DIMNSIONS
  6
CONTINUOUS
 62
     7
 10
-106.25
 20
-143.75
 30
0.0
 11
125.75
 21
-143.75
 31
0.0
  0
LINE
  5
83
  8
DIMNSIONS
  6
CONTINUOUS
 62
     7
 10
-106.25
 20
-143.75
 30
0.0
 11
-98.748132324218787
 21
-141.73988061454921
 31
0.0
  0
LINE
  5
84
  8
DIMNSIONS
  6
CONTINUOUS
 62
     7
 10
-106.25
 20
-143.75
 30
0.0
 11
-98.748132324218787
 21
-145.76011938545071
 31
0.0
  0
LINE
  5
85
  8
DIMNSIONS
  6
CONTINUOUS
 62
     7
 10
125.75
 20
-143.75
 30
0.0
 11
118.2481323242187
 21
-145.76011938545071
 31
0.0
  0
LINE
  5
86
  8
DIMNSIONS
  6
CONTINUOUS
 62
     7
 10
125.75
 20
-143.75
 30
0.0
 11
118.2481323242187
 21
-141.73988061454921
 31
0.0
  0
TEXT
  5
87
  8
DIMNSIONS
 62
     7
 10
1.8124999999999849
 20
-140.76833333333329
 30
0.0
 40
8.1442057291666661
  1
232
 41
0.7
 11
1.8124999999999849
 21
-132.62412760416669
 31
0.0
 73
     3
  0
LINE
  5
88
  8
DIMNSIONS
  6
CONTINUOUS
 62
     7
 10
-112.25
 20
-118.75
 30
0.0
 11
-137.25
 21
-118.75
 31
0.0
  0
LINE
  5
89
  8
DIMNSIONS
  6
CONTINUOUS
 62
     7
 10
-112.25
 20
-58.75
 30
0.0
 11
-137.25
 21
-58.75
 31
0.0
  0
LINE
  5
8A
  8
DIMNSIONS
  6
CONTINUOUS
 62
     7
 10
-131.25
 20
-118.75
 30
0.0
 11
-131.25
 21
-58.75
 31
0.0
  0
LINE
  5
8B
  8
DIMNSIONS
  6
CONTINUOUS
 62
     7
 10
-131.25
 20
-118.75
 30
0.0
 11
-133.26011938545071
 21
-111.2481323242187
 31
0.0
  0
LINE
  5
8C
  8
DIMNSIONS
  6
CONTINUOUS
 62
     7
 10
-131.25
 20
-118.75
 30
0.0
 11
-129.23988061454921
 21
-111.2481323242187
 31
0.0
  0
LINE
  5
8D
  8
DIMNSIONS
  6
CONTINUOUS
 62
     7
 10
-131.25
 20
-58.75
 30
0.0
 11
-129.23988061454921
 21
-66.251867675781256
 31
0.0
  0
LINE
  5
8E
  8
DIMNSIONS
  6
CONTINUOUS
 62
     7
 10
-131.25
 20
-58.75
 30
0.0
 11
-133.26011938545071
 21
-66.251867675781256
 31
0.0
  0
TEXT
  5
8F
  8
DIMNSIONS
 62
     7
 10
-134.2316666666666
 20
-94.041666666666643
 30
0.0
 40
8.1442057291666661
  1
60
 50
90.0
 41
0.7
 11
-142.37587239583331
 21
-94.041666666666643
 31
0.0
 73
     3
  0
LINE
  5
90
  8
DIMNSIONS
  6
CONTINUOUS
 62
     7
 10
-112.25
 20
-25.0
 30
0.0
 11
-137.25
 21
-25.0
 31
0.0
  0
LINE
  5
91
  8
DIMNSIONS
  6
CONTINUOUS
 62
     7
 10
-112.25
 20
149.0
 30
0.0
 11
-137.25
 21
149.0
 31
0.0
  0
LINE
  5
92
  8
DIMNSIONS
  6
CONTINUOUS
 62
     7
 10
-131.25
 20
-25.0
 30
0.0
 11
-131.25
 21
149.0
 31
0.0
  0
LINE
  5
93
  8
DIMNSIONS
  6
CONTINUOUS
 62
     7
 10
-131.25
 20
-25.0
 30
0.0
 11
-133.26011938545071
 21
-17.498132324218741
 31
0.0
  0
LINE
  5
94
  8
DIMNSIONS
  6
CONTINUOUS
 62
     7
 10
-131.25
 20
-25.0
 30
0.0
 11
-129.23988061454921
 21
-17.498132324218741
 31
0.0
  0
LINE
  5
95
  8
DIMNSIONS
  6
CONTINUOUS
 62
     7
 10
-131.25
 20
149.0
 30
0.0
 11
-129.23988061454921
 21
141.49813232421869
 31
0.0
  0
LINE
  5
96
  8
DIMNSIONS
  6
CONTINUOUS
 62
     7
 10
-131.25
 20
149.0
 30
0.0
 11
-133.26011938545071
 21
141.49813232421869
 31
0.0
  0
TEXT
  5
97
  8
DIMNSIONS
 62
     7
 10
-134.2316666666666
 20
54.0625
 30
0.0
 40
8.1442057291666661
  1
174
 50
90.0
 41
0.7
 11
-142.37587239583331
 21
54.0625
 31
0.0
 73
     3
  0
LINE
  5
98
  8
DIMNSIONS
  6
CONTINUOUS
 62
     7
 10
-104.5718471800915
 20
-123.75
 30
0.0
 11
-137.25
 21
-123.75
 31
0.0
  0
LINE
  5
99
  8
DIMNSIONS
  6
CONTINUOUS
 62
     7
 10
-112.25
 20
-118.75
 30
0.0
 11
-137.25
 21
-118.75
 31
0.0
  0
LINE
  5
9A
  8
DIMNSIONS
  6
CONTINUOUS
 62
     7
 10
-131.25
 20
-118.75
 30
0.0
 11
-131.25
 21
-123.75
 31
0.0
  0
LINE
  5
9B
  8
DIMNSIONS
  6
CONTINUOUS
 62
     7
 10
-131.25
 20
-123.75
 30
0.0
 11
-131.25
 21
-139.79166666666671
 31
0.0
  0
LINE
  5
9C
  8
DIMNSIONS
  6
CONTINUOUS
 62
     7
 10
-131.25
 20
-123.75
 30
0.0
 11
-129.23988061454921
 21
-131.2518676757812
 31
0.0
  0
LINE
  5
9D
  8
DIMNSIONS
  6
CONTINUOUS
 62
     7
 10
-131.25
 20
-123.75
 30
0.0
 11
-133.26011938545071
 21
-131.2518676757812
 31
0.0
  0
LINE
  5
9E
  8
DIMNSIONS
  6
CONTINUOUS
 62
     7
 10
-131.25
 20
-118.75
 30
0.0
 11
-131.25
 21
-103.75
 31
0.0
  0
LINE
  5
9F
  8
DIMNSIONS
  6
CONTINUOUS
 62
     7
 10
-131.25
 20
-118.75
 30
0.0
 11
-133.26011938545071
 21
-111.2481323242187
 31
0.0
  0
LINE
  5
A0
  8
DIMNSIONS
  6
CONTINUOUS
 62
     7
 10
-131.25
 20
-118.75
 30
0.0
 11
-129.23988061454921
 21
-111.2481323242187
 31
0.0
  0
TEXT
  5
A1
  8
DIMNSIONS
 62
     7
 10
-134.23166666666671
 20
-139.79166666666671
 30
0.0
 40
8.1442057291666661
  1
5
 50
90.0
 41
0.7
 11
-142.3758723958334
 21
-139.79166666666671
 31
0.0
 73
     3
  0
LINE
  5
A2
  8
DIMNSIONS
  6
CONTINUOUS
 62
     7
 10
-56.250000000000021
 20
-27.0
 30
0.0
 11
-137.25
 21
-27.0
 31
0.0
  0
LINE
  5
A3
  8
DIMNSIONS
  6
CONTINUOUS
 62
     7
 10
-112.25
 20
-25.0
 30
0.0
 11
-137.25
 21
-25.0
 31
0.0
  0
LINE
  5
A4
  8
DIMNSIONS
  6
CONTINUOUS
 62
     7
 10
-131.25
 20
-25.0
 30
0.0
 11
-131.25
 21
-27.0
 31
0.0
  0
LINE
  5
A5
  8
DIMNSIONS
  6
CONTINUOUS
 62
     7
 10
-131.25
 20
-27.0
 30
0.0
 11
-131.25
 21
-40.89166666666668
 31
0.0
  0
LINE
  5
A6
  8
DIMNSIONS
  6
CONTINUOUS
 62
     7
 10
-131.25
 20
-27.0
 30
0.0
 11
-129.23988061454921
 21
-34.501867675781263
 31
0.0
  0
LINE
  5
A7
  8
DIMNSIONS
  6
CONTINUOUS
 62
     7
 10
-131.25
 20
-27.0
 30
0.0
 11
-133.26011938545071
 21
-34.501867675781263
 31
0.0
  0
LINE
  5
A8
  8
DIMNSIONS
  6
CONTINUOUS
 62
     7
 10
-131.25
 20
-25.0
 30
0.0
 11
-131.25
 21
-10.0
 31
0.0
  0
LINE
  5
A9
  8
DIMNSIONS
  6
CONTINUOUS
 62
     7
 10
-131.25
 20
-25.0
 30
0.0
 11
-133.26011938545071
 21
-17.498132324218741
 31
0.0
  0
LINE
  5
AA
  8
DIMNSIONS
  6
CONTINUOUS
 62
     7
 10
-131.25
 20
-25.0
 30
0.0
 11
-129.23988061454921
 21
-17.498132324218741
 31
0.0
  0
TEXT
  5
AB
  8
DIMNSIONS
 62
     7
 10
-134.23166666666671
 20
-40.89166666666668
 30
0.0
 40
8.1442057291666661
  1
2
 50
90.0
 41
0.7
 11
-142.3758723958334
 21
-40.89166666666668
 31
0.0
 73
     3
  0
LINE
  5
AC
  8
DIMNSIONS
  6
CONTINUOUS
 62
     7
 10
-107.8019910284835
 20
149.0
 30
0.0
 11
-137.25
 21
149.0
 31
0.0
  0
LINE
  5
AD
  8
DIMNSIONS
  6
CONTINUOUS
 62
     7
 10
-76.40000000000002
 20
156.0
 30
0.0
 11
-137.25
 21
156.0
 31
0.0
  0
LINE
  5
AE
  8
DIMNSIONS
  6
CONTINUOUS
 62
     7
 10
-131.25
 20
156.0
 30
0.0
 11
-131.25
 21
149.0
 31
0.0
  0
LINE
  5
AF
  8
DIMNSIONS
  6
CONTINUOUS
 62
     7
 10
-131.25
 20
149.0
 30
0.0
 11
-131.25
 21
134.0
 31
0.0
  0
LINE
  5
B0
  8
DIMNSIONS
  6
CONTINUOUS
 62
     7
 10
-131.25
 20
149.0
 30
0.0
 11
-129.23988061454921
 21
141.49813232421869
 31
0.0
  0
LINE
  5
B1
  8
DIMNSIONS
  6
CONTINUOUS
 62
     7
 10
-131.25
 20
149.0
 30
0.0
 11
-133.26011938545071
 21
141.49813232421869
 31
0.0
  0
LINE
  5
B2
  8
DIMNSIONS
  6
CONTINUOUS
 62
     7
 10
-131.25
 20
156.0
 30
0.0
 11
-131.25
 21
168.7916666666666
 31
0.0
  0
LINE
  5
B3
  8
DIMNSIONS
  6
CONTINUOUS
 62
     7
 10
-131.25
 20
156.0
 30
0.0
 11
-133.26011938545071
 21
163.5018676757812
 31
0.0
  0
LINE
  5
B4
  8
DIMNSIONS
  6
CONTINUOUS
 62
     7
 10
-131.25
 20
156.0
 30
0.0
 11
-129.23988061454921
 21
163.5018676757812
 31
0.0
  0
TEXT
  5
B5
  8
DIMNSIONS
 62
     7
 10
-134.23166666666671
 20
163.5
 30
0.0
 40
8.1442057291666661
  1
7
 50
90.0
 41
0.7
 11
-142.3758723958334
 21
163.5
 31
0.0
 73
     3
  0
TEXT
  5
B6
  8
DATA
 62
     7
 10
250.0
 20
-209.47220434264079
 30
0.0
 40
7.3297851562499989
  1
GTV-AUDDEC
 41
0.7
 11
250.0
 21
-202.14241918639081
 31
0.0
 73
     3
  0
TEXT
  5
B7
  8
DATA
 62
     7
 10
250.0
 20
-185.8674435202345
 30
0.0
 40
7.3297851562499989
  1
Gefen
 41
0.7
 11
250.0
 21
-178.53765836398449
 31
0.0
 73
     3
  0
TEXT
  5
B8
  8
DATA
 62
     7
 10
243.31228177268011
 20
-196.46878577705129
 30
0.0
 40
4.8865311328124994
  1
デジタルオーディオデコーダ 
 41
0.7
 11
243.31228177268011
 21
-191.58225464423879
 31
0.0
 73
     3
  0
TEXT
  5
B9
  8
DATA
 62
     7
 10
-139.99999999999989
 20
-230.21870421026821
 30
0.0
 40
4.8865234374999993
  1
仕様および外観は予告なく変更されることがありますので、ご了承ください。
 41
0.7
 11
-139.99999999999989
 21
-225.3321807727682
 31
0.0
 73
     3
  0
TEXT
  5
BA
  8
DATA
 62
     7
 10
248.8336256660404
 20
-234.35074522648171
 30
0.0
 40
4.8865234374999993
  1
T.Ootake
 41
0.7
 11
248.8336256660404
 21
-229.46422178898169
 31
0.0
 73
     3
  0
LINE
  5
BB
  8
DATA
  6
CONTINUOUS
 62
     7
 10
-106.25
 20
-118.75
 30
0.0
 11
-106.25
 21
-58.75
 31
0.0
  0
LINE
  5
BC
  8
DATA
  6
CONTINUOUS
 62
     7
 10
125.75
 20
-118.75
 30
0.0
 11
-106.25
 21
-118.75
 31
0.0
  0
LINE
  5
BD
  8
DATA
  6
CONTINUOUS
 62
     7
 10
125.75
 20
-58.75
 30
0.0
 11
125.75
 21
-118.75
 31
0.0
  0
LINE
  5
BE
  8
DATA
  6
CONTINUOUS
 62
     7
 10
-106.25
 20
-58.75
 30
0.0
 11
125.75
 21
-58.75
 31
0.0
  0
LINE
  5
BF
  8
DATA
  6
CONTINUOUS
 62
     7
 10
-106.25
 20
-21.0
 30
0.0
 11
-106.25
 21
145.0
 31
0.0
  0
LINE
  5
C0
  8
DATA
  6
CONTINUOUS
 62
     7
 10
121.75
 20
-25.0
 30
0.0
 11
-102.25
 21
-25.0
 31
0.0
  0
LINE
  5
C1
  8
DATA
  6
CONTINUOUS
 62
     7
 10
125.75
 20
145.0
 30
0.0
 11
125.75
 21
-21.0
 31
0.0
  0
LINE
  5
C2
  8
DATA
  6
CONTINUOUS
 62
     7
 10
-102.25
 20
149.0
 30
0.0
 11
121.75
 21
149.0
 31
0.0
  0
LINE
  5
C3
  8
DATA
  6
CONTINUOUS
 62
     7
 10
-98.571847180091495
 20
-123.75
 30
0.0
 11
-99.571847180091481
 21
-118.75
 31
0.0
  0
LINE
  5
C4
  8
DATA
  6
CONTINUOUS
 62
     7
 10
-80.571847180091481
 20
-123.75
 30
0.0
 11
-79.571847180091481
 21
-118.75
 31
0.0
  0
LINE
  5
C5
  8
DATA
  6
CONTINUOUS
 62
     7
 10
-98.571847180091495
 20
-123.75
 30
0.0
 11
-80.571847180091481
 21
-123.75
 31
0.0
  0
LINE
  5
C6
  8
DATA
  6
CONTINUOUS
 62
     7
 10
118.0718471800915
 20
-123.75
 30
0.0
 11
119.0718471800915
 21
-118.75
 31
0.0
  0
LINE
  5
C7
  8
DATA
  6
CONTINUOUS
 62
     7
 10
100.0718471800914
 20
-123.75
 30
0.0
 11
99.071847180091467
 21
-118.75
 31
0.0
  0
LINE
  5
C8
  8
DATA
  6
CONTINUOUS
 62
     7
 10
118.0718471800915
 20
-123.75
 30
0.0
 11
100.0718471800914
 21
-123.75
 31
0.0
  0
LINE
  5
C9
  8
DATA
  6
CONTINUOUS
 62
     7
 10
156.25
 20
-118.75
 30
0.0
 11
156.25
 21
-58.75
 31
0.0
  0
LINE
  5
CA
  8
DATA
  6
CONTINUOUS
 62
     7
 10
330.25
 20
-118.75
 30
0.0
 11
330.25
 21
-58.75
 31
0.0
  0
LINE
  5
CB
  8
DATA
  6
CONTINUOUS
 62
     7
 10
156.25
 20
-58.75
 30
0.0
 11
330.25
 21
-58.75
 31
0.0
  0
LINE
  5
CC
  8
DATA
  6
CONTINUOUS
 62
     7
 10
156.25
 20
-118.75
 30
0.0
 11
330.25
 21
-118.75
 31
0.0
  0
LINE
  5
CD
  8
DATA
  6
CONTINUOUS
 62
     7
 10
185.7084531776315
 20
-123.75
 30
0.0
 11
186.7084531776315
 21
-118.75
 31
0.0
  0
LINE
  5
CE
  8
DATA
  6
CONTINUOUS
 62
     7
 10
167.7084531776315
 20
-123.75
 30
0.0
 11
166.7084531776315
 21
-118.75
 31
0.0
  0
LINE
  5
CF
  8
DATA
  6
CONTINUOUS
 62
     7
 10
185.7084531776315
 20
-123.75
 30
0.0
 11
167.7084531776315
 21
-123.75
 31
0.0
  0
LINE
  5
D0
  8
DATA
  6
CONTINUOUS
 62
     7
 10
319.26336086413869
 20
-123.75
 30
0.0
 11
320.2633608641388
 21
-118.75
 31
0.0
  0
LINE
  5
D1
  8
DATA
  6
CONTINUOUS
 62
     7
 10
301.2633608641388
 20
-123.75
 30
0.0
 11
300.26336086413869
 21
-118.75
 31
0.0
  0
LINE
  5
D2
  8
DATA
  6
CONTINUOUS
 62
     7
 10
319.26336086413869
 20
-123.75
 30
0.0
 11
301.2633608641388
 21
-123.75
 31
0.0
  0
LINE
  5
D3
  8
DATA
  6
CONTINUOUS
 62
     7
 10
-86.250000000000014
 20
-107.75
 30
0.0
 11
105.75
 21
-107.75
 31
0.0
  0
LINE
  5
D4
  8
DATA
  6
CONTINUOUS
 62
     7
 10
-89.250000000000014
 20
-104.75
 30
0.0
 11
-89.250000000000014
 21
-74.75
 31
0.0
  0
LINE
  5
D5
  8
DATA
  6
CONTINUOUS
 62
     7
 10
108.75
 20
-74.75
 30
0.0
 11
108.75
 21
-104.75
 31
0.0
  0
LINE
  5
D6
  8
DATA
  6
CONTINUOUS
 62
     7
 10
-86.250000000000014
 20
-71.75
 30
0.0
 11
105.75
 21
-71.75
 31
0.0
  0
ARC
  5
D7
  8
DATA
  6
CONTINUOUS
 62
     7
 10
-86.250000000000014
 20
-74.75
 30
0.0
 40
3.0
 50
90.0
 51
180.0
  0
ARC
  5
D8
  8
DATA
  6
CONTINUOUS
 62
     7
 10
-86.250000000000014
 20
-104.75
 30
0.0
 40
3.0
 50
180.0
 51
270.0
  0
ARC
  5
D9
  8
DATA
  6
CONTINUOUS
 62
     7
 10
105.75
 20
-74.75
 30
0.0
 40
3.0
 50
0.0
 51
90.0
  0
ARC
  5
DA
  8
DATA
  6
CONTINUOUS
 62
     7
 10
105.75
 20
-104.75
 30
0.0
 40
3.0
 50
270.0
 51
0.0
  0
CIRCLE
  5
DB
  8
DATA
  6
CONTINUOUS
 62
     7
 10
-46.750000000000021
 20
-80.750000000000014
 30
0.0
 40
3.5
  0
CIRCLE
  5
DC
  8
DATA
  6
CONTINUOUS
 62
     7
 10
-46.750000000000021
 20
-99.750000000000014
 30
0.0
 40
3.5
  0
CIRCLE
  5
DD
  8
DATA
  6
CONTINUOUS
 62
     7
 10
-23.750000000000011
 20
-80.750000000000014
 30
0.0
 40
3.5
  0
CIRCLE
  5
DE
  8
DATA
  6
CONTINUOUS
 62
     7
 10
-23.750000000000011
 20
-99.750000000000014
 30
0.0
 40
3.5
  0
CIRCLE
  5
DF
  8
DATA
  6
CONTINUOUS
 62
     7
 10
94.749999999999986
 20
-80.750000000000014
 30
0.0
 40
3.5
  0
CIRCLE
  5
E0
  8
DATA
  6
CONTINUOUS
 62
     7
 10
94.749999999999986
 20
-99.750000000000014
 30
0.0
 40
3.5
  0
CIRCLE
  5
E1
  8
DATA
  6
CONTINUOUS
 62
     7
 10
71.749999999999986
 20
-80.750000000000014
 30
0.0
 40
3.5
  0
CIRCLE
  5
E2
  8
DATA
  6
CONTINUOUS
 62
     7
 10
71.749999999999986
 20
-99.750000000000014
 30
0.0
 40
3.5
  0
LINE
  5
E3
  8
DATA
  6
CONTINUOUS
 62
     7
 10
-78.088202972558676
 20
-107.75
 30
0.0
 11
-71.58820297255869
 21
-107.75
 31
0.0
  0
CIRCLE
  5
E4
  8
DATA
  6
CONTINUOUS
 62
     7
 10
-75.250000000000014
 20
-97.75
 30
0.0
 40
4.5
  0
LINE
  5
E5
  8
DATA
  6
CONTINUOUS
 62
     7
 10
-6.2500000000000142
 20
-78.75
 30
0.0
 11
55.749999999999993
 21
-78.75
 31
0.0
  0
LINE
  5
E6
  8
DATA
  6
CONTINUOUS
 62
     7
 10
-6.2500000000000142
 20
-95.750000000000014
 30
0.0
 11
55.749999999999993
 21
-95.750000000000014
 31
0.0
  0
LINE
  5
E7
  8
DATA
  6
CONTINUOUS
 62
     7
 10
55.749999999999993
 20
-78.75
 30
0.0
 11
55.749999999999993
 21
-95.750000000000014
 31
0.0
  0
LINE
  5
E8
  8
DATA
  6
CONTINUOUS
 62
     7
 10
-6.2500000000000142
 20
-78.75
 30
0.0
 11
-6.2500000000000142
 21
-95.750000000000014
 31
0.0
  0
TEXT
  5
E9
  8
DATA
 62
     7
 10
-77.417592153377626
 20
-106.6254374453992
 30
0.0
 40
2.4636222330729161
  1
IR
 41
0.7
 11
-77.417592153377626
 21
-104.1618152123263
 31
0.0
 73
     3
  0
TEXT
  5
EA
  8
DATA
 62
     7
 10
-50.716107377909303
 20
-106.7210103916847
 30
0.0
 40
2.4636222330729161
  1
Input
 41
0.7
 11
-50.716107377909303
 21
-104.2573881586118
 31
0.0
 73
     3
  0
TEXT
  5
EB
  8
DATA
 62
     7
 10
-28.8775663036186
 20
-106.7210103916847
 30
0.0
 40
2.4636222330729161
  1
Volume
 41
0.7
 11
-28.8775663036186
 21
-104.2573881586118
 31
0.0
 73
     3
  0
TEXT
  5
EC
  8
DATA
 62
     7
 10
-49.898230170891352
 20
-88.364294253857523
 30
0.0
 40
2.4636222330729161
  1
Mute
 41
0.7
 11
-49.898230170891352
 21
-85.900672020784612
 31
0.0
 73
     3
  0
TEXT
  5
ED
  8
DATA
 62
     7
 10
-28.8775663036186
 20
-88.364294253857523
 30
0.0
 40
2.4636222330729161
  1
Volume
 41
0.7
 11
-28.8775663036186
 21
-85.900672020784612
 31
0.0
 73
     3
  0
TEXT
  5
EE
  8
DATA
 62
     7
 10
67.021954754580179
 20
-106.7210103916847
 30
0.0
 40
2.4636222330729161
  1
Mode/OK
 41
0.7
 11
67.021954754580179
 21
-104.2573881586118
 31
0.0
 73
     3
  0
TEXT
  5
EF
  8
DATA
 62
     7
 10
91.95874295630378
 20
-106.7210103916847
 30
0.0
 40
2.4636222330729161
  1
Exit
 41
0.7
 11
91.95874295630378
 21
-104.2573881586118
 31
0.0
 73
     3
  0
TEXT
  5
F0
  8
DATA
 62
     7
 10
68.52413518000219
 20
-88.029967200373974
 30
0.0
 40
2.4636222330729161
  1
Menu
 41
0.7
 11
68.52413518000219
 21
-85.566344967301063
 31
0.0
 73
     3
  0
TEXT
  5
F1
  8
DATA
 62
     7
 10
91.259686158632661
 20
-88.029967200373974
 30
0.0
 40
2.4636222330729161
  1
Power
 41
0.7
 11
91.259686158632661
 21
-85.566344967301063
 31
0.0
 73
     3
  0
CIRCLE
  5
F2
  8
DATA
  6
CONTINUOUS
 62
     7
 10
85.527415208418475
 20
-83.800000000000026
 30
0.0
 40
1.75
  0
TEXT
  5
F3
  8
DATA
 62
     7
 10
23.32993027510733
 20
-115.4265701183095
 30
0.0
 40
4.4793131510416657
  1
Digital Audio Decoder for HDMI
 41
0.7
 11
23.32993027510733
 21
-110.9472569672678
 31
0.0
 73
     3
  0
LINE
  5
F4
  8
DATA
  6
CONTINUOUS
 62
     7
 10
-15.53885536671647
 20
-88.347929237481253
 30
0.0
 11
-17.938855366716449
 21
-88.347929237481253
 31
0.0
  0
LINE
  5
F5
  8
DATA
  6
CONTINUOUS
 62
     7
 10
-17.938855366716449
 20
-88.347929237481253
 30
0.0
 11
-16.738855366716461
 21
-85.947929237481276
 31
0.0
  0
LINE
  5
F6
  8
DATA
  6
CONTINUOUS
 62
     7
 10
-15.53885536671647
 20
-88.347929237481253
 30
0.0
 11
-16.738855366716461
 21
-85.947929237481276
 31
0.0
  0
LINE
  5
F7
  8
DATA
  6
CONTINUOUS
 62
     7
 10
-15.53885536671647
 20
-104.41440162683629
 30
0.0
 11
-17.938855366716449
 21
-104.41440162683629
 31
0.0
  0
LINE
  5
F8
  8
DATA
  6
CONTINUOUS
 62
     7
 10
-17.938855366716449
 20
-104.41440162683629
 30
0.0
 11
-16.738855366716461
 21
-106.8144016268363
 31
0.0
  0
LINE
  5
F9
  8
DATA
  6
CONTINUOUS
 62
     7
 10
-15.53885536671647
 20
-104.41440162683629
 30
0.0
 11
-16.738855366716461
 21
-106.8144016268363
 31
0.0
  0
LINE
  5
FA
  8
DATA
  6
CONTINUOUS
 62
     7
 10
-41.631852258470637
 20
-88.347929237481253
 30
0.0
 11
-41.631852258470637
 21
-85.947929237481276
 31
0.0
  0
LINE
  5
FB
  8
DATA
  6
CONTINUOUS
 62
     7
 10
-41.631852258470637
 20
-85.947929237481276
 30
0.0
 11
-39.231852258470681
 21
-87.147929237481264
 31
0.0
  0
LINE
  5
FC
  8
DATA
  6
CONTINUOUS
 62
     7
 10
-41.631852258470637
 20
-88.347929237481253
 30
0.0
 11
-39.231852258470681
 21
-87.147929237481264
 31
0.0
  0
LINE
  5
FD
  8
DATA
  6
CONTINUOUS
 62
     7
 10
-38.938969266975413
 20
-104.2619354539728
 30
0.0
 11
-38.938969266975413
 21
-106.6619354539728
 31
0.0
  0
LINE
  5
FE
  8
DATA
  6
CONTINUOUS
 62
     7
 10
-38.938969266975413
 20
-106.6619354539728
 30
0.0
 11
-41.338969266975369
 21
-105.4619354539728
 31
0.0
  0
LINE
  5
FF
  8
DATA
  6
CONTINUOUS
 62
     7
 10
-38.938969266975413
 20
-104.2619354539728
 30
0.0
 11
-41.338969266975369
 21
-105.4619354539728
 31
0.0
  0
LINE
  5
100
  8
DATA
  6
CONTINUOUS
 62
     7
 10
-89.250000000000014
 20
-25.199999999999999
 30
0.0
 11
-89.250000000000014
 21
-25.0
 31
0.0
  0
LINE
  5
101
  8
DATA
  6
CONTINUOUS
 62
     7
 10
108.75
 20
-25.199999999999999
 30
0.0
 11
108.75
 21
-25.0
 31
0.0
  0
LINE
  5
102
  8
DATA
  6
CONTINUOUS
 62
     7
 10
-89.250000000000014
 20
-25.199999999999999
 30
0.0
 11
108.75
 21
-25.199999999999999
 31
0.0
  0
LINE
  5
103
  8
DATA
  6
CONTINUOUS
 62
     7
 10
-50.250000000000021
 20
-27.0
 30
0.0
 11
-50.250000000000021
 21
-25.199999999999999
 31
0.0
  0
LINE
  5
104
  8
DATA
  6
CONTINUOUS
 62
     7
 10
-43.250000000000007
 20
-27.0
 30
0.0
 11
-43.250000000000007
 21
-25.199999999999999
 31
0.0
  0
LINE
  5
105
  8
DATA
  6
CONTINUOUS
 62
     7
 10
-50.250000000000021
 20
-27.0
 30
0.0
 11
-43.250000000000007
 21
-27.0
 31
0.0
  0
LINE
  5
106
  8
DATA
  6
CONTINUOUS
 62
     7
 10
-27.250000000000011
 20
-27.0
 30
0.0
 11
-27.250000000000011
 21
-25.199999999999999
 31
0.0
  0
LINE
  5
107
  8
DATA
  6
CONTINUOUS
 62
     7
 10
-20.250000000000011
 20
-27.0
 30
0.0
 11
-20.250000000000011
 21
-25.199999999999999
 31
0.0
  0
LINE
  5
108
  8
DATA
  6
CONTINUOUS
 62
     7
 10
68.249999999999986
 20
-27.0
 30
0.0
 11
68.249999999999986
 21
-25.199999999999999
 31
0.0
  0
LINE
  5
109
  8
DATA
  6
CONTINUOUS
 62
     7
 10
75.249999999999986
 20
-27.0
 30
0.0
 11
75.249999999999986
 21
-25.199999999999999
 31
0.0
  0
LINE
  5
10A
  8
DATA
  6
CONTINUOUS
 62
     7
 10
91.249999999999986
 20
-27.0
 30
0.0
 11
91.249999999999986
 21
-25.199999999999999
 31
0.0
  0
LINE
  5
10B
  8
DATA
  6
CONTINUOUS
 62
     7
 10
98.249999999999986
 20
-27.0
 30
0.0
 11
98.249999999999986
 21
-25.199999999999999
 31
0.0
  0
LINE
  5
10C
  8
DATA
  6
CONTINUOUS
 62
     7
 10
-27.250000000000011
 20
-27.0
 30
0.0
 11
-20.250000000000011
 21
-27.0
 31
0.0
  0
LINE
  5
10D
  8
DATA
  6
CONTINUOUS
 62
     7
 10
68.249999999999986
 20
-27.0
 30
0.0
 11
75.249999999999986
 21
-27.0
 31
0.0
  0
LINE
  5
10E
  8
DATA
  6
CONTINUOUS
 62
     7
 10
91.249999999999986
 20
-27.0
 30
0.0
 11
98.249999999999986
 21
-27.0
 31
0.0
  0
ARC
  5
10F
  8
DATA
  6
CONTINUOUS
 62
     7
 10
-102.25
 20
-21.0
 30
0.0
 40
4.0
 50
180.0
 51
270.0
  0
ARC
  5
110
  8
DATA
  6
CONTINUOUS
 62
     7
 10
-102.25
 20
145.0
 30
0.0
 40
4.0
 50
90.0
 51
180.0
  0
ARC
  5
111
  8
DATA
  6
CONTINUOUS
 62
     7
 10
121.75
 20
145.0
 30
0.0
 40
4.0
 50
0.0
 51
90.0
  0
ARC
  5
112
  8
DATA
  6
CONTINUOUS
 62
     7
 10
121.75
 20
-21.0
 30
0.0
 40
4.0
 50
270.0
 51
0.0
  0
LINE
  5
113
  8
DATA
  6
CONTINUOUS
 62
     7
 10
-106.25
 20
253.7500000001225
 30
0.0
 11
-106.25
 21
193.7500000001227
 31
0.0
  0
LINE
  5
114
  8
DATA
  6
CONTINUOUS
 62
     7
 10
125.75
 20
253.7500000001225
 30
0.0
 11
-106.25
 21
253.7500000001225
 31
0.0
  0
LINE
  5
115
  8
DATA
  6
CONTINUOUS
 62
     7
 10
125.75
 20
193.7500000001227
 30
0.0
 11
125.75
 21
253.7500000001225
 31
0.0
  0
LINE
  5
116
  8
DATA
  6
CONTINUOUS
 62
     7
 10
-106.25
 20
193.7500000001227
 30
0.0
 11
125.75
 21
193.7500000001227
 31
0.0
  0
LINE
  5
117
  8
DATA
  6
CONTINUOUS
 62
     7
 10
-98.571847180091495
 20
258.7500000001225
 30
0.0
 11
-99.571847180091481
 21
253.7500000001225
 31
0.0
  0
LINE
  5
118
  8
DATA
  6
CONTINUOUS
 62
     7
 10
-80.571847180091481
 20
258.7500000001225
 30
0.0
 11
-79.571847180091481
 21
253.7500000001225
 31
0.0
  0
LINE
  5
119
  8
DATA
  6
CONTINUOUS
 62
     7
 10
-98.571847180091495
 20
258.7500000001225
 30
0.0
 11
-80.571847180091481
 21
258.7500000001225
 31
0.0
  0
LINE
  5
11A
  8
DATA
  6
CONTINUOUS
 62
     7
 10
118.0718471800915
 20
258.7500000001225
 30
0.0
 11
119.0718471800915
 21
253.7500000001225
 31
0.0
  0
LINE
  5
11B
  8
DATA
  6
CONTINUOUS
 62
     7
 10
100.0718471800914
 20
258.7500000001225
 30
0.0
 11
99.071847180091467
 21
253.7500000001225
 31
0.0
  0
LINE
  5
11C
  8
DATA
  6
CONTINUOUS
 62
     7
 10
118.0718471800915
 20
258.7500000001225
 30
0.0
 11
100.0718471800914
 21
258.7500000001225
 31
0.0
  0
POLYLINE
  5
11D
  8
DATA
  6
CONTINUOUS
 62
     7
 66
     1
 10
0.0
 20
0.0
 30
0.0
 70
     1
  0
VERTEX
  5
404
  8
DATA
  6
CONTINUOUS
 62
     7
 10
-80.502853773193308
 20
211.7719130451417
 30
0.0
  0
VERTEX
  5
405
  8
DATA
  6
CONTINUOUS
 62
     7
 10
-83.291241452319312
 20
211.024766818335
 30
0.0
  0
VERTEX
  5
406
  8
DATA
  6
CONTINUOUS
 62
     7
 10
-84.038387679126004
 20
208.23637913920899
 30
0.0
  0
VERTEX
  5
407
  8
DATA
  6
CONTINUOUS
 62
     7
 10
-81.997146226806706
 20
206.19513768688969
 30
0.0
  0
VERTEX
  5
408
  8
DATA
  6
CONTINUOUS
 62
     7
 10
-79.208758547680702
 20
206.9422839136964
 30
0.0
  0
VERTEX
  5
409
  8
DATA
  6
CONTINUOUS
 62
     7
 10
-78.461612320873954
 20
209.73067159282249
 30
0.0
  0
SEQEND
  5
40A
  8
DATA
  6
CONTINUOUS
 62
     7
  0
CIRCLE
  5
126
  8
DATA
  6
CONTINUOUS
 62
     7
 10
-81.250000000000014
 20
208.9835253660157
 30
0.0
 40
1.2750000000000341
  0
LINE
  5
127
  8
DATA
  6
CONTINUOUS
 62
     7
 10
-89.09999999999998
 20
216.04637603477991
 30
0.0
 11
-73.400000000000034
 21
216.04637603477991
 31
0.0
  0
LINE
  5
128
  8
DATA
  6
CONTINUOUS
 62
     7
 10
-89.09999999999998
 20
216.04637603477991
 30
0.0
 11
-89.09999999999998
 21
220.34637603478009
 31
0.0
  0
LINE
  5
129
  8
DATA
  6
CONTINUOUS
 62
     7
 10
-73.400000000000034
 20
216.04637603477991
 30
0.0
 11
-73.400000000000034
 21
220.34637603478009
 31
0.0
  0
LINE
  5
12A
  8
DATA
  6
CONTINUOUS
 62
     7
 10
-89.09999999999998
 20
220.34637603478009
 30
0.0
 11
-86.500000000000014
 21
222.04637603478011
 31
0.0
  0
LINE
  5
12B
  8
DATA
  6
CONTINUOUS
 62
     7
 10
-73.400000000000034
 20
220.34637603478009
 30
0.0
 11
-76.000000000000014
 21
222.04637603478011
 31
0.0
  0
LINE
  5
12C
  8
DATA
  6
CONTINUOUS
 62
     7
 10
-86.500000000000014
 20
222.04637603478011
 30
0.0
 11
-76.000000000000014
 21
222.04637603478011
 31
0.0
  0
POLYLINE
  5
12D
  8
DATA
  6
CONTINUOUS
 62
     7
 66
     1
 10
0.0
 20
0.0
 30
0.0
 70
     1
  0
VERTEX
  5
40B
  8
DATA
  6
CONTINUOUS
 62
     7
 10
-86.250000000000014
 20
218.8325392092728
 30
0.0
  0
VERTEX
  5
40C
  8
DATA
  6
CONTINUOUS
 62
     7
 10
-76.250000000000014
 20
218.8325392092728
 30
0.0
  0
VERTEX
  5
40D
  8
DATA
  6
CONTINUOUS
 62
     7
 10
-76.250000000000014
 20
218.3325392092728
 30
0.0
  0
VERTEX
  5
40E
  8
DATA
  6
CONTINUOUS
 62
     7
 10
-86.250000000000014
 20
218.3325392092728
 30
0.0
  0
SEQEND
  5
40F
  8
DATA
  6
CONTINUOUS
 62
     7
  0
TEXT
  5
134
  8
DATA
 62
     7
 10
-76.803309933027492
 20
225.04267666069879
 30
0.0
 40
1.78113779296875
  1
HDMI In
 50
180.0
 41
0.7
 11
-76.803309933027492
 21
223.26153886773
 31
0.0
 73
     3
  0
CIRCLE
  5
135
  8
DATA
  6
CONTINUOUS
 62
     7
 10
-81.250000000000014
 20
232.7500000001225
 30
0.0
 40
6.5
  0
CIRCLE
  5
136
  8
DATA
  6
CONTINUOUS
 62
     7
 10
-81.250000000000014
 20
232.7500000001225
 30
0.0
 40
5.0
  0
POLYLINE
  5
137
  8
DATA
  6
CONTINUOUS
 62
     7
 66
     1
 10
0.0
 20
0.0
 30
0.0
 70
     1
  0
VERTEX
  5
410
  8
DATA
  6
CONTINUOUS
 62
     7
 10
-58.502853773193287
 20
211.7719130451417
 30
0.0
  0
VERTEX
  5
411
  8
DATA
  6
CONTINUOUS
 62
     7
 10
-61.291241452319319
 20
211.024766818335
 30
0.0
  0
VERTEX
  5
412
  8
DATA
  6
CONTINUOUS
 62
     7
 10
-62.038387679126032
 20
208.23637913920899
 30
0.0
  0
VERTEX
  5
413
  8
DATA
  6
CONTINUOUS
 62
     7
 10
-59.99714622680672
 20
206.19513768688969
 30
0.0
  0
VERTEX
  5
414
  8
DATA
  6
CONTINUOUS
 62
     7
 10
-57.208758547680723
 20
206.9422839136964
 30
0.0
  0
VERTEX
  5
415
  8
DATA
  6
CONTINUOUS
 62
     7
 10
-56.461612320873947
 20
209.73067159282249
 30
0.0
  0
SEQEND
  5
416
  8
DATA
  6
CONTINUOUS
 62
     7
  0
CIRCLE
  5
140
  8
DATA
  6
CONTINUOUS
 62
     7
 10
-59.250000000000021
 20
208.9835253660157
 30
0.0
 40
1.2750000000000341
  0
LINE
  5
141
  8
DATA
  6
CONTINUOUS
 62
     7
 10
-67.09999999999998
 20
216.04637603477991
 30
0.0
 11
-51.400000000000048
 21
216.04637603477991
 31
0.0
  0
LINE
  5
142
  8
DATA
  6
CONTINUOUS
 62
     7
 10
-67.09999999999998
 20
216.04637603477991
 30
0.0
 11
-67.09999999999998
 21
220.34637603478009
 31
0.0
  0
LINE
  5
143
  8
DATA
  6
CONTINUOUS
 62
     7
 10
-51.400000000000048
 20
216.04637603477991
 30
0.0
 11
-51.400000000000048
 21
220.34637603478009
 31
0.0
  0
LINE
  5
144
  8
DATA
  6
CONTINUOUS
 62
     7
 10
-67.09999999999998
 20
220.34637603478009
 30
0.0
 11
-64.500000000000014
 21
222.04637603478011
 31
0.0
  0
LINE
  5
145
  8
DATA
  6
CONTINUOUS
 62
     7
 10
-51.400000000000048
 20
220.34637603478009
 30
0.0
 11
-54.000000000000021
 21
222.04637603478011
 31
0.0
  0
LINE
  5
146
  8
DATA
  6
CONTINUOUS
 62
     7
 10
-64.500000000000014
 20
222.04637603478011
 30
0.0
 11
-54.000000000000021
 21
222.04637603478011
 31
0.0
  0
POLYLINE
  5
147
  8
DATA
  6
CONTINUOUS
 62
     7
 66
     1
 10
0.0
 20
0.0
 30
0.0
 70
     1
  0
VERTEX
  5
417
  8
DATA
  6
CONTINUOUS
 62
     7
 10
-64.250000000000014
 20
218.8325392092728
 30
0.0
  0
VERTEX
  5
418
  8
DATA
  6
CONTINUOUS
 62
     7
 10
-54.250000000000021
 20
218.8325392092728
 30
0.0
  0
VERTEX
  5
419
  8
DATA
  6
CONTINUOUS
 62
     7
 10
-54.250000000000021
 20
218.3325392092728
 30
0.0
  0
VERTEX
  5
41A
  8
DATA
  6
CONTINUOUS
 62
     7
 10
-64.250000000000014
 20
218.3325392092728
 30
0.0
  0
SEQEND
  5
41B
  8
DATA
  6
CONTINUOUS
 62
     7
  0
TEXT
  5
14E
  8
DATA
 62
     7
 10
-53.087748563409647
 20
225.04267666069879
 30
0.0
 40
1.78113779296875
  1
HDMI Out 2
 50
180.0
 41
0.7
 11
-53.087748563409647
 21
223.26153886773
 31
0.0
 73
     3
  0
POLYLINE
  5
14F
  8
DATA
  6
CONTINUOUS
 62
     7
 66
     1
 10
0.0
 20
0.0
 30
0.0
 70
     1
  0
VERTEX
  5
41C
  8
DATA
  6
CONTINUOUS
 62
     7
 10
-36.502853773193308
 20
211.7719130451417
 30
0.0
  0
VERTEX
  5
41D
  8
DATA
  6
CONTINUOUS
 62
     7
 10
-39.291241452319312
 20
211.024766818335
 30
0.0
  0
VERTEX
  5
41E
  8
DATA
  6
CONTINUOUS
 62
     7
 10
-40.038387679126011
 20
208.23637913920899
 30
0.0
  0
VERTEX
  5
41F
  8
DATA
  6
CONTINUOUS
 62
     7
 10
-37.99714622680672
 20
206.19513768688969
 30
0.0
  0
VERTEX
  5
420
  8
DATA
  6
CONTINUOUS
 62
     7
 10
-35.208758547680723
 20
206.9422839136964
 30
0.0
  0
VERTEX
  5
421
  8
DATA
  6
CONTINUOUS
 62
     7
 10
-34.461612320873947
 20
209.73067159282249
 30
0.0
  0
SEQEND
  5
422
  8
DATA
  6
CONTINUOUS
 62
     7
  0
CIRCLE
  5
158
  8
DATA
  6
CONTINUOUS
 62
     7
 10
-37.250000000000007
 20
208.9835253660157
 30
0.0
 40
1.2750000000000341
  0
LINE
  5
159
  8
DATA
  6
CONTINUOUS
 62
     7
 10
-45.09999999999998
 20
216.04637603477991
 30
0.0
 11
-29.400000000000048
 21
216.04637603477991
 31
0.0
  0
LINE
  5
15A
  8
DATA
  6
CONTINUOUS
 62
     7
 10
-45.09999999999998
 20
216.04637603477991
 30
0.0
 11
-45.09999999999998
 21
220.34637603478009
 31
0.0
  0
LINE
  5
15B
  8
DATA
  6
CONTINUOUS
 62
     7
 10
-29.400000000000048
 20
216.04637603477991
 30
0.0
 11
-29.400000000000048
 21
220.34637603478009
 31
0.0
  0
LINE
  5
15C
  8
DATA
  6
CONTINUOUS
 62
     7
 10
-45.09999999999998
 20
220.34637603478009
 30
0.0
 11
-42.500000000000007
 21
222.04637603478011
 31
0.0
  0
LINE
  5
15D
  8
DATA
  6
CONTINUOUS
 62
     7
 10
-29.400000000000048
 20
220.34637603478009
 30
0.0
 11
-32.000000000000007
 21
222.04637603478011
 31
0.0
  0
LINE
  5
15E
  8
DATA
  6
CONTINUOUS
 62
     7
 10
-42.500000000000007
 20
222.04637603478011
 30
0.0
 11
-32.000000000000007
 21
222.04637603478011
 31
0.0
  0
POLYLINE
  5
15F
  8
DATA
  6
CONTINUOUS
 62
     7
 66
     1
 10
0.0
 20
0.0
 30
0.0
 70
     1
  0
VERTEX
  5
423
  8
DATA
  6
CONTINUOUS
 62
     7
 10
-42.250000000000007
 20
218.8325392092728
 30
0.0
  0
VERTEX
  5
424
  8
DATA
  6
CONTINUOUS
 62
     7
 10
-32.250000000000007
 20
218.8325392092728
 30
0.0
  0
VERTEX
  5
425
  8
DATA
  6
CONTINUOUS
 62
     7
 10
-32.250000000000007
 20
218.3325392092728
 30
0.0
  0
VERTEX
  5
426
  8
DATA
  6
CONTINUOUS
 62
     7
 10
-42.250000000000007
 20
218.3325392092728
 30
0.0
  0
SEQEND
  5
427
  8
DATA
  6
CONTINUOUS
 62
     7
  0
TEXT
  5
166
  8
DATA
 62
     7
 10
-31.087748563409651
 20
225.04267666069879
 30
0.0
 40
1.78113779296875
  1
HDMI Out 1
 50
180.0
 41
0.7
 11
-31.087748563409651
 21
223.26153886773
 31
0.0
 73
     3
  0
CIRCLE
  5
167
  8
DATA
  6
CONTINUOUS
 62
     7
 10
-66.250000000000014
 20
232.7500000001225
 30
0.0
 40
4.1500000000000048
  0
CIRCLE
  5
168
  8
DATA
  6
CONTINUOUS
 62
     7
 10
-66.250000000000014
 20
232.7500000001225
 30
0.0
 40
1.699999999999988
  0
CIRCLE
  5
169
  8
DATA
  6
CONTINUOUS
 62
     7
 10
-38.250000000000007
 20
232.7500000001225
 30
0.0
 40
4.1500000000000048
  0
CIRCLE
  5
16A
  8
DATA
  6
CONTINUOUS
 62
     7
 10
-38.250000000000007
 20
232.7500000001225
 30
0.0
 40
1.699999999999988
  0
POLYLINE
  5
16B
  8
DATA
  6
CONTINUOUS
 62
     7
 66
     1
 10
0.0
 20
0.0
 30
0.0
 70
     1
  0
VERTEX
  5
428
  8
DATA
  6
CONTINUOUS
 62
     7
 10
-57.250000000000021
 20
237.7500000001225
 30
0.0
  0
VERTEX
  5
429
  8
DATA
  6
CONTINUOUS
 62
     7
 10
-47.250000000000021
 20
237.7500000001225
 30
0.0
  0
VERTEX
  5
42A
  8
DATA
  6
CONTINUOUS
 62
     7
 10
-47.250000000000021
 20
227.7500000001225
 30
0.0
  0
VERTEX
  5
42B
  8
DATA
  6
CONTINUOUS
 62
     7
 10
-57.250000000000021
 20
227.7500000001225
 30
0.0
  0
SEQEND
  5
42C
  8
DATA
  6
CONTINUOUS
 62
     7
  0
CIRCLE
  5
172
  8
DATA
  6
CONTINUOUS
 62
     7
 10
-16.250000000000011
 20
232.7500000001225
 30
0.0
 40
4.1500000000000048
  0
CIRCLE
  5
173
  8
DATA
  6
CONTINUOUS
 62
     7
 10
-16.250000000000011
 20
232.7500000001225
 30
0.0
 40
1.699999999999988
  0
CIRCLE
  5
174
  8
DATA
  6
CONTINUOUS
 62
     7
 10
-2.2500000000000142
 20
232.7500000001225
 30
0.0
 40
4.1500000000000048
  0
CIRCLE
  5
175
  8
DATA
  6
CONTINUOUS
 62
     7
 10
-2.2500000000000142
 20
232.7500000001225
 30
0.0
 40
1.699999999999988
  0
CIRCLE
  5
176
  8
DATA
  6
CONTINUOUS
 62
     7
 10
13.74999999999998
 20
232.7500000001225
 30
0.0
 40
4.1500000000000048
  0
CIRCLE
  5
177
  8
DATA
  6
CONTINUOUS
 62
     7
 10
13.74999999999998
 20
232.7500000001225
 30
0.0
 40
1.699999999999988
  0
CIRCLE
  5
178
  8
DATA
  6
CONTINUOUS
 62
     7
 10
27.749999999999989
 20
232.7500000001225
 30
0.0
 40
4.1500000000000048
  0
CIRCLE
  5
179
  8
DATA
  6
CONTINUOUS
 62
     7
 10
27.749999999999989
 20
232.7500000001225
 30
0.0
 40
1.699999999999988
  0
CIRCLE
  5
17A
  8
DATA
  6
CONTINUOUS
 62
     7
 10
-16.250000000000011
 20
218.7500000001225
 30
0.0
 40
4.1500000000000048
  0
CIRCLE
  5
17B
  8
DATA
  6
CONTINUOUS
 62
     7
 10
-16.250000000000011
 20
218.7500000001225
 30
0.0
 40
1.699999999999988
  0
CIRCLE
  5
17C
  8
DATA
  6
CONTINUOUS
 62
     7
 10
-2.2500000000000142
 20
218.7500000001225
 30
0.0
 40
4.1500000000000048
  0
CIRCLE
  5
17D
  8
DATA
  6
CONTINUOUS
 62
     7
 10
-2.2500000000000142
 20
218.7500000001225
 30
0.0
 40
1.699999999999988
  0
CIRCLE
  5
17E
  8
DATA
  6
CONTINUOUS
 62
     7
 10
13.74999999999998
 20
218.7500000001225
 30
0.0
 40
4.1500000000000048
  0
CIRCLE
  5
17F
  8
DATA
  6
CONTINUOUS
 62
     7
 10
13.74999999999998
 20
218.7500000001225
 30
0.0
 40
1.699999999999988
  0
CIRCLE
  5
180
  8
DATA
  6
CONTINUOUS
 62
     7
 10
27.749999999999989
 20
218.7500000001225
 30
0.0
 40
4.1500000000000048
  0
CIRCLE
  5
181
  8
DATA
  6
CONTINUOUS
 62
     7
 10
27.749999999999989
 20
218.7500000001225
 30
0.0
 40
1.699999999999988
  0
CIRCLE
  5
182
  8
DATA
  6
CONTINUOUS
 62
     7
 10
-9.2500000000000142
 20
225.7500000001225
 30
0.0
 40
3.6500000000000048
  0
CIRCLE
  5
183
  8
DATA
  6
CONTINUOUS
 62
     7
 10
-9.2500000000000142
 20
225.7500000001225
 30
0.0
 40
2.5
  0
LINE
  5
184
  8
DATA
  6
CONTINUOUS
 62
     7
 10
-10.42000000012251
 20
224.58000000000001
 30
0.0
 11
-8.1257002180009579
 21
226.8742997821216
 31
0.0
  0
LINE
  5
185
  8
DATA
  6
CONTINUOUS
 62
     7
 10
-8.1257002179989222
 20
224.62570021812141
 30
0.0
 11
-10.374299782001099
 21
226.87429978212359
 31
0.0
  0
CIRCLE
  5
186
  8
DATA
  6
CONTINUOUS
 62
     7
 10
20.749999999999979
 20
225.7500000001225
 30
0.0
 40
3.6500000000000048
  0
CIRCLE
  5
187
  8
DATA
  6
CONTINUOUS
 62
     7
 10
20.749999999999979
 20
225.7500000001225
 30
0.0
 40
2.5
  0
LINE
  5
188
  8
DATA
  6
CONTINUOUS
 62
     7
 10
19.57999999987749
 20
224.58000000000001
 30
0.0
 11
21.874299781999039
 21
226.8742997821216
 31
0.0
  0
LINE
  5
189
  8
DATA
  6
CONTINUOUS
 62
     7
 10
21.874299782001071
 20
224.62570021812141
 30
0.0
 11
19.625700217998901
 21
226.87429978212359
 31
0.0
  0
CIRCLE
  5
18A
  8
DATA
  6
CONTINUOUS
 62
     7
 10
45.187909257736749
 20
232.73215720018439
 30
0.0
 40
1.1749999999999261
  0
POLYLINE
  5
18B
  8
DATA
  6
CONTINUOUS
 62
     7
 66
     1
 10
0.0
 20
0.0
 30
0.0
 70
     1
  0
VERTEX
  5
42D
  8
DATA
  6
CONTINUOUS
 62
     7
 10
45.187909257736749
 20
230.03215720018451
 30
0.0
  0
VERTEX
  5
42E
  8
DATA
  6
CONTINUOUS
 62
     7
 10
47.526177847954422
 20
231.38215720018451
 30
0.0
  0
VERTEX
  5
42F
  8
DATA
  6
CONTINUOUS
 62
     7
 10
47.526177847954422
 20
234.08215720018421
 30
0.0
  0
VERTEX
  5
430
  8
DATA
  6
CONTINUOUS
 62
     7
 10
45.187909257736749
 20
235.43215720018409
 30
0.0
  0
VERTEX
  5
431
  8
DATA
  6
CONTINUOUS
 62
     7
 10
42.849640667518933
 20
234.08215720018421
 30
0.0
  0
VERTEX
  5
432
  8
DATA
  6
CONTINUOUS
 62
     7
 10
42.849640667518933
 20
231.38215720018451
 30
0.0
  0
SEQEND
  5
433
  8
DATA
  6
CONTINUOUS
 62
     7
  0
CIRCLE
  5
194
  8
DATA
  6
CONTINUOUS
 62
     7
 10
70.187909257736536
 20
232.73215720018439
 30
0.0
 40
1.174999999999965
  0
POLYLINE
  5
195
  8
DATA
  6
CONTINUOUS
 62
     7
 66
     1
 10
0.0
 20
0.0
 30
0.0
 70
     1
  0
VERTEX
  5
434
  8
DATA
  6
CONTINUOUS
 62
     7
 10
70.187909257736536
 20
230.03215720018451
 30
0.0
  0
VERTEX
  5
435
  8
DATA
  6
CONTINUOUS
 62
     7
 10
72.526177847954429
 20
231.38215720018451
 30
0.0
  0
VERTEX
  5
436
  8
DATA
  6
CONTINUOUS
 62
     7
 10
72.526177847954429
 20
234.08215720018421
 30
0.0
  0
VERTEX
  5
437
  8
DATA
  6
CONTINUOUS
 62
     7
 10
70.187909257736536
 20
235.43215720018409
 30
0.0
  0
VERTEX
  5
438
  8
DATA
  6
CONTINUOUS
 62
     7
 10
67.849640667518642
 20
234.08215720018421
 30
0.0
  0
VERTEX
  5
439
  8
DATA
  6
CONTINUOUS
 62
     7
 10
67.849640667518642
 20
231.38215720018451
 30
0.0
  0
SEQEND
  5
43A
  8
DATA
  6
CONTINUOUS
 62
     7
  0
LINE
  5
19E
  8
DATA
  6
CONTINUOUS
 62
     7
 10
52.086146047547899
 20
236.73215720018419
 30
0.0
 11
63.289672467925122
 21
236.73215720018419
 31
0.0
  0
LINE
  5
19F
  8
DATA
  6
CONTINUOUS
 62
     7
 10
64.102172467925001
 20
228.73215720018459
 30
0.0
 11
51.273646047547913
 21
228.73215720018459
 31
0.0
  0
LINE
  5
1A0
  8
DATA
  6
CONTINUOUS
 62
     7
 10
64.672889315176675
 20
235.54828483256719
 30
0.0
 11
65.485389315176562
 21
230.3482848325676
 31
0.0
  0
LINE
  5
1A1
  8
DATA
  6
CONTINUOUS
 62
     7
 10
49.890429200296353
 20
230.3482848325676
 30
0.0
 11
50.702929200296339
 21
235.54828483256719
 31
0.0
  0
CIRCLE
  5
1A2
  8
DATA
  6
CONTINUOUS
 62
     7
 10
57.714539028211433
 20
231.09584902903089
 30
0.0
 40
0.5
  0
ARC
  5
1A3
  8
DATA
  6
CONTINUOUS
 62
     7
 10
64.102172467925001
 20
230.13215720018451
 30
0.0
 40
1.399999999999977
 50
270.0
 51
8.8806591505205574
  0
ARC
  5
1A4
  8
DATA
  6
CONTINUOUS
 62
     7
 10
51.273646047547913
 20
230.13215720018451
 30
0.0
 40
1.400000000000019
 50
171.1193408494795
 51
270.0
  0
ARC
  5
1A5
  8
DATA
  6
CONTINUOUS
 62
     7
 10
63.289672467925122
 20
235.3321572001841
 30
0.0
 40
1.4000000000000281
 50
8.8806591505228312
 51
90.0
  0
ARC
  5
1A6
  8
DATA
  6
CONTINUOUS
 62
     7
 10
52.086146047547899
 20
235.3321572001841
 30
0.0
 40
1.4000000000001469
 50
90.0
 51
171.11934084947711
  0
CIRCLE
  5
1A7
  8
DATA
  6
CONTINUOUS
 62
     7
 10
60.214539028211433
 20
231.09584902903089
 30
0.0
 40
0.5
  0
CIRCLE
  5
1A8
  8
DATA
  6
CONTINUOUS
 62
     7
 10
62.714539028211433
 20
231.09584902903089
 30
0.0
 40
0.5
  0
CIRCLE
  5
1A9
  8
DATA
  6
CONTINUOUS
 62
     7
 10
55.214539028211433
 20
231.09584902903089
 30
0.0
 40
0.5
  0
CIRCLE
  5
1AA
  8
DATA
  6
CONTINUOUS
 62
     7
 10
52.714539028211433
 20
231.09584902903089
 30
0.0
 40
0.5
  0
CIRCLE
  5
1AB
  8
DATA
  6
CONTINUOUS
 62
     7
 10
58.910050204282683
 20
234.71436944779319
 30
0.0
 40
0.5
  0
CIRCLE
  5
1AC
  8
DATA
  6
CONTINUOUS
 62
     7
 10
61.410050204282683
 20
234.71436944779319
 30
0.0
 40
0.5
  0
CIRCLE
  5
1AD
  8
DATA
  6
CONTINUOUS
 62
     7
 10
56.410050204282683
 20
234.71436944779319
 30
0.0
 40
0.5
  0
CIRCLE
  5
1AE
  8
DATA
  6
CONTINUOUS
 62
     7
 10
53.910050204282683
 20
234.71436944779319
 30
0.0
 40
0.5
  0
TEXT
  5
1AF
  8
DATA
 62
     7
 10
62.561187040836721
 20
245.770922537367
 30
0.0
 40
2.4432617187500001
  1
RS-232
 50
180.0
 41
0.7
 11
62.561187040836721
 21
243.32766081861701
 31
0.0
 73
     3
  0
TEXT
  5
1B0
  8
DATA
 62
     7
 10
31.96515144723552
 20
245.770922537367
 30
0.0
 40
2.4432617187500001
  1
Front
 50
180.0
 41
0.7
 11
31.96515144723552
 21
243.32766081861701
 31
0.0
 73
     3
  0
TEXT
  5
1B1
  8
DATA
 62
     7
 10
16.730086702920069
 20
245.770922537367
 30
0.0
 40
2.4432617187500001
  1
Sub
 50
180.0
 41
0.7
 11
16.730086702920069
 21
243.32766081861701
 31
0.0
 73
     3
  0
TEXT
  5
1B2
  8
DATA
 62
     7
 10
5.5985884004130639
 20
245.770922537367
 30
0.0
 40
2.4432617187500001
  1
Surround
 50
180.0
 41
0.7
 11
5.598588400413063
 21
243.32766081861701
 31
0.0
 73
     3
  0
TEXT
  5
1B3
  8
DATA
 62
     7
 10
-12.761513449166211
 20
243.9315759583433
 30
0.0
 40
2.4432617187500001
  1
Front
 50
180.0
 41
0.7
 11
-12.761513449166211
 21
241.48831423959331
 31
0.0
 73
     3
  0
TEXT
  5
1B4
  8
DATA
 62
     7
 10
-11.22099138175737
 20
248.05052403079321
 30
0.0
 40
2.4432617187500001
  1
Bi-Amp
 50
180.0
 41
0.7
 11
-11.22099138175737
 21
245.60726231204319
 31
0.0
 73
     3
  0
TEXT
  5
1B5
  8
DATA
 62
     7
 10
-75.948583301712944
 20
245.770922537367
 30
0.0
 40
2.4432617187500001
  1
24V DC
 50
180.0
 41
0.7
 11
-75.948583301712944
 21
243.32766081861701
 31
0.0
 73
     3
  0
TEXT
  5
1B6
  8
DATA
 62
     7
 10
-34.621258459770523
 20
243.9315759583433
 30
0.0
 40
2.4432617187500001
  1
Coax
 50
180.0
 41
0.7
 11
-34.621258459770523
 21
241.48831423959331
 31
0.0
 73
     3
  0
TEXT
  5
1B7
  8
DATA
 62
     7
 10
-35.312430405086801
 20
248.05052403079321
 30
0.0
 40
2.4432617187500001
  1
Out
 50
180.0
 41
0.7
 11
-35.312430405086801
 21
245.60726231204319
 31
0.0
 73
     3
  0
TEXT
  5
1B8
  8
DATA
 62
     7
 10
-46.706075279427033
 20
243.9315759583433
 30
0.0
 40
2.4432617187500001
  1
Optical
 50
180.0
 41
0.7
 11
-46.706075279427033
 21
241.48831423959331
 31
0.0
 73
     3
  0
TEXT
  5
1B9
  8
DATA
 62
     7
 10
-50.061540313292888
 20
248.05052403079321
 30
0.0
 40
2.4432617187500001
  1
Out
 50
180.0
 41
0.7
 11
-50.061540313292888
 21
245.60726231204319
 31
0.0
 73
     3
  0
TEXT
  5
1BA
  8
DATA
 62
     7
 10
-62.922759152709382
 20
243.9315759583433
 30
0.0
 40
2.4432617187500001
  1
Coax
 50
180.0
 41
0.7
 11
-62.922759152709382
 21
241.48831423959331
 31
0.0
 73
     3
  0
TEXT
  5
1BB
  8
DATA
 62
     7
 10
-63.946967734094372
 20
248.05052403079321
 30
0.0
 40
2.4432617187500001
  1
In
 50
180.0
 41
0.7
 11
-63.946967734094372
 21
245.60726231204319
 31
0.0
 73
     3
  0
TEXT
  5
1BC
  8
DATA
 62
     7
 10
36.622130861826641
 20
220.15549999999999
 30
0.0
 40
2.4432617187500001
  1
L
 50
180.0
 41
0.7
 11
36.622130861826641
 21
217.71223828124999
 31
0.0
 73
     3
  0
TEXT
  5
1BD
  8
DATA
 62
     7
 10
36.622130861826641
 20
234.0592718632324
 30
0.0
 40
2.4432617187500001
  1
R
 50
180.0
 41
0.7
 11
36.622130861826641
 21
231.6160101444824
 31
0.0
 73
     3
  0
TEXT
  5
1BE
  8
DATA
 62
     7
 10
14.924057034191939
 20
209.6411140683839
 30
0.0
 40
2.4432617187500001
  1
C
 50
180.0
 41
0.7
 11
14.924057034191939
 21
207.19785234963391
 31
0.0
 73
     3
  0
LINE
  5
1BF
  8
DATA
  6
CONTINUOUS
 62
     7
 10
156.05000000000001
 20
-107.75
 30
0.0
 11
156.05000000000001
 21
-71.800000000000026
 31
0.0
  0
LINE
  5
1C0
  8
DATA
  6
CONTINUOUS
 62
     7
 10
156.05000000000001
 20
-71.800000000000026
 30
0.0
 11
156.25
 21
-71.800000000000026
 31
0.0
  0
LINE
  5
1C1
  8
DATA
  6
CONTINUOUS
 62
     7
 10
156.05000000000001
 20
-107.75
 30
0.0
 11
156.25
 21
-107.75
 31
0.0
  0
LINE
  5
1C2
  8
DATA
  6
CONTINUOUS
 62
     7
 10
154.25
 20
-77.25
 30
0.0
 11
156.05000000000001
 21
-77.25
 31
0.0
  0
LINE
  5
1C3
  8
DATA
  6
CONTINUOUS
 62
     7
 10
154.25
 20
-84.25
 30
0.0
 11
156.05000000000001
 21
-84.25
 31
0.0
  0
LINE
  5
1C4
  8
DATA
  6
CONTINUOUS
 62
     7
 10
154.25
 20
-96.25
 30
0.0
 11
156.05000000000001
 21
-96.25
 31
0.0
  0
LINE
  5
1C5
  8
DATA
  6
CONTINUOUS
 62
     7
 10
154.25
 20
-103.25
 30
0.0
 11
156.05000000000001
 21
-103.25
 31
0.0
  0
LINE
  5
1C6
  8
DATA
  6
CONTINUOUS
 62
     7
 10
154.25
 20
-103.25
 30
0.0
 11
154.25
 21
-96.25
 31
0.0
  0
LINE
  5
1C7
  8
DATA
  6
CONTINUOUS
 62
     7
 10
154.25
 20
-84.25
 30
0.0
 11
154.25
 21
-77.25
 31
0.0
  0
LINE
  5
1C8
  8
DATA
  6
CONTINUOUS
 62
     7
 10
188.25
 20
-77.75
 30
0.0
 11
188.25
 21
-98.75
 31
0.0
  0
LINE
  5
1C9
  8
DATA
  6
CONTINUOUS
 62
     7
 10
301.25
 20
-77.75
 30
0.0
 11
301.25
 21
-98.75
 31
0.0
  0
LINE
  5
1CA
  8
DATA
  6
CONTINUOUS
 62
     7
 10
190.25
 20
-75.75
 30
0.0
 11
299.25
 21
-75.75
 31
0.0
  0
LINE
  5
1CB
  8
DATA
  6
CONTINUOUS
 62
     7
 10
190.25
 20
-100.75
 30
0.0
 11
299.25
 21
-100.75
 31
0.0
  0
ARC
  5
1CC
  8
DATA
  6
CONTINUOUS
 62
     7
 10
190.25
 20
-77.75
 30
0.0
 40
2.0
 50
90.0
 51
180.0
  0
ARC
  5
1CD
  8
DATA
  6
CONTINUOUS
 62
     7
 10
190.25
 20
-98.75
 30
0.0
 40
2.0
 50
180.0
 51
270.0
  0
ARC
  5
1CE
  8
DATA
  6
CONTINUOUS
 62
     7
 10
299.25
 20
-98.75
 30
0.0
 40
2.0
 50
270.0
 51
0.0
  0
ARC
  5
1CF
  8
DATA
  6
CONTINUOUS
 62
     7
 10
299.25
 20
-77.75
 30
0.0
 40
2.0
 50
0.0
 51
90.0
  0
CIRCLE
  5
1D0
  8
DATA
  6
CONTINUOUS
 62
     7
 10
190.0172345882828
 20
-77.378814823549732
 30
0.0
 40
1.0
  0
CIRCLE
  5
1D1
  8
DATA
  6
CONTINUOUS
 62
     7
 10
190.0172345882828
 20
-80.378814823549746
 30
0.0
 40
1.0
  0
CIRCLE
  5
1D2
  8
DATA
  6
CONTINUOUS
 62
     7
 10
190.0172345882828
 20
-83.378814823549732
 30
0.0
 40
1.0
  0
CIRCLE
  5
1D3
  8
DATA
  6
CONTINUOUS
 62
     7
 10
190.0172345882828
 20
-86.378814823549732
 30
0.0
 40
1.0
  0
CIRCLE
  5
1D4
  8
DATA
  6
CONTINUOUS
 62
     7
 10
190.0172345882828
 20
-89.378814823549718
 30
0.0
 40
1.0
  0
CIRCLE
  5
1D5
  8
DATA
  6
CONTINUOUS
 62
     7
 10
190.0172345882828
 20
-92.378814823549689
 30
0.0
 40
1.0
  0
CIRCLE
  5
1D6
  8
DATA
  6
CONTINUOUS
 62
     7
 10
190.0172345882828
 20
-95.378814823549703
 30
0.0
 40
1.0
  0
CIRCLE
  5
1D7
  8
DATA
  6
CONTINUOUS
 62
     7
 10
190.0172345882828
 20
-98.378814823549703
 30
0.0
 40
1.0
  0
ARC
  5
1D8
  8
DATA
  6
CONTINUOUS
 62
     7
 10
190.0172345882828
 20
-101.3788148235497
 30
0.0
 40
1.000000000000008
 50
38.962736394924121
 51
126.2478142127475
  0
CIRCLE
  5
1D9
  8
DATA
  6
CONTINUOUS
 62
     7
 10
193.0172345882828
 20
-77.378814823549732
 30
0.0
 40
1.0
  0
CIRCLE
  5
1DA
  8
DATA
  6
CONTINUOUS
 62
     7
 10
193.0172345882828
 20
-80.378814823549746
 30
0.0
 40
1.0
  0
CIRCLE
  5
1DB
  8
DATA
  6
CONTINUOUS
 62
     7
 10
193.0172345882828
 20
-83.378814823549732
 30
0.0
 40
1.0
  0
CIRCLE
  5
1DC
  8
DATA
  6
CONTINUOUS
 62
     7
 10
193.0172345882828
 20
-86.378814823549732
 30
0.0
 40
1.0
  0
CIRCLE
  5
1DD
  8
DATA
  6
CONTINUOUS
 62
     7
 10
193.0172345882828
 20
-89.378814823549718
 30
0.0
 40
1.0
  0
CIRCLE
  5
1DE
  8
DATA
  6
CONTINUOUS
 62
     7
 10
193.0172345882828
 20
-92.378814823549689
 30
0.0
 40
1.0
  0
CIRCLE
  5
1DF
  8
DATA
  6
CONTINUOUS
 62
     7
 10
193.0172345882828
 20
-95.378814823549703
 30
0.0
 40
1.0
  0
CIRCLE
  5
1E0
  8
DATA
  6
CONTINUOUS
 62
     7
 10
193.0172345882828
 20
-98.378814823549703
 30
0.0
 40
1.0
  0
ARC
  5
1E1
  8
DATA
  6
CONTINUOUS
 62
     7
 10
193.0172345882828
 20
-101.3788148235497
 30
0.0
 40
1.000000000000006
 50
38.96273639490326
 51
141.03726360509671
  0
CIRCLE
  5
1E2
  8
DATA
  6
CONTINUOUS
 62
     7
 10
196.0172345882828
 20
-77.378814823549732
 30
0.0
 40
1.0
  0
CIRCLE
  5
1E3
  8
DATA
  6
CONTINUOUS
 62
     7
 10
196.0172345882828
 20
-80.378814823549746
 30
0.0
 40
1.0
  0
CIRCLE
  5
1E4
  8
DATA
  6
CONTINUOUS
 62
     7
 10
196.0172345882828
 20
-83.378814823549732
 30
0.0
 40
1.0
  0
CIRCLE
  5
1E5
  8
DATA
  6
CONTINUOUS
 62
     7
 10
196.0172345882828
 20
-86.378814823549732
 30
0.0
 40
1.0
  0
CIRCLE
  5
1E6
  8
DATA
  6
CONTINUOUS
 62
     7
 10
196.0172345882828
 20
-89.378814823549718
 30
0.0
 40
1.0
  0
CIRCLE
  5
1E7
  8
DATA
  6
CONTINUOUS
 62
     7
 10
196.0172345882828
 20
-92.378814823549689
 30
0.0
 40
1.0
  0
CIRCLE
  5
1E8
  8
DATA
  6
CONTINUOUS
 62
     7
 10
196.0172345882828
 20
-95.378814823549703
 30
0.0
 40
1.0
  0
CIRCLE
  5
1E9
  8
DATA
  6
CONTINUOUS
 62
     7
 10
196.0172345882828
 20
-98.378814823549703
 30
0.0
 40
1.0
  0
ARC
  5
1EA
  8
DATA
  6
CONTINUOUS
 62
     7
 10
196.0172345882828
 20
-101.3788148235497
 30
0.0
 40
1.000000000000006
 50
38.96273639490326
 51
141.03726360509671
  0
CIRCLE
  5
1EB
  8
DATA
  6
CONTINUOUS
 62
     7
 10
199.0172345882828
 20
-77.378814823549732
 30
0.0
 40
1.0
  0
CIRCLE
  5
1EC
  8
DATA
  6
CONTINUOUS
 62
     7
 10
199.0172345882828
 20
-80.378814823549746
 30
0.0
 40
1.0
  0
CIRCLE
  5
1ED
  8
DATA
  6
CONTINUOUS
 62
     7
 10
199.0172345882828
 20
-83.378814823549732
 30
0.0
 40
1.0
  0
CIRCLE
  5
1EE
  8
DATA
  6
CONTINUOUS
 62
     7
 10
199.0172345882828
 20
-86.378814823549732
 30
0.0
 40
1.0
  0
CIRCLE
  5
1EF
  8
DATA
  6
CONTINUOUS
 62
     7
 10
199.0172345882828
 20
-89.378814823549718
 30
0.0
 40
1.0
  0
CIRCLE
  5
1F0
  8
DATA
  6
CONTINUOUS
 62
     7
 10
199.0172345882828
 20
-92.378814823549689
 30
0.0
 40
1.0
  0
CIRCLE
  5
1F1
  8
DATA
  6
CONTINUOUS
 62
     7
 10
199.0172345882828
 20
-95.378814823549703
 30
0.0
 40
1.0
  0
CIRCLE
  5
1F2
  8
DATA
  6
CONTINUOUS
 62
     7
 10
199.0172345882828
 20
-98.378814823549703
 30
0.0
 40
1.0
  0
ARC
  5
1F3
  8
DATA
  6
CONTINUOUS
 62
     7
 10
199.0172345882828
 20
-101.3788148235497
 30
0.0
 40
1.000000000000006
 50
38.96273639490326
 51
141.03726360509671
  0
CIRCLE
  5
1F4
  8
DATA
  6
CONTINUOUS
 62
     7
 10
202.0172345882828
 20
-77.378814823549732
 30
0.0
 40
1.0
  0
CIRCLE
  5
1F5
  8
DATA
  6
CONTINUOUS
 62
     7
 10
202.0172345882828
 20
-80.378814823549746
 30
0.0
 40
1.0
  0
CIRCLE
  5
1F6
  8
DATA
  6
CONTINUOUS
 62
     7
 10
202.0172345882828
 20
-83.378814823549732
 30
0.0
 40
1.0
  0
CIRCLE
  5
1F7
  8
DATA
  6
CONTINUOUS
 62
     7
 10
202.0172345882828
 20
-86.378814823549732
 30
0.0
 40
1.0
  0
CIRCLE
  5
1F8
  8
DATA
  6
CONTINUOUS
 62
     7
 10
202.0172345882828
 20
-89.378814823549718
 30
0.0
 40
1.0
  0
CIRCLE
  5
1F9
  8
DATA
  6
CONTINUOUS
 62
     7
 10
202.0172345882828
 20
-92.378814823549689
 30
0.0
 40
1.0
  0
CIRCLE
  5
1FA
  8
DATA
  6
CONTINUOUS
 62
     7
 10
202.0172345882828
 20
-95.378814823549703
 30
0.0
 40
1.0
  0
CIRCLE
  5
1FB
  8
DATA
  6
CONTINUOUS
 62
     7
 10
202.0172345882828
 20
-98.378814823549703
 30
0.0
 40
1.0
  0
ARC
  5
1FC
  8
DATA
  6
CONTINUOUS
 62
     7
 10
202.0172345882828
 20
-101.3788148235497
 30
0.0
 40
1.000000000000006
 50
38.96273639490326
 51
141.03726360509671
  0
CIRCLE
  5
1FD
  8
DATA
  6
CONTINUOUS
 62
     7
 10
205.0172345882828
 20
-77.378814823549732
 30
0.0
 40
1.0
  0
CIRCLE
  5
1FE
  8
DATA
  6
CONTINUOUS
 62
     7
 10
205.0172345882828
 20
-80.378814823549746
 30
0.0
 40
1.0
  0
CIRCLE
  5
1FF
  8
DATA
  6
CONTINUOUS
 62
     7
 10
205.0172345882828
 20
-83.378814823549732
 30
0.0
 40
1.0
  0
CIRCLE
  5
200
  8
DATA
  6
CONTINUOUS
 62
     7
 10
205.0172345882828
 20
-86.378814823549732
 30
0.0
 40
1.0
  0
CIRCLE
  5
201
  8
DATA
  6
CONTINUOUS
 62
     7
 10
205.0172345882828
 20
-89.378814823549718
 30
0.0
 40
1.0
  0
CIRCLE
  5
202
  8
DATA
  6
CONTINUOUS
 62
     7
 10
205.0172345882828
 20
-92.378814823549689
 30
0.0
 40
1.0
  0
CIRCLE
  5
203
  8
DATA
  6
CONTINUOUS
 62
     7
 10
205.0172345882828
 20
-95.378814823549703
 30
0.0
 40
1.0
  0
CIRCLE
  5
204
  8
DATA
  6
CONTINUOUS
 62
     7
 10
205.0172345882828
 20
-98.378814823549703
 30
0.0
 40
1.0
  0
ARC
  5
205
  8
DATA
  6
CONTINUOUS
 62
     7
 10
205.0172345882828
 20
-101.3788148235497
 30
0.0
 40
1.000000000000006
 50
38.96273639490326
 51
141.03726360509671
  0
CIRCLE
  5
206
  8
DATA
  6
CONTINUOUS
 62
     7
 10
208.0172345882828
 20
-77.378814823549732
 30
0.0
 40
1.0
  0
CIRCLE
  5
207
  8
DATA
  6
CONTINUOUS
 62
     7
 10
208.0172345882828
 20
-80.378814823549746
 30
0.0
 40
1.0
  0
CIRCLE
  5
208
  8
DATA
  6
CONTINUOUS
 62
     7
 10
208.0172345882828
 20
-83.378814823549732
 30
0.0
 40
1.0
  0
CIRCLE
  5
209
  8
DATA
  6
CONTINUOUS
 62
     7
 10
208.0172345882828
 20
-86.378814823549732
 30
0.0
 40
1.0
  0
CIRCLE
  5
20A
  8
DATA
  6
CONTINUOUS
 62
     7
 10
208.0172345882828
 20
-89.378814823549718
 30
0.0
 40
1.0
  0
CIRCLE
  5
20B
  8
DATA
  6
CONTINUOUS
 62
     7
 10
208.0172345882828
 20
-92.378814823549689
 30
0.0
 40
1.0
  0
CIRCLE
  5
20C
  8
DATA
  6
CONTINUOUS
 62
     7
 10
208.0172345882828
 20
-95.378814823549703
 30
0.0
 40
1.0
  0
CIRCLE
  5
20D
  8
DATA
  6
CONTINUOUS
 62
     7
 10
208.0172345882828
 20
-98.378814823549703
 30
0.0
 40
1.0
  0
ARC
  5
20E
  8
DATA
  6
CONTINUOUS
 62
     7
 10
208.0172345882828
 20
-101.3788148235497
 30
0.0
 40
1.000000000000006
 50
38.96273639490326
 51
141.03726360509671
  0
CIRCLE
  5
20F
  8
DATA
  6
CONTINUOUS
 62
     7
 10
211.0172345882828
 20
-77.378814823549732
 30
0.0
 40
1.0
  0
CIRCLE
  5
210
  8
DATA
  6
CONTINUOUS
 62
     7
 10
211.0172345882828
 20
-80.378814823549746
 30
0.0
 40
1.0
  0
CIRCLE
  5
211
  8
DATA
  6
CONTINUOUS
 62
     7
 10
211.0172345882828
 20
-83.378814823549732
 30
0.0
 40
1.0
  0
CIRCLE
  5
212
  8
DATA
  6
CONTINUOUS
 62
     7
 10
211.0172345882828
 20
-86.378814823549732
 30
0.0
 40
1.0
  0
CIRCLE
  5
213
  8
DATA
  6
CONTINUOUS
 62
     7
 10
211.0172345882828
 20
-89.378814823549718
 30
0.0
 40
1.0
  0
CIRCLE
  5
214
  8
DATA
  6
CONTINUOUS
 62
     7
 10
211.0172345882828
 20
-92.378814823549689
 30
0.0
 40
1.0
  0
CIRCLE
  5
215
  8
DATA
  6
CONTINUOUS
 62
     7
 10
211.0172345882828
 20
-95.378814823549703
 30
0.0
 40
1.0
  0
CIRCLE
  5
216
  8
DATA
  6
CONTINUOUS
 62
     7
 10
211.0172345882828
 20
-98.378814823549703
 30
0.0
 40
1.0
  0
ARC
  5
217
  8
DATA
  6
CONTINUOUS
 62
     7
 10
211.0172345882828
 20
-101.3788148235497
 30
0.0
 40
1.000000000000006
 50
38.96273639490326
 51
141.03726360509671
  0
CIRCLE
  5
218
  8
DATA
  6
CONTINUOUS
 62
     7
 10
214.0172345882828
 20
-77.378814823549732
 30
0.0
 40
1.0
  0
CIRCLE
  5
219
  8
DATA
  6
CONTINUOUS
 62
     7
 10
214.0172345882828
 20
-80.378814823549746
 30
0.0
 40
1.0
  0
CIRCLE
  5
21A
  8
DATA
  6
CONTINUOUS
 62
     7
 10
214.0172345882828
 20
-83.378814823549732
 30
0.0
 40
1.0
  0
CIRCLE
  5
21B
  8
DATA
  6
CONTINUOUS
 62
     7
 10
214.0172345882828
 20
-86.378814823549732
 30
0.0
 40
1.0
  0
CIRCLE
  5
21C
  8
DATA
  6
CONTINUOUS
 62
     7
 10
214.0172345882828
 20
-89.378814823549718
 30
0.0
 40
1.0
  0
CIRCLE
  5
21D
  8
DATA
  6
CONTINUOUS
 62
     7
 10
214.0172345882828
 20
-92.378814823549689
 30
0.0
 40
1.0
  0
CIRCLE
  5
21E
  8
DATA
  6
CONTINUOUS
 62
     7
 10
214.0172345882828
 20
-95.378814823549703
 30
0.0
 40
1.0
  0
CIRCLE
  5
21F
  8
DATA
  6
CONTINUOUS
 62
     7
 10
214.0172345882828
 20
-98.378814823549703
 30
0.0
 40
1.0
  0
ARC
  5
220
  8
DATA
  6
CONTINUOUS
 62
     7
 10
214.0172345882828
 20
-101.3788148235497
 30
0.0
 40
1.000000000000006
 50
38.96273639490326
 51
141.03726360509671
  0
CIRCLE
  5
221
  8
DATA
  6
CONTINUOUS
 62
     7
 10
217.0172345882828
 20
-77.378814823549732
 30
0.0
 40
1.0
  0
CIRCLE
  5
222
  8
DATA
  6
CONTINUOUS
 62
     7
 10
217.0172345882828
 20
-80.378814823549746
 30
0.0
 40
1.0
  0
CIRCLE
  5
223
  8
DATA
  6
CONTINUOUS
 62
     7
 10
217.0172345882828
 20
-83.378814823549732
 30
0.0
 40
1.0
  0
CIRCLE
  5
224
  8
DATA
  6
CONTINUOUS
 62
     7
 10
217.0172345882828
 20
-86.378814823549732
 30
0.0
 40
1.0
  0
CIRCLE
  5
225
  8
DATA
  6
CONTINUOUS
 62
     7
 10
217.0172345882828
 20
-89.378814823549718
 30
0.0
 40
1.0
  0
CIRCLE
  5
226
  8
DATA
  6
CONTINUOUS
 62
     7
 10
217.0172345882828
 20
-92.378814823549689
 30
0.0
 40
1.0
  0
CIRCLE
  5
227
  8
DATA
  6
CONTINUOUS
 62
     7
 10
217.0172345882828
 20
-95.378814823549703
 30
0.0
 40
1.0
  0
CIRCLE
  5
228
  8
DATA
  6
CONTINUOUS
 62
     7
 10
217.0172345882828
 20
-98.378814823549703
 30
0.0
 40
1.0
  0
ARC
  5
229
  8
DATA
  6
CONTINUOUS
 62
     7
 10
217.0172345882828
 20
-101.3788148235497
 30
0.0
 40
1.000000000000006
 50
38.96273639490326
 51
141.03726360509671
  0
CIRCLE
  5
22A
  8
DATA
  6
CONTINUOUS
 62
     7
 10
220.0172345882828
 20
-77.378814823549732
 30
0.0
 40
1.0
  0
CIRCLE
  5
22B
  8
DATA
  6
CONTINUOUS
 62
     7
 10
220.0172345882828
 20
-80.378814823549746
 30
0.0
 40
1.0
  0
CIRCLE
  5
22C
  8
DATA
  6
CONTINUOUS
 62
     7
 10
220.0172345882828
 20
-83.378814823549732
 30
0.0
 40
1.0
  0
CIRCLE
  5
22D
  8
DATA
  6
CONTINUOUS
 62
     7
 10
220.0172345882828
 20
-86.378814823549732
 30
0.0
 40
1.0
  0
CIRCLE
  5
22E
  8
DATA
  6
CONTINUOUS
 62
     7
 10
220.0172345882828
 20
-89.378814823549718
 30
0.0
 40
1.0
  0
CIRCLE
  5
22F
  8
DATA
  6
CONTINUOUS
 62
     7
 10
220.0172345882828
 20
-92.378814823549689
 30
0.0
 40
1.0
  0
CIRCLE
  5
230
  8
DATA
  6
CONTINUOUS
 62
     7
 10
220.0172345882828
 20
-95.378814823549703
 30
0.0
 40
1.0
  0
CIRCLE
  5
231
  8
DATA
  6
CONTINUOUS
 62
     7
 10
220.0172345882828
 20
-98.378814823549703
 30
0.0
 40
1.0
  0
ARC
  5
232
  8
DATA
  6
CONTINUOUS
 62
     7
 10
220.0172345882828
 20
-101.3788148235497
 30
0.0
 40
1.000000000000006
 50
38.96273639490326
 51
141.03726360509671
  0
CIRCLE
  5
233
  8
DATA
  6
CONTINUOUS
 62
     7
 10
223.0172345882828
 20
-77.378814823549732
 30
0.0
 40
1.0
  0
CIRCLE
  5
234
  8
DATA
  6
CONTINUOUS
 62
     7
 10
223.0172345882828
 20
-80.378814823549746
 30
0.0
 40
1.0
  0
CIRCLE
  5
235
  8
DATA
  6
CONTINUOUS
 62
     7
 10
223.0172345882828
 20
-83.378814823549732
 30
0.0
 40
1.0
  0
CIRCLE
  5
236
  8
DATA
  6
CONTINUOUS
 62
     7
 10
223.0172345882828
 20
-86.378814823549732
 30
0.0
 40
1.0
  0
CIRCLE
  5
237
  8
DATA
  6
CONTINUOUS
 62
     7
 10
223.0172345882828
 20
-89.378814823549718
 30
0.0
 40
1.0
  0
CIRCLE
  5
238
  8
DATA
  6
CONTINUOUS
 62
     7
 10
223.0172345882828
 20
-92.378814823549689
 30
0.0
 40
1.0
  0
CIRCLE
  5
239
  8
DATA
  6
CONTINUOUS
 62
     7
 10
223.0172345882828
 20
-95.378814823549703
 30
0.0
 40
1.0
  0
CIRCLE
  5
23A
  8
DATA
  6
CONTINUOUS
 62
     7
 10
223.0172345882828
 20
-98.378814823549703
 30
0.0
 40
1.0
  0
ARC
  5
23B
  8
DATA
  6
CONTINUOUS
 62
     7
 10
223.0172345882828
 20
-101.3788148235497
 30
0.0
 40
1.000000000000006
 50
38.96273639490326
 51
141.03726360509671
  0
CIRCLE
  5
23C
  8
DATA
  6
CONTINUOUS
 62
     7
 10
226.0172345882828
 20
-77.378814823549732
 30
0.0
 40
1.0
  0
CIRCLE
  5
23D
  8
DATA
  6
CONTINUOUS
 62
     7
 10
226.0172345882828
 20
-80.378814823549746
 30
0.0
 40
1.0
  0
CIRCLE
  5
23E
  8
DATA
  6
CONTINUOUS
 62
     7
 10
226.0172345882828
 20
-83.378814823549732
 30
0.0
 40
1.0
  0
CIRCLE
  5
23F
  8
DATA
  6
CONTINUOUS
 62
     7
 10
226.0172345882828
 20
-86.378814823549732
 30
0.0
 40
1.0
  0
CIRCLE
  5
240
  8
DATA
  6
CONTINUOUS
 62
     7
 10
226.0172345882828
 20
-89.378814823549718
 30
0.0
 40
1.0
  0
CIRCLE
  5
241
  8
DATA
  6
CONTINUOUS
 62
     7
 10
226.0172345882828
 20
-92.378814823549689
 30
0.0
 40
1.0
  0
CIRCLE
  5
242
  8
DATA
  6
CONTINUOUS
 62
     7
 10
226.0172345882828
 20
-95.378814823549703
 30
0.0
 40
1.0
  0
CIRCLE
  5
243
  8
DATA
  6
CONTINUOUS
 62
     7
 10
226.0172345882828
 20
-98.378814823549703
 30
0.0
 40
1.0
  0
ARC
  5
244
  8
DATA
  6
CONTINUOUS
 62
     7
 10
226.0172345882828
 20
-101.3788148235497
 30
0.0
 40
1.000000000000006
 50
38.96273639490326
 51
141.03726360509671
  0
CIRCLE
  5
245
  8
DATA
  6
CONTINUOUS
 62
     7
 10
229.0172345882828
 20
-77.378814823549732
 30
0.0
 40
1.0
  0
CIRCLE
  5
246
  8
DATA
  6
CONTINUOUS
 62
     7
 10
229.0172345882828
 20
-80.378814823549746
 30
0.0
 40
1.0
  0
CIRCLE
  5
247
  8
DATA
  6
CONTINUOUS
 62
     7
 10
229.0172345882828
 20
-83.378814823549732
 30
0.0
 40
1.0
  0
CIRCLE
  5
248
  8
DATA
  6
CONTINUOUS
 62
     7
 10
229.0172345882828
 20
-86.378814823549732
 30
0.0
 40
1.0
  0
CIRCLE
  5
249
  8
DATA
  6
CONTINUOUS
 62
     7
 10
229.0172345882828
 20
-89.378814823549718
 30
0.0
 40
1.0
  0
CIRCLE
  5
24A
  8
DATA
  6
CONTINUOUS
 62
     7
 10
229.0172345882828
 20
-92.378814823549689
 30
0.0
 40
1.0
  0
CIRCLE
  5
24B
  8
DATA
  6
CONTINUOUS
 62
     7
 10
229.0172345882828
 20
-95.378814823549703
 30
0.0
 40
1.0
  0
CIRCLE
  5
24C
  8
DATA
  6
CONTINUOUS
 62
     7
 10
229.0172345882828
 20
-98.378814823549703
 30
0.0
 40
1.0
  0
ARC
  5
24D
  8
DATA
  6
CONTINUOUS
 62
     7
 10
229.0172345882828
 20
-101.3788148235497
 30
0.0
 40
0.9999999999999996
 50
38.962736394945502
 51
141.03726360505459
  0
CIRCLE
  5
24E
  8
DATA
  6
CONTINUOUS
 62
     7
 10
232.0172345882828
 20
-77.378814823549732
 30
0.0
 40
1.0
  0
CIRCLE
  5
24F
  8
DATA
  6
CONTINUOUS
 62
     7
 10
232.0172345882828
 20
-80.378814823549746
 30
0.0
 40
1.0
  0
CIRCLE
  5
250
  8
DATA
  6
CONTINUOUS
 62
     7
 10
232.0172345882828
 20
-83.378814823549732
 30
0.0
 40
1.0
  0
CIRCLE
  5
251
  8
DATA
  6
CONTINUOUS
 62
     7
 10
232.0172345882828
 20
-86.378814823549732
 30
0.0
 40
1.0
  0
CIRCLE
  5
252
  8
DATA
  6
CONTINUOUS
 62
     7
 10
232.0172345882828
 20
-89.378814823549718
 30
0.0
 40
1.0
  0
CIRCLE
  5
253
  8
DATA
  6
CONTINUOUS
 62
     7
 10
232.0172345882828
 20
-92.378814823549689
 30
0.0
 40
1.0
  0
CIRCLE
  5
254
  8
DATA
  6
CONTINUOUS
 62
     7
 10
232.0172345882828
 20
-95.378814823549703
 30
0.0
 40
1.0
  0
CIRCLE
  5
255
  8
DATA
  6
CONTINUOUS
 62
     7
 10
232.0172345882828
 20
-98.378814823549703
 30
0.0
 40
1.0
  0
ARC
  5
256
  8
DATA
  6
CONTINUOUS
 62
     7
 10
232.0172345882828
 20
-101.3788148235497
 30
0.0
 40
0.9999999999999996
 50
38.962736394945502
 51
141.03726360505459
  0
CIRCLE
  5
257
  8
DATA
  6
CONTINUOUS
 62
     7
 10
235.0172345882828
 20
-77.378814823549732
 30
0.0
 40
1.0
  0
CIRCLE
  5
258
  8
DATA
  6
CONTINUOUS
 62
     7
 10
235.0172345882828
 20
-80.378814823549746
 30
0.0
 40
1.0
  0
CIRCLE
  5
259
  8
DATA
  6
CONTINUOUS
 62
     7
 10
235.0172345882828
 20
-83.378814823549732
 30
0.0
 40
1.0
  0
CIRCLE
  5
25A
  8
DATA
  6
CONTINUOUS
 62
     7
 10
235.0172345882828
 20
-86.378814823549732
 30
0.0
 40
1.0
  0
CIRCLE
  5
25B
  8
DATA
  6
CONTINUOUS
 62
     7
 10
235.0172345882828
 20
-89.378814823549718
 30
0.0
 40
1.0
  0
CIRCLE
  5
25C
  8
DATA
  6
CONTINUOUS
 62
     7
 10
235.0172345882828
 20
-92.378814823549689
 30
0.0
 40
1.0
  0
CIRCLE
  5
25D
  8
DATA
  6
CONTINUOUS
 62
     7
 10
235.0172345882828
 20
-95.378814823549703
 30
0.0
 40
1.0
  0
CIRCLE
  5
25E
  8
DATA
  6
CONTINUOUS
 62
     7
 10
235.0172345882828
 20
-98.378814823549703
 30
0.0
 40
1.0
  0
ARC
  5
25F
  8
DATA
  6
CONTINUOUS
 62
     7
 10
235.0172345882828
 20
-101.3788148235497
 30
0.0
 40
0.9999999999999996
 50
38.962736394945502
 51
141.03726360505459
  0
CIRCLE
  5
260
  8
DATA
  6
CONTINUOUS
 62
     7
 10
238.0172345882828
 20
-77.378814823549732
 30
0.0
 40
1.0
  0
CIRCLE
  5
261
  8
DATA
  6
CONTINUOUS
 62
     7
 10
238.0172345882828
 20
-80.378814823549746
 30
0.0
 40
1.0
  0
CIRCLE
  5
262
  8
DATA
  6
CONTINUOUS
 62
     7
 10
238.0172345882828
 20
-83.378814823549732
 30
0.0
 40
1.0
  0
CIRCLE
  5
263
  8
DATA
  6
CONTINUOUS
 62
     7
 10
238.0172345882828
 20
-86.378814823549732
 30
0.0
 40
1.0
  0
CIRCLE
  5
264
  8
DATA
  6
CONTINUOUS
 62
     7
 10
238.0172345882828
 20
-89.378814823549718
 30
0.0
 40
1.0
  0
CIRCLE
  5
265
  8
DATA
  6
CONTINUOUS
 62
     7
 10
238.0172345882828
 20
-92.378814823549689
 30
0.0
 40
1.0
  0
CIRCLE
  5
266
  8
DATA
  6
CONTINUOUS
 62
     7
 10
238.0172345882828
 20
-95.378814823549703
 30
0.0
 40
1.0
  0
CIRCLE
  5
267
  8
DATA
  6
CONTINUOUS
 62
     7
 10
238.0172345882828
 20
-98.378814823549703
 30
0.0
 40
1.0
  0
ARC
  5
268
  8
DATA
  6
CONTINUOUS
 62
     7
 10
238.0172345882828
 20
-101.3788148235497
 30
0.0
 40
0.9999999999999996
 50
38.962736394945502
 51
141.03726360505459
  0
CIRCLE
  5
269
  8
DATA
  6
CONTINUOUS
 62
     7
 10
241.0172345882828
 20
-77.378814823549732
 30
0.0
 40
1.0
  0
CIRCLE
  5
26A
  8
DATA
  6
CONTINUOUS
 62
     7
 10
241.0172345882828
 20
-80.378814823549746
 30
0.0
 40
1.0
  0
CIRCLE
  5
26B
  8
DATA
  6
CONTINUOUS
 62
     7
 10
241.0172345882828
 20
-83.378814823549732
 30
0.0
 40
1.0
  0
CIRCLE
  5
26C
  8
DATA
  6
CONTINUOUS
 62
     7
 10
241.0172345882828
 20
-86.378814823549732
 30
0.0
 40
1.0
  0
CIRCLE
  5
26D
  8
DATA
  6
CONTINUOUS
 62
     7
 10
241.0172345882828
 20
-89.378814823549718
 30
0.0
 40
1.0
  0
CIRCLE
  5
26E
  8
DATA
  6
CONTINUOUS
 62
     7
 10
241.0172345882828
 20
-92.378814823549689
 30
0.0
 40
1.0
  0
CIRCLE
  5
26F
  8
DATA
  6
CONTINUOUS
 62
     7
 10
241.0172345882828
 20
-95.378814823549703
 30
0.0
 40
1.0
  0
CIRCLE
  5
270
  8
DATA
  6
CONTINUOUS
 62
     7
 10
241.0172345882828
 20
-98.378814823549703
 30
0.0
 40
1.0
  0
ARC
  5
271
  8
DATA
  6
CONTINUOUS
 62
     7
 10
241.0172345882828
 20
-101.3788148235497
 30
0.0
 40
0.9999999999999996
 50
38.962736394945502
 51
141.03726360505459
  0
CIRCLE
  5
272
  8
DATA
  6
CONTINUOUS
 62
     7
 10
244.0172345882828
 20
-77.378814823549732
 30
0.0
 40
1.0
  0
CIRCLE
  5
273
  8
DATA
  6
CONTINUOUS
 62
     7
 10
244.0172345882828
 20
-80.378814823549746
 30
0.0
 40
1.0
  0
CIRCLE
  5
274
  8
DATA
  6
CONTINUOUS
 62
     7
 10
244.0172345882828
 20
-83.378814823549732
 30
0.0
 40
1.0
  0
CIRCLE
  5
275
  8
DATA
  6
CONTINUOUS
 62
     7
 10
244.0172345882828
 20
-86.378814823549732
 30
0.0
 40
1.0
  0
CIRCLE
  5
276
  8
DATA
  6
CONTINUOUS
 62
     7
 10
244.0172345882828
 20
-89.378814823549718
 30
0.0
 40
1.0
  0
CIRCLE
  5
277
  8
DATA
  6
CONTINUOUS
 62
     7
 10
244.0172345882828
 20
-92.378814823549689
 30
0.0
 40
1.0
  0
CIRCLE
  5
278
  8
DATA
  6
CONTINUOUS
 62
     7
 10
244.0172345882828
 20
-95.378814823549703
 30
0.0
 40
1.0
  0
CIRCLE
  5
279
  8
DATA
  6
CONTINUOUS
 62
     7
 10
244.0172345882828
 20
-98.378814823549703
 30
0.0
 40
1.0
  0
ARC
  5
27A
  8
DATA
  6
CONTINUOUS
 62
     7
 10
244.0172345882828
 20
-101.3788148235497
 30
0.0
 40
0.9999999999999996
 50
38.962736394945502
 51
141.03726360505459
  0
CIRCLE
  5
27B
  8
DATA
  6
CONTINUOUS
 62
     7
 10
247.0172345882828
 20
-77.378814823549732
 30
0.0
 40
1.0
  0
CIRCLE
  5
27C
  8
DATA
  6
CONTINUOUS
 62
     7
 10
247.0172345882828
 20
-80.378814823549746
 30
0.0
 40
1.0
  0
CIRCLE
  5
27D
  8
DATA
  6
CONTINUOUS
 62
     7
 10
247.0172345882828
 20
-83.378814823549732
 30
0.0
 40
1.0
  0
CIRCLE
  5
27E
  8
DATA
  6
CONTINUOUS
 62
     7
 10
247.0172345882828
 20
-86.378814823549732
 30
0.0
 40
1.0
  0
CIRCLE
  5
27F
  8
DATA
  6
CONTINUOUS
 62
     7
 10
247.0172345882828
 20
-89.378814823549718
 30
0.0
 40
1.0
  0
CIRCLE
  5
280
  8
DATA
  6
CONTINUOUS
 62
     7
 10
247.0172345882828
 20
-92.378814823549689
 30
0.0
 40
1.0
  0
CIRCLE
  5
281
  8
DATA
  6
CONTINUOUS
 62
     7
 10
247.0172345882828
 20
-95.378814823549703
 30
0.0
 40
1.0
  0
CIRCLE
  5
282
  8
DATA
  6
CONTINUOUS
 62
     7
 10
247.0172345882828
 20
-98.378814823549703
 30
0.0
 40
1.0
  0
ARC
  5
283
  8
DATA
  6
CONTINUOUS
 62
     7
 10
247.0172345882828
 20
-101.3788148235497
 30
0.0
 40
0.9999999999999996
 50
38.962736394945502
 51
141.03726360505459
  0
CIRCLE
  5
284
  8
DATA
  6
CONTINUOUS
 62
     7
 10
250.0172345882828
 20
-77.378814823549732
 30
0.0
 40
1.0
  0
CIRCLE
  5
285
  8
DATA
  6
CONTINUOUS
 62
     7
 10
250.0172345882828
 20
-80.378814823549746
 30
0.0
 40
1.0
  0
CIRCLE
  5
286
  8
DATA
  6
CONTINUOUS
 62
     7
 10
250.0172345882828
 20
-83.378814823549732
 30
0.0
 40
1.0
  0
CIRCLE
  5
287
  8
DATA
  6
CONTINUOUS
 62
     7
 10
250.0172345882828
 20
-86.378814823549732
 30
0.0
 40
1.0
  0
CIRCLE
  5
288
  8
DATA
  6
CONTINUOUS
 62
     7
 10
250.0172345882828
 20
-89.378814823549718
 30
0.0
 40
1.0
  0
CIRCLE
  5
289
  8
DATA
  6
CONTINUOUS
 62
     7
 10
250.0172345882828
 20
-92.378814823549689
 30
0.0
 40
1.0
  0
CIRCLE
  5
28A
  8
DATA
  6
CONTINUOUS
 62
     7
 10
250.0172345882828
 20
-95.378814823549703
 30
0.0
 40
1.0
  0
CIRCLE
  5
28B
  8
DATA
  6
CONTINUOUS
 62
     7
 10
250.0172345882828
 20
-98.378814823549703
 30
0.0
 40
1.0
  0
ARC
  5
28C
  8
DATA
  6
CONTINUOUS
 62
     7
 10
250.0172345882828
 20
-101.3788148235497
 30
0.0
 40
0.9999999999999996
 50
38.962736394945502
 51
141.03726360505459
  0
CIRCLE
  5
28D
  8
DATA
  6
CONTINUOUS
 62
     7
 10
253.0172345882828
 20
-77.378814823549732
 30
0.0
 40
1.0
  0
CIRCLE
  5
28E
  8
DATA
  6
CONTINUOUS
 62
     7
 10
253.0172345882828
 20
-80.378814823549746
 30
0.0
 40
1.0
  0
CIRCLE
  5
28F
  8
DATA
  6
CONTINUOUS
 62
     7
 10
253.0172345882828
 20
-83.378814823549732
 30
0.0
 40
1.0
  0
CIRCLE
  5
290
  8
DATA
  6
CONTINUOUS
 62
     7
 10
253.0172345882828
 20
-86.378814823549732
 30
0.0
 40
1.0
  0
CIRCLE
  5
291
  8
DATA
  6
CONTINUOUS
 62
     7
 10
253.0172345882828
 20
-89.378814823549718
 30
0.0
 40
1.0
  0
CIRCLE
  5
292
  8
DATA
  6
CONTINUOUS
 62
     7
 10
253.0172345882828
 20
-92.378814823549689
 30
0.0
 40
1.0
  0
CIRCLE
  5
293
  8
DATA
  6
CONTINUOUS
 62
     7
 10
253.0172345882828
 20
-95.378814823549703
 30
0.0
 40
1.0
  0
CIRCLE
  5
294
  8
DATA
  6
CONTINUOUS
 62
     7
 10
253.0172345882828
 20
-98.378814823549703
 30
0.0
 40
1.0
  0
ARC
  5
295
  8
DATA
  6
CONTINUOUS
 62
     7
 10
253.0172345882828
 20
-101.3788148235497
 30
0.0
 40
0.9999999999999996
 50
38.962736394945502
 51
141.03726360505459
  0
CIRCLE
  5
296
  8
DATA
  6
CONTINUOUS
 62
     7
 10
256.0172345882828
 20
-77.378814823549732
 30
0.0
 40
1.0
  0
CIRCLE
  5
297
  8
DATA
  6
CONTINUOUS
 62
     7
 10
256.0172345882828
 20
-80.378814823549746
 30
0.0
 40
1.0
  0
CIRCLE
  5
298
  8
DATA
  6
CONTINUOUS
 62
     7
 10
256.0172345882828
 20
-83.378814823549732
 30
0.0
 40
1.0
  0
CIRCLE
  5
299
  8
DATA
  6
CONTINUOUS
 62
     7
 10
256.0172345882828
 20
-86.378814823549732
 30
0.0
 40
1.0
  0
CIRCLE
  5
29A
  8
DATA
  6
CONTINUOUS
 62
     7
 10
256.0172345882828
 20
-89.378814823549718
 30
0.0
 40
1.0
  0
CIRCLE
  5
29B
  8
DATA
  6
CONTINUOUS
 62
     7
 10
256.0172345882828
 20
-92.378814823549689
 30
0.0
 40
1.0
  0
CIRCLE
  5
29C
  8
DATA
  6
CONTINUOUS
 62
     7
 10
256.0172345882828
 20
-95.378814823549703
 30
0.0
 40
1.0
  0
CIRCLE
  5
29D
  8
DATA
  6
CONTINUOUS
 62
     7
 10
256.0172345882828
 20
-98.378814823549703
 30
0.0
 40
1.0
  0
ARC
  5
29E
  8
DATA
  6
CONTINUOUS
 62
     7
 10
256.0172345882828
 20
-101.3788148235497
 30
0.0
 40
0.9999999999999996
 50
38.962736394945502
 51
141.03726360505459
  0
CIRCLE
  5
29F
  8
DATA
  6
CONTINUOUS
 62
     7
 10
259.0172345882828
 20
-77.378814823549732
 30
0.0
 40
1.0
  0
CIRCLE
  5
2A0
  8
DATA
  6
CONTINUOUS
 62
     7
 10
259.0172345882828
 20
-80.378814823549746
 30
0.0
 40
1.0
  0
CIRCLE
  5
2A1
  8
DATA
  6
CONTINUOUS
 62
     7
 10
259.0172345882828
 20
-83.378814823549732
 30
0.0
 40
1.0
  0
CIRCLE
  5
2A2
  8
DATA
  6
CONTINUOUS
 62
     7
 10
259.0172345882828
 20
-86.378814823549732
 30
0.0
 40
1.0
  0
CIRCLE
  5
2A3
  8
DATA
  6
CONTINUOUS
 62
     7
 10
259.0172345882828
 20
-89.378814823549718
 30
0.0
 40
1.0
  0
CIRCLE
  5
2A4
  8
DATA
  6
CONTINUOUS
 62
     7
 10
259.0172345882828
 20
-92.378814823549689
 30
0.0
 40
1.0
  0
CIRCLE
  5
2A5
  8
DATA
  6
CONTINUOUS
 62
     7
 10
259.0172345882828
 20
-95.378814823549703
 30
0.0
 40
1.0
  0
CIRCLE
  5
2A6
  8
DATA
  6
CONTINUOUS
 62
     7
 10
259.0172345882828
 20
-98.378814823549703
 30
0.0
 40
1.0
  0
ARC
  5
2A7
  8
DATA
  6
CONTINUOUS
 62
     7
 10
259.0172345882828
 20
-101.3788148235497
 30
0.0
 40
0.9999999999999996
 50
38.962736394945502
 51
141.03726360505459
  0
CIRCLE
  5
2A8
  8
DATA
  6
CONTINUOUS
 62
     7
 10
262.0172345882828
 20
-77.378814823549732
 30
0.0
 40
1.0
  0
CIRCLE
  5
2A9
  8
DATA
  6
CONTINUOUS
 62
     7
 10
262.0172345882828
 20
-80.378814823549746
 30
0.0
 40
1.0
  0
CIRCLE
  5
2AA
  8
DATA
  6
CONTINUOUS
 62
     7
 10
262.0172345882828
 20
-83.378814823549732
 30
0.0
 40
1.0
  0
CIRCLE
  5
2AB
  8
DATA
  6
CONTINUOUS
 62
     7
 10
262.0172345882828
 20
-86.378814823549732
 30
0.0
 40
1.0
  0
CIRCLE
  5
2AC
  8
DATA
  6
CONTINUOUS
 62
     7
 10
262.0172345882828
 20
-89.378814823549718
 30
0.0
 40
1.0
  0
CIRCLE
  5
2AD
  8
DATA
  6
CONTINUOUS
 62
     7
 10
262.0172345882828
 20
-92.378814823549689
 30
0.0
 40
1.0
  0
CIRCLE
  5
2AE
  8
DATA
  6
CONTINUOUS
 62
     7
 10
262.0172345882828
 20
-95.378814823549703
 30
0.0
 40
1.0
  0
CIRCLE
  5
2AF
  8
DATA
  6
CONTINUOUS
 62
     7
 10
262.0172345882828
 20
-98.378814823549703
 30
0.0
 40
1.0
  0
ARC
  5
2B0
  8
DATA
  6
CONTINUOUS
 62
     7
 10
262.0172345882828
 20
-101.3788148235497
 30
0.0
 40
0.9999999999999996
 50
38.962736394945502
 51
141.03726360505459
  0
CIRCLE
  5
2B1
  8
DATA
  6
CONTINUOUS
 62
     7
 10
265.0172345882828
 20
-77.378814823549732
 30
0.0
 40
1.0
  0
CIRCLE
  5
2B2
  8
DATA
  6
CONTINUOUS
 62
     7
 10
265.0172345882828
 20
-80.378814823549746
 30
0.0
 40
1.0
  0
CIRCLE
  5
2B3
  8
DATA
  6
CONTINUOUS
 62
     7
 10
265.0172345882828
 20
-83.378814823549732
 30
0.0
 40
1.0
  0
CIRCLE
  5
2B4
  8
DATA
  6
CONTINUOUS
 62
     7
 10
265.0172345882828
 20
-86.378814823549732
 30
0.0
 40
1.0
  0
CIRCLE
  5
2B5
  8
DATA
  6
CONTINUOUS
 62
     7
 10
265.0172345882828
 20
-89.378814823549718
 30
0.0
 40
1.0
  0
CIRCLE
  5
2B6
  8
DATA
  6
CONTINUOUS
 62
     7
 10
265.0172345882828
 20
-92.378814823549689
 30
0.0
 40
1.0
  0
CIRCLE
  5
2B7
  8
DATA
  6
CONTINUOUS
 62
     7
 10
265.0172345882828
 20
-95.378814823549703
 30
0.0
 40
1.0
  0
CIRCLE
  5
2B8
  8
DATA
  6
CONTINUOUS
 62
     7
 10
265.0172345882828
 20
-98.378814823549703
 30
0.0
 40
1.0
  0
ARC
  5
2B9
  8
DATA
  6
CONTINUOUS
 62
     7
 10
265.0172345882828
 20
-101.3788148235497
 30
0.0
 40
0.9999999999999996
 50
38.962736394945502
 51
141.03726360505459
  0
CIRCLE
  5
2BA
  8
DATA
  6
CONTINUOUS
 62
     7
 10
268.0172345882828
 20
-77.378814823549732
 30
0.0
 40
1.0
  0
CIRCLE
  5
2BB
  8
DATA
  6
CONTINUOUS
 62
     7
 10
268.0172345882828
 20
-80.378814823549746
 30
0.0
 40
1.0
  0
CIRCLE
  5
2BC
  8
DATA
  6
CONTINUOUS
 62
     7
 10
268.0172345882828
 20
-83.378814823549732
 30
0.0
 40
1.0
  0
CIRCLE
  5
2BD
  8
DATA
  6
CONTINUOUS
 62
     7
 10
268.0172345882828
 20
-86.378814823549732
 30
0.0
 40
1.0
  0
CIRCLE
  5
2BE
  8
DATA
  6
CONTINUOUS
 62
     7
 10
268.0172345882828
 20
-89.378814823549718
 30
0.0
 40
1.0
  0
CIRCLE
  5
2BF
  8
DATA
  6
CONTINUOUS
 62
     7
 10
268.0172345882828
 20
-92.378814823549689
 30
0.0
 40
1.0
  0
CIRCLE
  5
2C0
  8
DATA
  6
CONTINUOUS
 62
     7
 10
268.0172345882828
 20
-95.378814823549703
 30
0.0
 40
1.0
  0
CIRCLE
  5
2C1
  8
DATA
  6
CONTINUOUS
 62
     7
 10
268.0172345882828
 20
-98.378814823549703
 30
0.0
 40
1.0
  0
ARC
  5
2C2
  8
DATA
  6
CONTINUOUS
 62
     7
 10
268.0172345882828
 20
-101.3788148235497
 30
0.0
 40
0.9999999999999996
 50
38.962736394945502
 51
141.03726360505459
  0
CIRCLE
  5
2C3
  8
DATA
  6
CONTINUOUS
 62
     7
 10
271.0172345882828
 20
-77.378814823549732
 30
0.0
 40
1.0
  0
CIRCLE
  5
2C4
  8
DATA
  6
CONTINUOUS
 62
     7
 10
271.0172345882828
 20
-80.378814823549746
 30
0.0
 40
1.0
  0
CIRCLE
  5
2C5
  8
DATA
  6
CONTINUOUS
 62
     7
 10
271.0172345882828
 20
-83.378814823549732
 30
0.0
 40
1.0
  0
CIRCLE
  5
2C6
  8
DATA
  6
CONTINUOUS
 62
     7
 10
271.0172345882828
 20
-86.378814823549732
 30
0.0
 40
1.0
  0
CIRCLE
  5
2C7
  8
DATA
  6
CONTINUOUS
 62
     7
 10
271.0172345882828
 20
-89.378814823549718
 30
0.0
 40
1.0
  0
CIRCLE
  5
2C8
  8
DATA
  6
CONTINUOUS
 62
     7
 10
271.0172345882828
 20
-92.378814823549689
 30
0.0
 40
1.0
  0
CIRCLE
  5
2C9
  8
DATA
  6
CONTINUOUS
 62
     7
 10
271.0172345882828
 20
-95.378814823549703
 30
0.0
 40
1.0
  0
CIRCLE
  5
2CA
  8
DATA
  6
CONTINUOUS
 62
     7
 10
271.0172345882828
 20
-98.378814823549703
 30
0.0
 40
1.0
  0
ARC
  5
2CB
  8
DATA
  6
CONTINUOUS
 62
     7
 10
271.0172345882828
 20
-101.3788148235497
 30
0.0
 40
0.9999999999999996
 50
38.962736394945502
 51
141.03726360505459
  0
CIRCLE
  5
2CC
  8
DATA
  6
CONTINUOUS
 62
     7
 10
274.0172345882828
 20
-77.378814823549732
 30
0.0
 40
1.0
  0
CIRCLE
  5
2CD
  8
DATA
  6
CONTINUOUS
 62
     7
 10
274.0172345882828
 20
-80.378814823549746
 30
0.0
 40
1.0
  0
CIRCLE
  5
2CE
  8
DATA
  6
CONTINUOUS
 62
     7
 10
274.0172345882828
 20
-83.378814823549732
 30
0.0
 40
1.0
  0
CIRCLE
  5
2CF
  8
DATA
  6
CONTINUOUS
 62
     7
 10
274.0172345882828
 20
-86.378814823549732
 30
0.0
 40
1.0
  0
CIRCLE
  5
2D0
  8
DATA
  6
CONTINUOUS
 62
     7
 10
274.0172345882828
 20
-89.378814823549718
 30
0.0
 40
1.0
  0
CIRCLE
  5
2D1
  8
DATA
  6
CONTINUOUS
 62
     7
 10
274.0172345882828
 20
-92.378814823549689
 30
0.0
 40
1.0
  0
CIRCLE
  5
2D2
  8
DATA
  6
CONTINUOUS
 62
     7
 10
274.0172345882828
 20
-95.378814823549703
 30
0.0
 40
1.0
  0
CIRCLE
  5
2D3
  8
DATA
  6
CONTINUOUS
 62
     7
 10
274.0172345882828
 20
-98.378814823549703
 30
0.0
 40
1.0
  0
ARC
  5
2D4
  8
DATA
  6
CONTINUOUS
 62
     7
 10
274.0172345882828
 20
-101.3788148235497
 30
0.0
 40
0.9999999999999996
 50
38.962736394945502
 51
141.03726360505459
  0
CIRCLE
  5
2D5
  8
DATA
  6
CONTINUOUS
 62
     7
 10
277.0172345882828
 20
-77.378814823549732
 30
0.0
 40
1.0
  0
CIRCLE
  5
2D6
  8
DATA
  6
CONTINUOUS
 62
     7
 10
277.0172345882828
 20
-80.378814823549746
 30
0.0
 40
1.0
  0
CIRCLE
  5
2D7
  8
DATA
  6
CONTINUOUS
 62
     7
 10
277.0172345882828
 20
-83.378814823549732
 30
0.0
 40
1.0
  0
CIRCLE
  5
2D8
  8
DATA
  6
CONTINUOUS
 62
     7
 10
277.0172345882828
 20
-86.378814823549732
 30
0.0
 40
1.0
  0
CIRCLE
  5
2D9
  8
DATA
  6
CONTINUOUS
 62
     7
 10
277.0172345882828
 20
-89.378814823549718
 30
0.0
 40
1.0
  0
CIRCLE
  5
2DA
  8
DATA
  6
CONTINUOUS
 62
     7
 10
277.0172345882828
 20
-92.378814823549689
 30
0.0
 40
1.0
  0
CIRCLE
  5
2DB
  8
DATA
  6
CONTINUOUS
 62
     7
 10
277.0172345882828
 20
-95.378814823549703
 30
0.0
 40
1.0
  0
CIRCLE
  5
2DC
  8
DATA
  6
CONTINUOUS
 62
     7
 10
277.0172345882828
 20
-98.378814823549703
 30
0.0
 40
1.0
  0
ARC
  5
2DD
  8
DATA
  6
CONTINUOUS
 62
     7
 10
277.0172345882828
 20
-101.3788148235497
 30
0.0
 40
0.9999999999999996
 50
38.962736394945502
 51
141.03726360505459
  0
CIRCLE
  5
2DE
  8
DATA
  6
CONTINUOUS
 62
     7
 10
280.0172345882828
 20
-77.378814823549732
 30
0.0
 40
1.0
  0
CIRCLE
  5
2DF
  8
DATA
  6
CONTINUOUS
 62
     7
 10
280.0172345882828
 20
-80.378814823549746
 30
0.0
 40
1.0
  0
CIRCLE
  5
2E0
  8
DATA
  6
CONTINUOUS
 62
     7
 10
280.0172345882828
 20
-83.378814823549732
 30
0.0
 40
1.0
  0
CIRCLE
  5
2E1
  8
DATA
  6
CONTINUOUS
 62
     7
 10
280.0172345882828
 20
-86.378814823549732
 30
0.0
 40
1.0
  0
CIRCLE
  5
2E2
  8
DATA
  6
CONTINUOUS
 62
     7
 10
280.0172345882828
 20
-89.378814823549718
 30
0.0
 40
1.0
  0
CIRCLE
  5
2E3
  8
DATA
  6
CONTINUOUS
 62
     7
 10
280.0172345882828
 20
-92.378814823549689
 30
0.0
 40
1.0
  0
CIRCLE
  5
2E4
  8
DATA
  6
CONTINUOUS
 62
     7
 10
280.0172345882828
 20
-95.378814823549703
 30
0.0
 40
1.0
  0
CIRCLE
  5
2E5
  8
DATA
  6
CONTINUOUS
 62
     7
 10
280.0172345882828
 20
-98.378814823549703
 30
0.0
 40
1.0
  0
ARC
  5
2E6
  8
DATA
  6
CONTINUOUS
 62
     7
 10
280.0172345882828
 20
-101.3788148235497
 30
0.0
 40
0.9999999999999996
 50
38.962736394945502
 51
141.03726360505459
  0
CIRCLE
  5
2E7
  8
DATA
  6
CONTINUOUS
 62
     7
 10
283.0172345882828
 20
-77.378814823549732
 30
0.0
 40
1.0
  0
CIRCLE
  5
2E8
  8
DATA
  6
CONTINUOUS
 62
     7
 10
283.0172345882828
 20
-80.378814823549746
 30
0.0
 40
1.0
  0
CIRCLE
  5
2E9
  8
DATA
  6
CONTINUOUS
 62
     7
 10
283.0172345882828
 20
-83.378814823549732
 30
0.0
 40
1.0
  0
CIRCLE
  5
2EA
  8
DATA
  6
CONTINUOUS
 62
     7
 10
283.0172345882828
 20
-86.378814823549732
 30
0.0
 40
1.0
  0
CIRCLE
  5
2EB
  8
DATA
  6
CONTINUOUS
 62
     7
 10
283.0172345882828
 20
-89.378814823549718
 30
0.0
 40
1.0
  0
CIRCLE
  5
2EC
  8
DATA
  6
CONTINUOUS
 62
     7
 10
283.0172345882828
 20
-92.378814823549689
 30
0.0
 40
1.0
  0
CIRCLE
  5
2ED
  8
DATA
  6
CONTINUOUS
 62
     7
 10
283.0172345882828
 20
-95.378814823549703
 30
0.0
 40
1.0
  0
CIRCLE
  5
2EE
  8
DATA
  6
CONTINUOUS
 62
     7
 10
283.0172345882828
 20
-98.378814823549703
 30
0.0
 40
1.0
  0
ARC
  5
2EF
  8
DATA
  6
CONTINUOUS
 62
     7
 10
283.0172345882828
 20
-101.3788148235497
 30
0.0
 40
0.9999999999999996
 50
38.962736394945502
 51
141.03726360505459
  0
CIRCLE
  5
2F0
  8
DATA
  6
CONTINUOUS
 62
     7
 10
286.0172345882828
 20
-77.378814823549732
 30
0.0
 40
1.0
  0
CIRCLE
  5
2F1
  8
DATA
  6
CONTINUOUS
 62
     7
 10
286.0172345882828
 20
-80.378814823549746
 30
0.0
 40
1.0
  0
CIRCLE
  5
2F2
  8
DATA
  6
CONTINUOUS
 62
     7
 10
286.0172345882828
 20
-83.378814823549732
 30
0.0
 40
1.0
  0
CIRCLE
  5
2F3
  8
DATA
  6
CONTINUOUS
 62
     7
 10
286.0172345882828
 20
-86.378814823549732
 30
0.0
 40
1.0
  0
CIRCLE
  5
2F4
  8
DATA
  6
CONTINUOUS
 62
     7
 10
286.0172345882828
 20
-89.378814823549718
 30
0.0
 40
1.0
  0
CIRCLE
  5
2F5
  8
DATA
  6
CONTINUOUS
 62
     7
 10
286.0172345882828
 20
-92.378814823549689
 30
0.0
 40
1.0
  0
CIRCLE
  5
2F6
  8
DATA
  6
CONTINUOUS
 62
     7
 10
286.0172345882828
 20
-95.378814823549703
 30
0.0
 40
1.0
  0
CIRCLE
  5
2F7
  8
DATA
  6
CONTINUOUS
 62
     7
 10
286.0172345882828
 20
-98.378814823549703
 30
0.0
 40
1.0
  0
ARC
  5
2F8
  8
DATA
  6
CONTINUOUS
 62
     7
 10
286.0172345882828
 20
-101.3788148235497
 30
0.0
 40
0.9999999999999996
 50
38.962736394945502
 51
141.03726360505459
  0
CIRCLE
  5
2F9
  8
DATA
  6
CONTINUOUS
 62
     7
 10
289.0172345882828
 20
-77.378814823549732
 30
0.0
 40
1.0
  0
CIRCLE
  5
2FA
  8
DATA
  6
CONTINUOUS
 62
     7
 10
289.0172345882828
 20
-80.378814823549746
 30
0.0
 40
1.0
  0
CIRCLE
  5
2FB
  8
DATA
  6
CONTINUOUS
 62
     7
 10
289.0172345882828
 20
-83.378814823549732
 30
0.0
 40
1.0
  0
CIRCLE
  5
2FC
  8
DATA
  6
CONTINUOUS
 62
     7
 10
289.0172345882828
 20
-86.378814823549732
 30
0.0
 40
1.0
  0
CIRCLE
  5
2FD
  8
DATA
  6
CONTINUOUS
 62
     7
 10
289.0172345882828
 20
-89.378814823549718
 30
0.0
 40
1.0
  0
CIRCLE
  5
2FE
  8
DATA
  6
CONTINUOUS
 62
     7
 10
289.0172345882828
 20
-92.378814823549689
 30
0.0
 40
1.0
  0
CIRCLE
  5
2FF
  8
DATA
  6
CONTINUOUS
 62
     7
 10
289.0172345882828
 20
-95.378814823549703
 30
0.0
 40
1.0
  0
CIRCLE
  5
300
  8
DATA
  6
CONTINUOUS
 62
     7
 10
289.0172345882828
 20
-98.378814823549703
 30
0.0
 40
1.0
  0
ARC
  5
301
  8
DATA
  6
CONTINUOUS
 62
     7
 10
289.0172345882828
 20
-101.3788148235497
 30
0.0
 40
0.9999999999999996
 50
38.962736394945502
 51
141.03726360505459
  0
CIRCLE
  5
302
  8
DATA
  6
CONTINUOUS
 62
     7
 10
292.0172345882828
 20
-77.378814823549732
 30
0.0
 40
1.0
  0
CIRCLE
  5
303
  8
DATA
  6
CONTINUOUS
 62
     7
 10
292.0172345882828
 20
-80.378814823549746
 30
0.0
 40
1.0
  0
CIRCLE
  5
304
  8
DATA
  6
CONTINUOUS
 62
     7
 10
292.0172345882828
 20
-83.378814823549732
 30
0.0
 40
1.0
  0
CIRCLE
  5
305
  8
DATA
  6
CONTINUOUS
 62
     7
 10
292.0172345882828
 20
-86.378814823549732
 30
0.0
 40
1.0
  0
CIRCLE
  5
306
  8
DATA
  6
CONTINUOUS
 62
     7
 10
292.0172345882828
 20
-89.378814823549718
 30
0.0
 40
1.0
  0
CIRCLE
  5
307
  8
DATA
  6
CONTINUOUS
 62
     7
 10
292.0172345882828
 20
-92.378814823549689
 30
0.0
 40
1.0
  0
CIRCLE
  5
308
  8
DATA
  6
CONTINUOUS
 62
     7
 10
292.0172345882828
 20
-95.378814823549703
 30
0.0
 40
1.0
  0
CIRCLE
  5
309
  8
DATA
  6
CONTINUOUS
 62
     7
 10
292.0172345882828
 20
-98.378814823549703
 30
0.0
 40
1.0
  0
ARC
  5
30A
  8
DATA
  6
CONTINUOUS
 62
     7
 10
292.0172345882828
 20
-101.3788148235497
 30
0.0
 40
0.9999999999999996
 50
38.962736394945502
 51
141.03726360505459
  0
CIRCLE
  5
30B
  8
DATA
  6
CONTINUOUS
 62
     7
 10
295.0172345882828
 20
-77.378814823549732
 30
0.0
 40
1.0
  0
CIRCLE
  5
30C
  8
DATA
  6
CONTINUOUS
 62
     7
 10
295.0172345882828
 20
-80.378814823549746
 30
0.0
 40
1.0
  0
CIRCLE
  5
30D
  8
DATA
  6
CONTINUOUS
 62
     7
 10
295.0172345882828
 20
-83.378814823549732
 30
0.0
 40
1.0
  0
CIRCLE
  5
30E
  8
DATA
  6
CONTINUOUS
 62
     7
 10
295.0172345882828
 20
-86.378814823549732
 30
0.0
 40
1.0
  0
CIRCLE
  5
30F
  8
DATA
  6
CONTINUOUS
 62
     7
 10
295.0172345882828
 20
-89.378814823549718
 30
0.0
 40
1.0
  0
CIRCLE
  5
310
  8
DATA
  6
CONTINUOUS
 62
     7
 10
295.0172345882828
 20
-92.378814823549689
 30
0.0
 40
1.0
  0
CIRCLE
  5
311
  8
DATA
  6
CONTINUOUS
 62
     7
 10
295.0172345882828
 20
-95.378814823549703
 30
0.0
 40
1.0
  0
CIRCLE
  5
312
  8
DATA
  6
CONTINUOUS
 62
     7
 10
295.0172345882828
 20
-98.378814823549703
 30
0.0
 40
1.0
  0
ARC
  5
313
  8
DATA
  6
CONTINUOUS
 62
     7
 10
295.0172345882828
 20
-101.3788148235497
 30
0.0
 40
0.9999999999999996
 50
38.962736394945502
 51
141.03726360505459
  0
CIRCLE
  5
314
  8
DATA
  6
CONTINUOUS
 62
     7
 10
298.0172345882828
 20
-77.378814823549732
 30
0.0
 40
1.0
  0
CIRCLE
  5
315
  8
DATA
  6
CONTINUOUS
 62
     7
 10
298.0172345882828
 20
-80.378814823549746
 30
0.0
 40
1.0
  0
CIRCLE
  5
316
  8
DATA
  6
CONTINUOUS
 62
     7
 10
298.0172345882828
 20
-83.378814823549732
 30
0.0
 40
1.0
  0
CIRCLE
  5
317
  8
DATA
  6
CONTINUOUS
 62
     7
 10
298.0172345882828
 20
-86.378814823549732
 30
0.0
 40
1.0
  0
CIRCLE
  5
318
  8
DATA
  6
CONTINUOUS
 62
     7
 10
298.0172345882828
 20
-89.378814823549718
 30
0.0
 40
1.0
  0
CIRCLE
  5
319
  8
DATA
  6
CONTINUOUS
 62
     7
 10
298.0172345882828
 20
-92.378814823549689
 30
0.0
 40
1.0
  0
CIRCLE
  5
31A
  8
DATA
  6
CONTINUOUS
 62
     7
 10
298.0172345882828
 20
-95.378814823549703
 30
0.0
 40
1.0
  0
CIRCLE
  5
31B
  8
DATA
  6
CONTINUOUS
 62
     7
 10
298.0172345882828
 20
-98.378814823549703
 30
0.0
 40
1.0
  0
ARC
  5
31C
  8
DATA
  6
CONTINUOUS
 62
     7
 10
298.0172345882828
 20
-101.3788148235497
 30
0.0
 40
0.9999999999999996
 50
38.962736394945502
 51
141.03726360505459
  0
ARC
  5
31D
  8
DATA
  6
CONTINUOUS
 62
     7
 10
301.0172345882828
 20
-77.378814823549732
 30
0.0
 40
1.00000000000001
 50
106.00440549134041
 51
283.45993796132979
  0
ARC
  5
31E
  8
DATA
  6
CONTINUOUS
 62
     7
 10
301.0172345882828
 20
-80.378814823549746
 30
0.0
 40
1.000000000000002
 50
76.540062038670229
 51
283.45993796132979
  0
ARC
  5
31F
  8
DATA
  6
CONTINUOUS
 62
     7
 10
301.0172345882828
 20
-83.378814823549732
 30
0.0
 40
1.000000000000002
 50
76.540062038670229
 51
283.45993796132979
  0
ARC
  5
320
  8
DATA
  6
CONTINUOUS
 62
     7
 10
301.0172345882828
 20
-86.378814823549732
 30
0.0
 40
1.000000000000002
 50
76.540062038670229
 51
283.45993796132979
  0
ARC
  5
321
  8
DATA
  6
CONTINUOUS
 62
     7
 10
301.0172345882828
 20
-89.378814823549718
 30
0.0
 40
1.000000000000002
 50
76.540062038670229
 51
283.45993796132979
  0
ARC
  5
322
  8
DATA
  6
CONTINUOUS
 62
     7
 10
301.0172345882828
 20
-92.378814823549689
 30
0.0
 40
1.000000000000002
 50
76.540062038670229
 51
283.45993796132979
  0
ARC
  5
323
  8
DATA
  6
CONTINUOUS
 62
     7
 10
301.0172345882828
 20
-95.378814823549703
 30
0.0
 40
1.000000000000002
 50
76.540062038670229
 51
283.45993796132979
  0
ARC
  5
324
  8
DATA
  6
CONTINUOUS
 62
     7
 10
301.0172345882828
 20
-98.378814823549703
 30
0.0
 40
1.000000000000002
 50
76.540062038670229
 51
277.71924614469049
  0
LINE
  5
325
  8
DATA
  6
CONTINUOUS
 62
     7
 10
322.25
 20
-118.75
 30
0.0
 11
322.25
 21
-58.75
 31
0.0
  0
CIRCLE
  5
326
  8
DATA
  6
CONTINUOUS
 62
     7
 10
317.75
 20
-71.816353136372641
 30
0.0
 40
2.5000000000000062
  0
LINE
  5
327
  8
DATA
  6
CONTINUOUS
 62
     7
 10
318.18892246894302
 20
-73.454434091051425
 30
0.0
 11
317.31107753105698
 21
-70.178272181693899
 31
0.0
  0
LINE
  5
328
  8
DATA
  6
CONTINUOUS
 62
     7
 10
319.36965317040767
 20
-71.31367455576131
 30
0.0
 11
316.09599991880111
 21
-72.190847300828835
 31
0.0
  0
CIRCLE
  5
329
  8
DATA
  6
CONTINUOUS
 62
     7
 10
317.75
 20
-106.8163531363726
 30
0.0
 40
2.5000000000000062
  0
LINE
  5
32A
  8
DATA
  6
CONTINUOUS
 62
     7
 10
318.18892246894302
 20
-108.4544340910514
 30
0.0
 11
317.31107753105698
 21
-105.1782721816939
 31
0.0
  0
LINE
  5
32B
  8
DATA
  6
CONTINUOUS
 62
     7
 10
319.36965317040767
 20
-106.3136745557613
 30
0.0
 11
316.09599991880111
 21
-107.19084730082881
 31
0.0
  0
LINE
  5
32C
  8
DATA
  6
CONTINUOUS
 62
     7
 10
-20.40000000000002
 20
156.0
 30
0.0
 11
-12.10000000000001
 21
156.0
 31
0.0
  0
LINE
  5
32D
  8
DATA
  6
CONTINUOUS
 62
     7
 10
-6.400000000000019
 20
156.0
 30
0.0
 11
1.899999999999991
 21
156.0
 31
0.0
  0
LINE
  5
32E
  8
DATA
  6
CONTINUOUS
 62
     7
 10
9.5999999999999801
 20
156.0
 30
0.0
 11
17.899999999999991
 21
156.0
 31
0.0
  0
LINE
  5
32F
  8
DATA
  6
CONTINUOUS
 62
     7
 10
23.59999999999998
 20
156.0
 30
0.0
 11
31.899999999999991
 21
156.0
 31
0.0
  0
LINE
  5
330
  8
DATA
  6
CONTINUOUS
 62
     7
 10
-20.40000000000002
 20
156.0
 30
0.0
 11
-20.40000000000002
 21
149.0
 31
0.0
  0
LINE
  5
331
  8
DATA
  6
CONTINUOUS
 62
     7
 10
-12.10000000000001
 20
156.0
 30
0.0
 11
-12.10000000000001
 21
149.0
 31
0.0
  0
LINE
  5
332
  8
DATA
  6
CONTINUOUS
 62
     7
 10
-6.400000000000019
 20
156.0
 30
0.0
 11
-6.400000000000019
 21
149.0
 31
0.0
  0
LINE
  5
333
  8
DATA
  6
CONTINUOUS
 62
     7
 10
1.899999999999991
 20
156.0
 30
0.0
 11
1.899999999999991
 21
149.0
 31
0.0
  0
LINE
  5
334
  8
DATA
  6
CONTINUOUS
 62
     7
 10
9.5999999999999801
 20
156.0
 30
0.0
 11
9.5999999999999801
 21
149.0
 31
0.0
  0
LINE
  5
335
  8
DATA
  6
CONTINUOUS
 62
     7
 10
17.899999999999991
 20
156.0
 30
0.0
 11
17.899999999999991
 21
149.0
 31
0.0
  0
LINE
  5
336
  8
DATA
  6
CONTINUOUS
 62
     7
 10
23.59999999999998
 20
156.0
 30
0.0
 11
23.59999999999998
 21
149.0
 31
0.0
  0
LINE
  5
337
  8
DATA
  6
CONTINUOUS
 62
     7
 10
31.899999999999991
 20
156.0
 30
0.0
 11
31.899999999999991
 21
149.0
 31
0.0
  0
LINE
  5
338
  8
DATA
  6
CONTINUOUS
 62
     7
 10
-70.40000000000002
 20
156.0
 30
0.0
 11
-70.40000000000002
 21
149.0
 31
0.0
  0
LINE
  5
339
  8
DATA
  6
CONTINUOUS
 62
     7
 10
-62.100000000000001
 20
156.0
 30
0.0
 11
-62.100000000000001
 21
149.0
 31
0.0
  0
LINE
  5
33A
  8
DATA
  6
CONTINUOUS
 62
     7
 10
-42.40000000000002
 20
156.0
 30
0.0
 11
-42.40000000000002
 21
149.0
 31
0.0
  0
LINE
  5
33B
  8
DATA
  6
CONTINUOUS
 62
     7
 10
-34.100000000000009
 20
156.0
 30
0.0
 11
-34.100000000000009
 21
149.0
 31
0.0
  0
LINE
  5
33C
  8
DATA
  6
CONTINUOUS
 62
     7
 10
-34.100000000000009
 20
156.0
 30
0.0
 11
-42.40000000000002
 21
156.0
 31
0.0
  0
LINE
  5
33D
  8
DATA
  6
CONTINUOUS
 62
     7
 10
-62.100000000000001
 20
156.0
 30
0.0
 11
-70.40000000000002
 21
156.0
 31
0.0
  0
LINE
  5
33E
  8
DATA
  6
CONTINUOUS
 62
     7
 10
-84.038387679126004
 20
154.0
 30
0.0
 11
-84.038387679126004
 21
149.0
 31
0.0
  0
LINE
  5
33F
  8
DATA
  6
CONTINUOUS
 62
     7
 10
-78.461612320873954
 20
154.0
 30
0.0
 11
-78.461612320873954
 21
149.0
 31
0.0
  0
LINE
  5
340
  8
DATA
  6
CONTINUOUS
 62
     7
 10
-62.038387679126032
 20
154.0
 30
0.0
 11
-62.038387679126032
 21
149.0
 31
0.0
  0
LINE
  5
341
  8
DATA
  6
CONTINUOUS
 62
     7
 10
-56.461612320873947
 20
154.0
 30
0.0
 11
-56.461612320873947
 21
149.0
 31
0.0
  0
LINE
  5
342
  8
DATA
  6
CONTINUOUS
 62
     7
 10
-40.038387679126011
 20
154.0
 30
0.0
 11
-40.038387679126011
 21
149.0
 31
0.0
  0
LINE
  5
343
  8
DATA
  6
CONTINUOUS
 62
     7
 10
-34.461612320873947
 20
154.0
 30
0.0
 11
-34.461612320873947
 21
149.0
 31
0.0
  0
LINE
  5
344
  8
DATA
  6
CONTINUOUS
 62
     7
 10
-84.038387679126004
 20
154.0
 30
0.0
 11
-78.461612320873954
 21
154.0
 31
0.0
  0
LINE
  5
345
  8
DATA
  6
CONTINUOUS
 62
     7
 10
-62.038387679126032
 20
154.0
 30
0.0
 11
-56.461612320873947
 21
154.0
 31
0.0
  0
LINE
  5
346
  8
DATA
  6
CONTINUOUS
 62
     7
 10
-40.038387679126011
 20
154.0
 30
0.0
 11
-34.461612320873947
 21
154.0
 31
0.0
  0
LINE
  5
347
  8
DATA
  6
CONTINUOUS
 62
     7
 10
42.964414213364968
 20
153.5
 30
0.0
 11
47.640951393800918
 21
153.5
 31
0.0
  0
LINE
  5
348
  8
DATA
  6
CONTINUOUS
 62
     7
 10
50.005202746142842
 20
153.5
 30
0.0
 11
65.616946013771013
 21
153.5
 31
0.0
  0
LINE
  5
349
  8
DATA
  6
CONTINUOUS
 62
     7
 10
67.964414213364961
 20
153.5
 30
0.0
 11
72.640951393800904
 21
153.5
 31
0.0
  0
LINE
  5
34A
  8
DATA
  6
CONTINUOUS
 62
     7
 10
72.640951393800904
 20
153.5
 30
0.0
 11
72.640951393800904
 21
149.0
 31
0.0
  0
LINE
  5
34B
  8
DATA
  6
CONTINUOUS
 62
     7
 10
65.616946013771013
 20
153.5
 30
0.0
 11
65.616946013771013
 21
149.0
 31
0.0
  0
LINE
  5
34C
  8
DATA
  6
CONTINUOUS
 62
     7
 10
47.640951393800918
 20
153.5
 30
0.0
 11
47.640951393800918
 21
149.0
 31
0.0
  0
LINE
  5
34D
  8
DATA
  6
CONTINUOUS
 62
     7
 10
67.964414213364961
 20
153.5
 30
0.0
 11
67.964414213364961
 21
149.0
 31
0.0
  0
LINE
  5
34E
  8
DATA
  6
CONTINUOUS
 62
     7
 10
42.964414213364968
 20
153.5
 30
0.0
 11
42.964414213364968
 21
149.0
 31
0.0
  0
LINE
  5
34F
  8
DATA
  6
CONTINUOUS
 62
     7
 10
50.005202746142842
 20
153.5
 30
0.0
 11
50.005202746142842
 21
149.0
 31
0.0
  0
LINE
  5
350
  8
DATA
  6
CONTINUOUS
 62
     7
 10
337.25
 20
-101.89999999999981
 30
0.0
 11
337.25
 21
-93.599999999999852
 31
0.0
  0
LINE
  5
351
  8
DATA
  6
CONTINUOUS
 62
     7
 10
337.25
 20
-87.899999999999807
 30
0.0
 11
337.25
 21
-79.599999999999852
 31
0.0
  0
LINE
  5
352
  8
DATA
  6
CONTINUOUS
 62
     7
 10
337.25
 20
-79.599999999999852
 30
0.0
 11
330.25
 21
-79.599999999999852
 31
0.0
  0
LINE
  5
353
  8
DATA
  6
CONTINUOUS
 62
     7
 10
337.25
 20
-87.899999999999807
 30
0.0
 11
330.25
 21
-87.899999999999807
 31
0.0
  0
LINE
  5
354
  8
DATA
  6
CONTINUOUS
 62
     7
 10
337.25
 20
-93.599999999999852
 30
0.0
 11
330.25
 21
-93.599999999999852
 31
0.0
  0
LINE
  5
355
  8
DATA
  6
CONTINUOUS
 62
     7
 10
337.25
 20
-101.89999999999981
 30
0.0
 11
330.25
 21
-101.89999999999981
 31
0.0
  0
LINE
  5
356
  8
DATA
  6
CONTINUOUS
 62
     7
 10
335.25
 20
-71.195137686766998
 30
0.0
 11
330.25
 21
-71.195137686766998
 31
0.0
  0
LINE
  5
357
  8
DATA
  6
CONTINUOUS
 62
     7
 10
335.25
 20
-76.771913045019062
 30
0.0
 11
330.25
 21
-76.771913045019062
 31
0.0
  0
LINE
  5
358
  8
DATA
  6
CONTINUOUS
 62
     7
 10
335.25
 20
-76.771913045019062
 30
0.0
 11
335.25
 21
-71.195137686766998
 31
0.0
  0
LINE
  5
359
  8
DATA
  6
CONTINUOUS
 62
     7
 10
335.25
 20
-101.73215720006149
 30
0.0
 11
335.25
 21
-93.732157200061906
 31
0.0
  0
LINE
  5
35A
  8
DATA
  6
CONTINUOUS
 62
     7
 10
335.25
 20
-95.032157200061874
 30
0.0
 11
330.25
 21
-95.032157200061874
 31
0.0
  0
LINE
  5
35B
  8
DATA
  6
CONTINUOUS
 62
     7
 10
335.25
 20
-100.4321572000614
 30
0.0
 11
330.25
 21
-100.4321572000614
 31
0.0
  0
LINE
  5
35C
  8
DATA
  6
CONTINUOUS
 62
     7
 10
335.25
 20
-93.732157200061906
 30
0.0
 11
330.25
 21
-93.732157200061906
 31
0.0
  0
LINE
  5
35D
  8
DATA
  6
CONTINUOUS
 62
     7
 10
335.25
 20
-101.73215720006149
 30
0.0
 11
330.25
 21
-101.73215720006149
 31
0.0
  0
LINE
  5
35E
  8
DATA
  6
CONTINUOUS
 62
     7
 10
-101.25
 20
147.5
 30
0.0
 11
120.75
 21
147.5
 31
0.0
  0
LINE
  5
35F
  8
DATA
  6
CONTINUOUS
 62
     7
 10
120.75
 20
-23.5
 30
0.0
 11
-101.25
 21
-23.5
 31
0.0
  0
LINE
  5
360
  8
DATA
  6
CONTINUOUS
 62
     7
 10
-104.75
 20
-20.0
 30
0.0
 11
-104.75
 21
144.0
 31
0.0
  0
LINE
  5
361
  8
DATA
  6
CONTINUOUS
 62
     7
 10
124.25
 20
144.0
 30
0.0
 11
124.25
 21
-20.0
 31
0.0
  0
LINE
  5
362
  8
DATA
  6
CONTINUOUS
 62
     7
 10
-101.25
 20
-25.0
 30
0.0
 11
-101.25
 21
-23.5
 31
0.0
  0
LINE
  5
363
  8
DATA
  6
CONTINUOUS
 62
     7
 10
-101.25
 20
147.5
 30
0.0
 11
-101.25
 21
149.0
 31
0.0
  0
LINE
  5
364
  8
DATA
  6
CONTINUOUS
 62
     7
 10
120.75
 20
149.0
 30
0.0
 11
120.75
 21
147.5
 31
0.0
  0
LINE
  5
365
  8
DATA
  6
CONTINUOUS
 62
     7
 10
120.7499999999999
 20
-23.5
 30
0.0
 11
120.7499999999999
 21
-25.0
 31
0.0
  0
LINE
  5
366
  8
DATA
  6
CONTINUOUS
 62
     7
 10
125.75
 20
-20.0
 30
0.0
 11
124.25
 21
-20.0
 31
0.0
  0
LINE
  5
367
  8
DATA
  6
CONTINUOUS
 62
     7
 10
-104.75
 20
-20.0
 30
0.0
 11
-106.25
 21
-20.0
 31
0.0
  0
LINE
  5
368
  8
DATA
  6
CONTINUOUS
 62
     7
 10
-106.25
 20
144.0
 30
0.0
 11
-104.75
 21
144.0
 31
0.0
  0
LINE
  5
369
  8
DATA
  6
CONTINUOUS
 62
     7
 10
124.25
 20
144.0
 30
0.0
 11
125.75
 21
144.0
 31
0.0
  0
ENDSEC
  0
EOF
